999
DXF file: E:\BT Custom\CADOUTPUT\_RIGHT.dxf
999
Pro/ENGINEER 2018400 by Parametric Technology Corporation
  0
SECTION
  2
HEADER
  9
$ACADVER
  1
AC1018
  9
$DWGCODEPAGE
  3
ANSI_1252
  9
$EXTMAX
 10
22.0
 20
17.0
 30
0.0
  9
$EXTMIN
 10
0.0
 20
0.0
 30
0.0
  9
$LIMMIN
 10
0.0
 20
0.0
  9
$LIMMAX
 10
22.0
 20
17.0
  9
$VIEWCTR
 10
11.0
 20
8.5
  9
$VIEWSIZE
 40
17.0
  9
$CLAYER
  8
0
  9
$LTSCALE
 40
1.21
  9
$CELTYPE
  6
BYLAYER
  9
$DIMSCALE
 40
1.0
  9
$DIMASZ
 40
0.1
  9
$DIMEXO
 40
0.0625
  9
$DIMDLI
 40
0.836
  9
$DIMEXE
 40
0.125
  9
$DIMCEN
 40
0.198
  9
$DIMLFAC
 40
1.0
  9
$DIMBLK
  1
_FILLED
  9
$DIMALT
 70
1
  9
$DIMALTD
 70
2
  9
$DIMALTTD
 70
2
  9
$DIMALTF
 40
25.4
  9
$DIMTXT
 40
0.08
  9
$DIMTOL
 70
1
  9
$DIMLIM
 70
0
  9
$DIMTFAC
 40
1.0
  9
$DIMTP
 40
0.001
  9
$DIMTM
 40
0.001
  9
$DIMGAP
 40
0.09
  9
$DIMDSEP
 70
46
  9
$AUNITS
 70
0
  9
$PDMODE
 70
3
  9
$PDSIZE
 40
0.06
  9
$HANDSEED
  5
38D
  9
$TILEMODE
 70
1
  9
$MEASUREMENT
 70
0
  9
$INSUNITS
 70
1
  0
ENDSEC
  0
SECTION
  2
CLASSES
  0
CLASS
  1
ACDBDICTIONARYWDFLT
  2
AcDbDictionaryWithDefault
  3
AutoCAD 2000
 90
0
 91
1
280
0
281
0
  0
CLASS
  1
ACDBPLACEHOLDER
  2
AcDbPlaceHolder
  3
AutoCAD 2000
 90
0
 91
1
280
0
281
0
  0
CLASS
  1
LAYOUT
  2
AcDbLayout
  3
AutoCAD 2000
 90
0
 91
0
280
0
281
0
  0
ENDSEC
  0
SECTION
  2
TABLES
  0
TABLE
  2
VPORT
  5
8
100
AcDbSymbolTable
 70
2
  0
VPORT
  5
1F4
100
AcDbSymbolTableRecord
100
AcDbViewportTableRecord
  2
*ACTIVE
 70
0
 10
0.0
 20
0.0
 11
1.0
 21
1.0
 12
11.0
 22
8.5
 13
0.0
 23
0.0
 14
1.0
 24
1.0
 15
0.0
 25
0.0
 16
0.0
 26
0.0
 36
1.0
 17
0.0
 27
0.0
 37
0.0
 40
17.0
 41
1.2941176471
 42
50.0
 43
0.0
 44
0.0
 50
0.0
 51
0.0
 71
0
 72
100
 73
1
 74
1
 75
0
 76
0
 77
0
 78
0
  0
ENDTAB
  0
TABLE
  2
LTYPE
  5
5
100
AcDbSymbolTable
 70
6
  0
LTYPE
  5
14
100
AcDbSymbolTableRecord
100
AcDbLinetypeTableRecord
  2
BYBLOCK
 70
0
  3

 72
65
 73
0
 40
0.0
  0
LTYPE
  5
15
100
AcDbSymbolTableRecord
100
AcDbLinetypeTableRecord
  2
BYLAYER
 70
0
  3

 72
65
 73
0
 40
0.0
  0
LTYPE
  5
16
100
AcDbSymbolTableRecord
100
AcDbLinetypeTableRecord
  2
CONTINUOUS
 70
64
  3
Solid line
 72
65
 73
0
 40
0.0
  0
LTYPE
  5
1F5
100
AcDbSymbolTableRecord
100
AcDbLinetypeTableRecord
  2
CENTER
 70
64
  3
____ _ ____ _ ____ _ ____ _ ____ _ ____ _ ____
 72
65
 73
4
 40
0.6
 49
0.375
 74
0
 49
-0.075
 74
0
 49
0.075
 74
0
 49
-0.075
 74
0
  0
LTYPE
  5
1F6
100
AcDbSymbolTableRecord
100
AcDbLinetypeTableRecord
  2
HIDDEN
 70
64
  3
- - - - - - - - - - - - - - - - - - - -
 72
65
 73
2
 40
0.2
 49
0.1
 74
0
 49
-0.1
 74
0
  0
LTYPE
  5
1F7
100
AcDbSymbolTableRecord
100
AcDbLinetypeTableRecord
  2
PHANTOM
 70
64
  3
_____ _ _ _____ _ _ _____ _ _ _____
 72
65
 73
6
 40
0.8
 49
0.45
 74
0
 49
-0.05
 74
0
 49
0.1
 74
0
 49
-0.05
 74
0
 49
0.1
 74
0
 49
-0.05
 74
0
  0
LTYPE
  5
1F8
100
AcDbSymbolTableRecord
100
AcDbLinetypeTableRecord
  2
DOT
 70
64
  3
. . . . . . . . . . . . . . . . . . . .
 72
65
 73
2
 40
0.2
 49
0.1
 74
0
 49
-0.1
 74
0
  0
LTYPE
  5
1F9
100
AcDbSymbolTableRecord
100
AcDbLinetypeTableRecord
  2
DASHED
 70
64
  3
- - - - - - - - - - - - - - - - - - - -
 72
65
 73
2
 40
0.2
 49
0.1
 74
0
 49
-0.1
 74
0
  0
ENDTAB
  0
TABLE
  2
LAYER
  5
2
100
AcDbSymbolTable
 70
36
  0
LAYER
  5
10
100
AcDbSymbolTableRecord
100
AcDbLayerTableRecord
  2
0
 70
0
 62
7
  6
CONTINUOUS
370
-3
390
F
  0
LAYER
  5
1FA
100
AcDbSymbolTableRecord
100
AcDbLayerTableRecord
  2
DEFAULT_1
 70
0
 62
7
  6
CENTER
370
-3
390
F
  0
LAYER
  5
1FB
100
AcDbSymbolTableRecord
100
AcDbLayerTableRecord
  2
DEFAULT_2
 70
0
 62
8
  6
HIDDEN
370
-3
390
F
  0
LAYER
  5
1FC
100
AcDbSymbolTableRecord
100
AcDbLayerTableRecord
  2
DEFAULT_3
 70
0
 62
7
  6
PHANTOM
370
-3
390
F
  0
LAYER
  5
1FD
100
AcDbSymbolTableRecord
100
AcDbLayerTableRecord
  2
ALL_FEATURES
 70
0
 62
7
  6
CONTINUOUS
370
-3
390
F
  0
LAYER
  5
1FE
100
AcDbSymbolTableRecord
100
AcDbLayerTableRecord
  2
AXES_FEATURES
 70
0
 62
7
  6
CONTINUOUS
370
-3
390
F
  0
LAYER
  5
1FF
100
AcDbSymbolTableRecord
100
AcDbLayerTableRecord
  2
DIMENSIONS
 70
0
 62
7
  6
CONTINUOUS
370
-3
390
F
  0
ENDTAB
  0
TABLE
  2
STYLE
  5
3
100
AcDbSymbolTable
 70
1
  0
STYLE
  5
11
100
AcDbSymbolTableRecord
100
AcDbTextStyleTableRecord
  2
STANDARD
 70
0
 40
0.0
 41
0.8
 50
0.0
 71
0
 42
0.2
  3
txt
  4

  0
STYLE
  5
200
100
AcDbSymbolTableRecord
100
AcDbTextStyleTableRecord
  2
TEXTSTYLE_1
 70
0
 40
0.0
 41
0.8
 50
0.0
 71
0
 42
0.2
  3
gdt
  4

  0
ENDTAB
  0
TABLE
  2
VIEW
  5
6
100
AcDbSymbolTable
 70
0
  0
ENDTAB
  0
TABLE
  2
UCS
  5
7
100
AcDbSymbolTable
 70
0
  0
ENDTAB
  0
TABLE
  2
APPID
  5
9
100
AcDbSymbolTable
 70
1
  0
APPID
  5
201
100
AcDbSymbolTableRecord
100
AcDbRegAppTableRecord
  2
ACAD
 70
0
  0
ENDTAB
  0
TABLE
  2
BLOCK_RECORD
  5
1
100
AcDbSymbolTable
 70
0
  0
BLOCK_RECORD
  5
202
100
AcDbSymbolTableRecord
100
AcDbBlockTableRecord
  2
*Model_Space
  0
BLOCK_RECORD
  5
203
100
AcDbSymbolTableRecord
100
AcDbBlockTableRecord
  2
*Paper_Space
  0
BLOCK_RECORD
  5
204
100
AcDbSymbolTableRecord
100
AcDbBlockTableRecord
  2
_FILLED
  0
ENDTAB
  0
TABLE
  2
DIMSTYLE
  5
A
100
AcDbSymbolTable
 70
1
100
AcDbDimStyleTable
 71
0
  0
DIMSTYLE
105
205
100
AcDbSymbolTableRecord
100
AcDbDimStyleTableRecord
  2
STANDARD
 70
0
  3

  4

 40
1.0
 41
0.1
 42
0.0625
 43
0.38
 44
0.125
 45
0.0
 46
0.0
 47
0.001
 48
0.001
140
0.08
141
0.09
142
0.0
143
25.4
144
1.0
145
0.0
146
1.0
147
0.09
 71
1.0
 72
0.0
 73
1
 74
1
 75
0
 76
0
 77
0
 78
4
 79
1
170
1
171
2
172
0
173
0
174
0
175
0
176
0
177
0
178
0
270
2
179
3
271
3
272
3
273
2
274
2
275
0
280
0
281
0
282
0
283
1
284
4
285
0
286
0
287
3
288
0
340
11
278
46
341
204
342
204
343
204
344
204
  0
ENDTAB
  0
ENDSEC
  0
SECTION
  2
BLOCKS
  0
BLOCK
  5
20
100
AcDbEntity
  8
0
100
AcDbBlockBegin
  2
*Model_Space
 70
0
 10
0.0
 20
0.0
 30
0.0
  3
*Model_Space
  1

  0
ENDBLK
  5
21
100
AcDbEntity
  8
0
100
AcDbBlockEnd
  0
BLOCK
  5
1C
100
AcDbEntity
  8
0
100
AcDbBlockBegin
  2
*Paper_Space
 70
0
 10
0.0
 20
0.0
 30
0.0
  3
*Paper_Space
  1

  0
ENDBLK
  5
1D
100
AcDbEntity
  8
0
100
AcDbBlockEnd
  0
BLOCK
  5
206
100
AcDbEntity
  8
0
100
AcDbBlockBegin
  2
_FILLED
 70
64
 10
0.0
 20
0.0
  3
_FILLED
  1

  0
SOLID
  5
207
100
AcDbEntity
  8
0
  6
BYBLOCK
 62
0
100
AcDbTrace
 10
0.0
 20
0.0
 11
-1.0
 21
0.2
 12
-1.0
 22
-0.2
 13
-1.0
 23
-0.2
  0
ENDBLK
  5
208
100
AcDbEntity
  8
0
  6
BYBLOCK
 62
0
100
AcDbBlockEnd
  0
ENDSEC
  0
SECTION
  2
ENTITIES
  0
LINE
  5
209
100
AcDbEntity
  8
0
100
AcDbLine
 62
7
  6
CONTINUOUS
 10
-0.4150822745
 20
7.244891804
 11
-0.4150822745
 21
7.324891804
  0
LINE
  5
20A
100
AcDbEntity
  8
0
100
AcDbLine
 62
7
  6
CONTINUOUS
 10
0.5099177255
 20
7.244891804
 11
0.5099177255
 21
7.324891804
  0
LINE
  5
20B
100
AcDbEntity
  8
0
100
AcDbLine
 62
7
  6
CONTINUOUS
 10
3.3974177255
 20
6.784891804
 11
3.3974177255
 21
6.744891804
  0
LINE
  5
20C
100
AcDbEntity
  8
0
100
AcDbLine
 62
7
  6
CONTINUOUS
 10
3.4774177255
 20
6.8429060574
 11
3.4774177255
 21
6.824891804
  0
LINE
  5
20D
100
AcDbEntity
  8
0
100
AcDbLine
 62
7
  6
CONTINUOUS
 10
3.4964177255
 20
7.578891804
 11
3.4964177255
 21
7.541891804
  0
LINE
  5
20E
100
AcDbEntity
  8
0
100
AcDbLine
 62
7
  6
CONTINUOUS
 10
3.5949177255
 20
7.706891804
 11
3.5949177255
 21
7.658891804
  0
LINE
  5
20F
100
AcDbEntity
  8
0
100
AcDbLine
 62
7
  6
CONTINUOUS
 10
3.5949177255
 20
7.461891804
 11
3.5949177255
 21
7.4130796126
  0
LINE
  5
210
100
AcDbEntity
  8
0
100
AcDbLine
 62
7
  6
CONTINUOUS
 10
3.9574177255
 20
7.064891804
 11
3.9574177255
 21
6.994891804
  0
LINE
  5
211
100
AcDbEntity
  8
0
100
AcDbLine
 62
7
  6
CONTINUOUS
 10
4.1374177255
 20
7.064891804
 11
4.1374177255
 21
6.994891804
  0
LINE
  5
212
100
AcDbEntity
  8
0
100
AcDbLine
 62
7
  6
CONTINUOUS
 10
4.4999177255
 20
7.706891804
 11
4.4999177255
 21
7.658891804
  0
LINE
  5
213
100
AcDbEntity
  8
0
100
AcDbLine
 62
7
  6
CONTINUOUS
 10
4.4999177255
 20
7.461891804
 11
4.4999177255
 21
7.4130796126
  0
LINE
  5
214
100
AcDbEntity
  8
0
100
AcDbLine
 62
7
  6
CONTINUOUS
 10
4.5984177255
 20
7.578891804
 11
4.5984177255
 21
7.541891804
  0
LINE
  5
215
100
AcDbEntity
  8
0
100
AcDbLine
 62
7
  6
CONTINUOUS
 10
4.6174177255
 20
6.8429060574
 11
4.6174177255
 21
6.824891804
  0
LINE
  5
216
100
AcDbEntity
  8
0
100
AcDbLine
 62
7
  6
CONTINUOUS
 10
4.6974177255
 20
6.784891804
 11
4.6974177255
 21
6.744891804
  0
LINE
  5
217
100
AcDbEntity
  8
0
100
AcDbLine
 62
7
  6
CONTINUOUS
 10
13.1254667697
 20
6.7448922224
 11
13.1253781554
 21
6.7448918013
  0
LINE
  5
218
100
AcDbEntity
  8
0
100
AcDbLine
 62
9
  6
CONTINUOUS
 10
11.115346091
 20
6.7770061607
 11
11.0477275101
 21
6.7769500673
  0
LINE
  5
219
100
AcDbEntity
  8
0
100
AcDbLine
 62
9
  6
CONTINUOUS
 10
12.0474177255
 20
6.7786645441
 11
11.2356461128
 21
6.7784856531
  0
LINE
  5
21A
100
AcDbEntity
  8
0
100
AcDbLine
 62
7
  6
CONTINUOUS
 10
11.0224188418
 20
6.734891804
 11
13.0724166092
 21
6.734891804
  0
LINE
  5
21B
100
AcDbEntity
  8
0
100
AcDbLine
 62
7
  6
CONTINUOUS
 10
-0.7425822936
 20
6.744891804
 11
0.8374177446
 21
6.744891804
  0
LINE
  5
21C
100
AcDbEntity
  8
0
100
AcDbLine
 62
7
  6
CONTINUOUS
 10
3.3974177255
 20
6.744891804
 11
4.6974177255
 21
6.744891804
  0
LINE
  5
21D
100
AcDbEntity
  8
0
100
AcDbLine
 62
7
  6
CONTINUOUS
 10
10.9687481847
 20
6.7448918041
 11
11.1629566208
 21
6.744891804
  0
LINE
  5
21E
100
AcDbEntity
  8
0
100
AcDbLine
 62
7
  6
CONTINUOUS
 10
11.1630395592
 20
6.744891804
 11
12.9317959717
 21
6.744891804
  0
LINE
  5
21F
100
AcDbEntity
  8
0
100
AcDbLine
 62
7
  6
CONTINUOUS
 10
12.9318788978
 20
6.744891804
 11
13.1260872775
 21
6.744891804
  0
LINE
  5
220
100
AcDbEntity
  8
0
100
AcDbLine
 62
7
  6
CONTINUOUS
 10
19.9324177255
 20
6.744891804
 11
22.1624177255
 21
6.744891804
  0
LINE
  5
221
100
AcDbEntity
  8
0
100
AcDbLine
 62
9
  6
CONTINUOUS
 10
12.8591894998
 20
6.778485609
 11
12.0474177255
 21
6.7786645441
  0
LINE
  5
222
100
AcDbEntity
  8
0
100
AcDbLine
 62
9
  6
CONTINUOUS
 10
13.0471079344
 20
6.7769500931
 11
12.9794893518
 21
6.7770061818
  0
LINE
  5
223
100
AcDbEntity
  8
0
100
AcDbLine
 62
9
  6
CONTINUOUS
 10
4.6974177255
 20
6.784891804
 11
3.3974177255
 21
6.784891804
  0
LINE
  5
224
100
AcDbEntity
  8
0
100
AcDbLine
 62
7
  6
CONTINUOUS
 10
4.6574177255
 20
6.824891804
 11
3.4374177255
 21
6.824891804
  0
LINE
  5
225
100
AcDbEntity
  8
0
100
AcDbLine
 62
9
  6
CONTINUOUS
 10
4.6174177255
 20
6.8429060574
 11
3.4774177255
 21
6.8429060574
  0
LINE
  5
226
100
AcDbEntity
  8
0
100
AcDbLine
 62
7
  6
CONTINUOUS
 10
4.5774177255
 20
6.8829060574
 11
3.5174177255
 21
6.8829060574
  0
LINE
  5
227
100
AcDbEntity
  8
0
100
AcDbLine
 62
9
  6
CONTINUOUS
 10
22.1624177255
 20
6.904891804
 11
19.9324177255
 21
6.904891804
  0
LINE
  5
228
100
AcDbEntity
  8
0
100
AcDbLine
 62
7
  6
CONTINUOUS
 10
22.1224177255
 20
6.944891804
 11
19.9724177255
 21
6.944891804
  0
LINE
  5
229
100
AcDbEntity
  8
0
100
AcDbLine
 62
7
  6
CONTINUOUS
 10
4.2474177255
 20
6.994891804
 11
3.8474177255
 21
6.994891804
  0
LINE
  5
22A
100
AcDbEntity
  8
0
100
AcDbLine
 62
7
  6
CONTINUOUS
 10
3.8504177255
 20
7.064891804
 11
4.2444177255
 21
7.064891804
  0
LINE
  5
22B
100
AcDbEntity
  8
0
100
AcDbLine
 62
7
  6
CONTINUOUS
 10
0.5424161891
 20
7.244891804
 11
-0.4475807381
 21
7.244891804
  0
LINE
  5
22C
100
AcDbEntity
  8
0
100
AcDbLine
 62
9
  6
CONTINUOUS
 10
0.5099177255
 20
7.324891804
 11
-0.4150822745
 21
7.324891804
  0
LINE
  5
22D
100
AcDbEntity
  8
0
100
AcDbLine
 62
9
  6
CONTINUOUS
 10
4.4649177255
 20
7.3653826525
 11
3.6299177255
 21
7.3653826525
  0
LINE
  5
22E
100
AcDbEntity
  8
0
100
AcDbLine
 62
9
  6
CONTINUOUS
 10
3.5949177255
 20
7.4130796126
 11
4.4999177255
 21
7.4130796126
  0
LINE
  5
22F
100
AcDbEntity
  8
0
100
AcDbLine
 62
7
  6
CONTINUOUS
 10
3.5764177255
 20
7.461891804
 11
4.5184177255
 21
7.461891804
  0
LINE
  5
230
100
AcDbEntity
  8
0
100
AcDbLine
 62
9
  6
CONTINUOUS
 10
-0.3798703616
 20
7.4889943681
 11
0.4747058125
 21
7.4889943681
  0
LINE
  5
231
100
AcDbEntity
  8
0
100
AcDbLine
 62
7
  6
CONTINUOUS
 10
0.4655810915
 20
7.494891804
 11
-0.3707456405
 21
7.494891804
  0
LINE
  5
232
100
AcDbEntity
  8
0
100
AcDbLine
 62
9
  6
CONTINUOUS
 10
3.4964177255
 20
7.541891804
 11
4.5984177255
 21
7.541891804
  0
LINE
  5
233
100
AcDbEntity
  8
0
100
AcDbLine
 62
9
  6
CONTINUOUS
 10
4.5984177255
 20
7.578891804
 11
3.4964177255
 21
7.578891804
  0
LINE
  5
234
100
AcDbEntity
  8
0
100
AcDbLine
 62
7
  6
CONTINUOUS
 10
4.5184177255
 20
7.658891804
 11
3.5764177255
 21
7.658891804
  0
LINE
  5
235
100
AcDbEntity
  8
0
100
AcDbLine
 62
9
  6
CONTINUOUS
 10
4.4999177255
 20
7.706891804
 11
3.5949177255
 21
7.706891804
  0
LINE
  5
236
100
AcDbEntity
  8
0
100
AcDbLine
 62
7
  6
CONTINUOUS
 10
4.4499177255
 20
7.756891804
 11
3.6449177255
 21
7.756891804
  0
LWPOLYLINE
  5
237
100
AcDbEntity
  8
0
100
AcDbPolyline
 62
7
  6
CONTINUOUS
 90
4
 70
0
 10
11.8785382914
 20
9.2949719509
 10
11.856396106
 20
9.2875218946
 10
11.8364796712
 20
9.2736260032
 10
11.8198945514
 20
9.2539057665
  0
LWPOLYLINE
  5
238
100
AcDbEntity
  8
0
100
AcDbPolyline
 62
7
  6
CONTINUOUS
 90
5
 70
0
 10
11.8999079283
 20
8.4242417538
 10
11.9118540951
 20
8.4251290996
 10
11.9310160296
 20
8.4304422442
 10
11.9490487421
 20
8.4406152573
 10
11.9598950462
 20
8.4499568258
  0
LINE
  5
239
100
AcDbEntity
  8
0
100
AcDbLine
 62
7
  6
CONTINUOUS
 10
12.4014092725
 20
8.359891804
 11
11.6934261785
 21
8.359891804
  0
LINE
  5
23A
100
AcDbEntity
  8
0
100
AcDbLine
 62
7
  6
CONTINUOUS
 10
12.3819177255
 20
8.390891804
 11
11.7129177255
 21
8.390891804
  0
LINE
  5
23B
100
AcDbEntity
  8
0
100
AcDbLine
 62
7
  6
CONTINUOUS
 10
11.8999189925
 20
8.424241621
 11
11.8928778462
 21
8.424241621
  0
LINE
  5
23C
100
AcDbEntity
  8
0
100
AcDbLine
 62
7
  6
CONTINUOUS
 10
12.3819056676
 20
8.470891804
 11
11.9783854846
 21
8.470891804
  0
LINE
  5
23D
100
AcDbEntity
  8
0
100
AcDbLine
 62
7
  6
CONTINUOUS
 10
11.8178930821
 20
8.470891804
 11
11.7129297834
 21
8.470891804
  0
LINE
  5
23E
100
AcDbEntity
  8
0
100
AcDbLine
 62
9
  6
CONTINUOUS
 10
11.8580593088
 20
8.5895288815
 11
11.8496500744
 21
8.5895288671
  0
LINE
  5
23F
100
AcDbEntity
  8
0
100
AcDbLine
 62
7
  6
CONTINUOUS
 10
12.371434753
 20
8.666891804
 11
12.1374787168
 21
8.666891804
  0
LINE
  5
240
100
AcDbEntity
  8
0
100
AcDbLine
 62
7
  6
CONTINUOUS
 10
11.7233747665
 20
8.666891804
 11
11.7437059922
 21
8.666891804
  0
LINE
  5
241
100
AcDbEntity
  8
0
100
AcDbLine
 62
9
  6
CONTINUOUS
 10
11.653717223
 20
8.729891804
 11
11.7417814393
 21
8.729891804
  0
LINE
  5
242
100
AcDbEntity
  8
0
100
AcDbLine
 62
9
  6
CONTINUOUS
 10
12.1773734284
 20
8.729891804
 11
12.441118228
 21
8.729891804
  0
LINE
  5
243
100
AcDbEntity
  8
0
100
AcDbLine
 62
9
  6
CONTINUOUS
 10
12.4769177255
 20
8.7656913015
 11
12.1919022436
 21
8.7656913015
  0
LINE
  5
244
100
AcDbEntity
  8
0
100
AcDbLine
 62
9
  6
CONTINUOUS
 10
12.198756286
 20
8.8353404221
 11
12.5399177255
 21
8.8353404221
  0
LINE
  5
245
100
AcDbEntity
  8
0
100
AcDbLine
 62
9
  6
CONTINUOUS
 10
11.5901790023
 20
8.8924440677
 11
11.5549177255
 21
8.892443186
  0
LINE
  5
246
100
AcDbEntity
  8
0
100
AcDbLine
 62
9
  6
CONTINUOUS
 10
12.5399177255
 20
8.892443186
 11
12.198756286
 21
8.892443186
  0
LINE
  5
247
100
AcDbEntity
  8
0
100
AcDbLine
 62
9
  6
CONTINUOUS
 10
11.6179177255
 20
8.9620923066
 11
11.6486129045
 21
8.9620930468
  0
LINE
  5
248
100
AcDbEntity
  8
0
100
AcDbLine
 62
9
  6
CONTINUOUS
 10
12.1906570741
 20
8.9620923066
 11
12.4769177255
 21
8.9620923066
  0
LINE
  5
249
100
AcDbEntity
  8
0
100
AcDbLine
 62
9
  6
CONTINUOUS
 10
12.441118228
 20
8.997891804
 11
12.1756127682
 21
8.997891804
  0
LINE
  5
24A
100
AcDbEntity
  8
0
100
AcDbLine
 62
9
  6
CONTINUOUS
 10
11.7418801812
 20
8.997891804
 11
11.653717223
 21
8.997891804
  0
LINE
  5
24B
100
AcDbEntity
  8
0
100
AcDbLine
 62
7
  6
CONTINUOUS
 10
12.3714546652
 20
9.060891804
 11
12.1333099199
 21
9.060891804
  0
LINE
  5
24C
100
AcDbEntity
  8
0
100
AcDbLine
 62
7
  6
CONTINUOUS
 10
11.7437379413
 20
9.060891804
 11
11.7233720497
 21
9.060891804
  0
LINE
  5
24D
100
AcDbEntity
  8
0
100
AcDbLine
 62
9
  6
CONTINUOUS
 10
20.4474177255
 20
9.1048397201
 11
21.6474177255
 21
9.1048397201
  0
LINE
  5
24E
100
AcDbEntity
  8
0
100
AcDbLine
 62
9
  6
CONTINUOUS
 10
11.5901790023
 20
8.8353395404
 11
11.5549177255
 21
8.8353404221
  0
LINE
  5
24F
100
AcDbEntity
  8
0
100
AcDbLine
 62
9
  6
CONTINUOUS
 10
11.6486130512
 20
8.7656905455
 11
11.6179177255
 21
8.7656913015
  0
LINE
  5
250
100
AcDbEntity
  8
0
100
AcDbLine
 62
7
  6
CONTINUOUS
 10
11.8787869352
 20
8.425507365
 11
11.8929024632
 21
8.4242416949
  0
LINE
  5
251
100
AcDbEntity
  8
0
100
AcDbLine
 62
7
  6
CONTINUOUS
 10
11.7947784478
 20
8.5204900626
 11
11.7948222443
 21
8.5204697145
  0
LINE
  5
252
100
AcDbEntity
  8
0
100
AcDbLine
 62
7
  6
CONTINUOUS
 10
11.7947804912
 20
8.5204888075
 11
11.7970435219
 21
8.5192981502
  0
LINE
  5
253
100
AcDbEntity
  8
0
100
AcDbLine
 62
7
  6
CONTINUOUS
 10
11.0224177255
 20
6.744891804
 11
11.0224177255
 21
6.734891804
  0
LINE
  5
254
100
AcDbEntity
  8
0
100
AcDbLine
 62
7
  6
CONTINUOUS
 10
11.5549177255
 20
8.8353404221
 11
11.5549177255
 21
8.892443186
  0
LINE
  5
255
100
AcDbEntity
  8
0
100
AcDbLine
 62
9
  6
CONTINUOUS
 10
11.5901790023
 20
8.8924440677
 11
11.5901790023
 21
8.8353395404
  0
LINE
  5
256
100
AcDbEntity
  8
0
100
AcDbLine
 62
7
  6
CONTINUOUS
 10
11.820100949
 20
9.2542171649
 11
11.8068227358
 21
9.229143669
  0
LINE
  5
257
100
AcDbEntity
  8
0
100
AcDbLine
 62
7
  6
CONTINUOUS
 10
11.7669062674
 20
9.1777672243
 11
11.7567887942
 21
9.1610660604
  0
LINE
  5
258
100
AcDbEntity
  8
0
100
AcDbLine
 62
7
  6
CONTINUOUS
 10
11.7821784949
 20
9.1926322706
 11
11.7721033011
 21
9.1828618432
  0
LINE
  5
259
100
AcDbEntity
  8
0
100
AcDbLine
 62
7
  6
CONTINUOUS
 10
11.7974788297
 20
9.2016986482
 11
11.7967996112
 21
9.2011809311
  0
LWPOLYLINE
  5
25A
100
AcDbEntity
  8
0
100
AcDbPolyline
 62
7
  6
CONTINUOUS
 90
3
 70
0
 10
11.7945805954
 20
9.2000106403
 10
11.781902858
 20
9.1924682862
 10
11.7668106673
 20
9.1776735081
  0
LINE
  5
25B
100
AcDbEntity
  8
0
100
AcDbLine
 62
7
  6
CONTINUOUS
 10
11.7968533198
 20
9.2012218692
 11
11.7945440451
 21
9.1999939329
  0
LINE
  5
25C
100
AcDbEntity
  8
0
100
AcDbLine
 62
7
  6
CONTINUOUS
 10
11.7945431367
 20
9.199993508
 11
11.7945824603
 21
9.2000117899
  0
LWPOLYLINE
  5
25D
100
AcDbEntity
  8
0
100
AcDbPolyline
 62
7
  6
CONTINUOUS
 90
4
 70
0
 10
11.8926711411
 20
9.2962407177
 10
11.8779824519
 20
9.2948692907
 10
11.8559322392
 20
9.2872857028
 10
11.8361416917
 20
9.2733128307
  0
LINE
  5
25E
100
AcDbEntity
  8
0
100
AcDbLine
 62
9
  6
CONTINUOUS
 10
11.849343873
 20
9.1301823771
 11
11.8577416668
 21
9.130182403
  0
LINE
  5
25F
100
AcDbEntity
  8
0
100
AcDbLine
 62
7
  6
CONTINUOUS
 10
11.8996724022
 20
9.2962407174
 11
11.8926475682
 21
9.2962407174
  0
LINE
  5
260
100
AcDbEntity
  8
0
100
AcDbLine
 62
7
  6
CONTINUOUS
 10
20.2974177255
 20
9.434891804
 11
21.7974177255
 21
9.434891804
  0
LINE
  5
261
100
AcDbEntity
  8
0
100
AcDbLine
 62
7
  6
CONTINUOUS
 10
11.9111683986
 20
9.295417264
 11
11.8996531204
 21
9.2962407093
  0
LINE
  5
262
100
AcDbEntity
  8
0
100
AcDbLine
 62
7
  6
CONTINUOUS
 10
11.9302301438
 20
9.2902606074
 11
11.9106842821
 21
9.2954854097
  0
LINE
  5
263
100
AcDbEntity
  8
0
100
AcDbLine
 62
7
  6
CONTINUOUS
 10
11.9305321683
 20
9.29013773
 11
11.9111683986
 21
9.295417264
  0
LINE
  5
264
100
AcDbEntity
  8
0
100
AcDbLine
 62
7
  6
CONTINUOUS
 10
12.0021674302
 20
9.1989794757
 11
12.0021923312
 21
9.1989705681
  0
LWPOLYLINE
  5
265
100
AcDbEntity
  8
0
100
AcDbPolyline
 62
7
  6
CONTINUOUS
 90
3
 70
0
 10
12.0021975495
 20
9.1989686243
 10
11.9944440189
 20
9.2033146877
 10
11.9925550023
 20
9.2051198814
  0
LINE
  5
266
100
AcDbEntity
  8
0
100
AcDbLine
 62
7
  6
CONTINUOUS
 10
11.9486698216
 20
9.27996604
 11
11.9302301438
 21
9.2902606074
  0
LWPOLYLINE
  5
267
100
AcDbEntity
  8
0
100
AcDbPolyline
 62
7
  6
CONTINUOUS
 90
3
 70
0
 10
11.7970435219
 20
8.5192981502
 10
11.8013235103
 20
8.516034456
 10
11.8019807605
 20
8.5153040482
  0
LINE
  5
268
100
AcDbEntity
  8
0
100
AcDbLine
 62
7
  6
CONTINUOUS
 10
13.1407572356
 20
6.7784855889
 11
13.1407467432
 21
6.7784970703
  0
LWPOLYLINE
  5
269
100
AcDbEntity
  8
0
100
AcDbPolyline
 62
7
  6
CONTINUOUS
 90
4
 70
0
 10
13.1407467432
 20
6.7784970703
 10
13.0376558849
 20
6.8955122509
 10
12.9294834933
 20
7.0325603712
 10
12.8332621565
 20
7.1693768732
  0
LINE
  5
26A
100
AcDbEntity
  8
0
100
AcDbLine
 62
7
  6
CONTINUOUS
 10
12.9477451882
 20
6.7769591803
 11
12.9477309048
 21
6.7769783634
  0
LWPOLYLINE
  5
26B
100
AcDbEntity
  8
0
100
AcDbPolyline
 62
7
  6
CONTINUOUS
 90
4
 70
0
 10
12.9477309048
 20
6.7769783634
 10
12.8683744548
 20
6.8866862899
 10
12.7789738672
 20
7.0238160644
 10
12.699094074
 20
7.1609952897
  0
LINE
  5
26C
100
AcDbEntity
  8
0
100
AcDbLine
 62
7
  6
CONTINUOUS
 10
12.8332619403
 20
7.1693770167
 11
12.8332580105
 21
7.1693829362
  0
LINE
  5
26D
100
AcDbEntity
  8
0
100
AcDbLine
 62
7
  6
CONTINUOUS
 10
12.8332580105
 20
7.1693829362
 11
12.754143557
 21
7.2950365839
  0
LINE
  5
26E
100
AcDbEntity
  8
0
100
AcDbLine
 62
7
  6
CONTINUOUS
 10
12.7619636648
 20
7.2820002394
 11
12.7525588009
 21
7.2977546286
  0
LINE
  5
26F
100
AcDbEntity
  8
0
100
AcDbLine
 62
7
  6
CONTINUOUS
 10
12.6990947606
 20
7.1609942356
 11
12.696036154
 21
7.1665707642
  0
LWPOLYLINE
  5
270
100
AcDbEntity
  8
0
100
AcDbPolyline
 62
7
  6
CONTINUOUS
 90
6
 70
0
 10
11.7966635746
 20
8.521909117
 10
11.8072065127
 20
8.4910247304
 10
11.8203654646
 20
8.4662339675
 10
11.8367407135
 20
8.4468354983
 10
11.856653994
 20
8.4329488369
 10
11.8787869352
 20
8.425507365
  0
LWPOLYLINE
  5
271
100
AcDbEntity
  8
0
100
AcDbPolyline
 62
7
  6
CONTINUOUS
 90
3
 70
0
 10
11.7847452279
 20
8.5974087831
 10
11.7889454511
 20
8.5584734448
 10
11.7966635746
 20
8.521909117
  0
LWPOLYLINE
  5
272
100
AcDbEntity
  8
0
100
AcDbPolyline
 62
7
  6
CONTINUOUS
 90
7
 70
0
 10
11.7453107665
 20
8.6143606837
 10
11.7469661176
 20
8.5959480016
 10
11.7508541779
 20
8.5765559117
 10
11.7570483364
 20
8.5593561376
 10
11.7671466059
 20
8.5426743133
 10
11.7824291854
 20
8.527798785
 10
11.7948222443
 20
8.5204697145
  0
LINE
  5
273
100
AcDbEntity
  8
0
100
AcDbLine
 62
7
  6
CONTINUOUS
 10
11.7847438236
 20
8.5974344024
 11
11.7847452279
 21
8.5974087831
  0
LINE
  5
274
100
AcDbEntity
  8
0
100
AcDbLine
 62
7
  6
CONTINUOUS
 10
11.7324177255
 20
8.666891804
 11
11.7324177255
 21
8.470891804
  0
LINE
  5
275
100
AcDbEntity
  8
0
100
AcDbLine
 62
7
  6
CONTINUOUS
 10
11.7944177255
 20
8.390891804
 11
11.7944177255
 21
8.359891804
  0
LINE
  5
276
100
AcDbEntity
  8
0
100
AcDbLine
 62
9
  6
CONTINUOUS
 10
12.0474177255
 20
8.3598911072
 11
12.0474177255
 21
6.7786645441
  0
LINE
  5
277
100
AcDbEntity
  8
0
100
AcDbLine
 62
7
  6
CONTINUOUS
 10
12.198756286
 20
8.8042078252
 11
12.1987550865
 21
8.9213810696
  0
LINE
  5
278
100
AcDbEntity
  8
0
100
AcDbLine
 62
7
  6
CONTINUOUS
 10
12.3004177255
 20
8.390891804
 11
12.3004177255
 21
8.359891804
  0
LINE
  5
279
100
AcDbEntity
  8
0
100
AcDbLine
 62
7
  6
CONTINUOUS
 10
12.3624177255
 20
8.666891804
 11
12.3624177255
 21
8.470891804
  0
LINE
  5
27A
100
AcDbEntity
  8
0
100
AcDbLine
 62
7
  6
CONTINUOUS
 10
12.198756286
 20
8.8041930759
 11
12.1987551249
 21
8.8038835449
  0
LWPOLYLINE
  5
27B
100
AcDbEntity
  8
0
100
AcDbPolyline
 62
7
  6
CONTINUOUS
 90
4
 70
0
 10
11.7450652334
 20
9.1059028958
 10
11.7403110392
 20
8.944679368
 10
11.7404075428
 20
8.7748661364
 10
11.7453106767
 20
8.6143626579
  0
LINE
  5
27C
100
AcDbEntity
  8
0
100
AcDbLine
 62
7
  6
CONTINUOUS
 10
11.7844413897
 20
9.1224594108
 11
11.7844425289
 21
9.1224803565
  0
LINE
  5
27D
100
AcDbEntity
  8
0
100
AcDbLine
 62
7
  6
CONTINUOUS
 10
11.7466656237
 20
9.124054005
 11
11.7450652973
 21
9.1059043368
  0
LINE
  5
27E
100
AcDbEntity
  8
0
100
AcDbLine
 62
7
  6
CONTINUOUS
 10
11.6934177255
 20
8.359891804
 11
11.6370169552
 21
8.0383023061
  0
LINE
  5
27F
100
AcDbEntity
  8
0
100
AcDbLine
 62
7
  6
CONTINUOUS
 10
11.7505754835
 20
9.1437588242
 11
11.746654808
 21
9.123973949
  0
LWPOLYLINE
  5
280
100
AcDbEntity
  8
0
100
AcDbPolyline
 62
7
  6
CONTINUOUS
 90
3
 70
0
 10
11.7963819643
 20
9.1984843864
 10
11.7886625599
 20
9.1618842776
 10
11.7844426259
 20
9.1224802955
  0
LINE
  5
281
100
AcDbEntity
  8
0
100
AcDbLine
 62
7
  6
CONTINUOUS
 10
11.6370169552
 20
8.0383023061
 11
11.5402547384
 21
7.7182184845
  0
LINE
  5
282
100
AcDbEntity
  8
0
100
AcDbLine
 62
7
  6
CONTINUOUS
 10
11.8069332081
 20
9.229403823
 11
11.7963819643
 21
9.1984843864
  0
LINE
  5
283
100
AcDbEntity
  8
0
100
AcDbLine
 62
7
  6
CONTINUOUS
 10
11.7568405275
 20
9.1611777332
 11
11.7505526639
 21
9.1436745668
  0
LINE
  5
284
100
AcDbEntity
  8
0
100
AcDbLine
 62
7
  6
CONTINUOUS
 10
11.5402547384
 20
7.7182184845
 11
11.4052562742
 21
7.4119888979
  0
LWPOLYLINE
  5
285
100
AcDbEntity
  8
0
100
AcDbPolyline
 62
7
  6
CONTINUOUS
 90
9
 70
0
 10
11.4052562742
 20
7.4119888979
 10
11.3991090907
 20
7.4001507227
 10
11.3921188981
 20
7.3868695886
 10
11.3845739343
 20
7.3727541098
 10
11.376596142
 20
7.3580774865
 10
11.3681551964
 20
7.342823417
 10
11.3591842054
 20
7.3269130697
 10
11.3505813112
 20
7.3119415959
 10
11.3423595953
 20
7.29789504
  0
LINE
  5
286
100
AcDbEntity
  8
0
100
AcDbLine
 62
7
  6
CONTINUOUS
 10
11.3989172641
 20
7.1667864789
 11
11.3957406904
 21
7.1609942356
  0
LWPOLYLINE
  5
287
100
AcDbEntity
  8
0
100
AcDbPolyline
 62
7
  6
CONTINUOUS
 90
4
 70
0
 10
11.3957414562
 20
7.160995265
 10
11.3158623117
 20
7.0238172624
 10
11.2264548445
 20
6.8866772171
 10
11.1471044879
 20
6.7769780686
  0
LINE
  5
288
100
AcDbEntity
  8
0
100
AcDbLine
 62
7
  6
CONTINUOUS
 10
11.3423595953
 20
7.29789504
 11
11.3328738193
 21
7.2820036125
  0
LINE
  5
289
100
AcDbEntity
  8
0
100
AcDbLine
 62
7
  6
CONTINUOUS
 10
11.3342216638
 20
7.2842413363
 11
11.3328738193
 21
7.2820036125
  0
LINE
  5
28A
100
AcDbEntity
  8
0
100
AcDbLine
 62
7
  6
CONTINUOUS
 10
11.3408382932
 20
7.2952820206
 11
11.26157759
 21
7.1693830314
  0
LINE
  5
28B
100
AcDbEntity
  8
0
100
AcDbLine
 62
7
  6
CONTINUOUS
 10
11.26157759
 20
7.1693830314
 11
11.2615734456
 21
7.1693767887
  0
LINE
  5
28C
100
AcDbEntity
  8
0
100
AcDbLine
 62
7
  6
CONTINUOUS
 10
12.0353691292
 20
8.5391982096
 11
12.0542515198
 21
8.5663054616
  0
LWPOLYLINE
  5
28D
100
AcDbEntity
  8
0
100
AcDbPolyline
 62
7
  6
CONTINUOUS
 90
3
 70
0
 10
11.2615733441
 20
7.1693768466
 10
11.1653742226
 20
7.0325902467
 10
11.0572129743
 20
6.8955521896
  0
LINE
  5
28E
100
AcDbEntity
  8
0
100
AcDbLine
 62
7
  6
CONTINUOUS
 10
12.0351601772
 20
8.53894478
 11
12.0353691292
 21
8.5391982096
  0
LINE
  5
28F
100
AcDbEntity
  8
0
100
AcDbLine
 62
7
  6
CONTINUOUS
 10
11.9687870048
 20
8.4593865878
 11
12.0351601772
 21
8.53894478
  0
LINE
  5
290
100
AcDbEntity
  8
0
100
AcDbLine
 62
7
  6
CONTINUOUS
 10
11.0572129743
 20
6.8955521896
 11
10.9540879745
 21
6.7784962798
  0
LWPOLYLINE
  5
291
100
AcDbEntity
  8
0
100
AcDbPolyline
 62
7
  6
CONTINUOUS
 90
6
 70
0
 10
12.0323766495
 20
8.5414858463
 10
12.0963446016
 20
8.6140650178
 10
12.1437887251
 20
8.6749954781
 10
12.1756199363
 20
8.7255711395
 10
12.1943869922
 20
8.7718138071
 10
12.1987548744
 20
8.8038970355
  0
LINE
  5
292
100
AcDbEntity
  8
0
100
AcDbLine
 62
7
  6
CONTINUOUS
 10
11.9927282372
 20
8.51528987
 11
11.9927606439
 21
8.5153266167
  0
LINE
  5
293
100
AcDbEntity
  8
0
100
AcDbLine
 62
7
  6
CONTINUOUS
 10
12.0322625236
 20
8.5413622113
 11
12.0323766495
 21
8.5414858463
  0
LWPOLYLINE
  5
294
100
AcDbEntity
  8
0
100
AcDbPolyline
 62
7
  6
CONTINUOUS
 90
4
 70
0
 10
11.9927282194
 20
8.5152900922
 10
11.9934081965
 20
8.5160117051
 10
11.9976675262
 20
8.5192674874
 10
12.0024434559
 20
8.5215146646
  0
LWPOLYLINE
  5
295
100
AcDbEntity
  8
0
100
AcDbPolyline
 62
7
  6
CONTINUOUS
 90
4
 70
0
 10
11.9600007544
 20
8.4500627801
 10
11.9616881502
 20
8.4517743591
 10
11.966513343
 20
8.4568645854
 10
11.9687864015
 20
8.4593858613
  0
LINE
  5
296
100
AcDbEntity
  8
0
100
AcDbLine
 62
7
  6
CONTINUOUS
 10
11.9600006685
 20
8.4500628134
 11
11.9598950462
 21
8.4499568258
  0
LWPOLYLINE
  5
297
100
AcDbEntity
  8
0
100
AcDbPolyline
 62
7
  6
CONTINUOUS
 90
4
 70
0
 10
12.0024113029
 20
8.5215030759
 10
12.0120440589
 20
8.5257576951
 10
12.0273257521
 20
8.5364781185
 10
12.0322622952
 20
8.541362177
  0
LINE
  5
298
100
AcDbEntity
  8
0
100
AcDbLine
 62
7
  6
CONTINUOUS
 10
12.0024161094
 20
8.5215048786
 11
12.0024434559
 21
8.5215146646
  0
LINE
  5
299
100
AcDbEntity
  8
0
100
AcDbLine
 62
7
  6
CONTINUOUS
 10
20.2774177255
 20
10.484891804
 11
21.8174177255
 21
10.484891804
  0
LINE
  5
29A
100
AcDbEntity
  8
0
100
AcDbLine
 62
9
  6
CONTINUOUS
 10
20.2374177255
 20
10.524891804
 11
21.8574177255
 21
10.524891804
  0
LINE
  5
29B
100
AcDbEntity
  8
0
100
AcDbLine
 62
7
  6
CONTINUOUS
 10
21.8574177255
 20
10.634891804
 11
20.2374177255
 21
10.634891804
  0
LINE
  5
29C
100
AcDbEntity
  8
0
100
AcDbLine
 62
7
  6
CONTINUOUS
 10
11.9591196371
 20
9.2710571745
 11
11.9485420592
 21
9.2800592157
  0
LWPOLYLINE
  5
29D
100
AcDbEntity
  8
0
100
AcDbPolyline
 62
7
  6
CONTINUOUS
 90
4
 70
0
 10
12.0315662665
 20
9.17960156
 10
12.027280931
 20
9.1838206437
 10
12.0119132797
 20
9.1946636482
 10
12.0021674302
 20
9.1989794757
  0
LINE
  5
29E
100
AcDbEntity
  8
0
100
AcDbLine
 62
7
  6
CONTINUOUS
 10
12.0315662665
 20
9.17960156
 11
12.0316738015
 21
9.1794870162
  0
LWPOLYLINE
  5
29F
100
AcDbEntity
  8
0
100
AcDbPolyline
 62
7
  6
CONTINUOUS
 90
4
 70
0
 10
11.9679928987
 20
9.2618080122
 10
11.9654683639
 20
9.2645536383
 10
11.9606395779
 20
9.2695440426
 10
11.9591197336
 20
9.2710572141
  0
LINE
  5
2A0
100
AcDbEntity
  8
0
100
AcDbLine
 62
7
  6
CONTINUOUS
 10
11.9679985648
 20
9.2618017332
 11
11.9679928987
 21
9.2618080122
  0
LINE
  5
2A1
100
AcDbEntity
  8
0
100
AcDbLine
 62
7
  6
CONTINUOUS
 10
12.0956401192
 20
9.1082293923
 11
12.0316748956
 21
9.1794860645
  0
LINE
  5
2A2
100
AcDbEntity
  8
0
100
AcDbLine
 62
7
  6
CONTINUOUS
 10
11.9925550023
 20
9.2051198814
 11
11.9926086896
 21
9.2050600248
  0
LINE
  5
2A3
100
AcDbEntity
  8
0
100
AcDbLine
 62
7
  6
CONTINUOUS
 10
12.031942917
 20
9.1868783952
 11
11.9679987376
 21
9.2618015609
  0
LINE
  5
2A4
100
AcDbEntity
  8
0
100
AcDbLine
 62
7
  6
CONTINUOUS
 10
12.0601154426
 20
9.1478035561
 11
12.0317489807
 21
9.1871223968
  0
LWPOLYLINE
  5
2A5
100
AcDbEntity
  8
0
100
AcDbPolyline
 62
7
  6
CONTINUOUS
 90
9
 70
0
 10
12.7525588009
 20
7.2977546286
 10
12.7443300343
 20
7.3118107643
 10
12.735722356
 20
7.3267881704
 10
12.726739827
 20
7.3427167487
 10
12.7182852876
 20
7.3579936364
 10
12.7102936225
 20
7.3726945342
 10
12.7027367435
 20
7.3868315097
 10
12.6957361466
 20
7.4001319936
 10
12.6895791768
 20
7.411988898
  0
LINE
  5
2A6
100
AcDbEntity
  8
0
100
AcDbLine
 62
7
  6
CONTINUOUS
 10
12.6895791768
 20
7.411988898
 11
12.5545807125
 21
7.7182184845
  0
LINE
  5
2A7
100
AcDbEntity
  8
0
100
AcDbLine
 62
7
  6
CONTINUOUS
 10
12.5545807126
 20
7.7182184845
 11
12.4578184958
 21
8.0383023061
  0
LINE
  5
2A8
100
AcDbEntity
  8
0
100
AcDbLine
 62
7
  6
CONTINUOUS
 10
12.4578184958
 20
8.0383023061
 11
12.4014177255
 21
8.359891804
  0
LWPOLYLINE
  5
2A9
100
AcDbEntity
  8
0
100
AcDbPolyline
 62
7
  6
CONTINUOUS
 90
5
 70
0
 10
12.198754707
 20
8.9213640739
 10
12.1941364222
 20
8.9538128341
 10
12.1751178716
 20
8.9990694623
 10
12.1431534001
 20
9.0485220381
 10
12.0955905546
 20
9.1082846068
  0
LINE
  5
2AA
100
AcDbEntity
  8
0
100
AcDbLine
 62
7
  6
CONTINUOUS
 10
12.5399177255
 20
8.8353404221
 11
12.5399177255
 21
8.892443186
  0
LINE
  5
2AB
100
AcDbEntity
  8
0
100
AcDbLine
 62
7
  6
CONTINUOUS
 10
13.0724177255
 20
6.744891804
 11
13.0724177255
 21
6.734891804
  0
LINE
  5
2AC
100
AcDbEntity
  8
0
100
AcDbLine
 62
7
  6
CONTINUOUS
 10
11.1471044879
 20
6.7769780686
 11
11.1470904316
 21
6.7769591844
  0
LINE
  5
2AD
100
AcDbEntity
  8
0
100
AcDbLine
 62
7
  6
CONTINUOUS
 10
10.9540879745
 20
6.7784962798
 11
10.9540782272
 21
6.7784856012
  0
LINE
  5
2AE
100
AcDbEntity
  8
0
100
AcDbLine
 62
9
  6
CONTINUOUS
 10
20.0374177255
 20
10.834891804
 11
22.0574177255
 21
10.834891804
  0
LINE
  5
2AF
100
AcDbEntity
  8
0
100
AcDbLine
 62
9
  6
CONTINUOUS
 10
22.0574177255
 20
10.934891804
 11
20.0374177255
 21
10.934891804
  0
LINE
  5
2B0
100
AcDbEntity
  8
0
100
AcDbLine
 62
7
  6
CONTINUOUS
 10
20.2374177255
 20
11.134891804
 11
21.8574177255
 21
11.134891804
  0
LINE
  5
2B1
100
AcDbEntity
  8
0
100
AcDbLine
 62
9
  6
CONTINUOUS
 10
21.8574177255
 20
11.244891804
 11
20.2374177255
 21
11.244891804
  0
LINE
  5
2B2
100
AcDbEntity
  8
0
100
AcDbLine
 62
7
  6
CONTINUOUS
 10
21.8174177255
 20
11.284891804
 11
20.2774177255
 21
11.284891804
  0
LINE
  5
2B3
100
AcDbEntity
  8
0
100
AcDbLine
 62
7
  6
CONTINUOUS
 10
19.9324177255
 20
6.904891804
 11
19.9324177255
 21
6.744891804
  0
LINE
  5
2B4
100
AcDbEntity
  8
0
100
AcDbLine
 62
7
  6
CONTINUOUS
 10
20.0374177255
 20
10.834891804
 11
20.0374177255
 21
10.934891804
  0
LINE
  5
2B5
100
AcDbEntity
  8
0
100
AcDbLine
 62
7
  6
CONTINUOUS
 10
20.2374177255
 20
11.244891804
 11
20.2374177255
 21
11.134891804
  0
LINE
  5
2B6
100
AcDbEntity
  8
0
100
AcDbLine
 62
7
  6
CONTINUOUS
 10
20.2374177255
 20
10.524891804
 11
20.2374177255
 21
10.634891804
  0
LINE
  5
2B7
100
AcDbEntity
  8
0
100
AcDbLine
 62
7
  6
CONTINUOUS
 10
20.2974177255
 20
9.434891804
 11
20.2974177255
 21
10.484891804
  0
LINE
  5
2B8
100
AcDbEntity
  8
0
100
AcDbLine
 62
7
  6
CONTINUOUS
 10
20.4474177255
 20
9.434891804
 11
20.4474177255
 21
9.1048397201
  0
LINE
  5
2B9
100
AcDbEntity
  8
0
100
AcDbLine
 62
7
  6
CONTINUOUS
 10
21.6474177255
 20
9.434891804
 11
21.6474177255
 21
9.1048397201
  0
LINE
  5
2BA
100
AcDbEntity
  8
0
100
AcDbLine
 62
7
  6
CONTINUOUS
 10
21.7974177255
 20
9.434891804
 11
21.7974177255
 21
10.484891804
  0
LINE
  5
2BB
100
AcDbEntity
  8
0
100
AcDbLine
 62
7
  6
CONTINUOUS
 10
21.8574177255
 20
11.244891804
 11
21.8574177255
 21
11.134891804
  0
LINE
  5
2BC
100
AcDbEntity
  8
0
100
AcDbLine
 62
7
  6
CONTINUOUS
 10
21.8574177255
 20
10.524891804
 11
21.8574177255
 21
10.634891804
  0
LINE
  5
2BD
100
AcDbEntity
  8
0
100
AcDbLine
 62
7
  6
CONTINUOUS
 10
22.0574177255
 20
10.834891804
 11
22.0574177255
 21
10.934891804
  0
LINE
  5
2BE
100
AcDbEntity
  8
0
100
AcDbLine
 62
7
  6
CONTINUOUS
 10
22.1624177255
 20
6.904891804
 11
22.1624177255
 21
6.744891804
  0
ARC
  5
2BF
100
AcDbEntity
  8
0
100
AcDbCircle
 62
7
  6
CONTINUOUS
 10
0.1386381318
 20
6.5619967643
 40
0.9
100
AcDbArc
 50
130.6439171764
 51
168.2748731242
  0
ARC
  5
2C0
100
AcDbEntity
  8
0
100
AcDbCircle
 62
7
  6
CONTINUOUS
 10
-0.0438026808
 20
6.5619967643
 40
0.9
100
AcDbArc
 50
11.7251268758
 51
49.3560828236
  0
ARC
  5
2C1
100
AcDbEntity
  8
0
100
AcDbCircle
 62
7
  6
CONTINUOUS
 10
4.5630032541
 20
7.382713637
 40
0.5
100
AcDbArc
 50
230.8634260457
 51
269.6169510033
  0
ARC
  5
2C2
100
AcDbEntity
  8
0
100
AcDbCircle
 62
7
  6
CONTINUOUS
 10
3.5318321969
 20
7.382713637
 40
0.5
100
AcDbArc
 50
270.3830489967
 51
309.1365739543
  0
ARC
  5
2C3
100
AcDbEntity
  8
0
100
AcDbCircle
 62
7
  6
CONTINUOUS
 10
-0.0150822745
 20
7.324891804
 40
0.4
100
AcDbArc
 50
155.7790568911
 51
180.0
  0
ARC
  5
2C4
100
AcDbEntity
  8
0
100
AcDbCircle
 62
7
  6
CONTINUOUS
 10
0.1099177255
 20
7.324891804
 40
0.4
100
AcDbArc
 50
0.0
 51
24.2209431089
  0
ARC
  5
2C5
100
AcDbEntity
  8
0
100
AcDbCircle
 62
7
  6
CONTINUOUS
 10
3.5354177255
 20
7.064891804
 40
0.315
100
AcDbArc
 50
0.0
 51
72.5423968763
  0
ARC
  5
2C6
100
AcDbEntity
  8
0
100
AcDbCircle
 62
7
  6
CONTINUOUS
 10
4.5594177255
 20
7.064891804
 40
0.315
100
AcDbArc
 50
107.4576031237
 51
180.0
  0
ARC
  5
2C7
100
AcDbEntity
  8
0
100
AcDbCircle
 62
7
  6
CONTINUOUS
 10
3.5764177255
 20
7.541891804
 40
0.08
100
AcDbArc
 50
180.0
 51
270.0
  0
ARC
  5
2C8
100
AcDbEntity
  8
0
100
AcDbCircle
 62
7
  6
CONTINUOUS
 10
4.5184177255
 20
7.541891804
 40
0.08
100
AcDbArc
 50
270.0
 51
360.0
  0
ARC
  5
2C9
100
AcDbEntity
  8
0
100
AcDbCircle
 62
7
  6
CONTINUOUS
 10
3.5764177255
 20
7.578891804
 40
0.08
100
AcDbArc
 50
90.0
 51
180.0
  0
ARC
  5
2CA
100
AcDbEntity
  8
0
100
AcDbCircle
 62
7
  6
CONTINUOUS
 10
4.5184177255
 20
7.578891804
 40
0.08
100
AcDbArc
 50
0.0
 51
90.0
  0
ARC
  5
2CB
100
AcDbEntity
  8
0
100
AcDbCircle
 62
7
  6
CONTINUOUS
 10
3.6449177255
 20
7.706891804
 40
0.05
100
AcDbArc
 50
90.0
 51
180.0
  0
ARC
  5
2CC
100
AcDbEntity
  8
0
100
AcDbCircle
 62
7
  6
CONTINUOUS
 10
4.4499177255
 20
7.706891804
 40
0.05
100
AcDbArc
 50
0.0
 51
90.0
  0
ARC
  5
2CD
100
AcDbEntity
  8
0
100
AcDbCircle
 62
7
  6
CONTINUOUS
 10
4.4499177255
 20
7.4130796126
 40
0.05
100
AcDbArc
 50
287.4576031237
 51
360.0
  0
ARC
  5
2CE
100
AcDbEntity
  8
0
100
AcDbCircle
 62
7
  6
CONTINUOUS
 10
3.6449177255
 20
7.4130796126
 40
0.05
100
AcDbArc
 50
180.0
 51
252.5423968763
  0
ARC
  5
2CF
100
AcDbEntity
  8
0
100
AcDbCircle
 62
7
  6
CONTINUOUS
 10
4.5774177255
 20
6.8429060574
 40
0.04
100
AcDbArc
 50
0.0
 51
90.0
  0
ARC
  5
2D0
100
AcDbEntity
  8
0
100
AcDbCircle
 62
7
  6
CONTINUOUS
 10
3.5174177255
 20
6.8429060574
 40
0.04
100
AcDbArc
 50
90.0
 51
180.0
  0
ARC
  5
2D1
100
AcDbEntity
  8
0
100
AcDbCircle
 62
7
  6
CONTINUOUS
 10
3.4374177255
 20
6.784891804
 40
0.04
100
AcDbArc
 50
90.0
 51
180.0
  0
ARC
  5
2D2
100
AcDbEntity
  8
0
100
AcDbCircle
 62
7
  6
CONTINUOUS
 10
4.6574177255
 20
6.784891804
 40
0.04
100
AcDbArc
 50
0.0
 51
90.0
  0
ARC
  5
2D3
100
AcDbEntity
  8
0
100
AcDbCircle
 62
7
  6
CONTINUOUS
 10
-0.3707506594
 20
7.484891804
 40
0.01
100
AcDbArc
 50
90.0
 51
155.7790568911
  0
ARC
  5
2D4
100
AcDbEntity
  8
0
100
AcDbCircle
 62
7
  6
CONTINUOUS
 10
0.4655861104
 20
7.484891804
 40
0.01
100
AcDbArc
 50
24.2209431089
 51
90.0
  0
ARC
  5
2D5
100
AcDbEntity
  8
0
100
AcDbCircle
 62
9
  6
CONTINUOUS
 10
11.4981402177
 20
-20.8469823937
 40
29.6824626877
100
AcDbArc
 50
89.5309110085
 51
89.8223381117
  0
ARC
  5
2D6
100
AcDbEntity
  8
0
100
AcDbCircle
 62
9
  6
CONTINUOUS
 10
8.6981245298
 20
8.8715015655
 40
3.0770772289
100
AcDbArc
 50
329.1864410372
 51
331.668338536
  0
ARC
  5
2D7
100
AcDbEntity
  8
0
100
AcDbCircle
 62
9
  6
CONTINUOUS
 10
8.9019351871
 20
8.6403402041
 40
2.9854161435
100
AcDbArc
 50
321.4168340068
 51
330.4760050383
  0
ARC
  5
2D8
100
AcDbEntity
  8
0
100
AcDbCircle
 62
9
  6
CONTINUOUS
 10
8.9630338052
 20
8.7944792266
 40
2.9010834595
100
AcDbArc
 50
315.9381334869
 51
325.7264312147
  0
ARC
  5
2D9
100
AcDbEntity
  8
0
100
AcDbCircle
 62
7
  6
CONTINUOUS
 10
8.8851062827
 20
8.5000146468
 40
2.8436010804
100
AcDbArc
 50
322.7043484222
 51
324.3001644625
  0
ARC
  5
2DA
100
AcDbEntity
  8
0
100
AcDbCircle
 62
9
  6
CONTINUOUS
 10
9.2145950352
 20
8.6675810555
 40
2.6007729187
100
AcDbArc
 50
348.7786415308
 51
353.2056012035
  0
ARC
  5
2DB
100
AcDbEntity
  8
0
100
AcDbCircle
 62
9
  6
CONTINUOUS
 10
10.4213107828
 20
7.8202118131
 40
2.101502398
100
AcDbArc
 50
41.3267201886
 51
41.9731281097
  0
ARC
  5
2DC
100
AcDbEntity
  8
0
100
AcDbCircle
 62
9
  6
CONTINUOUS
 10
10.6136958862
 20
7.9899027293
 40
1.8449739141
100
AcDbArc
 50
40.9525144374
 51
41.3146529187
  0
ARC
  5
2DD
100
AcDbEntity
  8
0
100
AcDbCircle
 62
9
  6
CONTINUOUS
 10
10.7090667507
 20
8.0728059615
 40
1.7186072406
100
AcDbArc
 50
40.7290178782
 51
40.9490580051
  0
ARC
  5
2DE
100
AcDbEntity
  8
0
100
AcDbCircle
 62
7
  6
CONTINUOUS
 10
12.2118195104
 20
8.623552804
 40
0.4278736868
100
AcDbArc
 50
182.9133876668
 51
183.4996524747
  0
ARC
  5
2DF
100
AcDbEntity
  8
0
100
AcDbCircle
 62
9
  6
CONTINUOUS
 10
12.23657719
 20
8.6128054571
 40
0.3876266051
100
AcDbArc
 50
182.8709959973
 51
183.4426252715
  0
ARC
  5
2E0
100
AcDbEntity
  8
0
100
AcDbCircle
 62
7
  6
CONTINUOUS
 10
11.6249177255
 20
8.892443186
 40
0.07
100
AcDbArc
 50
95.7391704773
 51
180.0
  0
ARC
  5
2E1
100
AcDbEntity
  8
0
100
AcDbCircle
 62
7
  6
CONTINUOUS
 10
12.4699177255
 20
8.892443186
 40
0.07
100
AcDbArc
 50
0.0
 51
84.2608295227
  0
ARC
  5
2E2
100
AcDbEntity
  8
0
100
AcDbCircle
 62
7
  6
CONTINUOUS
 10
11.6249177255
 20
8.8353404221
 40
0.07
100
AcDbArc
 50
180.0
 51
264.2608295227
  0
ARC
  5
2E3
100
AcDbEntity
  8
0
100
AcDbCircle
 62
7
  6
CONTINUOUS
 10
12.4699177255
 20
8.8353404221
 40
0.07
100
AcDbArc
 50
275.7391704773
 51
360.0
  0
ARC
  5
2E4
100
AcDbEntity
  8
0
100
AcDbCircle
 62
7
  6
CONTINUOUS
 10
12.3714691074
 20
8.736891804
 40
0.07
100
AcDbArc
 50
270.0
 51
354.2608295227
  0
ARC
  5
2E5
100
AcDbEntity
  8
0
100
AcDbCircle
 62
7
  6
CONTINUOUS
 10
11.7233663436
 20
8.736891804
 40
0.07
100
AcDbArc
 50
185.7391704773
 51
270.0
  0
ARC
  5
2E6
100
AcDbEntity
  8
0
100
AcDbCircle
 62
9
  6
CONTINUOUS
 10
11.7452899797
 20
8.7285422894
 40
0.0616538751
100
AcDbArc
 50
250.9088301337
 51
252.0243209162
  0
ARC
  5
2E7
100
AcDbEntity
  8
0
100
AcDbCircle
 62
9
  6
CONTINUOUS
 10
11.7452691784
 20
8.7284482637
 40
0.0615580202
100
AcDbArc
 50
252.0157285092
 51
268.5337672138
  0
ARC
  5
2E8
100
AcDbEntity
  8
0
100
AcDbCircle
 62
7
  6
CONTINUOUS
 10
12.4809177255
 20
8.725891804
 40
0.04
100
AcDbArc
 50
95.7391704773
 51
174.2608295227
  0
ARC
  5
2E9
100
AcDbEntity
  8
0
100
AcDbCircle
 62
7
  6
CONTINUOUS
 10
11.6139177255
 20
8.725891804
 40
0.04
100
AcDbArc
 50
5.7391704773
 51
84.2608295227
  0
ARC
  5
2EA
100
AcDbEntity
  8
0
100
AcDbCircle
 62
7
  6
CONTINUOUS
 10
11.7129177255
 20
8.430891804
 40
0.04
100
AcDbArc
 50
90.0
 51
270.0
  0
ARC
  5
2EB
100
AcDbEntity
  8
0
100
AcDbCircle
 62
7
  6
CONTINUOUS
 10
12.3819177255
 20
8.430891804
 40
0.04
100
AcDbArc
 50
270.0
 51
90.0
  0
ARC
  5
2EC
100
AcDbEntity
  8
0
100
AcDbCircle
 62
9
  6
CONTINUOUS
 10
11.4231401009
 20
7.1456415853
 40
0.0314235237
100
AcDbArc
 50
139.3003630072
 51
140.3193626122
  0
ARC
  5
2ED
100
AcDbEntity
  8
0
100
AcDbCircle
 62
9
  6
CONTINUOUS
 10
12.6717363308
 20
7.1456761698
 40
0.0313699183
100
AcDbArc
 50
39.697123153
 51
40.2930218545
  0
ARC
  5
2EE
100
AcDbEntity
  8
0
100
AcDbCircle
 62
9
  6
CONTINUOUS
 10
11.422962831
 20
7.145788942
 40
0.0311930057
100
AcDbArc
 50
140.3197663913
 51
141.0402577628
  0
ARC
  5
2EF
100
AcDbEntity
  8
0
100
AcDbCircle
 62
9
  6
CONTINUOUS
 10
11.4221860186
 20
7.1463978757
 40
0.0302060876
100
AcDbArc
 50
141.0119189598
 51
151.1006082574
  0
ARC
  5
2F0
100
AcDbEntity
  8
0
100
AcDbCircle
 62
7
  6
CONTINUOUS
 10
13.1260879479
 20
6.7648916236
 40
0.019998213
100
AcDbArc
 50
269.9980810845
 51
42.8403638582
  0
ARC
  5
2F1
100
AcDbEntity
  8
0
100
AcDbCircle
 62
9
  6
CONTINUOUS
 10
11.7987224624
 20
8.5289170671
 40
0.0093047475
100
AcDbArc
 50
243.8509585563
 51
244.9250729855
  0
ARC
  5
2F2
100
AcDbEntity
  8
0
100
AcDbCircle
 62
9
  6
CONTINUOUS
 10
11.4977599528
 20
38.6509609664
 40
29.7586577295
100
AcDbArc
 50
270.1779391414
 51
270.4676607022
  0
ARC
  5
2F3
100
AcDbEntity
  8
0
100
AcDbCircle
 62
9
  6
CONTINUOUS
 10
10.4735996254
 20
9.830191309
 40
2.0159898932
100
AcDbArc
 50
318.5250868302
 51
319.1911440416
  0
ARC
  5
2F4
100
AcDbEntity
  8
0
100
AcDbCircle
 62
9
  6
CONTINUOUS
 10
10.6391656086
 20
9.6872128363
 40
1.7972321775
100
AcDbArc
 50
319.1916528358
 51
319.5665401412
  0
ARC
  5
2F5
100
AcDbEntity
  8
0
100
AcDbCircle
 62
9
  6
CONTINUOUS
 10
10.7189796063
 20
9.6191934597
 40
1.692366026
100
AcDbArc
 50
319.5668475653
 51
319.760174846
  0
ARC
  5
2F6
100
AcDbEntity
  8
0
100
AcDbCircle
 62
7
  6
CONTINUOUS
 10
12.2125211715
 20
9.0968539292
 40
0.4288448907
100
AcDbArc
 50
176.5769461973
 51
177.1500113417
  0
ARC
  5
2F7
100
AcDbEntity
  8
0
100
AcDbCircle
 62
9
  6
CONTINUOUS
 10
12.2361458439
 20
9.1074184272
 40
0.3874712469
100
AcDbArc
 50
176.6319313851
 51
177.1919887099
  0
ARC
  5
2F8
100
AcDbEntity
  8
0
100
AcDbCircle
 62
7
  6
CONTINUOUS
 10
12.3714691074
 20
8.990891804
 40
0.07
100
AcDbArc
 50
5.7391704773
 51
90.0
  0
ARC
  5
2F9
100
AcDbEntity
  8
0
100
AcDbCircle
 62
7
  6
CONTINUOUS
 10
11.7233663436
 20
8.990891804
 40
0.07
100
AcDbArc
 50
90.0
 51
174.2608295227
  0
ARC
  5
2FA
100
AcDbEntity
  8
0
100
AcDbCircle
 62
9
  6
CONTINUOUS
 10
11.7452900673
 20
8.9992410549
 40
0.0616541531
100
AcDbArc
 50
107.975680803
 51
109.0933916508
  0
ARC
  5
2FB
100
AcDbEntity
  8
0
100
AcDbCircle
 62
9
  6
CONTINUOUS
 10
11.7452688363
 20
8.9993368397
 40
0.0615564923
100
AcDbArc
 50
91.4356479556
 51
107.9843983921
  0
ARC
  5
2FC
100
AcDbEntity
  8
0
100
AcDbCircle
 62
7
  6
CONTINUOUS
 10
12.4809177255
 20
9.001891804
 40
0.04
100
AcDbArc
 50
185.7391704773
 51
264.2608295227
  0
ARC
  5
2FD
100
AcDbEntity
  8
0
100
AcDbCircle
 62
7
  6
CONTINUOUS
 10
11.6139177255
 20
9.001891804
 40
0.04
100
AcDbArc
 50
275.7391704773
 51
354.2608295227
  0
ARC
  5
2FE
100
AcDbEntity
  8
0
100
AcDbCircle
 62
9
  6
CONTINUOUS
 10
17.1955717088
 20
8.8628840717
 40
5.3529124679
100
AcDbArc
 50
177.1782731652
 51
182.8857865834
  0
ARC
  5
2FF
100
AcDbEntity
  8
0
100
AcDbCircle
 62
9
  6
CONTINUOUS
 10
17.0046024237
 20
8.862885293
 40
5.2406340947
100
AcDbArc
 50
177.2550170357
 51
182.8072501229
  0
ARC
  5
300
100
AcDbEntity
  8
0
100
AcDbCircle
 62
9
  6
CONTINUOUS
 10
17.0293437626
 20
8.862887869
 40
5.178505844
100
AcDbArc
 50
177.0412972355
 51
183.0258927991
  0
ARC
  5
301
100
AcDbEntity
  8
0
100
AcDbCircle
 62
7
  6
CONTINUOUS
 10
16.8936502146
 20
8.8628843727
 40
5.1158133948
100
AcDbArc
 50
177.1396085218
 51
182.9252846409
  0
ARC
  5
302
100
AcDbEntity
  8
0
100
AcDbCircle
 62
9
  6
CONTINUOUS
 10
16.9017748702
 20
8.8628844449
 40
4.9740781548
100
AcDbArc
 50
177.0349551876
 51
183.0323169761
  0
ARC
  5
303
100
AcDbEntity
  8
0
100
AcDbCircle
 62
9
  6
CONTINUOUS
 10
16.8532389523
 20
8.8629062772
 40
4.889350883
100
AcDbArc
 50
177.0614261195
 51
183.0057573372
  0
ARC
  5
304
100
AcDbEntity
  8
0
100
AcDbCircle
 62
9
  6
CONTINUOUS
 10
16.7110835648
 20
8.8628863282
 40
4.7885281301
100
AcDbArc
 50
176.9423312174
 51
183.1270943354
  0
ARC
  5
305
100
AcDbEntity
  8
0
100
AcDbCircle
 62
9
  6
CONTINUOUS
 10
16.7844061688
 20
8.8628871634
 40
4.7568725457
100
AcDbArc
 50
177.1186808717
 51
182.9467583655
  0
ARC
  5
306
100
AcDbEntity
  8
0
100
AcDbCircle
 62
9
  6
CONTINUOUS
 10
15.3961783662
 20
8.8712057599
 40
3.0764683486
100
AcDbArc
 50
208.3300259463
 51
210.8191946686
  0
ARC
  5
307
100
AcDbEntity
  8
0
100
AcDbCircle
 62
9
  6
CONTINUOUS
 10
15.192834845
 20
8.6402960747
 40
2.9853373657
100
AcDbArc
 50
209.523876445
 51
218.5832884154
  0
ARC
  5
308
100
AcDbEntity
  8
0
100
AcDbCircle
 62
9
  6
CONTINUOUS
 10
15.1302323018
 20
8.7931076792
 40
2.8990013957
100
AcDbArc
 50
214.2686959123
 51
224.0639569923
  0
ARC
  5
309
100
AcDbEntity
  8
0
100
AcDbCircle
 62
7
  6
CONTINUOUS
 10
15.2196856443
 20
8.507324255
 40
2.8559507643
100
AcDbArc
 50
215.6987501303
 51
217.2913600904
  0
ARC
  5
30A
100
AcDbEntity
  8
0
100
AcDbCircle
 62
9
  6
CONTINUOUS
 10
14.8932490228
 20
8.6696440692
 40
2.6139351682
100
AcDbArc
 50
186.8055590112
 51
191.2102242332
  0
ARC
  5
30B
100
AcDbEntity
  8
0
100
AcDbCircle
 62
7
  6
CONTINUOUS
 10
19.9724177255
 20
6.904891804
 40
0.04
100
AcDbArc
 50
90.0
 51
180.0
  0
ARC
  5
30C
100
AcDbEntity
  8
0
100
AcDbCircle
 62
7
  6
CONTINUOUS
 10
22.1224177255
 20
6.904891804
 40
0.04
100
AcDbArc
 50
0.0
 51
90.0
  0
ARC
  5
30D
100
AcDbEntity
  8
0
100
AcDbCircle
 62
7
  6
CONTINUOUS
 10
14.8674177255
 20
9.1048397201
 40
5.58
100
AcDbArc
 50
337.2266076183
 51
360.0
  0
ARC
  5
30E
100
AcDbEntity
  8
0
100
AcDbCircle
 62
7
  6
CONTINUOUS
 10
27.2274177255
 20
9.1048397201
 40
5.58
100
AcDbArc
 50
180.0
 51
202.7733923817
  0
ARC
  5
30F
100
AcDbEntity
  8
0
100
AcDbCircle
 62
7
  6
CONTINUOUS
 10
20.2374177255
 20
10.934891804
 40
0.2
100
AcDbArc
 50
90.0
 51
180.0
  0
ARC
  5
310
100
AcDbEntity
  8
0
100
AcDbCircle
 62
7
  6
CONTINUOUS
 10
21.8574177255
 20
10.934891804
 40
0.2
100
AcDbArc
 50
0.0
 51
90.0
  0
ARC
  5
311
100
AcDbEntity
  8
0
100
AcDbCircle
 62
7
  6
CONTINUOUS
 10
21.8574177255
 20
10.834891804
 40
0.2
100
AcDbArc
 50
270.0
 51
360.0
  0
ARC
  5
312
100
AcDbEntity
  8
0
100
AcDbCircle
 62
7
  6
CONTINUOUS
 10
20.2374177255
 20
10.834891804
 40
0.2
100
AcDbArc
 50
180.0
 51
270.0
  0
ARC
  5
313
100
AcDbEntity
  8
0
100
AcDbCircle
 62
7
  6
CONTINUOUS
 10
20.2774177255
 20
11.244891804
 40
0.04
100
AcDbArc
 50
90.0
 51
180.0
  0
ARC
  5
314
100
AcDbEntity
  8
0
100
AcDbCircle
 62
7
  6
CONTINUOUS
 10
21.8174177255
 20
11.244891804
 40
0.04
100
AcDbArc
 50
0.0
 51
90.0
  0
ARC
  5
315
100
AcDbEntity
  8
0
100
AcDbCircle
 62
7
  6
CONTINUOUS
 10
21.8174177255
 20
10.524891804
 40
0.04
100
AcDbArc
 50
270.0
 51
360.0
  0
ARC
  5
316
100
AcDbEntity
  8
0
100
AcDbCircle
 62
7
  6
CONTINUOUS
 10
20.2774177255
 20
10.524891804
 40
0.04
100
AcDbArc
 50
180.0
 51
270.0
  0
SPLINE
  5
317
100
AcDbEntity
  8
0
100
AcDbSpline
 62
7
  6
CONTINUOUS
 70
0
 71
3
 72
9
 73
5
 74
0
 42
0.0000001
 43
0.0000001
 44
0.0000000001
 40
0.0
 40
0.0
 40
0.0
 40
0.0
 40
0.4739903026
 40
1.0
 40
1.0
 40
1.0
 40
1.0
 10
13.126087253
 20
6.744891804
 30
0.0
 10
13.1273118887
 20
6.744891804
 30
0.0
 10
13.1299001934
 20
6.7451231137
 30
0.0
 10
13.1324026452
 20
6.7458495395
 30
0.0
 10
13.1336595635
 20
6.7463663931
 30
0.0
  0
SPLINE
  5
318
100
AcDbEntity
  8
0
100
AcDbSpline
 62
7
  6
CONTINUOUS
 70
0
 71
3
 72
9
 73
5
 74
0
 42
0.0000001
 43
0.0000001
 44
0.0000000001
 40
0.0
 40
0.0
 40
0.0
 40
0.0
 40
0.2321930832
 40
1.0
 40
1.0
 40
1.0
 40
1.0
 10
13.1260872781
 20
6.7448918041
 30
0.0
 10
13.1266747157
 20
6.7448918049
 30
0.0
 10
13.1292030697
 20
6.7450076373
 30
0.0
 10
13.1317117041
 20
6.7456050633
 30
0.0
 10
13.13351614
 20
6.7463243527
 30
0.0
  0
SPLINE
  5
319
100
AcDbEntity
  8
0
100
AcDbSpline
 62
7
  6
CONTINUOUS
 70
0
 71
3
 72
22
 73
18
 74
0
 42
0.0000001
 43
0.0000001
 44
0.0000000001
 40
0.0
 40
0.0
 40
0.0
 40
0.0
 40
0.1010842759
 40
0.1567295526
 40
0.2157949397
 40
0.2784927613
 40
0.3439943059
 40
0.4113287754
 40
0.4798799628
 40
0.5494415005
 40
0.6194410513
 40
0.6888481791
 40
0.7564969384
 40
0.8215567395
 40
0.8840450356
 40
0.9437354003
 40
1.0
 40
1.0
 40
1.0
 40
1.0
 10
11.1630395538
 20
6.744891804
 30
0.0
 10
11.1615465777
 20
6.7448918045
 30
0.0
 10
11.159220699
 20
6.7451462403
 30
0.0
 10
11.1561556414
 20
6.7460431649
 30
0.0
 10
11.1537519213
 20
6.7471081684
 30
0.0
 10
11.1513972339
 20
6.7485755356
 30
0.0
 10
11.1491658991
 20
6.7504228905
 30
0.0
 10
11.147154188
 20
6.7526277681
 30
0.0
 10
11.145465101
 20
6.7551650443
 30
0.0
 10
11.144211969
 20
6.7579867309
 30
0.0
 10
11.1433948022
 20
6.7609741004
 30
0.0
 10
11.1430145746
 20
6.7640187557
 30
0.0
 10
11.1430745701
 20
6.7670150615
 30
0.0
 10
11.1435884705
 20
6.7698636546
 30
0.0
 10
11.1444735804
 20
6.7724931015
 30
0.0
 10
11.14564244
 20
6.7748630214
 30
0.0
 10
11.1465889691
 20
6.7762965256
 30
0.0
 10
11.1470903737
 20
6.7769592212
 30
0.0
  0
SPLINE
  5
31A
100
AcDbEntity
  8
0
100
AcDbSpline
 62
7
  6
CONTINUOUS
 70
0
 71
3
 72
22
 73
18
 74
0
 42
0.0000001
 43
0.0000001
 44
0.0000000001
 40
0.0
 40
0.0
 40
0.0
 40
0.0
 40
0.1010836739
 40
0.1567286553
 40
0.2157937693
 40
0.2784913459
 40
0.3439926815
 40
0.4113269946
 40
0.4798781007
 40
0.5494396484
 40
0.619439286
 40
0.6888465649
 40
0.7564955395
 40
0.8215556256
 40
0.8840442629
 40
0.943735005
 40
1.0
 40
1.0
 40
1.0
 40
1.0
 10
12.9317959773
 20
6.744891804
 30
0.0
 10
12.9332889426
 20
6.7448918045
 30
0.0
 10
12.9356148049
 20
6.7451462363
 30
0.0
 10
12.9386798436
 20
6.746043149
 30
0.0
 10
12.9410835525
 20
6.7471081394
 30
0.0
 10
12.9434382333
 20
6.7485754899
 30
0.0
 10
12.9456695666
 20
6.7504228268
 30
0.0
 10
12.9476812811
 20
6.7526276871
 30
0.0
 10
12.9493703768
 20
6.7551649486
 30
0.0
 10
12.9506235226
 20
6.757986625
 30
0.0
 10
12.9514407064
 20
6.7609739896
 30
0.0
 10
12.9518209518
 20
6.7640186454
 30
0.0
 10
12.9517609726
 20
6.7670149575
 30
0.0
 10
12.9512470845
 20
6.7698635618
 30
0.0
 10
12.9503619826
 20
6.7724930235
 30
0.0
 10
12.9491931267
 20
6.7748629599
 30
0.0
 10
12.9482465973
 20
6.776296475
 30
0.0
 10
12.9477451917
 20
6.7769591759
 30
0.0
  0
SPLINE
  5
31B
100
AcDbEntity
  8
0
100
AcDbSpline
 62
7
  6
CONTINUOUS
 70
0
 71
3
 72
9
 73
5
 74
0
 42
0.0000001
 43
0.0000001
 44
0.0000000001
 40
0.0
 40
0.0
 40
0.0
 40
0.0
 40
0.2321930833
 40
1.0
 40
1.0
 40
1.0
 40
1.0
 10
10.9687481729
 20
6.7448918041
 30
0.0
 10
10.9681607353
 20
6.7448918049
 30
0.0
 10
10.9656323813
 20
6.7450076373
 30
0.0
 10
10.9631237468
 20
6.7456050633
 30
0.0
 10
10.961319311
 20
6.7463243527
 30
0.0
  0
SPLINE
  5
31C
100
AcDbEntity
  8
0
100
AcDbSpline
 62
7
  6
CONTINUOUS
 70
0
 71
3
 72
21
 73
17
 74
0
 42
0.0000001
 43
0.0000001
 44
0.0000000001
 40
0.0
 40
0.0
 40
0.0
 40
0.0
 40
0.1024271063
 40
0.1589830634
 40
0.2190129131
 40
0.282759603
 40
0.3494005163
 40
0.4179163055
 40
0.4876269848
 40
0.5581884052
 40
0.6286146748
 40
0.6976813086
 40
0.7644836021
 40
0.8282265772
 40
0.8889320979
 40
1.0
 40
1.0
 40
1.0
 40
1.0
 10
10.968748198
 20
6.744891804
 30
0.0
 10
10.9671677872
 20
6.7448918041
 30
0.0
 10
10.9647017711
 20
6.7451770907
 30
0.0
 10
10.96146694
 20
6.7461808116
 30
0.0
 10
10.9589429233
 20
6.7473776191
 30
0.0
 10
10.9565000738
 20
6.74902903
 30
0.0
 10
10.9542191555
 20
6.7510978108
 30
0.0
 10
10.9522033829
 20
6.7535480411
 30
0.0
 10
10.9505643877
 20
6.7563393281
 30
0.0
 10
10.9494239133
 20
6.7594003642
 30
0.0
 10
10.9487918515
 20
6.7625936345
 30
0.0
 10
10.9486898145
 20
6.7657886241
 30
0.0
 10
10.9490655864
 20
6.7688576288
 30
0.0
 10
10.9498748847
 20
6.7717080065
 30
0.0
 10
10.9513640637
 20
6.7750314195
 30
0.0
 10
10.9529134269
 20
6.7772285869
 30
0.0
 10
10.9540782352
 20
6.7784856109
 30
0.0
  0
LINE
  5
31D
100
AcDbEntity
  8
0
100
AcDbLine
 62
9
  6
CONTINUOUS
 10
13.0471381622
 20
6.744891804
 11
13.0471078368
 21
6.7769592037
  0
SPLINE
  5
31E
100
AcDbEntity
  8
0
100
AcDbSpline
 62
9
  6
CONTINUOUS
 70
0
 71
3
 72
20
 73
16
 74
0
 42
0.0000001
 43
0.0000001
 44
0.0000000001
 40
0.0
 40
0.0
 40
0.0
 40
0.0
 40
0.0393258485
 40
0.0732640732
 40
0.1045350659
 40
0.1366874947
 40
0.1730904224
 40
0.2158575625
 40
0.2659886999
 40
0.3238634439
 40
0.3894472703
 40
0.4621613757
 40
0.6256234197
 40
0.8072558498
 40
1.0
 40
1.0
 40
1.0
 40
1.0
 10
12.048363775
 20
8.5888939972
 30
0.0
 10
12.0480180726
 20
8.5885247061
 30
0.0
 10
12.0473101765
 20
8.5878892011
 30
0.0
 10
12.0460915621
 20
8.587273429
 30
0.0
 10
12.044819214
 20
8.5871205402
 30
0.0
 10
12.0435519516
 20
8.587457684
 30
0.0
 10
12.0423380841
 20
8.5882488996
 30
0.0
 10
12.0411720553
 20
8.5894476595
 30
0.0
 10
12.0400525451
 20
8.5910385673
 30
0.0
 10
12.0389894161
 20
8.5930065738
 30
0.0
 10
12.0379973806
 20
8.5953297681
 30
0.0
 10
12.0367298483
 20
8.599001106
 30
0.0
 10
12.0354315272
 20
8.6042271722
 30
0.0
 10
12.0343535743
 20
8.6110670682
 30
0.0
 10
12.0339480645
 20
8.6158702367
 30
0.0
 10
12.0338207289
 20
8.618346249
 30
0.0
  0
SPLINE
  5
31F
100
AcDbEntity
  8
0
100
AcDbSpline
 62
9
  6
CONTINUOUS
 70
0
 71
3
 72
20
 73
16
 74
0
 42
0.0000001
 43
0.0000001
 44
0.0000000001
 40
0.0
 40
0.0
 40
0.0
 40
0.0
 40
0.1924431498
 40
0.3739598669
 40
0.5374646746
 40
0.6102638487
 40
0.6759781714
 40
0.7340256927
 40
0.7843565486
 40
0.8273246523
 40
0.8638887096
 40
0.896103619
 40
0.9272916819
 40
0.9610040211
 40
1.0
 40
1.0
 40
1.0
 40
1.0
 10
12.03354481
 20
9.1020021064
 30
0.0
 10
12.0336693678
 20
9.1044793554
 30
0.0
 10
12.0340698254
 20
9.1092872439
 30
0.0
 10
12.0351403694
 20
9.1161374508
 30
0.0
 10
12.0364329179
 20
9.1213761283
 30
0.0
 10
12.0376962512
 20
9.12506064
 30
0.0
 10
12.0386860703
 20
9.1273956816
 30
0.0
 10
12.0397474952
 20
9.1293769859
 30
0.0
 10
12.04086573
 20
9.1309824231
 30
0.0
 10
12.0420306856
 20
9.1321966694
 30
0.0
 10
12.0432431172
 20
9.1330044638
 30
0.0
 10
12.0445093111
 20
9.1333606432
 30
0.0
 10
12.0457833284
 20
9.1332279127
 30
0.0
 10
12.0470053608
 20
9.1326305685
 30
0.0
 10
12.047715586
 20
9.1320053089
 30
0.0
 10
12.0480621841
 20
9.1316413152
 30
0.0
  0
SPLINE
  5
320
100
AcDbEntity
  8
0
100
AcDbSpline
 62
9
  6
CONTINUOUS
 70
0
 71
3
 72
11
 73
7
 74
0
 42
0.0000001
 43
0.0000001
 44
0.0000000001
 40
0.0
 40
0.0
 40
0.0
 40
0.0
 40
0.2747344995
 40
0.5331221428
 40
0.7749444073
 40
1.0
 40
1.0
 40
1.0
 40
1.0
 10
12.0480622705
 20
9.1316424805
 30
0.0
 10
12.0553193736
 20
9.1240192856
 30
0.0
 10
12.0693187488
 20
9.1091470498
 30
0.0
 10
12.0893768963
 20
9.0872580759
 30
0.0
 10
12.1078273615
 20
9.0664816819
 30
0.0
 10
12.1194576645
 20
9.0528910869
 30
0.0
 10
12.1249889142
 20
9.0462772374
 30
0.0
  0
SPLINE
  5
321
100
AcDbEntity
  8
0
100
AcDbSpline
 62
9
  6
CONTINUOUS
 70
0
 71
3
 72
19
 73
15
 74
0
 42
0.0000001
 43
0.0000001
 44
0.0000000001
 40
0.0
 40
0.0
 40
0.0
 40
0.0
 40
0.1835465596
 40
0.3499805084
 40
0.4992874897
 40
0.6315438417
 40
0.6913535752
 40
0.7470113929
 40
0.7985878126
 40
0.8461777205
 40
0.889908763
 40
0.9299529752
 40
0.9665442186
 40
1.0
 40
1.0
 40
1.0
 40
1.0
 10
12.1249889142
 20
9.0462772374
 30
0.0
 10
12.1307579874
 20
9.0393790166
 30
0.0
 10
12.1416040856
 20
9.0260952011
 30
0.0
 10
12.1564986533
 20
9.0066846782
 30
0.0
 10
12.1691985319
 20
8.9887756825
 30
0.0
 10
12.178214227
 20
8.9746767708
 30
0.0
 10
12.1842463803
 20
8.9641424104
 30
0.0
 10
12.1880500091
 20
8.9568934482
 30
0.0
 10
12.1912852827
 20
8.9500296055
 30
0.0
 10
12.193949836
 20
8.9435516408
 30
0.0
 10
12.1960414281
 20
8.9374602277
 30
0.0
 10
12.1975574542
 20
8.931754886
 30
0.0
 10
12.198494803
 20
8.9264359604
 30
0.0
 10
12.1987417448
 20
8.9230041866
 30
0.0
 10
12.1987546733
 20
8.9213651116
 30
0.0
  0
SPLINE
  5
322
100
AcDbEntity
  8
0
100
AcDbSpline
 62
9
  6
CONTINUOUS
 70
0
 71
3
 72
9
 73
5
 74
0
 42
0.0000001
 43
0.0000001
 44
0.0000000001
 40
0.0
 40
0.0
 40
0.0
 40
0.0
 40
0.501157728
 40
1.0
 40
1.0
 40
1.0
 40
1.0
 10
11.8271182344
 20
8.1623906667
 30
0.0
 10
11.8298718834
 20
8.1952983531
 30
0.0
 10
11.833610961
 20
8.2611214571
 30
0.0
 10
11.8342540901
 20
8.3270217871
 30
0.0
 10
11.8343775001
 20
8.3598916788
 30
0.0
  0
LINE
  5
323
100
AcDbEntity
  8
0
100
AcDbLine
 62
9
  6
CONTINUOUS
 10
12.9795190243
 20
6.7448918019
 11
12.9794893436
 21
6.7769970534
  0
SPLINE
  5
324
100
AcDbEntity
  8
0
100
AcDbSpline
 62
9
  6
CONTINUOUS
 70
0
 71
3
 72
10
 73
6
 74
0
 42
0.0000001
 43
0.0000001
 44
0.0000000001
 40
0.0
 40
0.0
 40
0.0
 40
0.0
 40
0.2517748164
 40
0.5021660504
 40
1.0
 40
1.0
 40
1.0
 40
1.0
 10
11.7646995217
 20
8.3598917223
 30
0.0
 10
11.7585045701
 20
8.343581074
 30
0.0
 10
11.746698025
 20
8.3108393243
 30
0.0
 10
11.7248746465
 20
8.2450624665
 30
0.0
 10
11.7098252593
 20
8.1954378768
 30
0.0
 10
11.6999229843
 20
8.1623906716
 30
0.0
  0
SPLINE
  5
325
100
AcDbEntity
  8
0
100
AcDbSpline
 62
9
  6
CONTINUOUS
 70
0
 71
3
 72
18
 73
14
 74
0
 42
0.0000001
 43
0.0000001
 44
0.0000000001
 40
0.0
 40
0.0
 40
0.0
 40
0.0
 40
0.0643678187
 40
0.1285077287
 40
0.2559969091
 40
0.3193644584
 40
0.382487747
 40
0.4453702812
 40
0.5080121763
 40
0.6325598175
 40
0.7561176596
 40
0.8786222417
 40
1.0
 40
1.0
 40
1.0
 40
1.0
 10
11.6999250439
 20
8.1623900054
 30
0.0
 10
11.6949809769
 20
8.1458345926
 30
0.0
 10
11.6851989257
 20
8.1127559413
 30
0.0
 10
11.6656529803
 20
8.0468790558
 30
0.0
 10
11.6455483283
 20
7.9814455491
 30
0.0
 10
11.6243159975
 20
7.9166597388
 30
0.0
 10
11.6078445417
 20
7.8685682818
 30
0.0
 10
11.5907486698
 20
7.8209017455
 30
0.0
 10
11.567144764
 20
7.7580610441
 30
0.0
 10
11.5360270475
 20
7.6806548762
 30
0.0
 10
11.4960185189
 20
7.5895557672
 30
0.0
 10
11.4534962819
 20
7.5005451869
 30
0.0
 10
11.4233986089
 20
7.442395631
 30
0.0
 10
11.407963553
 20
7.4137030518
 30
0.0
  0
LINE
  5
326
100
AcDbEntity
  8
0
100
AcDbLine
 62
9
  6
CONTINUOUS
 10
11.407963553
 20
7.4137030518
 11
11.4066147997
 21
7.4111986071
  0
SPLINE
  5
327
100
AcDbEntity
  8
0
100
AcDbSpline
 62
9
  6
CONTINUOUS
 70
0
 71
3
 72
11
 73
7
 74
0
 42
0.0000001
 43
0.0000001
 44
0.0000000001
 40
0.0
 40
0.0
 40
0.0
 40
0.0
 40
0.2449228562
 40
0.4933135601
 40
0.7450516735
 40
1.0
 40
1.0
 40
1.0
 40
1.0
 10
12.9794893677
 20
6.7769970556
 30
0.0
 10
12.9572056572
 20
6.8067856252
 30
0.0
 10
12.9134876943
 20
6.8676645652
 30
0.0
 10
12.850897621
 20
6.961973691
 30
0.0
 10
12.7909339802
 20
7.0597646021
 30
0.0
 10
12.7530078821
 20
7.1267508784
 30
0.0
 10
12.7344877028
 20
7.1607588345
 30
0.0
  0
SPLINE
  5
328
100
AcDbEntity
  8
0
100
AcDbSpline
 62
9
  6
CONTINUOUS
 70
0
 71
3
 72
24
 73
20
 74
0
 42
0.0000001
 43
0.0000001
 44
0.0000000001
 40
0.0
 40
0.0
 40
0.0
 40
0.0
 40
0.2059083462
 40
0.4034126201
 40
0.5842997954
 40
0.6651449912
 40
0.7376502795
 40
0.8005153377
 40
0.8281898931
 40
0.8533650518
 40
0.8962604471
 40
0.9294076623
 40
0.9533864513
 40
0.9625238291
 40
0.9702941646
 40
0.9772906629
 40
0.9841975309
 40
0.9916276518
 40
1.0
 40
1.0
 40
1.0
 40
1.0
 10
12.9794883625
 20
6.7769971376
 30
0.0
 10
12.9772110569
 20
6.7773467315
 30
0.0
 10
12.9727430545
 20
6.7779916394
 30
0.0
 10
12.9662517327
 20
6.7787764063
 30
0.0
 10
12.9611322834
 20
6.7792348868
 30
0.0
 10
12.9573978959
 20
6.7794443295
 30
0.0
 10
12.9549791747
 20
6.7795130836
 30
0.0
 10
12.9531542279
 20
6.779495974
 30
0.0
 10
12.95186078
 20
6.7794326304
 30
0.0
 10
12.9507928089
 20
6.7793482775
 30
0.0
 10
12.9496675282
 20
6.7792041541
 30
0.0
 10
12.9485763297
 20
6.7789517584
 30
0.0
 10
12.9478823684
 20
6.7786646747
 30
0.0
 10
12.9475184056
 20
6.7783825162
 30
0.0
 10
12.9473492022
 20
6.7781711605
 30
0.0
 10
12.9472596637
 20
6.7779411938
 30
0.0
 10
12.9472501799
 20
6.7776986614
 30
0.0
 10
12.9473136505
 20
6.7774498915
 30
0.0
 10
12.9473938586
 20
6.7772910229
 30
0.0
 10
12.9474421097
 20
6.7772107235
 30
0.0
  0
SPLINE
  5
329
100
AcDbEntity
  8
0
100
AcDbSpline
 62
9
  6
CONTINUOUS
 70
0
 71
3
 72
12
 73
8
 74
0
 42
0.0000001
 43
0.0000001
 44
0.0000000001
 40
0.0
 40
0.0
 40
0.0
 40
0.0
 40
0.2457275453
 40
0.36982619
 40
0.4946955623
 40
0.7463612062
 40
1.0
 40
1.0
 40
1.0
 40
1.0
 10
11.7647018278
 20
8.359894728
 30
0.0
 10
11.7636292292
 20
8.3436374556
 30
0.0
 10
11.7622466527
 20
8.3191550282
 30
0.0
 10
11.7604279769
 20
8.2864055162
 30
0.0
 10
11.7584876857
 20
8.253268401
 30
0.0
 10
11.7556946375
 20
8.211577655
 30
0.0
 10
11.7527483019
 20
8.1781994082
 30
0.0
 10
11.7510205173
 20
8.1614712381
 30
0.0
  0
SPLINE
  5
32A
100
AcDbEntity
  8
0
100
AcDbSpline
 62
9
  6
CONTINUOUS
 70
0
 71
3
 72
12
 73
8
 74
0
 42
0.0000001
 43
0.0000001
 44
0.0000000001
 40
0.0
 40
0.0
 40
0.0
 40
0.0
 40
0.2435981983
 40
0.4932263402
 40
0.7459017687
 40
0.8728483169
 40
1.0
 40
1.0
 40
1.0
 40
1.0
 10
11.9840715367
 20
8.4950172175
 30
0.0
 10
11.9842398587
 20
8.4968272322
 30
0.0
 10
11.9848707723
 20
8.5004704967
 30
0.0
 10
11.9866291235
 20
8.5057716124
 30
0.0
 10
11.9887780051
 20
8.5099714395
 30
0.0
 10
11.9909034143
 20
8.513103876
 30
0.0
 10
11.9921025637
 20
8.5145765081
 30
0.0
 10
11.9927323503
 20
8.5152862229
 30
0.0
  0
SPLINE
  5
32B
100
AcDbEntity
  8
0
100
AcDbSpline
 62
9
  6
CONTINUOUS
 70
0
 71
3
 72
14
 73
10
 74
0
 42
0.0000001
 43
0.0000001
 44
0.0000000001
 40
0.0
 40
0.0
 40
0.0
 40
0.0
 40
0.3187517415
 40
0.4645854284
 40
0.5989695854
 40
0.7203413804
 40
0.8279401853
 40
0.9212719769
 40
1.0
 40
1.0
 40
1.0
 40
1.0
 10
11.7510205173
 20
8.1614712381
 30
0.0
 10
11.7456150233
 20
8.162212023
 30
0.0
 10
11.7377110049
 20
8.163126515
 30
0.0
 10
11.7274843453
 20
8.163870791
 30
0.0
 10
11.7206141618
 20
8.1641429465
 30
0.0
 10
11.7143926974
 20
8.1641335138
 30
0.0
 10
11.708880053
 20
8.1638521679
 30
0.0
 10
11.7041206806
 20
8.1633116517
 30
0.0
 10
11.7012254456
 20
8.162738978
 30
0.0
 10
11.6999233623
 20
8.1623917979
 30
0.0
  0
SPLINE
  5
32C
100
AcDbEntity
  8
0
100
AcDbSpline
 62
9
  6
CONTINUOUS
 70
0
 71
3
 72
9
 73
5
 74
0
 42
0.0000001
 43
0.0000001
 44
0.0000000001
 40
0.0
 40
0.0
 40
0.0
 40
0.0
 40
0.2340547112
 40
1.0
 40
1.0
 40
1.0
 40
1.0
 10
11.9775870257
 20
8.4895304888
 30
0.0
 10
11.9781596982
 20
8.4898671352
 30
0.0
 10
11.980540229
 20
8.491418277
 30
0.0
 10
11.9826316972
 20
8.4933879591
 30
0.0
 10
11.9840715732
 20
8.4950166403
 30
0.0
  0
SPLINE
  5
32D
100
AcDbEntity
  8
0
100
AcDbSpline
 62
9
  6
CONTINUOUS
 70
0
 71
3
 72
12
 73
8
 74
0
 42
0.0000001
 43
0.0000001
 44
0.0000000001
 40
0.0
 40
0.0
 40
0.0
 40
0.0
 40
0.2393246585
 40
0.4868000831
 40
0.6131706163
 40
0.7410877084
 40
1.0
 40
1.0
 40
1.0
 40
1.0
 10
11.9840715732
 20
8.4950166403
 30
0.0
 10
11.9837796962
 20
8.4918879026
 30
0.0
 10
11.9827160451
 20
8.4855591065
 30
0.0
 10
11.9802090127
 20
8.4778732758
 30
0.0
 10
11.977429045
 20
8.4718924908
 30
0.0
 10
11.9740863596
 20
8.4660354773
 30
0.0
 10
11.9710291582
 20
8.4619419424
 30
0.0
 10
11.9687781005
 20
8.4593945142
 30
0.0
  0
SPLINE
  5
32E
100
AcDbEntity
  8
0
100
AcDbSpline
 62
9
  6
CONTINUOUS
 70
0
 71
3
 72
11
 73
7
 74
0
 42
0.0000001
 43
0.0000001
 44
0.0000000001
 40
0.0
 40
0.0
 40
0.0
 40
0.0
 40
0.2388446168
 40
0.4864895137
 40
0.7410993294
 40
1.0
 40
1.0
 40
1.0
 40
1.0
 10
11.9775870791
 20
8.4895306982
 30
0.0
 10
11.9773481072
 20
8.4860291466
 30
0.0
 10
11.9762783913
 20
8.4789245063
 30
0.0
 10
11.9728802761
 20
8.4685197563
 30
0.0
 10
11.9674819553
 20
8.4586528042
 30
0.0
 10
11.9626746429
 20
8.4527689967
 30
0.0
 10
11.9599972966
 20
8.4500661553
 30
0.0
  0
SPLINE
  5
32F
100
AcDbEntity
  8
0
100
AcDbSpline
 62
9
  6
CONTINUOUS
 70
0
 71
3
 72
11
 73
7
 74
0
 42
0.0000001
 43
0.0000001
 44
0.0000000001
 40
0.0
 40
0.0
 40
0.0
 40
0.0
 40
0.2951263966
 40
0.558823291
 40
0.7928353126
 40
1.0
 40
1.0
 40
1.0
 40
1.0
 10
11.8857811167
 20
8.4363574982
 30
0.0
 10
11.8864261714
 20
8.4352166412
 30
0.0
 10
11.8877196005
 20
8.4330954921
 30
0.0
 10
11.8898075525
 20
8.4302537909
 30
0.0
 10
11.8919268897
 20
8.4279409525
 30
0.0
 10
11.8934450363
 20
8.4266869362
 30
0.0
 10
11.8942060888
 20
8.4261700713
 30
0.0
  0
SPLINE
  5
330
100
AcDbEntity
  8
0
100
AcDbSpline
 62
9
  6
CONTINUOUS
 70
0
 71
3
 72
10
 73
6
 74
0
 42
0.0000001
 43
0.0000001
 44
0.0000000001
 40
0.0
 40
0.0
 40
0.0
 40
0.0
 40
0.5232610296
 40
0.7647989281
 40
1.0
 40
1.0
 40
1.0
 40
1.0
 10
11.8942060888
 20
8.4261700713
 30
0.0
 10
11.8950857153
 20
8.4255726775
 30
0.0
 10
11.8964822537
 20
8.424833145
 30
0.0
 10
11.8984571593
 20
8.4243254102
 30
0.0
 10
11.899427846
 20
8.4242412351
 30
0.0
 10
11.8999057925
 20
8.4242405941
 30
0.0
  0
SPLINE
  5
331
100
AcDbEntity
  8
0
100
AcDbSpline
 62
9
  6
CONTINUOUS
 70
0
 71
3
 72
9
 73
5
 74
0
 42
0.0000001
 43
0.0000001
 44
0.0000000001
 40
0.0
 40
0.0
 40
0.0
 40
0.0
 40
0.2511606337
 40
1.0
 40
1.0
 40
1.0
 40
1.0
 10
11.797100045
 20
8.3598919459
 30
0.0
 10
11.7937937308
 20
8.3431598728
 30
0.0
 10
11.780015053
 20
8.2766624314
 30
0.0
 10
11.7639762856
 20
8.2106439852
 30
0.0
 10
11.7510217481
 20
8.161470178
 30
0.0
  0
SPLINE
  5
332
100
AcDbEntity
  8
0
100
AcDbSpline
 62
9
  6
CONTINUOUS
 70
0
 71
3
 72
21
 73
17
 74
0
 42
0.0000001
 43
0.0000001
 44
0.0000000001
 40
0.0
 40
0.0
 40
0.0
 40
0.0
 40
0.1648197907
 40
0.3267933415
 40
0.4048867275
 40
0.4801004273
 40
0.5517603758
 40
0.619242812
 40
0.6820632685
 40
0.7400810199
 40
0.7932944282
 40
0.8418045313
 40
0.885930998
 40
0.9264138863
 40
0.9641344199
 40
1.0
 40
1.0
 40
1.0
 40
1.0
 10
11.3603583089
 20
7.1607553549
 30
0.0
 10
11.3551810953
 20
7.1634066157
 30
0.0
 10
11.3447343372
 20
7.168316406
 30
0.0
 10
11.3313697829
 20
7.1734226312
 30
0.0
 10
11.3207201219
 20
7.1766587258
 30
0.0
 10
11.3130142278
 20
7.1785846345
 30
0.0
 10
11.3055807713
 20
7.1800108963
 30
0.0
 10
11.2985045337
 20
7.1809096997
 30
0.0
 10
11.2918602162
 20
7.1812498407
 30
0.0
 10
11.2857129425
 20
7.1810440753
 30
0.0
 10
11.2801134001
 20
7.1803100313
 30
0.0
 10
11.2751054574
 20
7.1790641084
 30
0.0
 10
11.2707288709
 20
7.1773109698
 30
0.0
 10
11.2670011857
 20
7.1750951698
 30
0.0
 10
11.2639249492
 20
7.1724677827
 30
0.0
 10
11.2622781389
 20
7.170437201
 30
0.0
 10
11.2615776181
 20
7.1693830127
 30
0.0
  0
SPLINE
  5
333
100
AcDbEntity
  8
0
100
AcDbSpline
 62
9
  6
CONTINUOUS
 70
0
 71
3
 72
18
 73
14
 74
0
 42
0.0000001
 43
0.0000001
 44
0.0000000001
 40
0.0
 40
0.0
 40
0.0
 40
0.0
 40
0.1629523304
 40
0.3196315741
 40
0.4672569252
 40
0.6035876735
 40
0.7265669473
 40
0.782477417
 40
0.8344295783
 40
0.8822696215
 40
0.9258670803
 40
0.9651295124
 40
1.0
 40
1.0
 40
1.0
 40
1.0
 10
11.8580589516
 20
8.5895288671
 30
0.0
 10
11.8583970751
 20
8.5810268229
 30
0.0
 10
11.8593097016
 20
8.5643586946
 30
0.0
 10
11.8614110858
 20
8.5400467978
 30
0.0
 10
11.8641765631
 20
8.5172000493
 30
0.0
 10
11.8675351126
 20
8.4962130388
 30
0.0
 10
11.8708528023
 20
8.4800833684
 30
0.0
 10
11.8737812649
 20
8.4683891385
 30
0.0
 10
11.8760035834
 20
8.4605669238
 30
0.0
 10
11.8783102259
 20
8.4534418404
 30
0.0
 10
11.8806895682
 20
8.4470425947
 30
0.0
 10
11.8831265194
 20
8.4413956846
 30
0.0
 10
11.8848849518
 20
8.437942499
 30
0.0
 10
11.8857811167
 20
8.4363574982
 30
0.0
  0
SPLINE
  5
334
100
AcDbEntity
  8
0
100
AcDbSpline
 62
9
  6
CONTINUOUS
 70
0
 71
3
 72
23
 73
19
 74
0
 42
0.0000001
 43
0.0000001
 44
0.0000000001
 40
0.0
 40
0.0
 40
0.0
 40
0.0
 40
0.181625697
 40
0.2709496248
 40
0.3584474977
 40
0.5250681554
 40
0.6026390962
 40
0.6752206093
 40
0.7418809855
 40
0.8017933624
 40
0.8543977554
 40
0.8991969665
 40
0.9359942059
 40
0.9648711964
 40
0.9763897075
 40
0.9860293482
 40
0.9938661448
 40
1.0
 40
1.0
 40
1.0
 40
1.0
 10
11.047727526
 20
6.7769591804
 30
0.0
 10
11.0420878436
 20
6.7773801933
 30
0.0
 10
11.0336692805
 20
6.7779385136
 30
0.0
 10
11.0225268046
 20
6.7785843411
 30
0.0
 10
11.0118483684
 20
6.7791602026
 30
0.0
 10
11.0015317918
 20
6.7796518525
 30
0.0
 10
10.9916746215
 20
6.780008995
 30
0.0
 10
10.9849260683
 20
6.7801949392
 30
0.0
 10
10.9787256887
 20
6.7803020118
 30
0.0
 10
10.9731464136
 20
6.7803267353
 30
0.0
 10
10.9682480753
 20
6.7802708617
 30
0.0
 10
10.9640710644
 20
6.7801359524
 30
0.0
 10
10.9606372837
 20
6.779924696
 30
0.0
 10
10.9582447254
 20
6.7796793003
 30
0.0
 10
10.9567057441
 20
6.779434372
 30
0.0
 10
10.9558214192
 20
6.7792496997
 30
0.0
 10
10.955112974
 20
6.7790515495
 30
0.0
 10
10.9547061414
 20
6.7788930062
 30
0.0
 10
10.9545354386
 20
6.7788073387
 30
0.0
  0
LINE
  5
335
100
AcDbEntity
  8
0
100
AcDbLine
 62
9
  6
CONTINUOUS
 10
10.9545354386
 20
6.7788073387
 11
10.954087974
 21
6.7784962777
  0
SPLINE
  5
336
100
AcDbEntity
  8
0
100
AcDbSpline
 62
9
  6
CONTINUOUS
 70
0
 71
3
 72
14
 73
10
 74
0
 42
0.0000001
 43
0.0000001
 44
0.0000000001
 40
0.0
 40
0.0
 40
0.0
 40
0.0
 40
0.1282879002
 40
0.2561491114
 40
0.3831890493
 40
0.5091937027
 40
0.633979343
 40
0.7574372944
 40
1.0
 40
1.0
 40
1.0
 40
1.0
 10
12.343815195
 20
8.1614702601
 30
0.0
 10
12.3542161964
 20
8.1165385435
 30
0.0
 10
12.3765072392
 20
8.0271668233
 30
0.0
 10
12.4148200476
 20
7.8948123766
 30
0.0
 10
12.4576959928
 20
7.7647288238
 30
0.0
 10
12.5049034459
 20
7.6373339384
 30
0.0
 10
12.5562496572
 20
7.5129374593
 30
0.0
 10
12.6295920678
 20
7.352427968
 30
0.0
 10
12.6910191982
 20
7.2358671905
 30
0.0
 10
12.7346895208
 20
7.1603881757
 30
0.0
  0
LINE
  5
337
100
AcDbEntity
  8
0
100
AcDbLine
 62
9
  6
CONTINUOUS
 10
11.0476972081
 20
6.744891804
 11
11.0477275241
 21
6.776959177
  0
SPLINE
  5
338
100
AcDbEntity
  8
0
100
AcDbSpline
 62
9
  6
CONTINUOUS
 70
0
 71
3
 72
9
 73
5
 74
0
 42
0.0000001
 43
0.0000001
 44
0.0000000001
 40
0.0
 40
0.0
 40
0.0
 40
0.0
 40
0.5066762354
 40
1.0
 40
1.0
 40
1.0
 40
1.0
 10
11.3603662856
 20
7.1607517576
 30
0.0
 10
11.3235274988
 20
7.0931969203
 30
0.0
 10
11.246464153
 20
6.9621872856
 30
0.0
 10
11.1602462041
 20
6.8369720738
 30
0.0
 10
11.1153528489
 20
6.7769938205
 30
0.0
  0
LINE
  5
339
100
AcDbEntity
  8
0
100
AcDbLine
 62
9
  6
CONTINUOUS
 10
11.7418426929
 20
8.7655312408
 11
11.6486130512
 21
8.7656905455
  0
SPLINE
  5
33A
100
AcDbEntity
  8
0
100
AcDbSpline
 62
9
  6
CONTINUOUS
 70
0
 71
3
 72
16
 73
12
 74
0
 42
0.0000001
 43
0.0000001
 44
0.0000000001
 40
0.0
 40
0.0
 40
0.0
 40
0.0
 40
0.1133585565
 40
0.233317099
 40
0.2956711632
 40
0.3593097265
 40
0.4891062228
 40
0.6207517621
 40
0.6865723568
 40
0.7518151594
 40
1.0
 40
1.0
 40
1.0
 40
1.0
 10
11.6486167489
 20
8.7656901462
 30
0.0
 10
11.6448861908
 20
8.7660951532
 30
0.0
 10
11.6372716517
 20
8.7676585376
 30
0.0
 10
11.6281573151
 20
8.7713964305
 30
0.0
 10
11.6211503119
 20
8.7755657549
 30
0.0
 10
11.6143129833
 20
8.7805783192
 30
0.0
 10
11.6065748173
 20
8.7881613148
 30
0.0
 10
11.6004250378
 20
8.7971618369
 30
0.0
 10
11.5965159602
 20
8.8049422202
 30
0.0
 10
11.591891711
 20
8.8166189317
 30
0.0
 10
11.5901750048
 20
8.8271220014
 30
0.0
 10
11.5901790025
 20
8.8353375976
 30
0.0
  0
SPLINE
  5
33B
100
AcDbEntity
  8
0
100
AcDbSpline
 62
9
  6
CONTINUOUS
 70
0
 71
3
 72
14
 73
10
 74
0
 42
0.0000001
 43
0.0000001
 44
0.0000000001
 40
0.0
 40
0.0
 40
0.0
 40
0.0
 40
0.256682962
 40
0.3839969372
 40
0.5098222009
 40
0.6341620872
 40
0.7571938665
 40
0.8791731529
 40
1.0
 40
1.0
 40
1.0
 40
1.0
 10
11.6802307257
 20
8.729891804
 30
0.0
 10
11.6798084909
 20
8.7343963428
 30
0.0
 10
11.6780810472
 20
8.7411015382
 30
0.0
 10
11.6737709294
 20
8.7490194382
 30
0.0
 10
11.6696488037
 20
8.7542852789
 30
0.0
 10
11.6647453092
 20
8.7587178536
 30
0.0
 10
11.659202943
 20
8.7621994391
 30
0.0
 10
11.6531841787
 20
8.7646046498
 30
0.0
 10
11.6489628555
 20
8.7654626669
 30
0.0
 10
11.6468454355
 20
8.7656909443
 30
0.0
  0
SPLINE
  5
33C
100
AcDbEntity
  8
0
100
AcDbSpline
 62
9
  6
CONTINUOUS
 70
0
 71
3
 72
16
 73
12
 74
0
 42
0.0000001
 43
0.0000001
 44
0.0000000001
 40
0.0
 40
0.0
 40
0.0
 40
0.0
 40
0.1136192594
 40
0.2338073926
 40
0.2962510409
 40
0.3599568279
 40
0.489808738
 40
0.6213956431
 40
0.6871487764
 40
0.7523027443
 40
1.0
 40
1.0
 40
1.0
 40
1.0
 10
11.6468421219
 20
8.7656913015
 30
0.0
 10
11.6430939019
 20
8.766095213
 30
0.0
 10
11.6354440025
 20
8.7676561116
 30
0.0
 10
11.6262833898
 20
8.7713918748
 30
0.0
 10
11.6192390867
 20
8.7755608509
 30
0.0
 10
11.612367254
 20
8.7805717286
 30
0.0
 10
11.604588447
 20
8.7881524062
 30
0.0
 10
11.5984015145
 20
8.7971558333
 30
0.0
 10
11.5944683459
 20
8.8049390158
 30
0.0
 10
11.589816851
 20
8.8166135413
 30
0.0
 10
11.5880848134
 20
8.8271217549
 30
0.0
 10
11.5880848157
 20
8.8353404221
 30
0.0
  0
SPLINE
  5
33D
100
AcDbEntity
  8
0
100
AcDbSpline
 62
9
  6
CONTINUOUS
 70
0
 71
3
 72
14
 73
10
 74
0
 42
0.0000001
 43
0.0000001
 44
0.0000000001
 40
0.0
 40
0.0
 40
0.0
 40
0.0
 40
0.2956411522
 40
0.4355860274
 40
0.5680753122
 40
0.6916291792
 40
0.8053091252
 40
0.9083376764
 40
1.0
 40
1.0
 40
1.0
 40
1.0
 10
11.8271160201
 20
8.1623913319
 30
0.0
 10
11.8210672041
 20
8.1630062741
 30
0.0
 10
11.8121308769
 20
8.1637030712
 30
0.0
 10
11.8004542719
 20
8.1641192413
 30
0.0
 10
11.7923089983
 20
8.1641529284
 30
0.0
 10
11.7847076769
 20
8.1639032329
 30
0.0
 10
11.7777269771
 20
8.163382855
 30
0.0
 10
11.7714303304
 20
8.1626064251
 30
0.0
 10
11.7674883631
 20
8.1618843662
 30
0.0
 10
11.765649235
 20
8.1614706952
 30
0.0
  0
SPLINE
  5
33E
100
AcDbEntity
  8
0
100
AcDbSpline
 62
9
  6
CONTINUOUS
 70
0
 71
3
 72
14
 73
10
 74
0
 42
0.0000001
 43
0.0000001
 44
0.0000000001
 40
0.0
 40
0.0
 40
0.0
 40
0.0
 40
0.2501679972
 40
0.3752727117
 40
0.500356191
 40
0.6253971034
 40
0.7503712199
 40
0.8752509183
 40
1.0
 40
1.0
 40
1.0
 40
1.0
 10
11.8343752626
 20
8.3598945158
 30
0.0
 10
11.8275184334
 20
8.343770698
 30
0.0
 10
11.8177702679
 20
8.3193521792
 30
0.0
 10
11.8056359112
 20
8.2864755344
 30
0.0
 10
11.7969242114
 20
8.2616799387
 30
0.0
 10
11.7885922166
 20
8.2367641264
 30
0.0
 10
11.7806292122
 20
8.2117430051
 30
0.0
 10
11.7729914497
 20
8.1866423694
 30
0.0
 10
11.7680739032
 20
8.1698644393
 30
0.0
 10
11.7656499285
 20
8.1614702565
 30
0.0
  0
SPLINE
  5
33F
100
AcDbEntity
  8
0
100
AcDbSpline
 62
9
  6
CONTINUOUS
 70
0
 71
3
 72
25
 73
21
 74
0
 42
0.0000001
 43
0.0000001
 44
0.0000000001
 40
0.0
 40
0.0
 40
0.0
 40
0.0
 40
0.0095749532
 40
0.0196991553
 40
0.0307545743
 40
0.043026508
 40
0.0567158316
 40
0.0719600473
 40
0.0888520153
 40
0.1074478086
 40
0.1498231741
 40
0.1991378131
 40
0.2552680827
 40
0.3179364233
 40
0.3868068941
 40
0.4614512022
 40
0.5413687175
 40
0.6260373577
 40
0.8073176159
 40
1.0
 40
1.0
 40
1.0
 40
1.0
 10
11.8928776245
 20
8.4242440462
 30
0.0
 10
11.8923157828
 20
8.4242436471
 30
0.0
 10
11.8911561735
 20
8.4243782386
 30
0.0
 10
11.8894391631
 20
8.4249699755
 30
0.0
 10
11.8877238805
 20
8.4259430134
 30
0.0
 10
11.8860103555
 20
8.4272881361
 30
0.0
 10
11.8842971524
 20
8.4290008084
 30
0.0
 10
11.882584644
 20
8.4310782099
 30
0.0
 10
11.8808743624
 20
8.433517758
 30
0.0
 10
11.8784960855
 20
8.4374217523
 30
0.0
 10
11.8755894443
 20
8.4432150898
 30
0.0
 10
11.8722933252
 20
8.4512440446
 30
0.0
 10
11.8690857052
 20
8.4605775352
 30
0.0
 10
11.8659969497
 20
8.4711509345
 30
0.0
 10
11.8630625601
 20
8.4828909274
 30
0.0
 10
11.8603156699
 20
8.4957127973
 30
0.0
 10
11.8577897552
 20
8.509523319
 30
0.0
 10
11.8546921611
 20
8.529582594
 30
0.0
 10
11.8516322333
 20
8.5563313933
 30
0.0
 10
11.8501581508
 20
8.578234017
 30
0.0
 10
11.8496500744
 20
8.5895288671
 30
0.0
  0
SPLINE
  5
340
100
AcDbEntity
  8
0
100
AcDbSpline
 62
9
  6
CONTINUOUS
 70
0
 71
3
 72
14
 73
10
 74
0
 42
0.0000001
 43
0.0000001
 44
0.0000000001
 40
0.0
 40
0.0
 40
0.0
 40
0.0
 40
0.2566833398
 40
0.3839971763
 40
0.5098225428
 40
0.6341627943
 40
0.7571940828
 40
0.8791726001
 40
1.0
 40
1.0
 40
1.0
 40
1.0
 10
11.6802307257
 20
8.997891804
 30
0.0
 10
11.679808464
 20
8.9933869789
 30
0.0
 10
11.6780808456
 20
8.9866813576
 30
0.0
 10
11.6737702288
 20
8.9787630791
 30
0.0
 10
11.6696476428
 20
8.973497062
 30
0.0
 10
11.6647436657
 20
8.969064406
 30
0.0
 10
11.6592007265
 20
8.9655829604
 30
0.0
 10
11.6531813006
 20
8.9631783261
 30
0.0
 10
11.6489596843
 20
8.9623205888
 30
0.0
 10
11.6468421219
 20
8.9620923066
 30
0.0
  0
SPLINE
  5
341
100
AcDbEntity
  8
0
100
AcDbSpline
 62
9
  6
CONTINUOUS
 70
0
 71
3
 72
25
 73
21
 74
0
 42
0.0000001
 43
0.0000001
 44
0.0000000001
 40
0.0
 40
0.0
 40
0.0
 40
0.0
 40
0.0651269771
 40
0.1302122978
 40
0.1626900841
 40
0.1951043151
 40
0.2274419563
 40
0.2596968063
 40
0.2918625287
 40
0.3239321365
 40
0.3877632932
 40
0.4511594037
 40
0.5140957059
 40
0.576556928
 40
0.6385313855
 40
0.700011542
 40
0.7609920838
 40
0.8214721222
 40
0.8814622589
 40
1.0
 40
1.0
 40
1.0
 40
1.0
 10
11.8271157654
 20
8.1623916108
 30
0.0
 10
11.8251447346
 20
8.1396240026
 30
0.0
 10
11.8200570039
 20
8.0941970582
 30
0.0
 10
11.8112452959
 20
8.0377792165
 30
0.0
 10
11.8029901896
 20
7.9929223337
 30
0.0
 10
11.7962789732
 20
7.9594700556
 30
0.0
 10
11.789102476
 20
7.9261948166
 30
0.0
 10
11.7814853515
 20
7.8931072071
 30
0.0
 10
11.7734562186
 20
7.8602140486
 30
0.0
 10
11.7622580322
 20
7.8166927329
 30
0.0
 10
11.7473511598
 20
7.7628146312
 30
0.0
 10
11.7280722893
 20
7.698926931
 30
0.0
 10
11.707512649
 20
7.6359454259
 30
0.0
 10
11.6857300596
 20
7.5739048197
 30
0.0
 10
11.6627166136
 20
7.512855484
 30
0.0
 10
11.6384738738
 20
7.4528437983
 30
0.0
 10
11.6130691083
 20
7.3938858399
 30
0.0
 10
11.5865349986
 20
7.3360009642
 30
0.0
 10
11.549760955
 20
7.2606202963
 30
0.0
 10
11.5202097689
 20
7.2053453569
 30
0.0
 10
11.4996931552
 20
7.1691630424
 30
0.0
  0
SPLINE
  5
342
100
AcDbEntity
  8
0
100
AcDbSpline
 62
9
  6
CONTINUOUS
 70
0
 71
3
 72
21
 73
17
 74
0
 42
0.0000001
 43
0.0000001
 44
0.0000000001
 40
0.0
 40
0.0
 40
0.0
 40
0.0
 40
0.151710461
 40
0.2274245548
 40
0.3023192932
 40
0.4476078387
 40
0.5170742557
 40
0.5837907481
 40
0.6473546703
 40
0.7075114427
 40
0.7642177848
 40
0.8174890212
 40
0.8674000554
 40
0.9141422745
 40
0.9581662617
 40
1.0
 40
1.0
 40
1.0
 40
1.0
 10
11.4996931552
 20
7.1691630424
 30
0.0
 10
11.4946977954
 20
7.1710863147
 30
0.0
 10
11.4870969681
 20
7.173691322
 30
0.0
 10
11.4768123018
 20
7.1765307654
 30
0.0
 10
11.466634376
 20
7.1788666699
 30
0.0
 10
11.4565142443
 20
7.1804395208
 30
0.0
 10
11.4466031973
 20
7.1811406079
 30
0.0
 10
11.439550957
 20
7.1812125443
 30
0.0
 10
11.4328370698
 20
7.1808232891
 30
0.0
 10
11.4265224664
 20
7.1799631402
 30
0.0
 10
11.4206553965
 20
7.1786578806
 30
0.0
 10
11.4152763402
 20
7.1769287321
 30
0.0
 10
11.4104230608
 20
7.1747979538
 30
0.0
 10
11.4061320533
 20
7.1722781336
 30
0.0
 10
11.4024186901
 20
7.1694117885
 30
0.0
 10
11.4002792096
 20
7.1672517062
 30
0.0
 10
11.3993167188
 20
7.166132664
 30
0.0
  0
SPLINE
  5
343
100
AcDbEntity
  8
0
100
AcDbSpline
 62
9
  6
CONTINUOUS
 70
0
 71
3
 72
24
 73
20
 74
0
 42
0.0000001
 43
0.0000001
 44
0.0000000001
 40
0.0
 40
0.0
 40
0.0
 40
0.0
 40
0.0085978982
 40
0.016193
 40
0.0231748259
 40
0.0301380569
 40
0.037777703
 40
0.0467169446
 40
0.0574281642
 40
0.0702521498
 40
0.1029142998
 40
0.1453958354
 40
0.197911145
 40
0.2605390394
 40
0.3329373031
 40
0.4138116727
 40
0.5950900691
 40
0.7932761537
 40
1.0
 40
1.0
 40
1.0
 40
1.0
 10
11.1473651333
 20
6.7771651968
 30
0.0
 10
11.1474170231
 20
6.7772463649
 30
0.0
 10
11.1475043574
 20
6.7774066131
 30
0.0
 10
11.1475797497
 20
6.77765766
 30
0.0
 10
11.1475828842
 20
6.7779028868
 30
0.0
 10
11.147505724
 20
6.7781367441
 30
0.0
 10
11.1473475227
 20
6.7783522035
 30
0.0
 10
11.1471101558
 20
6.7785484423
 30
0.0
 10
11.1467916894
 20
6.7787272998
 30
0.0
 10
11.1462058466
 20
6.7789615493
 30
0.0
 10
11.1452429957
 20
6.7791906067
 30
0.0
 10
11.143824262
 20
6.7793795881
 30
0.0
 10
11.1420602961
 20
6.7794899138
 30
0.0
 10
11.1399585065
 20
6.7795143778
 30
0.0
 10
11.1375398208
 20
6.7794487989
 30
0.0
 10
11.1337966336
 20
6.7792422814
 30
0.0
 10
11.1286575867
 20
6.7787845581
 30
0.0
 10
11.1221361573
 20
6.7779977485
 30
0.0
 10
11.1176453634
 20
6.7773498884
 30
0.0
 10
11.1153558921
 20
6.776998489
 30
0.0
  0
SPLINE
  5
344
100
AcDbEntity
  8
0
100
AcDbSpline
 62
9
  6
CONTINUOUS
 70
0
 71
3
 72
23
 73
19
 74
0
 42
0.0000001
 43
0.0000001
 44
0.0000000001
 40
0.0
 40
0.0
 40
0.0
 40
0.0
 40
0.1956177735
 40
0.3780214483
 40
0.4623606462
 40
0.5413175788
 40
0.6144185805
 40
0.6812420356
 40
0.7414947192
 40
0.7950334823
 40
0.8418430134
 40
0.8821758889
 40
0.9166133969
 40
0.9462892862
 40
0.9599579309
 40
0.9732311506
 40
0.9864599286
 40
1.0
 40
1.0
 40
1.0
 40
1.0
 10
11.9703166334
 20
9.1135603872
 30
0.0
 10
11.9706485616
 20
9.1199120531
 30
0.0
 10
11.9716381141
 20
9.1321714271
 30
0.0
 10
11.973790261
 20
9.1470625323
 30
0.0
 10
11.9760165033
 20
9.158082553
 30
0.0
 10
11.9778408936
 20
9.1655515332
 30
0.0
 10
11.9798389373
 20
9.1723848538
 30
0.0
 10
11.981988242
 20
9.1785319527
 30
0.0
 10
11.9842657923
 20
9.1839496245
 30
0.0
 10
11.9866466172
 20
9.1886039136
 30
0.0
 10
11.9891111927
 20
9.1924675433
 30
0.0
 10
11.9916420187
 20
9.1955219427
 30
0.0
 10
11.9942279877
 20
9.1977538459
 30
0.0
 10
11.9965036984
 20
9.198934879
 30
0.0
 10
11.9982977065
 20
9.1993802169
 30
0.0
 10
11.9996063729
 20
9.1994813143
 30
0.0
 10
12.0009085014
 20
9.1993558506
 30
0.0
 10
12.0017526641
 20
9.1991259052
 30
0.0
 10
12.002167319
 20
9.1989780023
 30
0.0
  0
SPLINE
  5
345
100
AcDbEntity
  8
0
100
AcDbSpline
 62
9
  6
CONTINUOUS
 70
0
 71
3
 72
14
 73
10
 74
0
 42
0.0000001
 43
0.0000001
 44
0.0000000001
 40
0.0
 40
0.0
 40
0.0
 40
0.0
 40
0.2425692399
 40
0.3660281749
 40
0.4908149774
 40
0.616820773
 40
0.7438588781
 40
0.8717154453
 40
1.0
 40
1.0
 40
1.0
 40
1.0
 10
11.3605391525
 20
7.1610680543
 30
0.0
 10
11.404160106
 20
7.2365031758
 30
0.0
 10
11.4655189195
 20
7.3529915469
 30
0.0
 10
11.53878346
 20
7.5133952375
 30
0.0
 10
11.5900765289
 20
7.6377062538
 30
0.0
 10
11.6372360696
 20
7.7650109318
 30
0.0
 10
11.6800708471
 20
7.8949983514
 30
0.0
 10
11.7183504034
 20
8.0272517251
 30
0.0
 10
11.7406214336
 20
8.1165545802
 30
0.0
 10
11.7510159904
 20
8.1614512352
 30
0.0
  0
SPLINE
  5
346
100
AcDbEntity
  8
0
100
AcDbSpline
 62
9
  6
CONTINUOUS
 70
0
 71
3
 72
18
 73
14
 74
0
 42
0.0000001
 43
0.0000001
 44
0.0000000001
 40
0.0
 40
0.0
 40
0.0
 40
0.0
 40
0.158955048
 40
0.3188255301
 40
0.4739112761
 40
0.6181851775
 40
0.7460133343
 40
0.8025311311
 40
0.853555327
 40
0.8987621991
 40
0.9381579959
 40
0.971852034
 40
1.0
 40
1.0
 40
1.0
 40
1.0
 10
11.9703170534
 20
9.113560363
 30
0.0
 10
11.973737224
 20
9.1133631486
 30
0.0
 10
11.9805926229
 20
9.1128819811
 30
0.0
 10
11.9907609732
 20
9.1119054863
 30
0.0
 10
12.0005824449
 20
9.110667919
 30
0.0
 10
12.0096758196
 20
9.1092145252
 30
0.0
 10
12.0166193679
 20
9.1078022416
 30
0.0
 10
12.0215440275
 20
9.1065825382
 30
0.0
 10
12.0247129447
 20
9.1056877451
 30
0.0
 10
12.0274927466
 20
9.1047808973
 30
0.0
 10
12.0298763347
 20
9.1038721929
 30
0.0
 10
12.0318648255
 20
9.1029706419
 30
0.0
 10
12.0330327421
 20
9.1023230265
 30
0.0
 10
12.0335438655
 20
9.1019962509
 30
0.0
  0
SPLINE
  5
347
100
AcDbEntity
  8
0
100
AcDbSpline
 62
9
  6
CONTINUOUS
 70
0
 71
3
 72
18
 73
14
 74
0
 42
0.0000001
 43
0.0000001
 44
0.0000000001
 40
0.0
 40
0.0
 40
0.0
 40
0.0
 40
0.1589943391
 40
0.3188690413
 40
0.4739219552
 40
0.6181374171
 40
0.7459006383
 40
0.8023933064
 40
0.8534031641
 40
0.8986114796
 40
0.9380293658
 40
0.9717715052
 40
1.0
 40
1.0
 40
1.0
 40
1.0
 10
11.970611694
 20
8.6065234921
 30
0.0
 10
11.974034938
 20
8.6067253723
 30
0.0
 10
11.9808955181
 20
8.6072179846
 30
0.0
 10
11.9910693633
 20
8.6082177766
 30
0.0
 10
12.0008925399
 20
8.609484691
 30
0.0
 10
12.0099838658
 20
8.6109721731
 30
0.0
 10
12.0169228171
 20
8.6124171852
 30
0.0
 10
12.0218420124
 20
8.6136647325
 30
0.0
 10
12.0250067927
 20
8.614579848
 30
0.0
 10
12.0277823265
 20
8.6155071621
 30
0.0
 10
12.0301617333
 20
8.6164362885
 30
0.0
 10
12.0321463335
 20
8.6173580564
 30
0.0
 10
12.0333107628
 20
8.6180196857
 30
0.0
 10
12.0338200591
 20
8.6183532936
 30
0.0
  0
SPLINE
  5
348
100
AcDbEntity
  8
0
100
AcDbSpline
 62
9
  6
CONTINUOUS
 70
0
 71
3
 72
22
 73
18
 74
0
 42
0.0000001
 43
0.0000001
 44
0.0000000001
 40
0.0
 40
0.0
 40
0.0
 40
0.0
 40
0.1957489963
 40
0.3781878369
 40
0.5414146303
 40
0.6144863068
 40
0.6812786218
 40
0.7414991126
 40
0.7950085862
 40
0.8417950185
 40
0.8821117572
 40
0.9165400342
 40
0.946213171
 40
0.9598872073
 40
0.9731738164
 40
0.9864265387
 40
1.0
 40
1.0
 40
1.0
 40
1.0
 10
11.9706115186
 20
8.6065268491
 30
0.0
 10
11.9709421946
 20
8.6001978442
 30
0.0
 10
11.9719476711
 20
8.5879854341
 30
0.0
 10
11.9744786004
 20
8.5706289056
 30
0.0
 10
11.977388861
 20
8.5573705597
 30
0.0
 10
11.9801523662
 20
8.5479510661
 30
0.0
 10
11.9822976879
 20
8.5418349398
 30
0.0
 10
11.9845696239
 20
8.5364451831
 30
0.0
 10
11.986943889
 20
8.531815478
 30
0.0
 10
11.9894013315
 20
8.5279729326
 30
0.0
 10
11.9919243277
 20
8.5249359173
 30
0.0
 10
11.9945010921
 20
8.5227169925
 30
0.0
 10
11.9967680657
 20
8.5215431797
 30
0.0
 10
11.9985554574
 20
8.521101486
 30
0.0
 10
11.9998600646
 20
8.5210020972
 30
0.0
 10
12.0011588377
 20
8.5211283785
 30
0.0
 10
12.0020010885
 20
8.5213582416
 30
0.0
 10
12.0024149744
 20
8.5215059668
 30
0.0
  0
SPLINE
  5
349
100
AcDbEntity
  8
0
100
AcDbSpline
 62
9
  6
CONTINUOUS
 70
0
 71
3
 72
15
 73
11
 74
0
 42
0.0000001
 43
0.0000001
 44
0.0000000001
 40
0.0
 40
0.0
 40
0.0
 40
0.0
 40
0.1091773873
 40
0.2107494867
 40
0.3122427286
 40
0.4205391729
 40
0.5407945661
 40
0.676329159
 40
0.8290649852
 40
1.0
 40
1.0
 40
1.0
 40
1.0
 10
11.97758714
 20
8.4895313221
 30
0.0
 10
11.9766629177
 20
8.4889875178
 30
0.0
 10
11.9747515736
 20
8.4881265699
 30
0.0
 10
11.971675331
 20
8.4876783803
 30
0.0
 10
11.9686102531
 20
8.4881356438
 30
0.0
 10
11.9656104769
 20
8.4894420498
 30
0.0
 10
11.9626875061
 20
8.4915373505
 30
0.0
 10
11.9598409746
 20
8.494384731
 30
0.0
 10
11.9570757292
 20
8.4979594474
 30
0.0
 10
11.9553893893
 20
8.5006602559
 30
0.0
 10
11.9545555234
 20
8.5021174598
 30
0.0
  0
SPLINE
  5
34A
100
AcDbEntity
  8
0
100
AcDbSpline
 62
9
  6
CONTINUOUS
 70
0
 71
3
 72
15
 73
11
 74
0
 42
0.0000001
 43
0.0000001
 44
0.0000000001
 40
0.0
 40
0.0
 40
0.0
 40
0.0
 40
0.029858768
 40
0.0653227513
 40
0.1532833757
 40
0.2634524714
 40
0.3926308754
 40
0.5365386726
 40
0.6895382653
 40
1.0
 40
1.0
 40
1.0
 40
1.0
 10
11.9346606103
 20
8.5997691338
 30
0.0
 10
11.9349709333
 20
8.5999635313
 30
0.0
 10
11.9356752684
 20
8.6003482637
 30
0.0
 10
11.9373913468
 20
8.6011184717
 30
0.0
 10
11.9401073026
 20
8.6020464977
 30
0.0
 10
11.9439928724
 20
8.6030609754
 30
0.0
 10
11.9485980442
 20
8.6040105905
 30
0.0
 10
11.9537566363
 20
8.6048512294
 30
0.0
 10
11.9611447258
 20
8.6058066734
 30
0.0
 10
11.9668112917
 20
8.6062922425
 30
0.0
 10
11.9706115186
 20
8.6065268491
 30
0.0
  0
SPLINE
  5
34B
100
AcDbEntity
  8
0
100
AcDbSpline
 62
9
  6
CONTINUOUS
 70
0
 71
3
 72
18
 73
14
 74
0
 42
0.0000001
 43
0.0000001
 44
0.0000000001
 40
0.0
 40
0.0
 40
0.0
 40
0.0
 40
0.0373007185
 40
0.078443501
 40
0.1234290562
 40
0.1722095973
 40
0.2807910078
 40
0.4033575287
 40
0.4695512062
 40
0.5387108555
 40
0.6847939031
 40
0.839331055
 40
1.0
 40
1.0
 40
1.0
 40
1.0
 10
11.9545554857
 20
8.5021178269
 30
0.0
 10
11.9537578825
 20
8.5031319817
 30
0.0
 10
11.9521866614
 20
8.5053490787
 30
0.0
 10
11.9499909519
 20
8.5090141371
 30
0.0
 10
11.9478508576
 20
8.5131640689
 30
0.0
 10
11.9449829047
 20
8.5195516585
 30
0.0
 10
11.9416559777
 20
8.528658117
 30
0.0
 10
11.9388342163
 20
8.5385560157
 30
0.0
 10
11.9367779481
 20
8.5472382613
 30
0.0
 10
11.9348027181
 20
8.5567717576
 30
0.0
 10
11.9327030164
 20
8.5693946038
 30
0.0
 10
11.9308089756
 20
8.5852424595
 30
0.0
 10
11.9299849237
 20
8.5961182391
 30
0.0
 10
11.9296823745
 20
8.6016675075
 30
0.0
  0
SPLINE
  5
34C
100
AcDbEntity
  8
0
100
AcDbSpline
 62
9
  6
CONTINUOUS
 70
0
 71
3
 72
18
 73
14
 74
0
 42
0.0000001
 43
0.0000001
 44
0.0000000001
 40
0.0
 40
0.0
 40
0.0
 40
0.0
 40
0.1606372384
 40
0.3151887297
 40
0.4613113744
 40
0.5304938116
 40
0.5967088189
 40
0.7193051418
 40
0.8278906625
 40
0.8766608849
 40
0.9216265882
 40
0.9627394055
 40
1.0
 40
1.0
 40
1.0
 40
1.0
 10
11.9293697582
 20
9.1183112373
 30
0.0
 10
11.9296670847
 20
9.1238880792
 30
0.0
 10
11.9304831578
 20
9.1348196883
 30
0.0
 10
11.932371493
 20
9.1507510352
 30
0.0
 10
11.9344715692
 20
9.163442733
 30
0.0
 10
11.9364502448
 20
9.173029219
 30
0.0
 10
11.9385116406
 20
9.181759677
 30
0.0
 10
11.9413427344
 20
9.1917115536
 30
0.0
 10
11.9446835036
 20
9.2008665673
 30
0.0
 10
11.947564711
 20
9.2072863908
 30
0.0
 10
11.9497148781
 20
9.2114556012
 30
0.0
 10
11.9519211911
 20
9.2151360981
 30
0.0
 10
11.9535004187
 20
9.2173615727
 30
0.0
 10
11.954302141
 20
9.2183790872
 30
0.0
  0
SPLINE
  5
34D
100
AcDbEntity
  8
0
100
AcDbSpline
 62
9
  6
CONTINUOUS
 70
0
 71
3
 72
15
 73
11
 74
0
 42
0.0000001
 43
0.0000001
 44
0.0000000001
 40
0.0
 40
0.0
 40
0.0
 40
0.0
 40
0.0905141298
 40
0.1929015755
 40
0.3063453906
 40
0.429884651
 40
0.5624414555
 40
0.7027046809
 40
0.8491938114
 40
1.0
 40
1.0
 40
1.0
 40
1.0
 10
11.9543020297
 20
9.2183804092
 30
0.0
 10
11.9529652234
 20
9.2156496488
 30
0.0
 10
11.9504052883
 20
9.2096873787
 30
0.0
 10
11.9470309742
 20
9.1999594941
 30
0.0
 10
11.9439376709
 20
9.1889814948
 30
0.0
 10
11.9411733103
 20
9.1768756329
 30
0.0
 10
11.9387869207
 20
9.1637733825
 30
0.0
 10
11.9368159262
 20
9.1498236766
 30
0.0
 10
11.9353008638
 20
9.135201148
 30
0.0
 10
11.9346171192
 20
9.1252359871
 30
0.0
 10
11.9343556223
 20
9.1201770911
 30
0.0
  0
SPLINE
  5
34E
100
AcDbEntity
  8
0
100
AcDbSpline
 62
9
  6
CONTINUOUS
 70
0
 71
3
 72
15
 73
11
 74
0
 42
0.0000001
 43
0.0000001
 44
0.0000000001
 40
0.0
 40
0.0
 40
0.0
 40
0.0
 40
0.1508256459
 40
0.297296966
 40
0.4375244907
 40
0.570043355
 40
0.6935565148
 40
0.8069974487
 40
0.9094151406
 40
1.0
 40
1.0
 40
1.0
 40
1.0
 10
11.9346611388
 20
8.5997596275
 30
0.0
 10
11.9349270216
 20
8.59472885
 30
0.0
 10
11.9356176364
 20
8.5848204616
 30
0.0
 10
11.9371378227
 20
8.5702827923
 30
0.0
 10
11.9391084847
 20
8.5564162081
 30
0.0
 10
11.9414895546
 20
8.5433925703
 30
0.0
 10
11.9442440449
 20
8.5313584445
 30
0.0
 10
11.9473236105
 20
8.5204432484
 30
0.0
 10
11.9506809711
 20
8.510767381
 30
0.0
 10
11.9532264847
 20
8.5048350743
 30
0.0
 10
11.9545554095
 20
8.502116872
 30
0.0
  0
SPLINE
  5
34F
100
AcDbEntity
  8
0
100
AcDbSpline
 62
9
  6
CONTINUOUS
 70
0
 71
3
 72
16
 73
12
 74
0
 42
0.0000001
 43
0.0000001
 44
0.0000000001
 40
0.0
 40
0.0
 40
0.0
 40
0.0
 40
0.1139781
 40
0.2359932386
 40
0.2997069678
 40
0.3647712544
 40
0.4970915071
 40
0.6299524877
 40
0.6956558639
 40
0.7602173119
 40
1.0
 40
1.0
 40
1.0
 40
1.0
 10
11.9545553814
 20
8.5021168874
 30
0.0
 10
11.9541735606
 20
8.4982262681
 30
0.0
 10
11.952649204
 20
8.4902294407
 30
0.0
 10
11.9489897164
 20
8.4805627325
 30
0.0
 10
11.9448799352
 20
8.4729939941
 30
0.0
 10
11.9399256326
 20
8.4655226904
 30
0.0
 10
11.9324439396
 20
8.456930723
 30
0.0
 10
11.9235079989
 20
8.4498323354
 30
0.0
 10
11.9157703819
 20
8.4451653592
 30
0.0
 10
11.904377869
 20
8.4395664186
 30
0.0
 10
11.893984515
 20
8.4369489299
 30
0.0
 10
11.8857815449
 20
8.436357625
 30
0.0
  0
SPLINE
  5
350
100
AcDbEntity
  8
0
100
AcDbSpline
 62
9
  6
CONTINUOUS
 70
0
 71
3
 72
18
 73
14
 74
0
 42
0.0000001
 43
0.0000001
 44
0.0000000001
 40
0.0
 40
0.0
 40
0.0
 40
0.0
 40
0.0282378983
 40
0.0622745751
 40
0.1022683596
 40
0.148334831
 40
0.2004696279
 40
0.2582616052
 40
0.3887038931
 40
0.5349178294
 40
0.6901274178
 40
0.8472351868
 40
1.0
 40
1.0
 40
1.0
 40
1.0
 10
11.9296811498
 20
8.6016781293
 30
0.0
 10
11.9290945417
 20
8.6013190131
 30
0.0
 10
11.9277518373
 20
8.6006071782
 30
0.0
 10
11.9254645559
 20
8.5996167241
 30
0.0
 10
11.9227138188
 20
8.598617056
 30
0.0
 10
11.9194977894
 20
8.5976198477
 30
0.0
 10
11.9158262871
 20
8.5966384109
 30
0.0
 10
11.9101241812
 20
8.5953067932
 30
0.0
 10
11.9021177779
 20
8.5937839803
 30
0.0
 10
11.8917077366
 20
8.5922574243
 30
0.0
 10
11.8806072459
 20
8.5910077345
 30
0.0
 10
11.8693149618
 20
8.590087303
 30
0.0
 10
11.8617772477
 20
8.5896789372
 30
0.0
 10
11.8580593119
 20
8.5895288894
 30
0.0
  0
SPLINE
  5
351
100
AcDbEntity
  8
0
100
AcDbSpline
 62
9
  6
CONTINUOUS
 70
0
 71
3
 72
14
 73
10
 74
0
 42
0.0000001
 43
0.0000001
 44
0.0000000001
 40
0.0
 40
0.0
 40
0.0
 40
0.0
 40
0.1287987343
 40
0.2571280577
 40
0.384468032
 40
0.5105715047
 40
0.6352463887
 40
0.7584077933
 40
1.0
 40
1.0
 40
1.0
 40
1.0
 10
11.7656498693
 20
8.1614705943
 30
0.0
 10
11.7560054681
 20
8.1168422885
 30
0.0
 10
11.7348593951
 20
8.0281494827
 30
0.0
 10
11.6984689579
 20
7.896780495
 30
0.0
 10
11.6580457025
 20
7.7675955782
 30
0.0
 10
11.6137927131
 20
7.6410450883
 30
0.0
 10
11.5658602536
 20
7.5174235691
 30
0.0
 10
11.4974883455
 20
7.357939762
 30
0.0
 10
11.4400073805
 20
7.2419284695
 30
0.0
 10
11.3989171012
 20
7.1667862397
 30
0.0
  0
SPLINE
  5
352
100
AcDbEntity
  8
0
100
AcDbSpline
 62
9
  6
CONTINUOUS
 70
0
 71
3
 72
11
 73
7
 74
0
 42
0.0000001
 43
0.0000001
 44
0.0000000001
 40
0.0
 40
0.0
 40
0.0
 40
0.0
 40
0.1792514129
 40
0.3927517153
 40
0.66176128
 40
1.0
 40
1.0
 40
1.0
 40
1.0
 10
11.7844988468
 20
8.6018055684
 30
0.0
 10
11.7845140081
 20
8.6015186342
 30
0.0
 10
11.7846980327
 20
8.6008943121
 30
0.0
 10
11.7853604453
 20
8.6000458396
 30
0.0
 10
11.7864024673
 20
8.5992296176
 30
0.0
 10
11.787259448
 20
8.5987607808
 30
0.0
 10
11.7877476035
 20
8.5985248358
 30
0.0
  0
SPLINE
  5
353
100
AcDbEntity
  8
0
100
AcDbSpline
 62
9
  6
CONTINUOUS
 70
0
 71
3
 72
11
 73
7
 74
0
 42
0.0000001
 43
0.0000001
 44
0.0000000001
 40
0.0
 40
0.0
 40
0.0
 40
0.0
 40
0.1964751345
 40
0.4289766342
 40
0.6971601396
 40
1.0
 40
1.0
 40
1.0
 40
1.0
 10
11.7877476035
 20
8.5985248358
 30
0.0
 10
11.7882884212
 20
8.5982634372
 30
0.0
 10
11.7895019871
 20
8.5977602761
 30
0.0
 10
11.7915290124
 20
8.5970973447
 30
0.0
 10
11.7939044992
 20
8.5964671907
 30
0.0
 10
11.7956107964
 20
8.5960955314
 30
0.0
 10
11.7965187343
 20
8.59591423
 30
0.0
  0
SPLINE
  5
354
100
AcDbEntity
  8
0
100
AcDbSpline
 62
9
  6
CONTINUOUS
 70
0
 71
3
 72
13
 73
9
 74
0
 42
0.0000001
 43
0.0000001
 44
0.0000000001
 40
0.0
 40
0.0
 40
0.0
 40
0.0
 40
0.0950840535
 40
0.2037831636
 40
0.324018703
 40
0.4529611543
 40
0.7255460723
 40
1.0
 40
1.0
 40
1.0
 40
1.0
 10
11.7965187343
 20
8.59591423
 30
0.0
 10
11.798168368
 20
8.5955848232
 30
0.0
 10
11.8017260521
 20
8.5949888353
 30
0.0
 10
11.8074183406
 20
8.5943001921
 30
0.0
 10
11.8137279992
 20
8.5937622117
 30
0.0
 10
11.8229450254
 20
8.5932387002
 30
0.0
 10
11.8349066084
 20
8.5930157027
 30
0.0
 10
11.8445849639
 20
8.5932083574
 30
0.0
 10
11.8494371219
 20
8.5933901885
 30
0.0
  0
LINE
  5
355
100
AcDbEntity
  8
0
100
AcDbLine
 62
9
  6
CONTINUOUS
 10
11.2356214242
 20
6.744891804
 11
11.2356460823
 21
6.7784857355
  0
SPLINE
  5
356
100
AcDbEntity
  8
0
100
AcDbSpline
 62
9
  6
CONTINUOUS
 70
0
 71
3
 72
14
 73
10
 74
0
 42
0.0000001
 43
0.0000001
 44
0.0000000001
 40
0.0
 40
0.0
 40
0.0
 40
0.0
 40
0.1250668677
 40
0.2501708629
 40
0.3752750524
 40
0.5003560902
 40
0.6253989054
 40
0.7503794072
 40
1.0
 40
1.0
 40
1.0
 40
1.0
 10
12.260460183
 20
8.3598947268
 30
0.0
 10
12.2638531247
 20
8.3518190849
 30
0.0
 10
12.2705088901
 20
8.3356099269
 30
0.0
 10
12.2800826366
 20
8.3111306375
 30
0.0
 10
12.2892226197
 20
8.286484867
 30
0.0
 10
12.2979284711
 20
8.2616871918
 30
0.0
 10
12.3062446202
 20
8.2367654944
 30
0.0
 10
12.3168580223
 20
8.2034187598
 30
0.0
 10
12.3243514621
 20
8.1782723728
 30
0.0
 10
12.3291875051
 20
8.1614715716
 30
0.0
  0
SPLINE
  5
357
100
AcDbEntity
  8
0
100
AcDbSpline
 62
9
  6
CONTINUOUS
 70
0
 71
3
 72
19
 73
15
 74
0
 42
0.0000001
 43
0.0000001
 44
0.0000000001
 40
0.0
 40
0.0
 40
0.0
 40
0.0
 40
0.1783128247
 40
0.3475585863
 40
0.5035415221
 40
0.6430339358
 40
0.7057622786
 40
0.7634242067
 40
0.8158482244
 40
0.8629214134
 40
0.9046176487
 40
0.9410850142
 40
0.9726631898
 40
1.0
 40
1.0
 40
1.0
 40
1.0
 10
11.7702559338
 20
8.6062200243
 30
0.0
 10
11.7705294045
 20
8.6008062149
 30
0.0
 10
11.771300991
 20
8.59026404
 30
0.0
 10
11.7731681708
 20
8.5750638063
 30
0.0
 10
11.7756611432
 20
8.5611503797
 30
0.0
 10
11.7782600436
 20
8.5505647367
 30
0.0
 10
11.7806150213
 20
8.5430210267
 30
0.0
 10
11.7824145448
 20
8.538082882
 30
0.0
 10
11.7842948254
 20
8.5336877417
 30
0.0
 10
11.7862421178
 20
8.5298582382
 30
0.0
 10
11.7882445978
 20
8.5266140075
 30
0.0
 10
11.7902908343
 20
8.5239685915
 30
0.0
 10
11.7923707048
 20
8.5219329103
 30
0.0
 10
11.7938757905
 20
8.5209308682
 30
0.0
 10
11.7946217889
 20
8.5205646541
 30
0.0
  0
SPLINE
  5
358
100
AcDbEntity
  8
0
100
AcDbSpline
 62
9
  6
CONTINUOUS
 70
0
 71
3
 72
19
 73
15
 74
0
 42
0.0000001
 43
0.0000001
 44
0.0000000001
 40
0.0
 40
0.0
 40
0.0
 40
0.0
 40
0.1952450018
 40
0.3756575287
 40
0.5372466782
 40
0.6767627468
 40
0.7375471849
 40
0.7920425485
 40
0.8401216442
 40
0.8819338766
 40
0.917914917
 40
0.9487583046
 40
0.9755656569
 40
1.0
 40
1.0
 40
1.0
 40
1.0
 10
11.7702555078
 20
8.6062200681
 30
0.0
 10
11.7684932096
 20
8.6064010958
 30
0.0
 10
11.7651072717
 20
8.6067989195
 30
0.0
 10
11.7602879756
 20
8.6075412912
 30
0.0
 10
11.756003751
 20
8.6084071317
 30
0.0
 10
11.7528284086
 20
8.609257815
 30
0.0
 10
11.7506414795
 20
8.6100105239
 30
0.0
 10
11.7492684441
 20
8.6105715879
 30
0.0
 10
11.7480934739
 20
8.6111544116
 30
0.0
 10
11.7471208915
 20
8.6117572876
 30
0.0
 10
11.7463507237
 20
8.6123776841
 30
0.0
 10
11.7457826262
 20
8.6130163937
 30
0.0
 10
11.7454194957
 20
8.6136756532
 30
0.0
 10
11.7453207601
 20
8.6141390437
 30
0.0
 10
11.7453106832
 20
8.6143605216
 30
0.0
  0
SPLINE
  5
359
100
AcDbEntity
  8
0
100
AcDbSpline
 62
9
  6
CONTINUOUS
 70
0
 71
3
 72
19
 73
15
 74
0
 42
0.0000001
 43
0.0000001
 44
0.0000000001
 40
0.0
 40
0.0
 40
0.0
 40
0.0
 40
0.1964925546
 40
0.3777597367
 40
0.5398037272
 40
0.67939313
 40
0.7400885033
 40
0.7944192125
 40
0.842261189
 40
0.8837652118
 40
0.9193716219
 40
0.9497782282
 40
0.9760940222
 40
1.0
 40
1.0
 40
1.0
 40
1.0
 10
11.7699806207
 20
9.1138652738
 30
0.0
 10
11.7682136272
 20
9.1136876039
 30
0.0
 10
11.764821161
 20
9.1132972786
 30
0.0
 10
11.7599957363
 20
9.1125688286
 30
0.0
 10
11.7557128657
 20
9.1117201054
 30
0.0
 10
11.7525422571
 20
9.1108867237
 30
0.0
 10
11.750361274
 20
9.110149789
 30
0.0
 10
11.7489942481
 20
9.1096012651
 30
0.0
 10
11.7478255703
 20
9.109031918
 30
0.0
 10
11.7468592499
 20
9.1084433808
 30
0.0
 10
11.7460949341
 20
9.1078381588
 30
0.0
 10
11.7455317808
 20
9.1072153865
 30
0.0
 10
11.7451721788
 20
9.1065725611
 30
0.0
 10
11.7450747609
 20
9.1061200904
 30
0.0
 10
11.7450651821
 20
9.1059042401
 30
0.0
  0
LINE
  5
35A
100
AcDbEntity
  8
0
100
AcDbLine
 62
9
  6
CONTINUOUS
 10
11.6486129045
 20
8.9620930468
 11
11.7418794294
 21
8.9622524614
  0
SPLINE
  5
35B
100
AcDbEntity
  8
0
100
AcDbSpline
 62
9
  6
CONTINUOUS
 70
0
 71
3
 72
16
 73
12
 74
0
 42
0.0000001
 43
0.0000001
 44
0.0000000001
 40
0.0
 40
0.0
 40
0.0
 40
0.0
 40
0.2476972557
 40
0.3128512236
 40
0.3786043569
 40
0.510191262
 40
0.6400431721
 40
0.7037489591
 40
0.7661926074
 40
0.8863807406
 40
1.0
 40
1.0
 40
1.0
 40
1.0
 10
11.5880848157
 20
8.892443186
 30
0.0
 10
11.5880848134
 20
8.9006618532
 30
0.0
 10
11.589816851
 20
8.9111700668
 30
0.0
 10
11.5944683459
 20
8.9228445923
 30
0.0
 10
11.5984015145
 20
8.9306277748
 30
0.0
 10
11.6045884469
 20
8.9396312019
 30
0.0
 10
11.612367254
 20
8.9472118795
 30
0.0
 10
11.6192390866
 20
8.9522227572
 30
0.0
 10
11.6262833898
 20
8.9563917333
 30
0.0
 10
11.6354440025
 20
8.9601274965
 30
0.0
 10
11.6430939019
 20
8.9616883951
 30
0.0
 10
11.6468421219
 20
8.9620923066
 30
0.0
  0
SPLINE
  5
35C
100
AcDbEntity
  8
0
100
AcDbSpline
 62
9
  6
CONTINUOUS
 70
0
 71
3
 72
16
 73
12
 74
0
 42
0.0000001
 43
0.0000001
 44
0.0000000001
 40
0.0
 40
0.0
 40
0.0
 40
0.0
 40
0.1133532814
 40
0.2333077335
 40
0.2956603267
 40
0.3592978229
 40
0.489093472
 40
0.6207400787
 40
0.6865618488
 40
0.7518062019
 40
1.0
 40
1.0
 40
1.0
 40
1.0
 10
11.6486167489
 20
8.9620934619
 30
0.0
 10
11.6448862922
 20
8.9616884659
 30
0.0
 10
11.6372719091
 20
8.9601251382
 30
0.0
 10
11.6281577091
 20
8.9563873645
 30
0.0
 10
11.6211507267
 20
8.9522181264
 30
0.0
 10
11.6143133162
 20
8.9472055859
 30
0.0
 10
11.6065749732
 20
8.939622508
 30
0.0
 10
11.6004250323
 20
8.9306217799
 30
0.0
 10
11.5965158364
 20
8.9228411258
 30
0.0
 10
11.5918914192
 20
8.9111638027
 30
0.0
 10
11.5901747938
 20
8.9006601195
 30
0.0
 10
11.5901790034
 20
8.8924440677
 30
0.0
  0
SPLINE
  5
35D
100
AcDbEntity
  8
0
100
AcDbSpline
 62
9
  6
CONTINUOUS
 70
0
 71
3
 72
15
 73
11
 74
0
 42
0.0000001
 43
0.0000001
 44
0.0000000001
 40
0.0
 40
0.0
 40
0.0
 40
0.0
 40
0.1281621303
 40
0.2560451052
 40
0.3829684097
 40
0.5087443171
 40
0.6333338511
 40
0.7566856225
 40
0.8788225756
 40
1.0
 40
1.0
 40
1.0
 40
1.0
 10
11.6802307257
 20
8.997891804
 30
0.0
 10
11.6805447466
 20
9.0012418814
 30
0.0
 10
11.6816302412
 20
9.0079002754
 30
0.0
 10
11.6845730909
 20
9.0175455087
 30
0.0
 10
11.6887930293
 20
9.0266383528
 30
0.0
 10
11.6941881
 20
9.034984663
 30
0.0
 10
11.7006561921
 20
9.0424070158
 30
0.0
 10
11.7080523226
 20
9.0487618278
 30
0.0
 10
11.716231742
 20
9.0539025585
 30
0.0
 10
11.7221160695
 20
9.0564627675
 30
0.0
 10
11.7251224445
 20
9.0575034062
 30
0.0
  0
SPLINE
  5
35E
100
AcDbEntity
  8
0
100
AcDbSpline
 62
9
  6
CONTINUOUS
 70
0
 71
3
 72
14
 73
10
 74
0
 42
0.0000001
 43
0.0000001
 44
0.0000000001
 40
0.0
 40
0.0
 40
0.0
 40
0.0
 40
0.0916625027
 40
0.194691217
 40
0.3083712898
 40
0.4319252272
 40
0.5644145083
 40
0.7043592967
 40
1.0
 40
1.0
 40
1.0
 40
1.0
 10
12.3291875051
 20
8.1614715716
 30
0.0
 10
12.3273483467
 20
8.1618852431
 30
0.0
 10
12.323406316
 20
8.1626073015
 30
0.0
 10
12.3171095709
 20
8.1633837274
 30
0.0
 10
12.3101287664
 20
8.1639040983
 30
0.0
 10
12.3025273358
 20
8.1641537839
 30
0.0
 10
12.2943819503
 20
8.1641200842
 30
0.0
 10
12.2827051958
 20
8.1637038942
 30
0.0
 10
12.2737687571
 20
8.1630070801
 30
0.0
 10
12.2677198673
 20
8.1623921258
 30
0.0
  0
SPLINE
  5
35F
100
AcDbEntity
  8
0
100
AcDbSpline
 62
9
  6
CONTINUOUS
 70
0
 71
3
 72
15
 73
11
 74
0
 42
0.0000001
 43
0.0000001
 44
0.0000000001
 40
0.0
 40
0.0
 40
0.0
 40
0.0
 40
0.1223512463
 40
0.2456903301
 40
0.3698552001
 40
0.4947253419
 40
0.6202434738
 40
0.7463594677
 40
0.8729829808
 40
1.0
 40
1.0
 40
1.0
 40
1.0
 10
12.3301337023
 20
8.3598945169
 30
0.0
 10
12.330629632
 20
8.351797273
 30
0.0
 10
12.3315986435
 20
8.3355357653
 30
0.0
 10
12.3330120172
 20
8.311053526
 30
0.0
 10
12.3344175174
 20
8.2864035539
 30
0.0
 10
12.3358658459
 20
8.2616112984
 30
0.0
 10
12.3374510962
 20
8.2366976121
 30
0.0
 10
12.3392668617
 20
8.2116828749
 30
0.0
 10
12.3413608753
 20
8.1865900928
 30
0.0
 10
12.3429585064
 20
8.1698481576
 30
0.0
 10
12.3438137897
 20
8.1614699222
 30
0.0
  0
SPLINE
  5
360
100
AcDbEntity
  8
0
100
AcDbSpline
 62
9
  6
CONTINUOUS
 70
0
 71
3
 72
13
 73
9
 74
0
 42
0.0000001
 43
0.0000001
 44
0.0000000001
 40
0.0
 40
0.0
 40
0.0
 40
0.0
 40
0.2489056748
 40
0.3736531432
 40
0.49858897
 40
0.6237016669
 40
0.7489806969
 40
1.0
 40
1.0
 40
1.0
 40
1.0
 10
12.3438137897
 20
8.1614699222
 30
0.0
 10
12.3394966891
 20
8.1778128637
 30
0.0
 10
12.3331950283
 20
8.2023944311
 30
0.0
 10
12.325137034
 20
8.2352816775
 30
0.0
 10
12.3192570926
 20
8.2600463546
 30
0.0
 10
12.3135618503
 20
8.2848912529
 30
0.0
 10
12.306232901
 20
8.318144996
 30
0.0
 10
12.301052763
 20
8.3431710084
 30
0.0
 10
12.297733526
 20
8.359891804
 30
0.0
  0
SPLINE
  5
361
100
AcDbEntity
  8
0
100
AcDbSpline
 62
9
  6
CONTINUOUS
 70
0
 71
3
 72
14
 73
10
 74
0
 42
0.0000001
 43
0.0000001
 44
0.0000000001
 40
0.0
 40
0.0
 40
0.0
 40
0.0
 40
0.0787283142
 40
0.1720603518
 40
0.2796593338
 40
0.4010312146
 40
0.5354153476
 40
0.6812488948
 40
1.0
 40
1.0
 40
1.0
 40
1.0
 10
12.39491087
 20
8.1623910041
 30
0.0
 10
12.3936087928
 20
8.1627381774
 30
0.0
 10
12.3907135744
 20
8.1633108383
 30
0.0
 10
12.3859542334
 20
8.1638513384
 30
0.0
 10
12.3804416317
 20
8.1641326698
 30
0.0
 10
12.3742202219
 20
8.1641420902
 30
0.0
 10
12.367350105
 20
8.163869925
 30
0.0
 10
12.3571235567
 20
8.16312564
 30
0.0
 10
12.3492196276
 20
8.1622111461
 30
0.0
 10
12.3438141964
 20
8.1614703617
 30
0.0
  0
SPLINE
  5
362
100
AcDbEntity
  8
0
100
AcDbSpline
 62
9
  6
CONTINUOUS
 70
0
 71
3
 72
17
 73
13
 74
0
 42
0.0000001
 43
0.0000001
 44
0.0000000001
 40
0.0
 40
0.0
 40
0.0
 40
0.0
 40
0.0643759164
 40
0.1285213541
 40
0.2560203062
 40
0.3193916498
 40
0.3825179221
 40
0.5080424155
 40
0.6325894327
 40
0.7561404975
 40
0.8786348503
 40
1.0
 40
1.0
 40
1.0
 40
1.0
 10
12.3949116629
 20
8.162391285
 30
0.0
 10
12.3998724126
 20
8.1457767275
 30
0.0
 10
12.4096883121
 20
8.1125808771
 30
0.0
 10
12.4293045514
 20
8.0464724147
 30
0.0
 10
12.4494855888
 20
7.9808113495
 30
0.0
 10
12.4708054805
 20
7.9158033177
 30
0.0
 10
12.4928180946
 20
7.8515888961
 30
0.0
 10
12.5219029006
 20
7.7723884959
 30
0.0
 10
12.5594917581
 20
7.6790214354
 30
0.0
 10
12.5996922278
 20
7.5876384808
 30
0.0
 10
12.642423033
 20
7.4983614229
 30
0.0
 10
12.6726701497
 20
7.4400431575
 30
0.0
 10
12.6881823667
 20
7.4112690602
 30
0.0
  0
LINE
  5
363
100
AcDbEntity
  8
0
100
AcDbLine
 62
9
  6
CONTINUOUS
 10
11.1153165776
 20
6.744891802
 11
11.1153462213
 21
6.7769970322
  0
SPLINE
  5
364
100
AcDbEntity
  8
0
100
AcDbSpline
 62
9
  6
CONTINUOUS
 70
0
 71
3
 72
22
 73
18
 74
0
 42
0.0000001
 43
0.0000001
 44
0.0000000001
 40
0.0
 40
0.0
 40
0.0
 40
0.0
 40
0.0283320127
 40
0.0604057075
 40
0.0966433337
 40
0.1373217144
 40
0.1826238654
 40
0.2326708996
 40
0.2875412964
 40
0.34727816
 40
0.4119013298
 40
0.4814156704
 40
0.555815101
 40
0.6350824481
 40
0.7191815076
 40
0.8080675712
 40
1.0
 40
1.0
 40
1.0
 40
1.0
 10
12.1987547976
 20
8.8038981392
 30
0.0
 10
12.1987362057
 20
8.8013891672
 30
0.0
 10
12.1982183005
 20
8.796040345
 30
0.0
 10
12.196281851
 20
8.7876867975
 30
0.0
 10
12.1931574094
 20
8.778540366
 30
0.0
 10
12.1888527016
 20
8.768600287
 30
0.0
 10
12.1833736632
 20
8.7578647658
 30
0.0
 10
12.1767260372
 20
8.7463361308
 30
0.0
 10
12.168916141
 20
8.7340182698
 30
0.0
 10
12.1599532927
 20
8.7209154239
 30
0.0
 10
12.1498476357
 20
8.7070327349
 30
0.0
 10
12.1386096482
 20
8.6923758477
 30
0.0
 10
12.1262501904
 20
8.6769507374
 30
0.0
 10
12.1127811836
 20
8.6607645579
 30
0.0
 10
12.0982174619
 20
8.6438243046
 30
0.0
 10
12.0768062234
 20
8.6196175034
 30
0.0
 10
12.0599782347
 20
8.6013031353
 30
0.0
 10
12.0483638536
 20
8.5888929515
 30
0.0
  0
SPLINE
  5
365
100
AcDbEntity
  8
0
100
AcDbSpline
 62
9
  6
CONTINUOUS
 70
0
 71
3
 72
15
 73
11
 74
0
 42
0.0000001
 43
0.0000001
 44
0.0000000001
 40
0.0
 40
0.0
 40
0.0
 40
0.0
 40
0.1260477846
 40
0.2526814371
 40
0.3795465543
 40
0.5061845085
 40
0.6320159058
 40
0.7565321846
 40
0.8793710065
 40
1.0
 40
1.0
 40
1.0
 40
1.0
 10
12.0316687146
 20
9.179482281
 30
0.0
 10
12.0331628487
 20
9.1778865034
 30
0.0
 10
12.0359895239
 20
9.1745245479
 30
0.0
 10
12.0396567094
 20
9.1690425235
 30
0.0
 10
12.0427012314
 20
9.1631800774
 30
0.0
 10
12.0451069128
 20
9.1570440838
 30
0.0
 10
12.0468495028
 20
9.1507299197
 30
0.0
 10
12.0479134088
 20
9.1443342219
 30
0.0
 10
12.0483383863
 20
9.1379569884
 30
0.0
 10
12.0482193333
 20
9.1337288261
 30
0.0
 10
12.0480621196
 20
9.1316426416
 30
0.0
  0
SPLINE
  5
366
100
AcDbEntity
  8
0
100
AcDbSpline
 62
9
  6
CONTINUOUS
 70
0
 71
3
 72
9
 73
5
 74
0
 42
0.0000001
 43
0.0000001
 44
0.0000000001
 40
0.0
 40
0.0
 40
0.0
 40
0.0
 40
0.522573885
 40
1.0
 40
1.0
 40
1.0
 40
1.0
 10
11.9836906768
 20
9.2256586193
 30
0.0
 10
11.9827033092
 20
9.2267568385
 30
0.0
 10
11.9806761508
 20
9.2287415032
 30
0.0
 10
11.9783522034
 20
9.2303784768
 30
0.0
 10
11.9771796447
 20
9.231045945
 30
0.0
  0
SPLINE
  5
367
100
AcDbEntity
  8
0
100
AcDbSpline
 62
9
  6
CONTINUOUS
 70
0
 71
3
 72
12
 73
8
 74
0
 42
0.0000001
 43
0.0000001
 44
0.0000000001
 40
0.0
 40
0.0
 40
0.0
 40
0.0
 40
0.2388871268
 40
0.3619041338
 40
0.4868140302
 40
0.7413753744
 40
1.0
 40
1.0
 40
1.0
 40
1.0
 10
11.9771796447
 20
9.231045945
 30
0.0
 10
11.9769373499
 20
9.2346000489
 30
0.0
 10
11.9761242921
 20
9.2399677908
 30
0.0
 10
11.9741456178
 20
9.2469592163
 30
0.0
 10
11.971474021
 20
9.2539705866
 30
0.0
 10
11.9668348227
 20
9.2623441308
 30
0.0
 10
11.9619165298
 20
9.268276708
 30
0.0
 10
11.9591789507
 20
9.270993264
 30
0.0
  0
SPLINE
  5
368
100
AcDbEntity
  8
0
100
AcDbSpline
 62
9
  6
CONTINUOUS
 70
0
 71
3
 72
12
 73
8
 74
0
 42
0.0000001
 43
0.0000001
 44
0.0000000001
 40
0.0
 40
0.0
 40
0.0
 40
0.0
 40
0.2390005891
 40
0.4863987249
 40
0.612826692
 40
0.7408463537
 40
1.0
 40
1.0
 40
1.0
 40
1.0
 10
11.9836906791
 20
9.2256588541
 30
0.0
 10
11.9833944575
 20
9.2288357779
 30
0.0
 10
11.9823084282
 20
9.2352651338
 30
0.0
 10
11.9797387018
 20
9.2430693816
 30
0.0
 10
11.9768826751
 20
9.2491381919
 30
0.0
 10
11.9734468348
 20
9.2550784362
 30
0.0
 10
11.9703044971
 20
9.2592221266
 30
0.0
 10
11.9679906969
 20
9.2617943256
 30
0.0
  0
SPLINE
  5
369
100
AcDbEntity
  8
0
100
AcDbSpline
 62
9
  6
CONTINUOUS
 70
0
 71
3
 72
15
 73
11
 74
0
 42
0.0000001
 43
0.0000001
 44
0.0000000001
 40
0.0
 40
0.0
 40
0.0
 40
0.0
 40
0.1708210223
 40
0.3236007572
 40
0.4593156183
 40
0.5798398787
 40
0.6884037783
 40
0.7900229128
 40
0.8914183876
 40
1.0
 40
1.0
 40
1.0
 40
1.0
 10
11.9543020789
 20
9.2183800186
 30
0.0
 10
11.9551308887
 20
9.2198263459
 30
0.0
 10
11.9568069851
 20
9.2225084295
 30
0.0
 10
11.95955353
 20
9.2260618872
 30
0.0
 10
11.962380215
 20
9.2288987583
 30
0.0
 10
11.9652820024
 20
9.2309948865
 30
0.0
 10
11.9682589202
 20
9.2323148298
 30
0.0
 10
11.9713004699
 20
9.2328007917
 30
0.0
 10
11.9743556156
 20
9.2323970558
 30
0.0
 10
11.9762594322
 20
9.2315712387
 30
0.0
 10
11.9771796942
 20
9.2310460018
 30
0.0
  0
SPLINE
  5
36A
100
AcDbEntity
  8
0
100
AcDbSpline
 62
9
  6
CONTINUOUS
 70
0
 71
3
 72
12
 73
8
 74
0
 42
0.0000001
 43
0.0000001
 44
0.0000000001
 40
0.0
 40
0.0
 40
0.0
 40
0.0
 40
0.2405946878
 40
0.4891661837
 40
0.7427032556
 40
0.8709267104
 40
1.0
 40
1.0
 40
1.0
 40
1.0
 10
11.9836908492
 20
9.2256585652
 30
0.0
 10
11.9838595449
 20
9.2238435026
 30
0.0
 10
11.9844921379
 20
9.2201747061
 30
0.0
 10
11.9862675166
 20
9.2148143436
 30
0.0
 10
11.9884647488
 20
9.2105475247
 30
0.0
 10
11.9906609124
 20
9.2073556426
 30
0.0
 10
11.9919073191
 20
9.2058526655
 30
0.0
 10
11.9925631315
 20
9.205127224
 30
0.0
  0
SPLINE
  5
36B
100
AcDbEntity
  8
0
100
AcDbSpline
 62
9
  6
CONTINUOUS
 70
0
 71
3
 72
15
 73
11
 74
0
 42
0.0000001
 43
0.0000001
 44
0.0000000001
 40
0.0
 40
0.0
 40
0.0
 40
0.0
 40
0.0289244892
 40
0.0633168572
 40
0.1489529819
 40
0.2569872287
 40
0.384786024
 40
0.5285742591
 40
0.6828872418
 40
1.0
 40
1.0
 40
1.0
 40
1.0
 10
11.9343553689
 20
9.1201693657
 30
0.0
 10
11.934657784
 20
9.119984432
 30
0.0
 10
11.9353430208
 20
9.1196175452
 30
0.0
 10
11.9370138904
 20
9.118879693
 30
0.0
 10
11.9396670604
 20
9.1179849057
 30
0.0
 10
11.9434832255
 20
9.1169992658
 30
0.0
 10
11.9480434409
 20
9.1160687093
 30
0.0
 10
11.9531975638
 20
9.1152376078
 30
0.0
 10
11.9606772311
 20
9.1142812002
 30
0.0
 10
11.9664378742
 20
9.1137959144
 30
0.0
 10
11.9703171288
 20
9.1135616838
 30
0.0
  0
SPLINE
  5
36C
100
AcDbEntity
  8
0
100
AcDbSpline
 62
9
  6
CONTINUOUS
 70
0
 71
3
 72
16
 73
12
 74
0
 42
0.0000001
 43
0.0000001
 44
0.0000000001
 40
0.0
 40
0.0
 40
0.0
 40
0.0
 40
0.1139883208
 40
0.2360123386
 40
0.2997295125
 40
0.3647963781
 40
0.4971187409
 40
0.6299774427
 40
0.6956782092
 40
0.7602362171
 40
1.0
 40
1.0
 40
1.0
 40
1.0
 10
11.9543020276
 20
9.2183804099
 30
0.0
 10
11.9539202699
 20
9.2222715222
 30
0.0
 10
11.9523960927
 20
9.230269323
 30
0.0
 10
11.9487368759
 20
9.2399373302
 30
0.0
 10
11.9446273215
 20
9.2475071086
 30
0.0
 10
11.9396733401
 20
9.2549793269
 30
0.0
 10
11.9321921262
 20
9.2635723382
 30
0.0
 10
11.9232565532
 20
9.2706716782
 30
0.0
 10
11.915519247
 20
9.2753392219
 30
0.0
 10
11.9041274576
 20
9.2809386749
 30
0.0
 10
11.8937344962
 20
9.2835564082
 30
0.0
 10
11.8855318877
 20
9.2841476291
 30
0.0
  0
SPLINE
  5
36D
100
AcDbEntity
  8
0
100
AcDbSpline
 62
9
  6
CONTINUOUS
 70
0
 71
3
 72
18
 73
14
 74
0
 42
0.0000001
 43
0.0000001
 44
0.0000000001
 40
0.0
 40
0.0
 40
0.0
 40
0.0
 40
0.0348254521
 40
0.0740549486
 40
0.1176311882
 40
0.1654610163
 40
0.2174128644
 40
0.2733315605
 40
0.3963465487
 40
0.5327248143
 40
0.6803909465
 40
0.8370841831
 40
1.0
 40
1.0
 40
1.0
 40
1.0
 10
11.8855319264
 20
9.284147753
 30
0.0
 10
11.8846310405
 20
9.2825574029
 30
0.0
 10
11.8828634889
 20
9.2790910933
 30
0.0
 10
11.8804145795
 20
9.2734206149
 30
0.0
 10
11.8780238281
 20
9.2669918138
 30
0.0
 10
11.8757065995
 20
9.2598314977
 30
0.0
 10
11.8734746485
 20
9.2519687523
 30
0.0
 10
11.8705342436
 20
9.240211366
 30
0.0
 10
11.8672052989
 20
9.2239927925
 30
0.0
 10
11.8638393895
 20
9.2028898807
 30
0.0
 10
11.8610731937
 20
9.1799188194
 30
0.0
 10
11.8589783073
 20
9.1554796809
 30
0.0
 10
11.8580746512
 20
9.138726432
 30
0.0
 10
11.8577423186
 20
9.1301823775
 30
0.0
  0
SPLINE
  5
36E
100
AcDbEntity
  8
0
100
AcDbSpline
 62
9
  6
CONTINUOUS
 70
0
 71
3
 72
25
 73
21
 74
0
 42
0.0000001
 43
0.0000001
 44
0.0000000001
 40
0.0
 40
0.0
 40
0.0
 40
0.0
 40
0.1925404487
 40
0.3737700427
 40
0.4584393025
 40
0.5383704178
 40
0.6130374905
 40
0.6819356388
 40
0.744635545
 40
0.800797037
 40
0.8501404434
 40
0.892540663
 40
0.9111456353
 40
0.928044305
 40
0.9432935992
 40
0.956985842
 40
0.9692580786
 40
0.9803110487
 40
0.9904306856
 40
1.0
 40
1.0
 40
1.0
 40
1.0
 10
11.8493438656
 20
9.1301823775
 30
0.0
 10
11.8498428067
 20
9.1415199755
 30
0.0
 10
11.851303091
 20
9.1635107863
 30
0.0
 10
11.854354708
 20
9.1903706148
 30
0.0
 10
11.8574515584
 20
9.2105198645
 30
0.0
 10
11.8599798373
 20
9.2243961285
 30
0.0
 10
11.8627313885
 20
9.2372809549
 30
0.0
 10
11.8656725764
 20
9.2490801261
 30
0.0
 10
11.8687697985
 20
9.2597080285
 30
0.0
 10
11.8719873343
 20
9.2690905804
 30
0.0
 10
11.875294559
 20
9.2771624152
 30
0.0
 10
11.8782114101
 20
9.2829872529
 30
0.0
 10
11.8805983852
 20
9.2869127448
 30
0.0
 10
11.8823149849
 20
9.2893656734
 30
0.0
 10
11.8840338393
 20
9.2914545962
 30
0.0
 10
11.8857534742
 20
9.2931768814
 30
0.0
 10
11.8874735079
 20
9.294529602
 30
0.0
 10
11.889195425
 20
9.2955081139
 30
0.0
 10
11.8909192005
 20
9.2961029784
 30
0.0
 10
11.8920833901
 20
9.2962384016
 30
0.0
 10
11.8926474172
 20
9.2962380459
 30
0.0
  0
SPLINE
  5
36F
100
AcDbEntity
  8
0
100
AcDbSpline
 62
9
  6
CONTINUOUS
 70
0
 71
3
 72
11
 73
7
 74
0
 42
0.0000001
 43
0.0000001
 44
0.0000000001
 40
0.0
 40
0.0
 40
0.0
 40
0.0
 40
0.1788354145
 40
0.3920891316
 40
0.6612140902
 40
1.0
 40
1.0
 40
1.0
 40
1.0
 10
11.7844425316
 20
9.1224803564
 30
0.0
 10
11.784459468
 20
9.1227620548
 30
0.0
 10
11.7846458683
 20
9.1233742499
 30
0.0
 10
11.7853068312
 20
9.1242015754
 30
0.0
 10
11.7863423732
 20
9.1249935646
 30
0.0
 10
11.7871921301
 20
9.1254459694
 30
0.0
 10
11.787676037
 20
9.1256732259
 30
0.0
  0
SPLINE
  5
370
100
AcDbEntity
  8
0
100
AcDbSpline
 62
9
  6
CONTINUOUS
 70
0
 71
3
 72
17
 73
13
 74
0
 42
0.0000001
 43
0.0000001
 44
0.0000000001
 40
0.0
 40
0.0
 40
0.0
 40
0.0
 40
0.030234527
 40
0.0662957651
 40
0.1081142773
 40
0.1555131804
 40
0.2661890169
 40
0.3958324524
 40
0.5394624901
 40
0.6915164022
 40
0.8467064336
 40
1.0
 40
1.0
 40
1.0
 40
1.0
 10
11.787676037
 20
9.1256732259
 30
0.0
 10
11.7882431774
 20
9.1259395712
 30
0.0
 10
11.7895219748
 20
9.1264487306
 30
0.0
 10
11.7916637902
 20
9.1271110142
 30
0.0
 10
11.7941853427
 20
9.1277341857
 30
0.0
 10
11.798248848
 20
9.1285447894
 30
0.0
 10
11.8041580186
 20
9.1293751019
 30
0.0
 10
11.8120869504
 20
9.1300665999
 30
0.0
 10
11.8208925106
 20
9.1304982774
 30
0.0
 10
11.8302363291
 20
9.130655052
 30
0.0
 10
11.8397807542
 20
9.1305508549
 30
0.0
 10
11.8461704657
 20
9.1303292115
 30
0.0
 10
11.8493438665
 20
9.1301823775
 30
0.0
  0
LINE
  5
371
100
AcDbEntity
  8
0
100
AcDbLine
 62
9
  6
CONTINUOUS
 10
12.8591899922
 20
6.7784857427
 11
12.8592145719
 21
6.744891804
  0
SPLINE
  5
372
100
AcDbEntity
  8
0
100
AcDbSpline
 62
9
  6
CONTINUOUS
 70
0
 71
3
 72
18
 73
14
 74
0
 42
0.0000001
 43
0.0000001
 44
0.0000000001
 40
0.0
 40
0.0
 40
0.0
 40
0.0
 40
0.0273679832
 40
0.0603829893
 40
0.0992569247
 40
0.144165289
 40
0.1951688448
 40
0.2519325102
 40
0.3809498787
 40
0.5270292166
 40
0.6835644305
 40
0.8434382743
 40
1.0
 40
1.0
 40
1.0
 40
1.0
 10
11.9293688845
 20
9.1183028026
 30
0.0
 10
11.9287971522
 20
9.1186445494
 30
0.0
 10
11.9274909214
 20
9.1193236004
 30
0.0
 10
11.9252673098
 20
9.1202712971
 30
0.0
 10
11.9225901218
 20
9.121231023
 30
0.0
 10
11.9194526775
 20
9.1221922016
 30
0.0
 10
11.9158596518
 20
9.1231426167
 30
0.0
 10
11.9102442751
 20
9.1244413569
 30
0.0
 10
11.9023035667
 20
9.125937203
 30
0.0
 10
11.8919055042
 20
9.1274481753
 30
0.0
 10
11.880716873
 20
9.1286963686
 30
0.0
 10
11.8692413482
 20
9.1296212608
 30
0.0
 10
11.8615497783
 20
9.1300318766
 30
0.0
 10
11.8577423354
 20
9.1301823329
 30
0.0
  0
SPLINE
  5
373
100
AcDbEntity
  8
0
100
AcDbSpline
 62
9
  6
CONTINUOUS
 70
0
 71
3
 72
15
 73
11
 74
0
 42
0.0000001
 43
0.0000001
 44
0.0000000001
 40
0.0
 40
0.0
 40
0.0
 40
0.0
 40
0.1243805042
 40
0.2497982185
 40
0.3759315764
 40
0.5022986811
 40
0.6283450174
 40
0.7536039249
 40
0.8776761297
 40
1.0
 40
1.0
 40
1.0
 40
1.0
 10
12.0323719952
 20
8.5414901323
 30
0.0
 10
12.0338169138
 20
8.5430590644
 30
0.0
 10
12.0365563252
 20
8.5463645926
 30
0.0
 10
12.0401170458
 20
8.5517532751
 30
0.0
 10
12.0430908416
 20
8.5575252009
 30
0.0
 10
12.0454539963
 20
8.5635835537
 30
0.0
 10
12.0471724196
 20
8.5698401544
 30
0.0
 10
12.0482254379
 20
8.5762018491
 30
0.0
 10
12.0486465764
 20
8.5825705085
 30
0.0
 10
12.0485240415
 20
8.5868014335
 30
0.0
 10
12.0483640102
 20
8.58889297
 30
0.0
  0
SPLINE
  5
374
100
AcDbEntity
  8
0
100
AcDbSpline
 62
9
  6
CONTINUOUS
 70
0
 71
3
 72
11
 73
7
 74
0
 42
0.0000001
 43
0.0000001
 44
0.0000000001
 40
0.0
 40
0.0
 40
0.0
 40
0.0
 40
0.1775086805
 40
0.3902402211
 40
0.6598145044
 40
1.0
 40
1.0
 40
1.0
 40
1.0
 10
11.7842068135
 20
9.1181765149
 30
0.0
 10
11.7842217637
 20
9.1184574413
 30
0.0
 10
11.7844066859
 20
9.1190703675
 30
0.0
 10
11.785069504
 20
9.1198992242
 30
0.0
 10
11.7861106477
 20
9.1206964082
 30
0.0
 10
11.78696577
 20
9.1211537221
 30
0.0
 10
11.7874532039
 20
9.1213841172
 30
0.0
  0
SPLINE
  5
375
100
AcDbEntity
  8
0
100
AcDbSpline
 62
9
  6
CONTINUOUS
 70
0
 71
3
 72
11
 73
7
 74
0
 42
0.0000001
 43
0.0000001
 44
0.0000000001
 40
0.0
 40
0.0
 40
0.0
 40
0.0
 40
0.1961664982
 40
0.4285852923
 40
0.6968792744
 40
1.0
 40
1.0
 40
1.0
 40
1.0
 10
11.7874532039
 20
9.1213841172
 30
0.0
 10
11.787994295
 20
9.1216398744
 30
0.0
 10
11.7892081194
 20
9.1221319007
 30
0.0
 10
11.791234412
 20
9.1227797916
 30
0.0
 10
11.7936093095
 20
9.1233956828
 30
0.0
 10
11.7953149341
 20
9.1237588498
 30
0.0
 10
11.7962226048
 20
9.1239360249
 30
0.0
  0
SPLINE
  5
376
100
AcDbEntity
  8
0
100
AcDbSpline
 62
9
  6
CONTINUOUS
 70
0
 71
3
 72
13
 73
9
 74
0
 42
0.0000001
 43
0.0000001
 44
0.0000000001
 40
0.0
 40
0.0
 40
0.0
 40
0.0
 40
0.0950192878
 40
0.2036825023
 40
0.3239042774
 40
0.4528499275
 40
0.7254785464
 40
1.0
 40
1.0
 40
1.0
 40
1.0
 10
11.7962226048
 20
9.1239360249
 30
0.0
 10
11.7978722751
 20
9.1242580364
 30
0.0
 10
11.8014297626
 20
9.1248405147
 30
0.0
 10
11.8071209817
 20
9.1255133582
 30
0.0
 10
11.8134298672
 20
9.1260389171
 30
0.0
 10
11.8226467442
 20
9.1265501956
 30
0.0
 10
11.8346084807
 20
9.1267674396
 30
0.0
 10
11.8442873345
 20
9.1265784391
 30
0.0
 10
11.8491401004
 20
9.1264003163
 30
0.0
  0
SPLINE
  5
377
100
AcDbEntity
  8
0
100
AcDbSpline
 62
9
  6
CONTINUOUS
 70
0
 71
3
 72
17
 73
13
 74
0
 42
0.0000001
 43
0.0000001
 44
0.0000000001
 40
0.0
 40
0.0
 40
0.0
 40
0.0
 40
0.0232955858
 40
0.0490319876
 40
0.0788178557
 40
0.1136978173
 40
0.2009903172
 40
0.3138731926
 40
0.4529807671
 40
0.6159572705
 40
0.7994698263
 40
1.0
 40
1.0
 40
1.0
 40
1.0
 10
11.7844989322
 20
8.6018060678
 30
0.0
 10
11.7844925269
 20
8.601925844
 30
0.0
 10
11.7844354281
 20
8.6021768955
 30
0.0
 10
11.784231847
 20
8.6025328595
 30
0.0
 10
11.7839155882
 20
8.6028782277
 30
0.0
 10
11.7832979788
 20
8.6033626201
 30
0.0
 10
11.7822155105
 20
8.6039225121
 30
0.0
 10
11.7805676237
 20
8.6045089334
 30
0.0
 10
11.7784948269
 20
8.6050372388
 30
0.0
 10
11.7760382161
 20
8.6055073416
 30
0.0
 10
11.7732499436
 20
8.6059111397
 30
0.0
 10
11.7712835707
 20
8.606123605
 30
0.0
 10
11.7702554784
 20
8.6062190832
 30
0.0
  0
SPLINE
  5
378
100
AcDbEntity
  8
0
100
AcDbSpline
 62
9
  6
CONTINUOUS
 70
0
 71
3
 72
19
 73
15
 74
0
 42
0.0000001
 43
0.0000001
 44
0.0000000001
 40
0.0
 40
0.0
 40
0.0
 40
0.0
 40
0.1786799665
 40
0.3482920182
 40
0.5045458123
 40
0.6441720921
 40
0.7069017285
 40
0.7645166306
 40
0.8168453907
 40
0.8637749716
 40
0.9052864107
 40
0.9415367329
 40
0.9728794033
 40
1.0
 40
1.0
 40
1.0
 40
1.0
 10
11.7699805909
 20
9.1138628961
 30
0.0
 10
11.7702459014
 20
9.1193228534
 30
0.0
 10
11.7710161485
 20
9.1299552964
 30
0.0
 10
11.7728946851
 20
9.1452831246
 30
0.0
 10
11.7754025588
 20
9.159309205
 30
0.0
 10
11.7780245163
 20
9.1699735852
 30
0.0
 10
11.7804026464
 20
9.1775655596
 30
0.0
 10
11.7822194731
 20
9.1825284113
 30
0.0
 10
11.7841178302
 20
9.1869394234
 30
0.0
 10
11.7860840001
 20
9.1907755357
 30
0.0
 10
11.7881058632
 20
9.1940168325
 30
0.0
 10
11.7901714891
 20
9.1966497677
 30
0.0
 10
11.792270883
 20
9.1986632087
 30
0.0
 10
11.7937898311
 20
9.199641254
 30
0.0
 10
11.7945413108
 20
9.1999929526
 30
0.0
  0
SPLINE
  5
379
100
AcDbEntity
  8
0
100
AcDbSpline
 62
9
  6
CONTINUOUS
 70
0
 71
3
 72
17
 73
13
 74
0
 42
0.0000001
 43
0.0000001
 44
0.0000000001
 40
0.0
 40
0.0
 40
0.0
 40
0.0
 40
0.0224131031
 40
0.0472507961
 40
0.0761007414
 40
0.1100243994
 40
0.1955079762
 40
0.3070741179
 40
0.4457913457
 40
0.609593159
 40
0.7954105937
 40
1.0
 40
1.0
 40
1.0
 40
1.0
 10
11.784206691
 20
9.1181763638
 30
0.0
 10
11.7842005832
 20
9.1180615646
 30
0.0
 10
11.7841458654
 20
9.1178205442
 30
0.0
 10
11.7839500508
 20
9.1174781418
 30
0.0
 10
11.7836444429
 20
9.1171449488
 30
0.0
 10
11.7830434153
 20
9.1166751068
 30
0.0
 10
11.7819822666
 20
9.116129904
 30
0.0
 10
11.7803560973
 20
9.1155564362
 30
0.0
 10
11.7782943235
 20
9.1150364601
 30
0.0
 10
11.7758323128
 20
9.1145708644
 30
0.0
 10
11.7730173954
 20
9.1141690326
 30
0.0
 10
11.7710256657
 20
9.113957874
 30
0.0
 10
11.7699805909
 20
9.1138628961
 30
0.0
  0
LINE
  5
37A
100
AcDbEntity
  8
0
100
AcDbLine
 62
9
  6
CONTINUOUS
 10
12.0474177399
 20
6.744968644
 11
12.0474177016
 21
6.7786952869
  0
SPLINE
  5
37B
100
AcDbEntity
  8
0
100
AcDbSpline
 62
9
  6
CONTINUOUS
 70
0
 71
3
 72
10
 73
6
 74
0
 42
0.0000001
 43
0.0000001
 44
0.0000000001
 40
0.0
 40
0.0
 40
0.0
 40
0.0
 40
0.2349925378
 40
0.476420271
 40
1.0
 40
1.0
 40
1.0
 40
1.0
 10
11.8996525715
 20
9.2962416836
 30
0.0
 10
11.8991702761
 20
9.296240822
 30
0.0
 10
11.8981905568
 20
9.2961547979
 30
0.0
 10
11.8961969509
 20
9.2956375554
 30
0.0
 10
11.8947885251
 20
9.294885331
 30
0.0
 10
11.8939017769
 20
9.2942783548
 30
0.0
  0
SPLINE
  5
37C
100
AcDbEntity
  8
0
100
AcDbSpline
 62
9
  6
CONTINUOUS
 70
0
 71
3
 72
11
 73
7
 74
0
 42
0.0000001
 43
0.0000001
 44
0.0000000001
 40
0.0
 40
0.0
 40
0.0
 40
0.0
 40
0.207496204
 40
0.4416535797
 40
0.7052496216
 40
1.0
 40
1.0
 40
1.0
 40
1.0
 10
11.8939017769
 20
9.2942783548
 30
0.0
 10
11.8931460477
 20
9.2937610609
 30
0.0
 10
11.89163872
 20
9.2925099001
 30
0.0
 10
11.8895332726
 20
9.2902082386
 30
0.0
 10
11.8874588118
 20
9.2873852774
 30
0.0
 10
11.8861730847
 20
9.2852797091
 30
0.0
 10
11.8855319264
 20
9.284147753
 30
0.0
  0
SPLINE
  5
37D
100
AcDbEntity
  8
0
100
AcDbSpline
 62
9
  6
CONTINUOUS
 70
0
 71
3
 72
23
 73
19
 74
0
 42
0.0000001
 43
0.0000001
 44
0.0000000001
 40
0.0
 40
0.0
 40
0.0
 40
0.0
 40
0.198009412
 40
0.2945741198
 40
0.3881477212
 40
0.5621099105
 40
0.640474208
 40
0.711851046
 40
0.7754616223
 40
0.8310015162
 40
0.8782862492
 40
0.9173531738
 40
0.9484803329
 40
0.9720488759
 40
0.9812208761
 40
0.9888112488
 40
0.9949890544
 40
1.0
 40
1.0
 40
1.0
 40
1.0
 10
11.2356461614
 20
6.7784855807
 30
0.0
 10
11.2297795483
 20
6.7788431778
 30
0.0
 10
11.2210460599
 20
6.7792811165
 30
0.0
 10
11.2095333839
 20
6.7797293333
 30
0.0
 10
11.1987315981
 20
6.7800831772
 30
0.0
 10
11.1884657129
 20
6.7803013481
 30
0.0
 10
11.1788570241
 20
6.7803252303
 30
0.0
 10
11.172524271
 20
6.7802546525
 30
0.0
 10
11.1668707341
 20
6.7800979277
 30
0.0
 10
11.161935694
 20
6.7798602254
 30
0.0
 10
11.157735199
 20
6.7795449804
 30
0.0
 10
11.1542680704
 20
6.7791605457
 30
0.0
 10
11.1515192287
 20
6.7787205457
 30
0.0
 10
11.1496683049
 20
6.7782933617
 30
0.0
 10
11.1485346593
 20
6.7779051683
 30
0.0
 10
11.1479125983
 20
6.7776245123
 30
0.0
 10
11.1474379768
 20
6.7773284943
 30
0.0
 10
11.1471943327
 20
6.7770965934
 30
0.0
 10
11.1471044811
 20
6.77697806
 30
0.0
  0
SPLINE
  5
37E
100
AcDbEntity
  8
0
100
AcDbSpline
 62
9
  6
CONTINUOUS
 70
0
 71
3
 72
9
 73
5
 74
0
 42
0.0000001
 43
0.0000001
 44
0.0000000001
 40
0.0
 40
0.0
 40
0.0
 40
0.0
 40
0.4988450687
 40
1.0
 40
1.0
 40
1.0
 40
1.0
 10
12.2604586509
 20
8.3598915343
 30
0.0
 10
12.2605788659
 20
8.3270215108
 30
0.0
 10
12.2612264022
 20
8.2611212595
 30
0.0
 10
12.2649671511
 20
8.1952985158
 30
0.0
 10
12.2677198466
 20
8.1623909994
 30
0.0
  0
SPLINE
  5
37F
100
AcDbEntity
  8
0
100
AcDbSpline
 62
9
  6
CONTINUOUS
 70
0
 71
3
 72
21
 73
17
 74
0
 42
0.0000001
 43
0.0000001
 44
0.0000000001
 40
0.0
 40
0.0
 40
0.0
 40
0.0
 40
0.0358652896
 40
0.0735854752
 40
0.1140679873
 40
0.1581940773
 40
0.2067038463
 40
0.2599169975
 40
0.3179345784
 40
0.3807549543
 40
0.4482374094
 40
0.5198974784
 40
0.5951113882
 40
0.6732050602
 40
0.835179351
 40
1.0
 40
1.0
 40
1.0
 40
1.0
 10
12.8332579824
 20
7.1693829176
 30
0.0
 10
12.8325574851
 20
7.1704371121
 30
0.0
 10
12.8309107192
 20
7.1724677082
 30
0.0
 10
12.8278345375
 20
7.1750951179
 30
0.0
 10
12.8241068989
 20
7.1773109381
 30
0.0
 10
12.8197303504
 20
7.1790640948
 30
0.0
 10
12.814722435
 20
7.1803100306
 30
0.0
 10
12.809122909
 20
7.1810440817
 30
0.0
 10
12.8029756409
 20
7.1812498491
 30
0.0
 10
12.7963313184
 20
7.1809097053
 30
0.0
 10
12.7892550655
 20
7.1800108926
 30
0.0
 10
12.7818215841
 20
7.1785846146
 30
0.0
 10
12.7741156568
 20
7.1766586839
 30
0.0
 10
12.7634659385
 20
7.1734225518
 30
0.0
 10
12.7501013045
 20
7.1683162686
 30
0.0
 10
12.7396544828
 20
7.1634064271
 30
0.0
 10
12.7344772361
 20
7.1607551391
 30
0.0
  0
SPLINE
  5
380
100
AcDbEntity
  8
0
100
AcDbSpline
 62
9
  6
CONTINUOUS
 70
0
 71
3
 72
11
 73
7
 74
0
 42
0.0000001
 43
0.0000001
 44
0.0000000001
 40
0.0
 40
0.0
 40
0.0
 40
0.0
 40
0.1805769908
 40
0.3946351734
 40
0.6632037419
 40
1.0
 40
1.0
 40
1.0
 40
1.0
 10
11.7847452317
 20
8.5974087833
 30
0.0
 10
11.7847629144
 20
8.5971213352
 30
0.0
 10
11.7849492609
 20
8.596498539
 30
0.0
 10
11.7856098811
 20
8.595652768
 30
0.0
 10
11.7866456649
 20
8.5948427164
 30
0.0
 10
11.7874965837
 20
8.5943792982
 30
0.0
 10
11.7879807744
 20
8.5941467583
 30
0.0
  0
SPLINE
  5
381
100
AcDbEntity
  8
0
100
AcDbSpline
 62
9
  6
CONTINUOUS
 70
0
 71
3
 72
17
 73
13
 74
0
 42
0.0000001
 43
0.0000001
 44
0.0000000001
 40
0.0
 40
0.0
 40
0.0
 40
0.0
 40
0.0303149649
 40
0.0664266184
 40
0.1082722194
 40
0.1556804196
 40
0.2663381977
 40
0.3959378938
 40
0.5395186678
 40
0.6915340149
 40
0.8467048974
 40
1.0
 40
1.0
 40
1.0
 40
1.0
 10
11.7879807744
 20
8.5941467583
 30
0.0
 10
11.7885473087
 20
8.5938746716
 30
0.0
 10
11.7898251401
 20
8.5933541745
 30
0.0
 10
11.7919666048
 20
8.5926766388
 30
0.0
 10
11.7944875187
 20
8.592039063
 30
0.0
 10
11.7985493476
 20
8.5912097139
 30
0.0
 10
11.8044572114
 20
8.5903597245
 30
0.0
 10
11.8123856063
 20
8.58965134
 30
0.0
 10
11.8211914603
 20
8.5892085487
 30
0.0
 10
11.8305367433
 20
8.5890469598
 30
0.0
 10
11.8400838143
 20
8.5891524109
 30
0.0
 10
11.8464755687
 20
8.5893784738
 30
0.0
 10
11.8496501166
 20
8.5895283805
 30
0.0
  0
SPLINE
  5
382
100
AcDbEntity
  8
0
100
AcDbSpline
 62
9
  6
CONTINUOUS
 70
0
 71
3
 72
14
 73
10
 74
0
 42
0.0000001
 43
0.0000001
 44
0.0000000001
 40
0.0
 40
0.0
 40
0.0
 40
0.0
 40
0.2415879438
 40
0.3647479326
 40
0.4894232964
 40
0.6155290412
 40
0.7428699787
 40
0.871199166
 40
1.0
 40
1.0
 40
1.0
 40
1.0
 10
12.6960345109
 20
7.1665738663
 30
0.0
 10
12.6549310752
 20
7.2417275969
 30
0.0
 10
12.5974308616
 20
7.3577573896
 30
0.0
 10
12.5290371367
 20
7.5172693594
 30
0.0
 10
12.4810899177
 20
7.640915438
 30
0.0
 10
12.4368245487
 20
7.767492717
 30
0.0
 10
12.3963900041
 20
7.8967049204
 30
0.0
 10
12.3599885756
 20
8.0281015055
 30
0.0
 10
12.338835857
 20
8.1168130982
 30
0.0
 10
12.3291897528
 20
8.1614515688
 30
0.0
  0
SPLINE
  5
383
100
AcDbEntity
  8
0
100
AcDbSpline
 62
9
  6
CONTINUOUS
 70
0
 71
3
 72
10
 73
6
 74
0
 42
0.0000001
 43
0.0000001
 44
0.0000000001
 40
0.0
 40
0.0
 40
0.0
 40
0.0
 40
0.4978366115
 40
0.7482287113
 40
1.0
 40
1.0
 40
1.0
 40
1.0
 10
12.3949118594
 20
8.162390339
 30
0.0
 10
12.3850079866
 20
8.1954372777
 30
0.0
 10
12.3699625855
 20
8.2450633835
 30
0.0
 10
12.3481354859
 20
8.31083909
 30
0.0
 10
12.3363293367
 20
8.3435807357
 30
0.0
 10
12.3301363909
 20
8.3598918945
 30
0.0
  0
SPLINE
  5
384
100
AcDbEntity
  8
0
100
AcDbSpline
 62
9
  6
CONTINUOUS
 70
0
 71
3
 72
15
 73
11
 74
0
 42
0.0000001
 43
0.0000001
 44
0.0000000001
 40
0.0
 40
0.0
 40
0.0
 40
0.0
 40
0.1281622659
 40
0.2560453415
 40
0.3829686925
 40
0.508744603
 40
0.6333340977
 40
0.7566857805
 40
0.8788226346
 40
1.0
 40
1.0
 40
1.0
 40
1.0
 10
11.6802307257
 20
8.729891804
 30
0.0
 10
11.6805447564
 20
8.7265416215
 30
0.0
 10
11.6816302992
 20
8.7198830204
 30
0.0
 10
11.6845733026
 20
8.7102375045
 30
0.0
 10
11.6887934705
 20
8.7011444251
 30
0.0
 10
11.694188835
 20
8.6927979433
 30
0.0
 10
11.7006572731
 20
8.6853754974
 30
0.0
 10
11.7080537853
 20
8.6790206813
 30
0.0
 10
11.7162336067
 20
8.6738800476
 30
0.0
 10
11.7221182021
 20
8.671319972
 30
0.0
 10
11.7251247072
 20
8.6702794187
 30
0.0
  0
SPLINE
  5
385
100
AcDbEntity
  8
0
100
AcDbSpline
 62
9
  6
CONTINUOUS
 70
0
 71
3
 72
9
 73
5
 74
0
 42
0.0000001
 43
0.0000001
 44
0.0000000001
 40
0.0
 40
0.0
 40
0.0
 40
0.0
 40
0.2461949316
 40
1.0
 40
1.0
 40
1.0
 40
1.0
 10
12.699093827
 20
7.1609958272
 30
0.0
 10
12.6988676374
 20
7.1614068261
 30
0.0
 10
12.6979089616
 20
7.1630540025
 30
0.0
 10
12.6967907967
 20
7.1646078449
 30
0.0
 10
12.695873338
 20
7.1657130522
 30
0.0
  0
SPLINE
  5
386
100
AcDbEntity
  8
0
100
AcDbSpline
 62
9
  6
CONTINUOUS
 70
0
 71
3
 72
21
 73
17
 74
0
 42
0.0000001
 43
0.0000001
 44
0.0000000001
 40
0.0
 40
0.0
 40
0.0
 40
0.0
 40
0.041784315
 40
0.0857430918
 40
0.1324078776
 40
0.1822415607
 40
0.2354455393
 40
0.2920980523
 40
0.3522161869
 40
0.4157595238
 40
0.482478472
 40
0.5519690712
 40
0.6973597228
 40
0.7723257677
 40
0.8481197519
 40
1.0
 40
1.0
 40
1.0
 40
1.0
 10
12.6956636449
 20
7.1659629984
 30
0.0
 10
12.6947082323
 20
7.1670898704
 30
0.0
 10
12.6925817234
 20
7.1692661392
 30
0.0
 10
12.6888832354
 20
7.1721568379
 30
0.0
 10
12.6846033457
 20
7.1747010547
 30
0.0
 10
12.6797563215
 20
7.1768545829
 30
0.0
 10
12.6743787447
 20
7.1786045162
 30
0.0
 10
12.6685086324
 20
7.1799286185
 30
0.0
 10
12.6621867593
 20
7.1808055173
 30
0.0
 10
12.6554614696
 20
7.1812089324
 30
0.0
 10
12.6483940131
 20
7.1811476073
 30
0.0
 10
12.6384566964
 20
7.1804565728
 30
0.0
 10
12.6283069006
 20
7.1788874584
 30
0.0
 10
12.6180976219
 20
7.1765498385
 30
0.0
 10
12.607779412
 20
7.173704813
 30
0.0
 10
12.6001538675
 20
7.1710923042
 30
0.0
 10
12.5951424044
 20
7.1691628086
 30
0.0
  0
SPLINE
  5
387
100
AcDbEntity
  8
0
100
AcDbSpline
 62
9
  6
CONTINUOUS
 70
0
 71
3
 72
21
 73
17
 74
0
 42
0.0000001
 43
0.0000001
 44
0.0000000001
 40
0.0
 40
0.0
 40
0.0
 40
0.0
 40
0.0050755231
 40
0.011288034
 40
0.0188903704
 40
0.0280580829
 40
0.0515889795
 40
0.082687976
 40
0.121759118
 40
0.1690613175
 40
0.2246765905
 40
0.2883336031
 40
0.4380807132
 40
0.6120418267
 40
0.8020701086
 40
1.0
 40
1.0
 40
1.0
 40
1.0
 10
12.9477309132
 20
6.7769783531
 30
0.0
 10
12.9476399049
 20
6.7770984169
 30
0.0
 10
12.9473947977
 20
6.777333021
 30
0.0
 10
12.9469178671
 20
6.7776317571
 30
0.0
 10
12.9462947255
 20
6.7779131593
 30
0.0
 10
12.9451615448
 20
6.7783001149
 30
0.0
 10
12.9433117095
 20
6.7787230123
 30
0.0
 10
12.9405640836
 20
6.7791586822
 30
0.0
 10
12.9370970505
 20
6.7795421665
 30
0.0
 10
12.9328937906
 20
6.7798594914
 30
0.0
 10
12.9279546183
 20
6.7800986932
 30
0.0
 10
12.9199719154
 20
6.7803205977
 30
0.0
 10
12.908471922
 20
6.7803413561
 30
0.0
 10
12.8932249657
 20
6.7800304352
 30
0.0
 10
12.8765564746
 20
6.779403769
 30
0.0
 10
12.8650552801
 20
6.7788168417
 30
0.0
 10
12.8591894243
 20
6.7784856016
 30
0.0
  0
SPLINE
  5
388
100
AcDbEntity
  8
0
100
AcDbSpline
 62
9
  6
CONTINUOUS
 70
0
 71
3
 72
26
 73
22
 74
0
 42
0.0000001
 43
0.0000001
 44
0.0000000001
 40
0.0
 40
0.0
 40
0.0
 40
0.0
 40
0.0651265249
 40
0.0976881976
 40
0.130214325
 40
0.1626921437
 40
0.1951064005
 40
0.2274440034
 40
0.2596987806
 40
0.291864392
 40
0.323933868
 40
0.3877647559
 40
0.451160448
 40
0.5140963682
 40
0.5765572455
 40
0.6385314895
 40
0.7000118073
 40
0.7609923461
 40
0.8214721218
 40
0.8814617072
 40
1.0
 40
1.0
 40
1.0
 40
1.0
 10
12.2677192591
 20
8.1623903333
 30
0.0
 10
12.2697027404
 20
8.1396239167
 30
0.0
 10
12.2735143587
 20
8.1055419416
 30
0.0
 10
12.280065295
 20
8.0603204272
 30
0.0
 10
12.2856544615
 20
8.0265419037
 30
0.0
 10
12.2918430599
 20
7.9929214866
 30
0.0
 10
12.2985559959
 20
7.9594695537
 30
0.0
 10
12.3057331997
 20
7.9261944065
 30
0.0
 10
12.3133507171
 20
7.8931068996
 30
0.0
 10
12.3213800064
 20
7.8602138181
 30
0.0
 10
12.3325785061
 20
7.8166926685
 30
0.0
 10
12.347486159
 20
7.7628149577
 30
0.0
 10
12.3667651962
 20
7.6989275584
 30
0.0
 10
12.3873231675
 20
7.6359458178
 30
0.0
 10
12.4091002108
 20
7.5739034619
 30
0.0
 10
12.4321143791
 20
7.5128543197
 30
0.0
 10
12.4563642562
 20
7.4528453766
 30
0.0
 10
12.4817722817
 20
7.3938887744
 30
0.0
 10
12.5083050507
 20
7.3360034469
 30
0.0
 10
12.5450680758
 20
7.2606176842
 30
0.0
 10
12.5746037124
 20
7.2053331392
 30
0.0
 10
12.5951423541
 20
7.1691629997
 30
0.0
  0
SPLINE
  5
389
100
AcDbEntity
  8
0
100
AcDbSpline
 62
9
  6
CONTINUOUS
 70
0
 71
3
 72
12
 73
8
 74
0
 42
0.0000001
 43
0.0000001
 44
0.0000000001
 40
0.0
 40
0.0
 40
0.0
 40
0.0
 40
0.0626943907
 40
0.1397929102
 40
0.3457968837
 40
0.630116956
 40
1.0
 40
1.0
 40
1.0
 40
1.0
 10
13.1407467473
 20
6.7784970649
 30
0.0
 10
13.1406802521
 20
6.7785686528
 30
0.0
 10
13.1405085459
 20
6.7787063922
 30
0.0
 10
13.1400328062
 20
6.7789627499
 30
0.0
 10
13.1391844891
 20
6.7792317131
 30
0.0
 10
13.1378701846
 20
6.7794961524
 30
0.0
 10
13.1368587283
 20
6.7796313387
 30
0.0
 10
13.1362861276
 20
6.7796977819
 30
0.0
  0
SPLINE
  5
38A
100
AcDbEntity
  8
0
100
AcDbSpline
 62
9
  6
CONTINUOUS
 70
0
 71
3
 72
14
 73
10
 74
0
 42
0.0000001
 43
0.0000001
 44
0.0000000001
 40
0.0
 40
0.0
 40
0.0
 40
0.0
 40
0.0276670472
 40
0.0614515436
 40
0.1471698845
 40
0.2555135408
 40
0.3831947265
 40
0.6784127001
 40
1.0
 40
1.0
 40
1.0
 40
1.0
 10
13.1362861276
 20
6.7796977819
 30
0.0
 10
13.1354681983
 20
6.7797926924
 30
0.0
 10
13.1336461274
 20
6.7799570814
 30
0.0
 10
13.1292731541
 20
6.7802129787
 30
0.0
 10
13.1224913474
 20
6.7803498112
 30
0.0
 10
13.1129155837
 20
6.780275257
 30
0.0
 10
13.097109528
 20
6.7798587657
 30
0.0
 10
13.0749768697
 20
6.7787827042
 30
0.0
 10
13.0566532809
 20
6.7776589258
 30
0.0
 10
13.0471079184
 20
6.7769592083
 30
0.0
  0
ENDSEC
  0
SECTION
  2
OBJECTS
  0
DICTIONARY
  5
C
100
AcDbDictionary
280
0
281
1
  3
ACAD_GROUP
350
D
  3
ACAD_MLINESTYLE
350
17
  3
ACAD_LAYOUT
350
1A
  3
ACAD_PLOTSETTINGS
350
19
  3
ACAD_PLOTSTYLENAME
350
E
  0
DICTIONARY
  5
D
102
{ACAD_REACTORS
330
C
102
}
100
AcDbDictionary
280
0
281
1
  0
ACDBDICTIONARYWDFLT
  5
E
102
{ACAD_REACTORS
330
C
102
}
100
AcDbDictionary
281
1
  3
Normal
350
F
100
AcDbDictionaryWithDefault
340
F
  0
DICTIONARY
  5
17
102
{ACAD_REACTORS
330
C
102
}
100
AcDbDictionary
280
0
281
1
  3
Standard
350
18
  0
DICTIONARY
  5
19
102
{ACAD_REACTORS
330
C
102
}
100
AcDbDictionary
281
1
  0
DICTIONARY
  5
1A
102
{ACAD_REACTORS
330
C
102
}
100
AcDbDictionary
281
1
  3
Model
350
38B
  3
Layout1
350
38C
  0
ACDBPLACEHOLDER
  5
F
102
{ACAD_REACTORS
330
E
102
}
  0
MLINESTYLE
  5
18
102
{ACAD_REACTORS
330
17
102
}
100
AcDbMlineStyle
  2
STANDARD
 70
0
  3

 62
256
 51
90.0
 52
90.0
 71
2
 49
0.5
 62
256
  6
BYLAYER
 49
-0.5
 62
256
  6
BYLAYER
  0
LAYOUT
  5
38B
102
{ACAD_REACTORS
330
1A
102
}
100
AcDbPlotSettings
  1

  2
none_device
  4
ANSI_C_(22.00_x_17.00_Inches)
  6

 40
0.0
 41
0.0
 42
0.0
 43
0.0
 44
558.8
 45
431.8
 46
0.0
 47
0.0
 48
0.0
 49
0.0
140
0.0
141
0.0
142
1.0
143
1.0
 70
1024
 72
0
 73
0
 74
0
  7

 75
0
147
1.0
148
0.0
149
0.0
100
AcDbLayout
  1
Model
 70
0
 71
0
 10
0.0
 20
0.0
 11
22.0
 21
17.0
 12
0.0
 22
0.0
 32
0.0
 14
0.0
 24
0.0
 34
0.0
 15
0.0
 25
0.0
 35
0.0
146
0.0
 13
0.0
 23
0.0
 33
0.0
 16
1.0
 26
0.0
 36
0.0
 17
0.0
 27
1.0
 37
0.0
 76
0
330
202
345
0
346
0
  0
LAYOUT
  5
38C
102
{ACAD_REACTORS
330
1A
102
}
100
AcDbPlotSettings
  1

  2
none_device
  4
ANSI_C_(22.00_x_17.00_Inches)
  6

 40
0.0
 41
0.0
 42
0.0
 43
0.0
 44
558.8
 45
431.8
 46
0.0
 47
0.0
 48
0.0
 49
0.0
140
0.0
141
0.0
142
1.0
143
1.0
 70
0
 72
0
 73
0
 74
0
  7

 75
0
147
1.0
148
0.0
149
0.0
100
AcDbLayout
  1
Layout1
 70
0
 71
1
 10
0.0
 20
0.0
 11
22.0
 21
17.0
 12
0.0
 22
0.0
 32
0.0
 14
0.0
 24
0.0
 34
0.0
 15
0.0
 25
0.0
 35
0.0
146
0.0
 13
0.0
 23
0.0
 33
0.0
 16
1.0
 26
0.0
 36
0.0
 17
0.0
 27
1.0
 37
0.0
 76
0
330
203
345
0
346
0
  0
ENDSEC
  0
EOF
