  0
SECTION
  2
HEADER
  9
$ACADVER
  1
AC1015
  9
$DWGCODEPAGE
  3
ANSI_1252
  9
$EXTMAX
 10
16.5354330709
 20
11.6929133858
 30
0.0
  9
$EXTMIN
 10
0.0
 20
0.0
 30
0.0
  9
$LIMMIN
 10
0.0
 20
0.0
  9
$LIMMAX
 10
16.5354330709
 20
11.6929133858
  9
$VIEWCTR
 10
8.2677165354
 20
5.8464566929
  9
$VIEWSIZE
 40
11.6929133858
  9
$CLAYER
  8
0
  9
$LTSCALE
 40
0.9094488189
  9
$CELTYPE
  6
BYLAYER
  9
$DIMSCALE
 40
1.0
  9
$DIMASZ
 40
0.1875
  9
$DIMEXO
 40
0.1033464567
  9
$DIMDLI
 40
0.6283464567
  9
$DIMEXE
 40
0.2976377953
  9
$DIMCEN
 40
0.1488188976
  9
$DIMLFAC
 40
1.0
  9
$DIMBLK
  1
_CLOSED
  9
$DIMTXT
 40
0.15625
  9
$DIMTOL
 70
0
  9
$DIMLIM
 70
0
  9
$DIMTFAC
 40
1.0
  9
$PDMODE
 70
3
  9
$PDSIZE
 40
0.3125
  9
$HANDSEED
  5
47A
  9
$TILEMODE
 70
1
  9
$MEASUREMENT
 70
0
  9
$INSUNITS
 70
1
  0
ENDSEC
  0
SECTION
  2
CLASSES
  0
CLASS
  1
ACDBDICTIONARYWDFLT
  2
AcDbDictionaryWithDefault
  3
AutoCAD 2000
 90
0
280
0
281
0
  0
CLASS
  1
ACDBPLACEHOLDER
  2
AcDbPlaceHolder
  3
AutoCAD 2000
 90
0
280
0
281
0
  0
CLASS
  1
LAYOUT
  2
AcDbLayout
  3
AutoCAD 2000
 90
0
280
0
281
0
  0
ENDSEC
  0
SECTION
  2
TABLES
  0
TABLE
  2
VPORT
  5
8
100
AcDbSymbolTable
 70
2
  0
VPORT
  5
1F4
100
AcDbSymbolTableRecord
100
AcDbViewportTableRecord
  2
*ACTIVE
 70
0
 10
0.0
 20
0.0
 11
1.0
 21
1.0
 12
8.2677165354
 22
5.8464566929
 13
0.0
 23
0.0
 14
1.0
 24
1.0
 15
0.0
 25
0.0
 16
0.0
 26
0.0
 36
1.0
 17
0.0
 27
0.0
 37
0.0
 40
11.6929133858
 41
1.4141414141
 42
50.0
 43
0.0
 44
0.0
 50
0.0
 51
0.0
 71
0
 72
100
 73
1
 74
1
 75
0
 76
0
 77
0
 78
0
  0
ENDTAB
  0
TABLE
  2
LTYPE
  5
5
100
AcDbSymbolTable
 70
6
  0
LTYPE
  5
14
100
AcDbSymbolTableRecord
100
AcDbLinetypeTableRecord
  2
BYBLOCK
 70
0
  3

 72
65
 73
0
 40
0.0
  0
LTYPE
  5
15
100
AcDbSymbolTableRecord
100
AcDbLinetypeTableRecord
  2
BYLAYER
 70
0
  3

 72
65
 73
0
 40
0.0
  0
LTYPE
  5
16
100
AcDbSymbolTableRecord
100
AcDbLinetypeTableRecord
  2
CONTINUOUS
 70
64
  3
Solid line
 72
65
 73
0
 40
0.0
  0
LTYPE
  5
1F5
100
AcDbSymbolTableRecord
100
AcDbLinetypeTableRecord
  2
CENTER
 70
64
  3
____ _ ____ _ ____ _ ____ _ ____ _ ____ _ ____
 72
65
 73
4
 40
0.6
 49
0.375
 74
0
 49
-0.075
 74
0
 49
0.075
 74
0
 49
-0.075
 74
0
  0
LTYPE
  5
1F6
100
AcDbSymbolTableRecord
100
AcDbLinetypeTableRecord
  2
HIDDEN
 70
64
  3
- - - - - - - - - - - - - - - - - - - -
 72
65
 73
2
 40
0.2
 49
0.1
 74
0
 49
-0.1
 74
0
  0
LTYPE
  5
1F7
100
AcDbSymbolTableRecord
100
AcDbLinetypeTableRecord
  2
PHANTOM
 70
64
  3
_____ _ _ _____ _ _ _____ _ _ _____
 72
65
 73
6
 40
0.8
 49
0.45
 74
0
 49
-0.05
 74
0
 49
0.1
 74
0
 49
-0.05
 74
0
 49
0.1
 74
0
 49
-0.05
 74
0
  0
LTYPE
  5
1F8
100
AcDbSymbolTableRecord
100
AcDbLinetypeTableRecord
  2
DOT
 70
64
  3
. . . . . . . . . . . . . . . . . . . .
 72
65
 73
2
 40
0.2
 49
0.1
 74
0
 49
-0.1
 74
0
  0
LTYPE
  5
1F9
100
AcDbSymbolTableRecord
100
AcDbLinetypeTableRecord
  2
DASHED
 70
64
  3
- - - - - - - - - - - - - - - - - - - -
 72
65
 73
2
 40
0.2
 49
0.1
 74
0
 49
-0.1
 74
0
  0
ENDTAB
  0
TABLE
  2
LAYER
  5
2
100
AcDbSymbolTable
 70
36
  0
LAYER
  5
10
100
AcDbSymbolTableRecord
100
AcDbLayerTableRecord
  2
0
 70
0
 62
7
  6
CONTINUOUS
370
-3
390
F
  0
LAYER
  5
1FA
100
AcDbSymbolTableRecord
100
AcDbLayerTableRecord
  2
DEFAULT_1
 70
0
 62
7
  6
CENTER
370
-3
390
F
  0
LAYER
  5
1FB
100
AcDbSymbolTableRecord
100
AcDbLayerTableRecord
  2
DEFAULT_2
 70
0
 62
8
  6
HIDDEN
370
-3
390
F
  0
LAYER
  5
1FC
100
AcDbSymbolTableRecord
100
AcDbLayerTableRecord
  2
DEFAULT_3
 70
0
 62
7
  6
PHANTOM
370
-3
390
F
  0
LAYER
  5
1FD
100
AcDbSymbolTableRecord
100
AcDbLayerTableRecord
  2
1-017
 70
0
 62
7
  6
CONTINUOUS
370
-3
390
F
  0
LAYER
  5
1FE
100
AcDbSymbolTableRecord
100
AcDbLayerTableRecord
  2
1-017_1
 70
0
 62
7
  6
CONTINUOUS
370
-3
390
F
  0
LAYER
  5
1FF
100
AcDbSymbolTableRecord
100
AcDbLayerTableRecord
  2
1-035
 70
0
 62
7
  6
CONTINUOUS
370
-3
390
F
  0
LAYER
  5
200
100
AcDbSymbolTableRecord
100
AcDbLayerTableRecord
  2
1-143
 70
0
 62
7
  6
CONTINUOUS
370
-3
390
F
  0
LAYER
  5
201
100
AcDbSymbolTableRecord
100
AcDbLayerTableRecord
  2
1-144
 70
0
 62
7
  6
CONTINUOUS
370
-3
390
F
  0
LAYER
  5
202
100
AcDbSymbolTableRecord
100
AcDbLayerTableRecord
  2
1-571
 70
0
 62
7
  6
CONTINUOUS
370
-3
390
F
  0
LAYER
  5
203
100
AcDbSymbolTableRecord
100
AcDbLayerTableRecord
  2
1-622
 70
0
 62
7
  6
CONTINUOUS
370
-3
390
F
  0
LAYER
  5
204
100
AcDbSymbolTableRecord
100
AcDbLayerTableRecord
  2
1-623
 70
0
 62
7
  6
CONTINUOUS
370
-3
390
F
  0
LAYER
  5
205
100
AcDbSymbolTableRecord
100
AcDbLayerTableRecord
  2
1-624
 70
0
 62
7
  6
CONTINUOUS
370
-3
390
F
  0
LAYER
  5
206
100
AcDbSymbolTableRecord
100
AcDbLayerTableRecord
  2
10029
 70
0
 62
7
  6
CONTINUOUS
370
-3
390
F
  0
LAYER
  5
207
100
AcDbSymbolTableRecord
100
AcDbLayerTableRecord
  2
10_BODY_HUB_REVB
 70
0
 62
7
  6
CONTINUOUS
370
-3
390
F
  0
LAYER
  5
208
100
AcDbSymbolTableRecord
100
AcDbLayerTableRecord
  2
11176
 70
0
 62
7
  6
CONTINUOUS
370
-3
390
F
  0
LAYER
  5
209
100
AcDbSymbolTableRecord
100
AcDbLayerTableRecord
  2
11176_1
 70
0
 62
7
  6
CONTINUOUS
370
-3
390
F
  0
LAYER
  5
20A
100
AcDbSymbolTableRecord
100
AcDbLayerTableRecord
  2
11913
 70
0
 62
7
  6
CONTINUOUS
370
-3
390
F
  0
LAYER
  5
20B
100
AcDbSymbolTableRecord
100
AcDbLayerTableRecord
  2
11959
 70
0
 62
7
  6
CONTINUOUS
370
-3
390
F
  0
LAYER
  5
20C
100
AcDbSymbolTableRecord
100
AcDbLayerTableRecord
  2
11959_1
 70
0
 62
7
  6
CONTINUOUS
370
-3
390
F
  0
LAYER
  5
20D
100
AcDbSymbolTableRecord
100
AcDbLayerTableRecord
  2
11959_2
 70
0
 62
7
  6
CONTINUOUS
370
-3
390
F
  0
LAYER
  5
20E
100
AcDbSymbolTableRecord
100
AcDbLayerTableRecord
  2
11975
 70
0
 62
7
  6
CONTINUOUS
370
-3
390
F
  0
LAYER
  5
20F
100
AcDbSymbolTableRecord
100
AcDbLayerTableRecord
  2
11975_1
 70
0
 62
7
  6
CONTINUOUS
370
-3
390
F
  0
LAYER
  5
210
100
AcDbSymbolTableRecord
100
AcDbLayerTableRecord
  2
11975_2
 70
0
 62
7
  6
CONTINUOUS
370
-3
390
F
  0
LAYER
  5
211
100
AcDbSymbolTableRecord
100
AcDbLayerTableRecord
  2
13_ANY
 70
0
 62
7
  6
CONTINUOUS
370
-3
390
F
  0
LAYER
  5
212
100
AcDbSymbolTableRecord
100
AcDbLayerTableRecord
  2
2-801
 70
0
 62
7
  6
CONTINUOUS
370
-3
390
F
  0
LAYER
  5
213
100
AcDbSymbolTableRecord
100
AcDbLayerTableRecord
  2
2-801_1
 70
0
 62
7
  6
CONTINUOUS
370
-3
390
F
  0
LAYER
  5
214
100
AcDbSymbolTableRecord
100
AcDbLayerTableRecord
  2
2-801_1_1
 70
0
 62
7
  6
CONTINUOUS
370
-3
390
F
  0
LAYER
  5
215
100
AcDbSymbolTableRecord
100
AcDbLayerTableRecord
  2
2-801_1_2
 70
0
 62
7
  6
CONTINUOUS
370
-3
390
F
  0
LAYER
  5
216
100
AcDbSymbolTableRecord
100
AcDbLayerTableRecord
  2
2-801_2
 70
0
 62
7
  6
CONTINUOUS
370
-3
390
F
  0
LAYER
  5
217
100
AcDbSymbolTableRecord
100
AcDbLayerTableRecord
  2
2-801_2_1
 70
0
 62
7
  6
CONTINUOUS
370
-3
390
F
  0
LAYER
  5
218
100
AcDbSymbolTableRecord
100
AcDbLayerTableRecord
  2
283-4
 70
0
 62
7
  6
CONTINUOUS
370
-3
390
F
  0
LAYER
  5
219
100
AcDbSymbolTableRecord
100
AcDbLayerTableRecord
  2
284
 70
0
 62
7
  6
CONTINUOUS
370
-3
390
F
  0
LAYER
  5
21A
100
AcDbSymbolTableRecord
100
AcDbLayerTableRecord
  2
289-9
 70
0
 62
7
  6
CONTINUOUS
370
-3
390
F
  0
LAYER
  5
21B
100
AcDbSymbolTableRecord
100
AcDbLayerTableRecord
  2
3-425
 70
0
 62
7
  6
CONTINUOUS
370
-3
390
F
  0
LAYER
  5
21C
100
AcDbSymbolTableRecord
100
AcDbLayerTableRecord
  2
3-425_1
 70
0
 62
7
  6
CONTINUOUS
370
-3
390
F
  0
LAYER
  5
21D
100
AcDbSymbolTableRecord
100
AcDbLayerTableRecord
  2
3-425_2
 70
0
 62
7
  6
CONTINUOUS
370
-3
390
F
  0
LAYER
  5
21E
100
AcDbSymbolTableRecord
100
AcDbLayerTableRecord
  2
5-011
 70
0
 62
7
  6
CONTINUOUS
370
-3
390
F
  0
LAYER
  5
21F
100
AcDbSymbolTableRecord
100
AcDbLayerTableRecord
  2
5-050
 70
0
 62
7
  6
CONTINUOUS
370
-3
390
F
  0
LAYER
  5
220
100
AcDbSymbolTableRecord
100
AcDbLayerTableRecord
  2
5-050_1
 70
0
 62
7
  6
CONTINUOUS
370
-3
390
F
  0
LAYER
  5
221
100
AcDbSymbolTableRecord
100
AcDbLayerTableRecord
  2
50287-1
 70
0
 62
7
  6
CONTINUOUS
370
-3
390
F
  0
LAYER
  5
222
100
AcDbSymbolTableRecord
100
AcDbLayerTableRecord
  2
50307
 70
0
 62
7
  6
CONTINUOUS
370
-3
390
F
  0
LAYER
  5
223
100
AcDbSymbolTableRecord
100
AcDbLayerTableRecord
  2
50913
 70
0
 62
7
  6
CONTINUOUS
370
-3
390
F
  0
LAYER
  5
224
100
AcDbSymbolTableRecord
100
AcDbLayerTableRecord
  2
50915
 70
0
 62
7
  6
CONTINUOUS
370
-3
390
F
  0
LAYER
  5
225
100
AcDbSymbolTableRecord
100
AcDbLayerTableRecord
  2
6-289-9
 70
0
 62
7
  6
CONTINUOUS
370
-3
390
F
  0
LAYER
  5
226
100
AcDbSymbolTableRecord
100
AcDbLayerTableRecord
  2
8-025
 70
0
 62
7
  6
CONTINUOUS
370
-3
390
F
  0
LAYER
  5
227
100
AcDbSymbolTableRecord
100
AcDbLayerTableRecord
  2
8-025_1
 70
0
 62
7
  6
CONTINUOUS
370
-3
390
F
  0
LAYER
  5
228
100
AcDbSymbolTableRecord
100
AcDbLayerTableRecord
  2
8-025_1_1
 70
0
 62
7
  6
CONTINUOUS
370
-3
390
F
  0
LAYER
  5
229
100
AcDbSymbolTableRecord
100
AcDbLayerTableRecord
  2
8-025_1_2
 70
0
 62
7
  6
CONTINUOUS
370
-3
390
F
  0
LAYER
  5
22A
100
AcDbSymbolTableRecord
100
AcDbLayerTableRecord
  2
8-025_2
 70
0
 62
7
  6
CONTINUOUS
370
-3
390
F
  0
LAYER
  5
22B
100
AcDbSymbolTableRecord
100
AcDbLayerTableRecord
  2
8-025_2_1
 70
0
 62
7
  6
CONTINUOUS
370
-3
390
F
  0
LAYER
  5
22C
100
AcDbSymbolTableRecord
100
AcDbLayerTableRecord
  2
8-036
 70
0
 62
7
  6
CONTINUOUS
370
-3
390
F
  0
LAYER
  5
22D
100
AcDbSymbolTableRecord
100
AcDbLayerTableRecord
  2
8-037
 70
0
 62
7
  6
CONTINUOUS
370
-3
390
F
  0
LAYER
  5
22E
100
AcDbSymbolTableRecord
100
AcDbLayerTableRecord
  2
8-054
 70
0
 62
7
  6
CONTINUOUS
370
-3
390
F
  0
LAYER
  5
22F
100
AcDbSymbolTableRecord
100
AcDbLayerTableRecord
  2
80027
 70
0
 62
7
  6
CONTINUOUS
370
-3
390
F
  0
LAYER
  5
230
100
AcDbSymbolTableRecord
100
AcDbLayerTableRecord
  2
80034
 70
0
 62
7
  6
CONTINUOUS
370
-3
390
F
  0
LAYER
  5
231
100
AcDbSymbolTableRecord
100
AcDbLayerTableRecord
  2
80034_1
 70
0
 62
7
  6
CONTINUOUS
370
-3
390
F
  0
LAYER
  5
232
100
AcDbSymbolTableRecord
100
AcDbLayerTableRecord
  2
80034_1_1
 70
0
 62
7
  6
CONTINUOUS
370
-3
390
F
  0
LAYER
  5
233
100
AcDbSymbolTableRecord
100
AcDbLayerTableRecord
  2
80034_1_2
 70
0
 62
7
  6
CONTINUOUS
370
-3
390
F
  0
LAYER
  5
234
100
AcDbSymbolTableRecord
100
AcDbLayerTableRecord
  2
80034_2
 70
0
 62
7
  6
CONTINUOUS
370
-3
390
F
  0
LAYER
  5
235
100
AcDbSymbolTableRecord
100
AcDbLayerTableRecord
  2
80034_2_1
 70
0
 62
7
  6
CONTINUOUS
370
-3
390
F
  0
LAYER
  5
236
100
AcDbSymbolTableRecord
100
AcDbLayerTableRecord
  2
80037
 70
0
 62
7
  6
CONTINUOUS
370
-3
390
F
  0
LAYER
  5
237
100
AcDbSymbolTableRecord
100
AcDbLayerTableRecord
  2
80039
 70
0
 62
7
  6
CONTINUOUS
370
-3
390
F
  0
LAYER
  5
238
100
AcDbSymbolTableRecord
100
AcDbLayerTableRecord
  2
80039_1
 70
0
 62
7
  6
CONTINUOUS
370
-3
390
F
  0
LAYER
  5
239
100
AcDbSymbolTableRecord
100
AcDbLayerTableRecord
  2
80039_2
 70
0
 62
7
  6
CONTINUOUS
370
-3
390
F
  0
LAYER
  5
23A
100
AcDbSymbolTableRecord
100
AcDbLayerTableRecord
  2
80041
 70
0
 62
7
  6
CONTINUOUS
370
-3
390
F
  0
LAYER
  5
23B
100
AcDbSymbolTableRecord
100
AcDbLayerTableRecord
  2
80042
 70
0
 62
7
  6
CONTINUOUS
370
-3
390
F
  0
LAYER
  5
23C
100
AcDbSymbolTableRecord
100
AcDbLayerTableRecord
  2
80044
 70
0
 62
7
  6
CONTINUOUS
370
-3
390
F
  0
LAYER
  5
23D
100
AcDbSymbolTableRecord
100
AcDbLayerTableRecord
  2
80046
 70
0
 62
7
  6
CONTINUOUS
370
-3
390
F
  0
LAYER
  5
23E
100
AcDbSymbolTableRecord
100
AcDbLayerTableRecord
  2
80050
 70
0
 62
7
  6
CONTINUOUS
370
-3
390
F
  0
LAYER
  5
23F
100
AcDbSymbolTableRecord
100
AcDbLayerTableRecord
  2
80050_1
 70
0
 62
7
  6
CONTINUOUS
370
-3
390
F
  0
LAYER
  5
240
100
AcDbSymbolTableRecord
100
AcDbLayerTableRecord
  2
80050_10
 70
0
 62
7
  6
CONTINUOUS
370
-3
390
F
  0
LAYER
  5
241
100
AcDbSymbolTableRecord
100
AcDbLayerTableRecord
  2
80050_11
 70
0
 62
7
  6
CONTINUOUS
370
-3
390
F
  0
LAYER
  5
242
100
AcDbSymbolTableRecord
100
AcDbLayerTableRecord
  2
80050_12
 70
0
 62
7
  6
CONTINUOUS
370
-3
390
F
  0
LAYER
  5
243
100
AcDbSymbolTableRecord
100
AcDbLayerTableRecord
  2
80050_13
 70
0
 62
7
  6
CONTINUOUS
370
-3
390
F
  0
LAYER
  5
244
100
AcDbSymbolTableRecord
100
AcDbLayerTableRecord
  2
80050_14
 70
0
 62
7
  6
CONTINUOUS
370
-3
390
F
  0
LAYER
  5
245
100
AcDbSymbolTableRecord
100
AcDbLayerTableRecord
  2
80050_15
 70
0
 62
7
  6
CONTINUOUS
370
-3
390
F
  0
LAYER
  5
246
100
AcDbSymbolTableRecord
100
AcDbLayerTableRecord
  2
80050_16
 70
0
 62
7
  6
CONTINUOUS
370
-3
390
F
  0
LAYER
  5
247
100
AcDbSymbolTableRecord
100
AcDbLayerTableRecord
  2
80050_17
 70
0
 62
7
  6
CONTINUOUS
370
-3
390
F
  0
LAYER
  5
248
100
AcDbSymbolTableRecord
100
AcDbLayerTableRecord
  2
80050_18
 70
0
 62
7
  6
CONTINUOUS
370
-3
390
F
  0
LAYER
  5
249
100
AcDbSymbolTableRecord
100
AcDbLayerTableRecord
  2
80050_19
 70
0
 62
7
  6
CONTINUOUS
370
-3
390
F
  0
LAYER
  5
24A
100
AcDbSymbolTableRecord
100
AcDbLayerTableRecord
  2
80050_2
 70
0
 62
7
  6
CONTINUOUS
370
-3
390
F
  0
LAYER
  5
24B
100
AcDbSymbolTableRecord
100
AcDbLayerTableRecord
  2
80050_20
 70
0
 62
7
  6
CONTINUOUS
370
-3
390
F
  0
LAYER
  5
24C
100
AcDbSymbolTableRecord
100
AcDbLayerTableRecord
  2
80050_21
 70
0
 62
7
  6
CONTINUOUS
370
-3
390
F
  0
LAYER
  5
24D
100
AcDbSymbolTableRecord
100
AcDbLayerTableRecord
  2
80050_22
 70
0
 62
7
  6
CONTINUOUS
370
-3
390
F
  0
LAYER
  5
24E
100
AcDbSymbolTableRecord
100
AcDbLayerTableRecord
  2
80050_23
 70
0
 62
7
  6
CONTINUOUS
370
-3
390
F
  0
LAYER
  5
24F
100
AcDbSymbolTableRecord
100
AcDbLayerTableRecord
  2
80050_24
 70
0
 62
7
  6
CONTINUOUS
370
-3
390
F
  0
LAYER
  5
250
100
AcDbSymbolTableRecord
100
AcDbLayerTableRecord
  2
80050_25
 70
0
 62
7
  6
CONTINUOUS
370
-3
390
F
  0
LAYER
  5
251
100
AcDbSymbolTableRecord
100
AcDbLayerTableRecord
  2
80050_26
 70
0
 62
7
  6
CONTINUOUS
370
-3
390
F
  0
LAYER
  5
252
100
AcDbSymbolTableRecord
100
AcDbLayerTableRecord
  2
80050_27
 70
0
 62
7
  6
CONTINUOUS
370
-3
390
F
  0
LAYER
  5
253
100
AcDbSymbolTableRecord
100
AcDbLayerTableRecord
  2
80050_28
 70
0
 62
7
  6
CONTINUOUS
370
-3
390
F
  0
LAYER
  5
254
100
AcDbSymbolTableRecord
100
AcDbLayerTableRecord
  2
80050_29
 70
0
 62
7
  6
CONTINUOUS
370
-3
390
F
  0
LAYER
  5
255
100
AcDbSymbolTableRecord
100
AcDbLayerTableRecord
  2
80050_3
 70
0
 62
7
  6
CONTINUOUS
370
-3
390
F
  0
LAYER
  5
256
100
AcDbSymbolTableRecord
100
AcDbLayerTableRecord
  2
80050_30
 70
0
 62
7
  6
CONTINUOUS
370
-3
390
F
  0
LAYER
  5
257
100
AcDbSymbolTableRecord
100
AcDbLayerTableRecord
  2
80050_31
 70
0
 62
7
  6
CONTINUOUS
370
-3
390
F
  0
LAYER
  5
258
100
AcDbSymbolTableRecord
100
AcDbLayerTableRecord
  2
80050_32
 70
0
 62
7
  6
CONTINUOUS
370
-3
390
F
  0
LAYER
  5
259
100
AcDbSymbolTableRecord
100
AcDbLayerTableRecord
  2
80050_33
 70
0
 62
7
  6
CONTINUOUS
370
-3
390
F
  0
LAYER
  5
25A
100
AcDbSymbolTableRecord
100
AcDbLayerTableRecord
  2
80050_34
 70
0
 62
7
  6
CONTINUOUS
370
-3
390
F
  0
LAYER
  5
25B
100
AcDbSymbolTableRecord
100
AcDbLayerTableRecord
  2
80050_35
 70
0
 62
7
  6
CONTINUOUS
370
-3
390
F
  0
LAYER
  5
25C
100
AcDbSymbolTableRecord
100
AcDbLayerTableRecord
  2
80050_36
 70
0
 62
7
  6
CONTINUOUS
370
-3
390
F
  0
LAYER
  5
25D
100
AcDbSymbolTableRecord
100
AcDbLayerTableRecord
  2
80050_37
 70
0
 62
7
  6
CONTINUOUS
370
-3
390
F
  0
LAYER
  5
25E
100
AcDbSymbolTableRecord
100
AcDbLayerTableRecord
  2
80050_38
 70
0
 62
7
  6
CONTINUOUS
370
-3
390
F
  0
LAYER
  5
25F
100
AcDbSymbolTableRecord
100
AcDbLayerTableRecord
  2
80050_39
 70
0
 62
7
  6
CONTINUOUS
370
-3
390
F
  0
LAYER
  5
260
100
AcDbSymbolTableRecord
100
AcDbLayerTableRecord
  2
80050_4
 70
0
 62
7
  6
CONTINUOUS
370
-3
390
F
  0
LAYER
  5
261
100
AcDbSymbolTableRecord
100
AcDbLayerTableRecord
  2
80050_40
 70
0
 62
7
  6
CONTINUOUS
370
-3
390
F
  0
LAYER
  5
262
100
AcDbSymbolTableRecord
100
AcDbLayerTableRecord
  2
80050_41
 70
0
 62
7
  6
CONTINUOUS
370
-3
390
F
  0
LAYER
  5
263
100
AcDbSymbolTableRecord
100
AcDbLayerTableRecord
  2
80050_42
 70
0
 62
7
  6
CONTINUOUS
370
-3
390
F
  0
LAYER
  5
264
100
AcDbSymbolTableRecord
100
AcDbLayerTableRecord
  2
80050_43
 70
0
 62
7
  6
CONTINUOUS
370
-3
390
F
  0
LAYER
  5
265
100
AcDbSymbolTableRecord
100
AcDbLayerTableRecord
  2
80050_44
 70
0
 62
7
  6
CONTINUOUS
370
-3
390
F
  0
LAYER
  5
266
100
AcDbSymbolTableRecord
100
AcDbLayerTableRecord
  2
80050_45
 70
0
 62
7
  6
CONTINUOUS
370
-3
390
F
  0
LAYER
  5
267
100
AcDbSymbolTableRecord
100
AcDbLayerTableRecord
  2
80050_46
 70
0
 62
7
  6
CONTINUOUS
370
-3
390
F
  0
LAYER
  5
268
100
AcDbSymbolTableRecord
100
AcDbLayerTableRecord
  2
80050_47
 70
0
 62
7
  6
CONTINUOUS
370
-3
390
F
  0
LAYER
  5
269
100
AcDbSymbolTableRecord
100
AcDbLayerTableRecord
  2
80050_48
 70
0
 62
7
  6
CONTINUOUS
370
-3
390
F
  0
LAYER
  5
26A
100
AcDbSymbolTableRecord
100
AcDbLayerTableRecord
  2
80050_49
 70
0
 62
7
  6
CONTINUOUS
370
-3
390
F
  0
LAYER
  5
26B
100
AcDbSymbolTableRecord
100
AcDbLayerTableRecord
  2
80050_5
 70
0
 62
7
  6
CONTINUOUS
370
-3
390
F
  0
LAYER
  5
26C
100
AcDbSymbolTableRecord
100
AcDbLayerTableRecord
  2
80050_50
 70
0
 62
7
  6
CONTINUOUS
370
-3
390
F
  0
LAYER
  5
26D
100
AcDbSymbolTableRecord
100
AcDbLayerTableRecord
  2
80050_51
 70
0
 62
7
  6
CONTINUOUS
370
-3
390
F
  0
LAYER
  5
26E
100
AcDbSymbolTableRecord
100
AcDbLayerTableRecord
  2
80050_52
 70
0
 62
7
  6
CONTINUOUS
370
-3
390
F
  0
LAYER
  5
26F
100
AcDbSymbolTableRecord
100
AcDbLayerTableRecord
  2
80050_53
 70
0
 62
7
  6
CONTINUOUS
370
-3
390
F
  0
LAYER
  5
270
100
AcDbSymbolTableRecord
100
AcDbLayerTableRecord
  2
80050_54
 70
0
 62
7
  6
CONTINUOUS
370
-3
390
F
  0
LAYER
  5
271
100
AcDbSymbolTableRecord
100
AcDbLayerTableRecord
  2
80050_55
 70
0
 62
7
  6
CONTINUOUS
370
-3
390
F
  0
LAYER
  5
272
100
AcDbSymbolTableRecord
100
AcDbLayerTableRecord
  2
80050_56
 70
0
 62
7
  6
CONTINUOUS
370
-3
390
F
  0
LAYER
  5
273
100
AcDbSymbolTableRecord
100
AcDbLayerTableRecord
  2
80050_57
 70
0
 62
7
  6
CONTINUOUS
370
-3
390
F
  0
LAYER
  5
274
100
AcDbSymbolTableRecord
100
AcDbLayerTableRecord
  2
80050_58
 70
0
 62
7
  6
CONTINUOUS
370
-3
390
F
  0
LAYER
  5
275
100
AcDbSymbolTableRecord
100
AcDbLayerTableRecord
  2
80050_59
 70
0
 62
7
  6
CONTINUOUS
370
-3
390
F
  0
LAYER
  5
276
100
AcDbSymbolTableRecord
100
AcDbLayerTableRecord
  2
80050_6
 70
0
 62
7
  6
CONTINUOUS
370
-3
390
F
  0
LAYER
  5
277
100
AcDbSymbolTableRecord
100
AcDbLayerTableRecord
  2
80050_60
 70
0
 62
7
  6
CONTINUOUS
370
-3
390
F
  0
LAYER
  5
278
100
AcDbSymbolTableRecord
100
AcDbLayerTableRecord
  2
80050_61
 70
0
 62
7
  6
CONTINUOUS
370
-3
390
F
  0
LAYER
  5
279
100
AcDbSymbolTableRecord
100
AcDbLayerTableRecord
  2
80050_7
 70
0
 62
7
  6
CONTINUOUS
370
-3
390
F
  0
LAYER
  5
27A
100
AcDbSymbolTableRecord
100
AcDbLayerTableRecord
  2
80050_8
 70
0
 62
7
  6
CONTINUOUS
370
-3
390
F
  0
LAYER
  5
27B
100
AcDbSymbolTableRecord
100
AcDbLayerTableRecord
  2
80050_9
 70
0
 62
7
  6
CONTINUOUS
370
-3
390
F
  0
LAYER
  5
27C
100
AcDbSymbolTableRecord
100
AcDbLayerTableRecord
  2
80255
 70
0
 62
7
  6
CONTINUOUS
370
-3
390
F
  0
LAYER
  5
27D
100
AcDbSymbolTableRecord
100
AcDbLayerTableRecord
  2
91017
 70
0
 62
7
  6
CONTINUOUS
370
-3
390
F
  0
LAYER
  5
27E
100
AcDbSymbolTableRecord
100
AcDbLayerTableRecord
  2
91017_1
 70
0
 62
7
  6
CONTINUOUS
370
-3
390
F
  0
LAYER
  5
27F
100
AcDbSymbolTableRecord
100
AcDbLayerTableRecord
  2
91017_2
 70
0
 62
7
  6
CONTINUOUS
370
-3
390
F
  0
LAYER
  5
280
100
AcDbSymbolTableRecord
100
AcDbLayerTableRecord
  2
91017_3
 70
0
 62
7
  6
CONTINUOUS
370
-3
390
F
  0
LAYER
  5
281
100
AcDbSymbolTableRecord
100
AcDbLayerTableRecord
  2
91017_4
 70
0
 62
7
  6
CONTINUOUS
370
-3
390
F
  0
LAYER
  5
282
100
AcDbSymbolTableRecord
100
AcDbLayerTableRecord
  2
91017_5
 70
0
 62
7
  6
CONTINUOUS
370
-3
390
F
  0
LAYER
  5
283
100
AcDbSymbolTableRecord
100
AcDbLayerTableRecord
  2
91020
 70
0
 62
7
  6
CONTINUOUS
370
-3
390
F
  0
LAYER
  5
284
100
AcDbSymbolTableRecord
100
AcDbLayerTableRecord
  2
91020_1
 70
0
 62
7
  6
CONTINUOUS
370
-3
390
F
  0
LAYER
  5
285
100
AcDbSymbolTableRecord
100
AcDbLayerTableRecord
  2
91020_1_1
 70
0
 62
7
  6
CONTINUOUS
370
-3
390
F
  0
LAYER
  5
286
100
AcDbSymbolTableRecord
100
AcDbLayerTableRecord
  2
91021
 70
0
 62
7
  6
CONTINUOUS
370
-3
390
F
  0
LAYER
  5
287
100
AcDbSymbolTableRecord
100
AcDbLayerTableRecord
  2
91049
 70
0
 62
7
  6
CONTINUOUS
370
-3
390
F
  0
LAYER
  5
288
100
AcDbSymbolTableRecord
100
AcDbLayerTableRecord
  2
91049_1
 70
0
 62
7
  6
CONTINUOUS
370
-3
390
F
  0
LAYER
  5
289
100
AcDbSymbolTableRecord
100
AcDbLayerTableRecord
  2
91049_2
 70
0
 62
7
  6
CONTINUOUS
370
-3
390
F
  0
LAYER
  5
28A
100
AcDbSymbolTableRecord
100
AcDbLayerTableRecord
  2
91153
 70
0
 62
7
  6
CONTINUOUS
370
-3
390
F
  0
LAYER
  5
28B
100
AcDbSymbolTableRecord
100
AcDbLayerTableRecord
  2
91153_1
 70
0
 62
7
  6
CONTINUOUS
370
-3
390
F
  0
LAYER
  5
28C
100
AcDbSymbolTableRecord
100
AcDbLayerTableRecord
  2
91182
 70
0
 62
7
  6
CONTINUOUS
370
-3
390
F
  0
LAYER
  5
28D
100
AcDbSymbolTableRecord
100
AcDbLayerTableRecord
  2
91370
 70
0
 62
7
  6
CONTINUOUS
370
-3
390
F
  0
LAYER
  5
28E
100
AcDbSymbolTableRecord
100
AcDbLayerTableRecord
  2
91370_1
 70
0
 62
7
  6
CONTINUOUS
370
-3
390
F
  0
LAYER
  5
28F
100
AcDbSymbolTableRecord
100
AcDbLayerTableRecord
  2
91370_2
 70
0
 62
7
  6
CONTINUOUS
370
-3
390
F
  0
LAYER
  5
290
100
AcDbSymbolTableRecord
100
AcDbLayerTableRecord
  2
91371
 70
0
 62
7
  6
CONTINUOUS
370
-3
390
F
  0
LAYER
  5
291
100
AcDbSymbolTableRecord
100
AcDbLayerTableRecord
  2
91371_1
 70
0
 62
7
  6
CONTINUOUS
370
-3
390
F
  0
LAYER
  5
292
100
AcDbSymbolTableRecord
100
AcDbLayerTableRecord
  2
91371_2
 70
0
 62
7
  6
CONTINUOUS
370
-3
390
F
  0
LAYER
  5
293
100
AcDbSymbolTableRecord
100
AcDbLayerTableRecord
  2
91386_G28-914
 70
0
 62
7
  6
CONTINUOUS
370
-3
390
F
  0
LAYER
  5
294
100
AcDbSymbolTableRecord
100
AcDbLayerTableRecord
  2
91390_8-025
 70
0
 62
7
  6
CONTINUOUS
370
-3
390
F
  0
LAYER
  5
295
100
AcDbSymbolTableRecord
100
AcDbLayerTableRecord
  2
91390_8-025_1
 70
0
 62
7
  6
CONTINUOUS
370
-3
390
F
  0
LAYER
  5
296
100
AcDbSymbolTableRecord
100
AcDbLayerTableRecord
  2
91390_8-025_1_1
 70
0
 62
7
  6
CONTINUOUS
370
-3
390
F
  0
LAYER
  5
297
100
AcDbSymbolTableRecord
100
AcDbLayerTableRecord
  2
91390_8-025_1_2
 70
0
 62
7
  6
CONTINUOUS
370
-3
390
F
  0
LAYER
  5
298
100
AcDbSymbolTableRecord
100
AcDbLayerTableRecord
  2
91390_8-025_2
 70
0
 62
7
  6
CONTINUOUS
370
-3
390
F
  0
LAYER
  5
299
100
AcDbSymbolTableRecord
100
AcDbLayerTableRecord
  2
91390_8-025_2_1
 70
0
 62
7
  6
CONTINUOUS
370
-3
390
F
  0
LAYER
  5
29A
100
AcDbSymbolTableRecord
100
AcDbLayerTableRecord
  2
91390_8-035
 70
0
 62
7
  6
CONTINUOUS
370
-3
390
F
  0
LAYER
  5
29B
100
AcDbSymbolTableRecord
100
AcDbLayerTableRecord
  2
91390_8-036
 70
0
 62
7
  6
CONTINUOUS
370
-3
390
F
  0
LAYER
  5
29C
100
AcDbSymbolTableRecord
100
AcDbLayerTableRecord
  2
91548
 70
0
 62
7
  6
CONTINUOUS
370
-3
390
F
  0
LAYER
  5
29D
100
AcDbSymbolTableRecord
100
AcDbLayerTableRecord
  2
92258
 70
0
 62
7
  6
CONTINUOUS
370
-3
390
F
  0
LAYER
  5
29E
100
AcDbSymbolTableRecord
100
AcDbLayerTableRecord
  2
92399
 70
0
 62
7
  6
CONTINUOUS
370
-3
390
F
  0
LAYER
  5
29F
100
AcDbSymbolTableRecord
100
AcDbLayerTableRecord
  2
92399_1
 70
0
 62
7
  6
CONTINUOUS
370
-3
390
F
  0
LAYER
  5
2A0
100
AcDbSymbolTableRecord
100
AcDbLayerTableRecord
  2
92399_2
 70
0
 62
7
  6
CONTINUOUS
370
-3
390
F
  0
LAYER
  5
2A1
100
AcDbSymbolTableRecord
100
AcDbLayerTableRecord
  2
ALL_ASSEMBLY_MEMBERS
 70
0
 62
7
  6
CONTINUOUS
370
-3
390
F
  0
LAYER
  5
2A2
100
AcDbSymbolTableRecord
100
AcDbLayerTableRecord
  2
ALL_ASSEMBLY_MEMBERS_1
 70
0
 62
7
  6
CONTINUOUS
370
-3
390
F
  0
LAYER
  5
2A3
100
AcDbSymbolTableRecord
100
AcDbLayerTableRecord
  2
ALL_ASSEMBLY_MEMBERS_11
 70
0
 62
7
  6
CONTINUOUS
370
-3
390
F
  0
LAYER
  5
2A4
100
AcDbSymbolTableRecord
100
AcDbLayerTableRecord
  2
ALL_ASSEMBLY_MEMBERS_12
 70
0
 62
7
  6
CONTINUOUS
370
-3
390
F
  0
LAYER
  5
2A5
100
AcDbSymbolTableRecord
100
AcDbLayerTableRecord
  2
ALL_ASSEMBLY_MEMBERS_13
 70
0
 62
7
  6
CONTINUOUS
370
-3
390
F
  0
LAYER
  5
2A6
100
AcDbSymbolTableRecord
100
AcDbLayerTableRecord
  2
ALL_ASSEMBLY_MEMBERS_14
 70
0
 62
7
  6
CONTINUOUS
370
-3
390
F
  0
LAYER
  5
2A7
100
AcDbSymbolTableRecord
100
AcDbLayerTableRecord
  2
ALL_ASSEMBLY_MEMBERS_15
 70
0
 62
7
  6
CONTINUOUS
370
-3
390
F
  0
LAYER
  5
2A8
100
AcDbSymbolTableRecord
100
AcDbLayerTableRecord
  2
ALL_ASSEMBLY_MEMBERS_16
 70
0
 62
7
  6
CONTINUOUS
370
-3
390
F
  0
LAYER
  5
2A9
100
AcDbSymbolTableRecord
100
AcDbLayerTableRecord
  2
ALL_ASSEMBLY_MEMBERS_17
 70
0
 62
7
  6
CONTINUOUS
370
-3
390
F
  0
LAYER
  5
2AA
100
AcDbSymbolTableRecord
100
AcDbLayerTableRecord
  2
ALL_ASSEMBLY_MEMBERS_2
 70
0
 62
7
  6
CONTINUOUS
370
-3
390
F
  0
LAYER
  5
2AB
100
AcDbSymbolTableRecord
100
AcDbLayerTableRecord
  2
ALL_ASSEMBLY_MEMBERS_3
 70
0
 62
7
  6
CONTINUOUS
370
-3
390
F
  0
LAYER
  5
2AC
100
AcDbSymbolTableRecord
100
AcDbLayerTableRecord
  2
ALL_ASSEMBLY_MEMBERS_4
 70
0
 62
7
  6
CONTINUOUS
370
-3
390
F
  0
LAYER
  5
2AD
100
AcDbSymbolTableRecord
100
AcDbLayerTableRecord
  2
ALL_ASSEMBLY_MEMBERS_5
 70
0
 62
7
  6
CONTINUOUS
370
-3
390
F
  0
LAYER
  5
2AE
100
AcDbSymbolTableRecord
100
AcDbLayerTableRecord
  2
ALL_ASSEMBLY_MEMBERS_6
 70
0
 62
7
  6
CONTINUOUS
370
-3
390
F
  0
LAYER
  5
2AF
100
AcDbSymbolTableRecord
100
AcDbLayerTableRecord
  2
ALL_ASSEMBLY_MEMBERS_7
 70
0
 62
7
  6
CONTINUOUS
370
-3
390
F
  0
LAYER
  5
2B0
100
AcDbSymbolTableRecord
100
AcDbLayerTableRecord
  2
ALL_ASSEMBLY_MEMBERS_8
 70
0
 62
7
  6
CONTINUOUS
370
-3
390
F
  0
LAYER
  5
2B1
100
AcDbSymbolTableRecord
100
AcDbLayerTableRecord
  2
ALL_ASSEMBLY_MEMBERS_9
 70
0
 62
7
  6
CONTINUOUS
370
-3
390
F
  0
LAYER
  5
2B2
100
AcDbSymbolTableRecord
100
AcDbLayerTableRecord
  2
ALL_FEATURES_68
 70
0
 62
7
  6
CONTINUOUS
370
-3
390
F
  0
LAYER
  5
2B3
100
AcDbSymbolTableRecord
100
AcDbLayerTableRecord
  2
COLOR10
 70
0
 62
7
  6
CONTINUOUS
370
-3
390
F
  0
LAYER
  5
2B4
100
AcDbSymbolTableRecord
100
AcDbLayerTableRecord
  2
COLOR11
 70
0
 62
7
  6
CONTINUOUS
370
-3
390
F
  0
LAYER
  5
2B5
100
AcDbSymbolTableRecord
100
AcDbLayerTableRecord
  2
COLOR14
 70
0
 62
7
  6
CONTINUOUS
370
-3
390
F
  0
LAYER
  5
2B6
100
AcDbSymbolTableRecord
100
AcDbLayerTableRecord
  2
COLOR17
 70
0
 62
7
  6
CONTINUOUS
370
-3
390
F
  0
LAYER
  5
2B7
100
AcDbSymbolTableRecord
100
AcDbLayerTableRecord
  2
COLOR19
 70
0
 62
7
  6
CONTINUOUS
370
-3
390
F
  0
LAYER
  5
2B8
100
AcDbSymbolTableRecord
100
AcDbLayerTableRecord
  2
COLOR2
 70
0
 62
7
  6
CONTINUOUS
370
-3
390
F
  0
LAYER
  5
2B9
100
AcDbSymbolTableRecord
100
AcDbLayerTableRecord
  2
COLOR20
 70
0
 62
7
  6
CONTINUOUS
370
-3
390
F
  0
LAYER
  5
2BA
100
AcDbSymbolTableRecord
100
AcDbLayerTableRecord
  2
COLOR21
 70
0
 62
7
  6
CONTINUOUS
370
-3
390
F
  0
LAYER
  5
2BB
100
AcDbSymbolTableRecord
100
AcDbLayerTableRecord
  2
COLOR23
 70
0
 62
7
  6
CONTINUOUS
370
-3
390
F
  0
LAYER
  5
2BC
100
AcDbSymbolTableRecord
100
AcDbLayerTableRecord
  2
COLOR24
 70
0
 62
7
  6
CONTINUOUS
370
-3
390
F
  0
LAYER
  5
2BD
100
AcDbSymbolTableRecord
100
AcDbLayerTableRecord
  2
COLOR5
 70
0
 62
7
  6
CONTINUOUS
370
-3
390
F
  0
LAYER
  5
2BE
100
AcDbSymbolTableRecord
100
AcDbLayerTableRecord
  2
COLOR7
 70
0
 62
7
  6
CONTINUOUS
370
-3
390
F
  0
LAYER
  5
2BF
100
AcDbSymbolTableRecord
100
AcDbLayerTableRecord
  2
COLOR8
 70
0
 62
7
  6
CONTINUOUS
370
-3
390
F
  0
LAYER
  5
2C0
100
AcDbSymbolTableRecord
100
AcDbLayerTableRecord
  2
COLOR9
 70
0
 62
7
  6
CONTINUOUS
370
-3
390
F
  0
LAYER
  5
2C1
100
AcDbSymbolTableRecord
100
AcDbLayerTableRecord
  2
DEFAULT_SURFACES
 70
0
 62
7
  6
CONTINUOUS
370
-3
390
F
  0
LAYER
  5
2C2
100
AcDbSymbolTableRecord
100
AcDbLayerTableRecord
  2
DEFAULT_SURFACES_1
 70
0
 62
7
  6
CONTINUOUS
370
-3
390
F
  0
LAYER
  5
2C3
100
AcDbSymbolTableRecord
100
AcDbLayerTableRecord
  2
DEFAULT_SURFACES_2
 70
0
 62
7
  6
CONTINUOUS
370
-3
390
F
  0
LAYER
  5
2C4
100
AcDbSymbolTableRecord
100
AcDbLayerTableRecord
  2
DEFAULT_SURFACES_3
 70
0
 62
7
  6
CONTINUOUS
370
-3
390
F
  0
LAYER
  5
2C5
100
AcDbSymbolTableRecord
100
AcDbLayerTableRecord
  2
DEFAULT_SURFACES_4
 70
0
 62
7
  6
CONTINUOUS
370
-3
390
F
  0
LAYER
  5
2C6
100
AcDbSymbolTableRecord
100
AcDbLayerTableRecord
  2
INTFCLR_1799
 70
0
 62
7
  6
CONTINUOUS
370
-3
390
F
  0
LAYER
  5
2C7
100
AcDbSymbolTableRecord
100
AcDbLayerTableRecord
  2
INTF_10029
 70
0
 62
7
  6
CONTINUOUS
370
-3
390
F
  0
LAYER
  5
2C8
100
AcDbSymbolTableRecord
100
AcDbLayerTableRecord
  2
INTF_11176
 70
0
 62
7
  6
CONTINUOUS
370
-3
390
F
  0
LAYER
  5
2C9
100
AcDbSymbolTableRecord
100
AcDbLayerTableRecord
  2
INTF_11913
 70
0
 62
7
  6
CONTINUOUS
370
-3
390
F
  0
LAYER
  5
2CA
100
AcDbSymbolTableRecord
100
AcDbLayerTableRecord
  2
INTF_11959
 70
0
 62
7
  6
CONTINUOUS
370
-3
390
F
  0
LAYER
  5
2CB
100
AcDbSymbolTableRecord
100
AcDbLayerTableRecord
  2
INTF_11975
 70
0
 62
7
  6
CONTINUOUS
370
-3
390
F
  0
LAYER
  5
2CC
100
AcDbSymbolTableRecord
100
AcDbLayerTableRecord
  2
INTF_50307
 70
0
 62
7
  6
CONTINUOUS
370
-3
390
F
  0
LAYER
  5
2CD
100
AcDbSymbolTableRecord
100
AcDbLayerTableRecord
  2
INTF_50913
 70
0
 62
7
  6
CONTINUOUS
370
-3
390
F
  0
LAYER
  5
2CE
100
AcDbSymbolTableRecord
100
AcDbLayerTableRecord
  2
INTF_50915
 70
0
 62
7
  6
CONTINUOUS
370
-3
390
F
  0
LAYER
  5
2CF
100
AcDbSymbolTableRecord
100
AcDbLayerTableRecord
  2
INTF_80027
 70
0
 62
7
  6
CONTINUOUS
370
-3
390
F
  0
LAYER
  5
2D0
100
AcDbSymbolTableRecord
100
AcDbLayerTableRecord
  2
INTF_80034
 70
0
 62
7
  6
CONTINUOUS
370
-3
390
F
  0
LAYER
  5
2D1
100
AcDbSymbolTableRecord
100
AcDbLayerTableRecord
  2
INTF_80037
 70
0
 62
7
  6
CONTINUOUS
370
-3
390
F
  0
LAYER
  5
2D2
100
AcDbSymbolTableRecord
100
AcDbLayerTableRecord
  2
INTF_80039
 70
0
 62
7
  6
CONTINUOUS
370
-3
390
F
  0
LAYER
  5
2D3
100
AcDbSymbolTableRecord
100
AcDbLayerTableRecord
  2
INTF_80041
 70
0
 62
7
  6
CONTINUOUS
370
-3
390
F
  0
LAYER
  5
2D4
100
AcDbSymbolTableRecord
100
AcDbLayerTableRecord
  2
INTF_80042
 70
0
 62
7
  6
CONTINUOUS
370
-3
390
F
  0
LAYER
  5
2D5
100
AcDbSymbolTableRecord
100
AcDbLayerTableRecord
  2
INTF_80044
 70
0
 62
7
  6
CONTINUOUS
370
-3
390
F
  0
LAYER
  5
2D6
100
AcDbSymbolTableRecord
100
AcDbLayerTableRecord
  2
INTF_80046
 70
0
 62
7
  6
CONTINUOUS
370
-3
390
F
  0
LAYER
  5
2D7
100
AcDbSymbolTableRecord
100
AcDbLayerTableRecord
  2
INTF_80050
 70
0
 62
7
  6
CONTINUOUS
370
-3
390
F
  0
LAYER
  5
2D8
100
AcDbSymbolTableRecord
100
AcDbLayerTableRecord
  2
INTF_80255
 70
0
 62
7
  6
CONTINUOUS
370
-3
390
F
  0
LAYER
  5
2D9
100
AcDbSymbolTableRecord
100
AcDbLayerTableRecord
  2
INTF_91017
 70
0
 62
7
  6
CONTINUOUS
370
-3
390
F
  0
LAYER
  5
2DA
100
AcDbSymbolTableRecord
100
AcDbLayerTableRecord
  2
INTF_91020
 70
0
 62
7
  6
CONTINUOUS
370
-3
390
F
  0
LAYER
  5
2DB
100
AcDbSymbolTableRecord
100
AcDbLayerTableRecord
  2
INTF_91021
 70
0
 62
7
  6
CONTINUOUS
370
-3
390
F
  0
LAYER
  5
2DC
100
AcDbSymbolTableRecord
100
AcDbLayerTableRecord
  2
INTF_91049
 70
0
 62
7
  6
CONTINUOUS
370
-3
390
F
  0
LAYER
  5
2DD
100
AcDbSymbolTableRecord
100
AcDbLayerTableRecord
  2
INTF_91153
 70
0
 62
7
  6
CONTINUOUS
370
-3
390
F
  0
LAYER
  5
2DE
100
AcDbSymbolTableRecord
100
AcDbLayerTableRecord
  2
INTF_91182
 70
0
 62
7
  6
CONTINUOUS
370
-3
390
F
  0
LAYER
  5
2DF
100
AcDbSymbolTableRecord
100
AcDbLayerTableRecord
  2
INTF_91370
 70
0
 62
7
  6
CONTINUOUS
370
-3
390
F
  0
LAYER
  5
2E0
100
AcDbSymbolTableRecord
100
AcDbLayerTableRecord
  2
INTF_91371
 70
0
 62
7
  6
CONTINUOUS
370
-3
390
F
  0
LAYER
  5
2E1
100
AcDbSymbolTableRecord
100
AcDbLayerTableRecord
  2
INTF_91548
 70
0
 62
7
  6
CONTINUOUS
370
-3
390
F
  0
LAYER
  5
2E2
100
AcDbSymbolTableRecord
100
AcDbLayerTableRecord
  2
INTF_92258
 70
0
 62
7
  6
CONTINUOUS
370
-3
390
F
  0
LAYER
  5
2E3
100
AcDbSymbolTableRecord
100
AcDbLayerTableRecord
  2
INTF_92399
 70
0
 62
7
  6
CONTINUOUS
370
-3
390
F
  0
LAYER
  5
2E4
100
AcDbSymbolTableRecord
100
AcDbLayerTableRecord
  2
INTF_BLANK
 70
0
 62
7
  6
CONTINUOUS
370
-3
390
F
  0
LAYER
  5
2E5
100
AcDbSymbolTableRecord
100
AcDbLayerTableRecord
  2
PLATED_AREA
 70
0
 62
7
  6
CONTINUOUS
370
-3
390
F
  0
LAYER
  5
2E6
100
AcDbSymbolTableRecord
100
AcDbLayerTableRecord
  2
PLATED_SURFACE_AREA
 70
0
 62
7
  6
CONTINUOUS
370
-3
390
F
  0
LAYER
  5
2E7
100
AcDbSymbolTableRecord
100
AcDbLayerTableRecord
  2
PLATTED_SURFACE_AREA
 70
0
 62
7
  6
CONTINUOUS
370
-3
390
F
  0
LAYER
  5
2E8
100
AcDbSymbolTableRecord
100
AcDbLayerTableRecord
  2
QUILTS_18
 70
0
 62
7
  6
CONTINUOUS
370
-3
390
F
  0
LAYER
  5
2E9
100
AcDbSymbolTableRecord
100
AcDbLayerTableRecord
  2
QUILTS_26
 70
0
 62
7
  6
CONTINUOUS
370
-3
390
F
  0
LAYER
  5
2EA
100
AcDbSymbolTableRecord
100
AcDbLayerTableRecord
  2
SLEEVE_FOR_BRASS_TECH-20T
 70
0
 62
7
  6
CONTINUOUS
370
-3
390
F
  0
LAYER
  5
2EB
100
AcDbSymbolTableRecord
100
AcDbLayerTableRecord
  2
SPLINE_EXTENSION_FOR_BRASSTECH_
 70
0
 62
7
  6
CONTINUOUS
370
-3
390
F
  0
LAYER
  5
2EC
100
AcDbSymbolTableRecord
100
AcDbLayerTableRecord
  2
SURFACE_FEATURES_4
 70
0
 62
7
  6
CONTINUOUS
370
-3
390
F
  0
LAYER
  5
2ED
100
AcDbSymbolTableRecord
100
AcDbLayerTableRecord
  2
WETTED_SURFACES
 70
0
 62
7
  6
CONTINUOUS
370
-3
390
F
  0
LAYER
  5
2EE
100
AcDbSymbolTableRecord
100
AcDbLayerTableRecord
  2
WETTED_SURFACES_1
 70
0
 62
7
  6
CONTINUOUS
370
-3
390
F
  0
LAYER
  5
2EF
100
AcDbSymbolTableRecord
100
AcDbLayerTableRecord
  2
WETTED_SURFACES_2
 70
0
 62
7
  6
CONTINUOUS
370
-3
390
F
  0
LAYER
  5
2F0
100
AcDbSymbolTableRecord
100
AcDbLayerTableRecord
  2
WETTED_SURFACES_3
 70
0
 62
7
  6
CONTINUOUS
370
-3
390
F
  0
LAYER
  5
2F1
100
AcDbSymbolTableRecord
100
AcDbLayerTableRecord
  2
WETTED_SURFACE_AREA
 70
0
 62
7
  6
CONTINUOUS
370
-3
390
F
  0
LAYER
  5
2F2
100
AcDbSymbolTableRecord
100
AcDbLayerTableRecord
  2
WETTED_SURFACE_AREA_1
 70
0
 62
7
  6
CONTINUOUS
370
-3
390
F
  0
LAYER
  5
2F3
100
AcDbSymbolTableRecord
100
AcDbLayerTableRecord
  2
WETTED_SURFACE_AREA_2
 70
0
 62
7
  6
CONTINUOUS
370
-3
390
F
  0
LAYER
  5
2F4
100
AcDbSymbolTableRecord
100
AcDbLayerTableRecord
  2
_BLACK_HOLE
 70
0
 62
7
  6
CONTINUOUS
370
-3
390
F
  0
ENDTAB
  0
TABLE
  2
STYLE
  5
3
100
AcDbSymbolTable
 70
1
  0
STYLE
  5
11
100
AcDbSymbolTableRecord
100
AcDbTextStyleTableRecord
  2
STANDARD
 70
0
 40
0.0
 41
0.8
 50
0.0
 71
0
 42
0.2
  3
txt
  4

  0
STYLE
  5
2F5
100
AcDbSymbolTableRecord
100
AcDbTextStyleTableRecord
  2
TEXTSTYLE_1
 70
0
 40
0.0
 41
0.8
 50
0.0
 71
0
 42
0.2
  3
gdt
  4

  0
ENDTAB
  0
TABLE
  2
VIEW
  5
6
100
AcDbSymbolTable
 70
0
  0
ENDTAB
  0
TABLE
  2
UCS
  5
7
100
AcDbSymbolTable
 70
0
  0
ENDTAB
  0
TABLE
  2
APPID
  5
9
100
AcDbSymbolTable
 70
1
  0
APPID
  5
2F6
100
AcDbSymbolTableRecord
100
AcDbRegAppTableRecord
  2
ACAD
 70
0
  0
ENDTAB
  0
TABLE
  2
BLOCK_RECORD
  5
1
100
AcDbSymbolTable
 70
0
  0
BLOCK_RECORD
  5
2F7
100
AcDbSymbolTableRecord
100
AcDbBlockTableRecord
  2
*Model_Space
  0
BLOCK_RECORD
  5
2F8
100
AcDbSymbolTableRecord
100
AcDbBlockTableRecord
  2
*Paper_Space
  0
ENDTAB
  0
TABLE
  2
DIMSTYLE
  5
A
100
AcDbSymbolTable
 70
1
100
AcDbDimStyleTable
 71
0
  0
DIMSTYLE
105
2F9
100
AcDbSymbolTableRecord
100
AcDbDimStyleTableRecord
  2
STANDARD
 70
0
  3

  4

 40
1.0
 41
0.1875
 42
0.0625
 43
0.38
 44
0.18
 45
0.0
 46
0.0
 47
0.01
 48
0.01
140
0.15625
141
0.09
142
0.0
143
25.4
144
1.0
145
0.0
146
1.0
147
0.09
 71
0.0
 72
0.0
 73
1
 74
1
 75
0
 76
0
 77
0
 78
4
170
0
171
2
172
0
173
0
174
0
175
0
176
0
177
0
178
0
270
2
271
2
272
2
273
2
274
2
275
0
280
0
281
0
282
0
283
1
284
4
285
0
286
0
287
3
288
0
340
11
  0
ENDTAB
  0
ENDSEC
  0
SECTION
  2
BLOCKS
  0
BLOCK
  5
20
100
AcDbEntity
  8
0
100
AcDbBlockBegin
  2
*Model_Space
 70
0
 10
0.0
 20
0.0
 30
0.0
  3
*Model_Space
  1

  0
ENDBLK
  5
21
100
AcDbEntity
  8
0
100
AcDbBlockEnd
  0
BLOCK
  5
1C
100
AcDbEntity
  8
0
100
AcDbBlockBegin
  2
*Paper_Space
 70
0
 10
0.0
 20
0.0
 30
0.0
  3
*Paper_Space
  1

  0
ENDBLK
  5
1D
100
AcDbEntity
  8
0
100
AcDbBlockEnd
  0
ENDSEC
  0
SECTION
  2
ENTITIES
  0
LINE
  5
2FA
100
AcDbEntity
  8
0
100
AcDbLine
 62
9
  6
CONTINUOUS
 10
0.6410943933
 20
5.3412542569
 11
0.6410943933
 21
5.7932542569
  0
LINE
  5
2FB
100
AcDbEntity
  8
0
100
AcDbLine
 62
7
  6
CONTINUOUS
 10
0.6410943933
 20
6.9512542569
 11
0.6410943933
 21
7.0862542569
  0
LINE
  5
2FC
100
AcDbEntity
  8
0
100
AcDbLine
 62
9
  6
CONTINUOUS
 10
0.6610943933
 20
7.0862542569
 11
0.6610943933
 21
6.9312542569
  0
LINE
  5
2FD
100
AcDbEntity
  8
0
100
AcDbLine
 62
9
  6
CONTINUOUS
 10
0.6610943933
 20
5.8132542569
 11
0.6610943933
 21
5.3212542569
  0
LINE
  5
2FE
100
AcDbEntity
  8
0
100
AcDbLine
 62
7
  6
CONTINUOUS
 10
1.7060943933
 20
6.9157542569
 11
1.7060943933
 21
6.7282542569
  0
LINE
  5
2FF
100
AcDbEntity
  8
0
100
AcDbLine
 62
6
  6
CONTINUOUS
 10
1.7060943933
 20
6.7082542569
 11
1.7060943933
 21
5.8332542569
  0
LINE
  5
300
100
AcDbEntity
  8
0
100
AcDbLine
 62
7
  6
CONTINUOUS
 10
1.7335943933
 20
6.9312542569
 11
1.7335943933
 21
6.9157542569
  0
LINE
  5
301
100
AcDbEntity
  8
0
100
AcDbLine
 62
7
  6
CONTINUOUS
 10
1.7510943933
 20
6.7282542569
 11
1.7510943933
 21
6.7082542569
  0
LINE
  5
302
100
AcDbEntity
  8
0
100
AcDbLine
 62
7
  6
CONTINUOUS
 10
2.0910943933
 20
6.7282542569
 11
2.0910943933
 21
6.7082542569
  0
LINE
  5
303
100
AcDbEntity
  8
0
100
AcDbLine
 62
7
  6
CONTINUOUS
 10
2.1085943933
 20
6.9312542569
 11
2.1085943933
 21
6.9157542569
  0
LINE
  5
304
100
AcDbEntity
  8
0
100
AcDbLine
 62
9
  6
CONTINUOUS
 10
2.1235816613
 20
5.7932542569
 11
2.1235816613
 21
5.4463878008
  0
LINE
  5
305
100
AcDbEntity
  8
0
100
AcDbLine
 62
7
  6
CONTINUOUS
 10
2.1360943933
 20
6.9157542569
 11
2.1360943933
 21
6.7282542569
  0
LINE
  5
306
100
AcDbEntity
  8
0
100
AcDbLine
 62
6
  6
CONTINUOUS
 10
2.1360943933
 20
6.7082542569
 11
2.1360943933
 21
5.8332542569
  0
LINE
  5
307
100
AcDbEntity
  8
0
100
AcDbLine
 62
9
  6
CONTINUOUS
 10
2.1424176862
 20
5.4463961953
 11
2.1424176862
 21
5.7932542569
  0
LINE
  5
308
100
AcDbEntity
  8
0
100
AcDbLine
 62
9
  6
CONTINUOUS
 10
2.2145943933
 20
5.3212542569
 11
2.2145943933
 21
5.8132542569
  0
LINE
  5
309
100
AcDbEntity
  8
0
100
AcDbLine
 62
9
  6
CONTINUOUS
 10
2.2345943933
 20
5.7932542569
 11
2.2345943933
 21
5.3412542569
  0
LINE
  5
30A
100
AcDbEntity
  8
0
100
AcDbLine
 62
9
  6
CONTINUOUS
 10
2.4510943933
 20
6.9312542569
 11
2.4510943933
 21
7.0862542569
  0
LINE
  5
30B
100
AcDbEntity
  8
0
100
AcDbLine
 62
7
  6
CONTINUOUS
 10
2.4710943933
 20
7.0862542569
 11
2.4710943933
 21
6.9512542569
  0
LINE
  5
30C
100
AcDbEntity
  8
0
100
AcDbLine
 62
9
  6
CONTINUOUS
 10
2.0710905112
 20
5.4234738677
 11
1.7145296021
 21
5.7800347768
  0
LINE
  5
30D
100
AcDbEntity
  8
0
100
AcDbLine
 62
6
  6
CONTINUOUS
 10
1.7286717431
 20
5.794176907
 11
2.0852326391
 21
5.4376160111
  0
LINE
  5
30E
100
AcDbEntity
  8
0
100
AcDbLine
 62
9
  6
CONTINUOUS
 10
1.7270122683
 20
5.79592762
 11
1.7286717377
 21
5.7941769125
  0
LINE
  5
30F
100
AcDbEntity
  8
0
100
AcDbLine
 62
6
  6
CONTINUOUS
 10
1.7286717731
 20
5.7941769476
 11
1.726835212
 21
5.7961600794
  0
LINE
  5
310
100
AcDbEntity
  8
0
100
AcDbLine
 62
9
  6
CONTINUOUS
 10
4.1335943933
 20
6.9512542569
 11
4.1335943933
 21
7.0862542569
  0
LINE
  5
311
100
AcDbEntity
  8
0
100
AcDbLine
 62
9
  6
CONTINUOUS
 10
4.1535943933
 20
7.0862542569
 11
4.1535943933
 21
6.9312542569
  0
LINE
  5
312
100
AcDbEntity
  8
0
100
AcDbLine
 62
7
  6
CONTINUOUS
 10
4.2310943933
 20
5.3762542569
 11
4.2310943933
 21
6.9312542569
  0
LINE
  5
313
100
AcDbEntity
  8
0
100
AcDbLine
 62
9
  6
CONTINUOUS
 10
4.2510943933
 20
6.9312542569
 11
4.2510943933
 21
5.3562542569
  0
LINE
  5
314
100
AcDbEntity
  8
0
100
AcDbLine
 62
9
  6
CONTINUOUS
 10
1.7286717377
 20
5.7941769125
 11
1.7145296021
 21
5.7800347768
  0
LINE
  5
315
100
AcDbEntity
  8
0
100
AcDbLine
 62
9
  6
CONTINUOUS
 10
2.0710905112
 20
5.4234738677
 11
2.0852326468
 21
5.4376160033
  0
LINE
  5
316
100
AcDbEntity
  8
0
100
AcDbLine
 62
9
  6
CONTINUOUS
 10
5.5910943933
 20
5.3562542569
 11
5.5910943933
 21
6.9312542569
  0
LINE
  5
317
100
AcDbEntity
  8
0
100
AcDbLine
 62
7
  6
CONTINUOUS
 10
5.6110943933
 20
6.9312542569
 11
5.6110943933
 21
5.3762542569
  0
LINE
  5
318
100
AcDbEntity
  8
0
100
AcDbLine
 62
9
  6
CONTINUOUS
 10
5.6885943933
 20
6.9312542569
 11
5.6885943933
 21
7.0862542569
  0
LINE
  5
319
100
AcDbEntity
  8
0
100
AcDbLine
 62
9
  6
CONTINUOUS
 10
5.7085943933
 20
7.0862542569
 11
5.7085943933
 21
6.9512542569
  0
LINE
  5
31A
100
AcDbEntity
  8
0
100
AcDbLine
 62
9
  6
CONTINUOUS
 10
1.7223941177
 20
5.8022232574
 11
1.7048474473
 21
5.7932542568
  0
LINE
  5
31B
100
AcDbEntity
  8
0
100
AcDbLine
 62
7
  6
CONTINUOUS
 10
15.3810943933
 20
2.8336929931
 11
14.4610943933
 21
2.8336929931
  0
LINE
  5
31C
100
AcDbEntity
  8
0
100
AcDbLine
 62
9
  6
CONTINUOUS
 10
14.4610943933
 20
2.8462008612
 11
15.3810943933
 21
2.8462008612
  0
LWPOLYLINE
  5
31D
100
AcDbEntity
  8
0
100
AcDbPolyline
 62
7
  6
CONTINUOUS
 90
3
 70
0
 10
14.6594891949
 20
4.795740763
 10
14.6531961464
 20
4.7940785537
 10
14.6513204267
 20
4.7939901194
  0
LINE
  5
31E
100
AcDbEntity
  8
0
100
AcDbLine
 62
7
  6
CONTINUOUS
 10
7.3710943933
 20
6.9512542569
 11
7.3710943933
 21
7.0862542569
  0
LINE
  5
31F
100
AcDbEntity
  8
0
100
AcDbLine
 62
9
  6
CONTINUOUS
 10
7.3910943933
 20
7.0862542569
 11
7.3910943933
 21
6.9312542569
  0
LINE
  5
320
100
AcDbEntity
  8
0
100
AcDbLine
 62
9
  6
CONTINUOUS
 10
7.6075943933
 20
5.3412542569
 11
7.6075943933
 21
5.7932542569
  0
LINE
  5
321
100
AcDbEntity
  8
0
100
AcDbLine
 62
9
  6
CONTINUOUS
 10
7.6275943933
 20
5.8132542569
 11
7.6275943933
 21
5.3212542569
  0
LINE
  5
322
100
AcDbEntity
  8
0
100
AcDbLine
 62
9
  6
CONTINUOUS
 10
7.6997711003
 20
5.7932542569
 11
7.6997711003
 21
5.446370162
  0
LINE
  5
323
100
AcDbEntity
  8
0
100
AcDbLine
 62
7
  6
CONTINUOUS
 10
7.7060943933
 20
6.9157542569
 11
7.7060943933
 21
6.7282542569
  0
LINE
  5
324
100
AcDbEntity
  8
0
100
AcDbLine
 62
6
  6
CONTINUOUS
 10
7.7060943933
 20
6.7082542569
 11
7.7060943933
 21
5.8332542569
  0
LINE
  5
325
100
AcDbEntity
  8
0
100
AcDbLine
 62
9
  6
CONTINUOUS
 10
7.7186071253
 20
5.4463879578
 11
7.7186071253
 21
5.7932542573
  0
LINE
  5
326
100
AcDbEntity
  8
0
100
AcDbLine
 62
7
  6
CONTINUOUS
 10
7.7335943933
 20
6.9312542569
 11
7.7335943933
 21
6.9157542569
  0
LINE
  5
327
100
AcDbEntity
  8
0
100
AcDbLine
 62
7
  6
CONTINUOUS
 10
7.7510943933
 20
6.7282542569
 11
7.7510943933
 21
6.7082542569
  0
LINE
  5
328
100
AcDbEntity
  8
0
100
AcDbLine
 62
7
  6
CONTINUOUS
 10
8.0910943933
 20
6.7282542569
 11
8.0910943933
 21
6.7082542569
  0
LINE
  5
329
100
AcDbEntity
  8
0
100
AcDbLine
 62
7
  6
CONTINUOUS
 10
8.1085943933
 20
6.9312542569
 11
8.1085943933
 21
6.9157542569
  0
LINE
  5
32A
100
AcDbEntity
  8
0
100
AcDbLine
 62
7
  6
CONTINUOUS
 10
8.1360943933
 20
6.9157542569
 11
8.1360943933
 21
6.7282542569
  0
LINE
  5
32B
100
AcDbEntity
  8
0
100
AcDbLine
 62
6
  6
CONTINUOUS
 10
8.1360943933
 20
6.7082542569
 11
8.1360943933
 21
5.8332542569
  0
LINE
  5
32C
100
AcDbEntity
  8
0
100
AcDbLine
 62
9
  6
CONTINUOUS
 10
15.3810943933
 20
4.6634812162
 11
14.4610943933
 21
4.6634812162
  0
LINE
  5
32D
100
AcDbEntity
  8
0
100
AcDbLine
 62
9
  6
CONTINUOUS
 10
14.4610943933
 20
4.6895170252
 11
15.3810943933
 21
4.6895170252
  0
LINE
  5
32E
100
AcDbEntity
  8
0
100
AcDbLine
 62
9
  6
CONTINUOUS
 10
15.3810943933
 20
4.7925338383
 11
15.189836159
 21
4.7925338383
  0
LINE
  5
32F
100
AcDbEntity
  8
0
100
AcDbLine
 62
9
  6
CONTINUOUS
 10
14.6523526275
 20
4.7925338383
 11
14.4610943933
 21
4.7925338383
  0
LINE
  5
330
100
AcDbEntity
  8
0
100
AcDbLine
 62
7
  6
CONTINUOUS
 10
15.3810943933
 20
4.7939901613
 11
15.1907220021
 21
4.7939901613
  0
LINE
  5
331
100
AcDbEntity
  8
0
100
AcDbLine
 62
7
  6
CONTINUOUS
 10
14.6514665227
 20
4.7939901613
 11
14.4610943933
 21
4.7939901613
  0
LINE
  5
332
100
AcDbEntity
  8
0
100
AcDbLine
 62
7
  6
CONTINUOUS
 10
14.6710943933
 20
4.8437542569
 11
15.1710943933
 21
4.8437542569
  0
LINE
  5
333
100
AcDbEntity
  8
0
100
AcDbLine
 62
9
  6
CONTINUOUS
 10
7.7569560089
 20
5.4376158725
 11
7.7710981445
 21
5.4234737369
  0
LINE
  5
334
100
AcDbEntity
  8
0
100
AcDbLine
 62
6
  6
CONTINUOUS
 10
8.1153534266
 20
5.7961599281
 11
8.1135179092
 21
5.7941778464
  0
LINE
  5
335
100
AcDbEntity
  8
0
100
AcDbLine
 62
6
  6
CONTINUOUS
 10
8.1135169181
 20
5.7941767817
 11
7.7569560089
 21
5.4376158725
  0
LINE
  5
336
100
AcDbEntity
  8
0
100
AcDbLine
 62
9
  6
CONTINUOUS
 10
8.1276590537
 20
5.7800346461
 11
7.7710981445
 21
5.4234737369
  0
LINE
  5
337
100
AcDbEntity
  8
0
100
AcDbLine
 62
9
  6
CONTINUOUS
 10
13.1810943933
 20
5.3212542569
 11
11.6275943933
 21
5.3212542569
  0
LINE
  5
338
100
AcDbEntity
  8
0
100
AcDbLine
 62
9
  6
CONTINUOUS
 10
9.1810943933
 20
5.3212542569
 11
7.6275943933
 21
5.3212542569
  0
LINE
  5
339
100
AcDbEntity
  8
0
100
AcDbLine
 62
9
  6
CONTINUOUS
 10
2.2145943933
 20
5.3212542569
 11
0.6610943933
 21
5.3212542569
  0
LINE
  5
33A
100
AcDbEntity
  8
0
100
AcDbLine
 62
9
  6
CONTINUOUS
 10
0.6410943933
 20
5.3412542569
 11
2.2345943933
 21
5.3412542569
  0
LINE
  5
33B
100
AcDbEntity
  8
0
100
AcDbLine
 62
9
  6
CONTINUOUS
 10
7.6075943933
 20
5.3412542569
 11
9.2010943933
 21
5.3412542569
  0
LINE
  5
33C
100
AcDbEntity
  8
0
100
AcDbLine
 62
9
  6
CONTINUOUS
 10
11.6075943933
 20
5.3412542569
 11
13.2010943933
 21
5.3412542569
  0
LINE
  5
33D
100
AcDbEntity
  8
0
100
AcDbLine
 62
7
  6
CONTINUOUS
 10
5.5910943933
 20
5.3562542569
 11
4.2510943933
 21
5.3562542569
  0
LINE
  5
33E
100
AcDbEntity
  8
0
100
AcDbLine
 62
9
  6
CONTINUOUS
 10
4.2310943933
 20
5.3762542569
 11
5.6110943933
 21
5.3762542569
  0
LINE
  5
33F
100
AcDbEntity
  8
0
100
AcDbLine
 62
9
  6
CONTINUOUS
 10
7.6997711003
 20
5.4463880428
 11
7.7186071253
 21
5.4463879578
  0
LINE
  5
340
100
AcDbEntity
  8
0
100
AcDbLine
 62
9
  6
CONTINUOUS
 10
11.6997711003
 20
5.4463880428
 11
11.7186071253
 21
5.4463879578
  0
LINE
  5
341
100
AcDbEntity
  8
0
100
AcDbLine
 62
7
  6
CONTINUOUS
 10
15.1908683971
 20
4.7939901194
 11
15.186998932
 21
4.7943692899
  0
LINE
  5
342
100
AcDbEntity
  8
0
100
AcDbLine
 62
9
  6
CONTINUOUS
 10
8.1373413174
 20
5.7932542568
 11
8.1197947132
 21
5.8022232714
  0
LINE
  5
343
100
AcDbEntity
  8
0
100
AcDbLine
 62
9
  6
CONTINUOUS
 10
8.1276590537
 20
5.7800346461
 11
8.1135169181
 21
5.7941767817
  0
LINE
  5
344
100
AcDbEntity
  8
0
100
AcDbLine
 62
9
  6
CONTINUOUS
 10
9.1810943933
 20
5.3212542569
 11
9.1810943933
 21
5.8132542569
  0
LINE
  5
345
100
AcDbEntity
  8
0
100
AcDbLine
 62
9
  6
CONTINUOUS
 10
9.1810943933
 20
6.9312542569
 11
9.1810943933
 21
7.0862542569
  0
LINE
  5
346
100
AcDbEntity
  8
0
100
AcDbLine
 62
7
  6
CONTINUOUS
 10
9.2010943933
 20
7.0862542569
 11
9.2010943933
 21
6.9512542569
  0
LINE
  5
347
100
AcDbEntity
  8
0
100
AcDbLine
 62
9
  6
CONTINUOUS
 10
9.2010943933
 20
5.7932542569
 11
9.2010943933
 21
5.3412542569
  0
LINE
  5
348
100
AcDbEntity
  8
0
100
AcDbLine
 62
9
  6
CONTINUOUS
 10
5.6110943933
 20
5.6712542569
 11
4.2310943933
 21
5.6712542569
  0
LINE
  5
349
100
AcDbEntity
  8
0
100
AcDbLine
 62
7
  6
CONTINUOUS
 10
5.5910943933
 20
5.6912542569
 11
4.2510943933
 21
5.6912542569
  0
LINE
  5
34A
100
AcDbEntity
  8
0
100
AcDbLine
 62
9
  6
CONTINUOUS
 10
4.2310943933
 20
5.7312542569
 11
5.6110943933
 21
5.7312542569
  0
LINE
  5
34B
100
AcDbEntity
  8
0
100
AcDbLine
 62
9
  6
CONTINUOUS
 10
13.2010943933
 20
5.7932542569
 11
12.1373413174
 21
5.7932542569
  0
LINE
  5
34C
100
AcDbEntity
  8
0
100
AcDbLine
 62
9
  6
CONTINUOUS
 10
11.7186071253
 20
5.7932542573
 11
11.6075943933
 21
5.7932542569
  0
LINE
  5
34D
100
AcDbEntity
  8
0
100
AcDbLine
 62
9
  6
CONTINUOUS
 10
9.2010943933
 20
5.7932542569
 11
8.1373413174
 21
5.7932542569
  0
LINE
  5
34E
100
AcDbEntity
  8
0
100
AcDbLine
 62
9
  6
CONTINUOUS
 10
2.2345943933
 20
5.7932542569
 11
2.1235816613
 21
5.7932542569
  0
LINE
  5
34F
100
AcDbEntity
  8
0
100
AcDbLine
 62
9
  6
CONTINUOUS
 10
1.7048474473
 20
5.7932542569
 11
0.6410943933
 21
5.7932542569
  0
LINE
  5
350
100
AcDbEntity
  8
0
100
AcDbLine
 62
9
  6
CONTINUOUS
 10
7.7186071253
 20
5.7932542573
 11
7.6075943933
 21
5.7932542569
  0
LINE
  5
351
100
AcDbEntity
  8
0
100
AcDbLine
 62
9
  6
CONTINUOUS
 10
0.6610943933
 20
5.8132542569
 11
1.6893531583
 21
5.8132542569
  0
LINE
  5
352
100
AcDbEntity
  8
0
100
AcDbLine
 62
9
  6
CONTINUOUS
 10
2.1528356283
 20
5.8132542569
 11
2.2145943933
 21
5.8132542569
  0
LINE
  5
353
100
AcDbEntity
  8
0
100
AcDbLine
 62
9
  6
CONTINUOUS
 10
7.6275943933
 20
5.8132542569
 11
7.6893531583
 21
5.8132542569
  0
LINE
  5
354
100
AcDbEntity
  8
0
100
AcDbLine
 62
9
  6
CONTINUOUS
 10
8.1528356283
 20
5.8132542569
 11
9.1810943933
 21
5.8132542569
  0
LINE
  5
355
100
AcDbEntity
  8
0
100
AcDbLine
 62
9
  6
CONTINUOUS
 10
11.6275943933
 20
5.8132542569
 11
11.6893531583
 21
5.8132542569
  0
LINE
  5
356
100
AcDbEntity
  8
0
100
AcDbLine
 62
9
  6
CONTINUOUS
 10
12.1528356283
 20
5.8132542569
 11
13.1810943933
 21
5.8132542569
  0
LINE
  5
357
100
AcDbEntity
  8
0
100
AcDbLine
 62
9
  6
CONTINUOUS
 10
12.1360943933
 20
5.8332542569
 11
12.13311297
 21
5.8332542569
  0
LINE
  5
358
100
AcDbEntity
  8
0
100
AcDbLine
 62
9
  6
CONTINUOUS
 10
11.7090758166
 20
5.8332542569
 11
11.7060943933
 21
5.8332542569
  0
LINE
  5
359
100
AcDbEntity
  8
0
100
AcDbLine
 62
9
  6
CONTINUOUS
 10
8.1360943933
 20
5.8332542569
 11
8.13311297
 21
5.8332542569
  0
LINE
  5
35A
100
AcDbEntity
  8
0
100
AcDbLine
 62
9
  6
CONTINUOUS
 10
7.7090758166
 20
5.8332542569
 11
7.7060943933
 21
5.8332542569
  0
LINE
  5
35B
100
AcDbEntity
  8
0
100
AcDbLine
 62
9
  6
CONTINUOUS
 10
2.1360943933
 20
5.8332542569
 11
2.13311297
 21
5.8332542569
  0
LINE
  5
35C
100
AcDbEntity
  8
0
100
AcDbLine
 62
9
  6
CONTINUOUS
 10
1.7090758166
 20
5.8332542569
 11
1.7060943933
 21
5.8332542569
  0
LINE
  5
35D
100
AcDbEntity
  8
0
100
AcDbLine
 62
7
  6
CONTINUOUS
 10
1.7060943933
 20
6.7082542569
 11
2.1360943933
 21
6.7082542569
  0
LINE
  5
35E
100
AcDbEntity
  8
0
100
AcDbLine
 62
7
  6
CONTINUOUS
 10
7.7060943933
 20
6.7082542569
 11
8.1360943933
 21
6.7082542569
  0
LINE
  5
35F
100
AcDbEntity
  8
0
100
AcDbLine
 62
7
  6
CONTINUOUS
 10
11.7060943933
 20
6.7082542569
 11
12.1360943933
 21
6.7082542569
  0
LINE
  5
360
100
AcDbEntity
  8
0
100
AcDbLine
 62
7
  6
CONTINUOUS
 10
12.1360943933
 20
6.7282542569
 11
11.7060943933
 21
6.7282542569
  0
LINE
  5
361
100
AcDbEntity
  8
0
100
AcDbLine
 62
7
  6
CONTINUOUS
 10
8.1360943933
 20
6.7282542569
 11
7.7060943933
 21
6.7282542569
  0
LINE
  5
362
100
AcDbEntity
  8
0
100
AcDbLine
 62
7
  6
CONTINUOUS
 10
2.1360943933
 20
6.7282542569
 11
1.7060943933
 21
6.7282542569
  0
LINE
  5
363
100
AcDbEntity
  8
0
100
AcDbLine
 62
7
  6
CONTINUOUS
 10
15.1710943933
 20
6.8687542569
 11
14.6710943933
 21
6.8687542569
  0
LINE
  5
364
100
AcDbEntity
  8
0
100
AcDbLine
 62
7
  6
CONTINUOUS
 10
12.1360943933
 20
6.9157542569
 11
11.7060943933
 21
6.9157542569
  0
LINE
  5
365
100
AcDbEntity
  8
0
100
AcDbLine
 62
7
  6
CONTINUOUS
 10
8.1360943933
 20
6.9157542569
 11
7.7060943933
 21
6.9157542569
  0
LINE
  5
366
100
AcDbEntity
  8
0
100
AcDbLine
 62
7
  6
CONTINUOUS
 10
2.1360943933
 20
6.9157542569
 11
1.7060943933
 21
6.9157542569
  0
LINE
  5
367
100
AcDbEntity
  8
0
100
AcDbLine
 62
6
  6
CONTINUOUS
 10
15.8985943933
 20
6.9312542569
 11
13.9435943933
 21
6.9312542569
  0
LINE
  5
368
100
AcDbEntity
  8
0
100
AcDbLine
 62
7
  6
CONTINUOUS
 10
13.1810943933
 20
6.9312542569
 11
11.3910943933
 21
6.9312542569
  0
LINE
  5
369
100
AcDbEntity
  8
0
100
AcDbLine
 62
7
  6
CONTINUOUS
 10
9.1810943933
 20
6.9312542569
 11
7.3910943933
 21
6.9312542569
  0
LINE
  5
36A
100
AcDbEntity
  8
0
100
AcDbLine
 62
9
  6
CONTINUOUS
 10
5.6885943933
 20
6.9312542569
 11
4.1535943933
 21
6.9312542569
  0
LINE
  5
36B
100
AcDbEntity
  8
0
100
AcDbLine
 62
7
  6
CONTINUOUS
 10
2.4510943933
 20
6.9312542569
 11
0.6610943933
 21
6.9312542569
  0
LINE
  5
36C
100
AcDbEntity
  8
0
100
AcDbLine
 62
9
  6
CONTINUOUS
 10
0.6410943933
 20
6.9512542569
 11
2.4710943933
 21
6.9512542569
  0
LINE
  5
36D
100
AcDbEntity
  8
0
100
AcDbLine
 62
9
  6
CONTINUOUS
 10
4.1335943933
 20
6.9512542569
 11
5.7085943933
 21
6.9512542569
  0
LINE
  5
36E
100
AcDbEntity
  8
0
100
AcDbLine
 62
9
  6
CONTINUOUS
 10
7.3710943933
 20
6.9512542569
 11
9.2010943933
 21
6.9512542569
  0
LINE
  5
36F
100
AcDbEntity
  8
0
100
AcDbLine
 62
9
  6
CONTINUOUS
 10
11.3710943933
 20
6.9512542569
 11
13.2010943933
 21
6.9512542569
  0
LINE
  5
370
100
AcDbEntity
  8
0
100
AcDbLine
 62
7
  6
CONTINUOUS
 10
9.2010943933
 20
7.0862542569
 11
7.3710943933
 21
7.0862542569
  0
LINE
  5
371
100
AcDbEntity
  8
0
100
AcDbLine
 62
7
  6
CONTINUOUS
 10
0.6410943933
 20
7.0862542569
 11
2.4710943933
 21
7.0862542569
  0
LINE
  5
372
100
AcDbEntity
  8
0
100
AcDbLine
 62
7
  6
CONTINUOUS
 10
4.1335943933
 20
7.0862542569
 11
5.7085943933
 21
7.0862542569
  0
LINE
  5
373
100
AcDbEntity
  8
0
100
AcDbLine
 62
7
  6
CONTINUOUS
 10
11.3710943933
 20
7.0862542569
 11
13.2010943933
 21
7.0862542569
  0
LINE
  5
374
100
AcDbEntity
  8
0
100
AcDbLine
 62
7
  6
CONTINUOUS
 10
13.9435943933
 20
7.0862542569
 11
15.8985943933
 21
7.0862542569
  0
LINE
  5
375
100
AcDbEntity
  8
0
100
AcDbLine
 62
7
  6
CONTINUOUS
 10
15.186998932
 20
4.7943692899
 11
15.1800827488
 21
4.7971602113
  0
LINE
  5
376
100
AcDbEntity
  8
0
100
AcDbLine
 62
9
  6
CONTINUOUS
 10
12.1373413174
 20
5.7932542568
 11
12.1197947132
 21
5.8022232714
  0
LINE
  5
377
100
AcDbEntity
  8
0
100
AcDbLine
 62
9
  6
CONTINUOUS
 10
11.7569560089
 20
5.4376158725
 11
11.7710981445
 21
5.4234737369
  0
LINE
  5
378
100
AcDbEntity
  8
0
100
AcDbLine
 62
9
  6
CONTINUOUS
 10
12.1276590537
 20
5.7800346461
 11
12.1135169181
 21
5.7941767817
  0
LINE
  5
379
100
AcDbEntity
  8
0
100
AcDbLine
 62
7
  6
CONTINUOUS
 10
11.3710943933
 20
6.9512542569
 11
11.3710943933
 21
7.0862542569
  0
LINE
  5
37A
100
AcDbEntity
  8
0
100
AcDbLine
 62
9
  6
CONTINUOUS
 10
11.3910943933
 20
7.0862542569
 11
11.3910943933
 21
6.9312542569
  0
LINE
  5
37B
100
AcDbEntity
  8
0
100
AcDbLine
 62
9
  6
CONTINUOUS
 10
11.6075943933
 20
5.3412542569
 11
11.6075943933
 21
5.7932542569
  0
LINE
  5
37C
100
AcDbEntity
  8
0
100
AcDbLine
 62
9
  6
CONTINUOUS
 10
11.6275943933
 20
5.8132542569
 11
11.6275943933
 21
5.3212542569
  0
LINE
  5
37D
100
AcDbEntity
  8
0
100
AcDbLine
 62
9
  6
CONTINUOUS
 10
11.6997711003
 20
5.7932542569
 11
11.6997711003
 21
5.446370162
  0
LINE
  5
37E
100
AcDbEntity
  8
0
100
AcDbLine
 62
7
  6
CONTINUOUS
 10
11.7060943933
 20
6.9157542569
 11
11.7060943933
 21
6.7282542569
  0
LINE
  5
37F
100
AcDbEntity
  8
0
100
AcDbLine
 62
6
  6
CONTINUOUS
 10
11.7060943933
 20
6.7082542569
 11
11.7060943933
 21
5.8332542569
  0
LINE
  5
380
100
AcDbEntity
  8
0
100
AcDbLine
 62
9
  6
CONTINUOUS
 10
11.7186071253
 20
5.4463879578
 11
11.7186071253
 21
5.7932542573
  0
LINE
  5
381
100
AcDbEntity
  8
0
100
AcDbLine
 62
7
  6
CONTINUOUS
 10
11.7335943933
 20
6.9312542569
 11
11.7335943933
 21
6.9157542569
  0
LINE
  5
382
100
AcDbEntity
  8
0
100
AcDbLine
 62
7
  6
CONTINUOUS
 10
11.7510943933
 20
6.7282542569
 11
11.7510943933
 21
6.7082542569
  0
LINE
  5
383
100
AcDbEntity
  8
0
100
AcDbLine
 62
6
  6
CONTINUOUS
 10
12.1153534266
 20
5.7961599281
 11
12.1135179092
 21
5.7941778464
  0
LINE
  5
384
100
AcDbEntity
  8
0
100
AcDbLine
 62
6
  6
CONTINUOUS
 10
12.1135169181
 20
5.7941767817
 11
11.7569560089
 21
5.4376158725
  0
LINE
  5
385
100
AcDbEntity
  8
0
100
AcDbLine
 62
9
  6
CONTINUOUS
 10
12.1276590537
 20
5.7800346461
 11
11.7710981445
 21
5.4234737369
  0
LINE
  5
386
100
AcDbEntity
  8
0
100
AcDbLine
 62
7
  6
CONTINUOUS
 10
12.0910943933
 20
6.7282542569
 11
12.0910943933
 21
6.7082542569
  0
LINE
  5
387
100
AcDbEntity
  8
0
100
AcDbLine
 62
7
  6
CONTINUOUS
 10
12.1085943933
 20
6.9312542569
 11
12.1085943933
 21
6.9157542569
  0
LINE
  5
388
100
AcDbEntity
  8
0
100
AcDbLine
 62
7
  6
CONTINUOUS
 10
12.1360943933
 20
6.9157542569
 11
12.1360943933
 21
6.7282542569
  0
LINE
  5
389
100
AcDbEntity
  8
0
100
AcDbLine
 62
6
  6
CONTINUOUS
 10
12.1360943933
 20
6.7082542569
 11
12.1360943933
 21
5.8332542569
  0
LINE
  5
38A
100
AcDbEntity
  8
0
100
AcDbLine
 62
7
  6
CONTINUOUS
 10
15.1800827488
 20
4.7971602113
 11
15.1750085227
 21
4.8018535107
  0
LINE
  5
38B
100
AcDbEntity
  8
0
100
AcDbLine
 62
9
  6
CONTINUOUS
 10
14.6513246637
 20
4.7939901611
 11
14.6523526275
 21
4.7925338383
  0
LINE
  5
38C
100
AcDbEntity
  8
0
100
AcDbLine
 62
9
  6
CONTINUOUS
 10
13.1810943933
 20
5.3212542569
 11
13.1810943933
 21
5.8132542569
  0
LINE
  5
38D
100
AcDbEntity
  8
0
100
AcDbLine
 62
9
  6
CONTINUOUS
 10
13.1810943933
 20
6.9312542569
 11
13.1810943933
 21
7.0862542569
  0
LINE
  5
38E
100
AcDbEntity
  8
0
100
AcDbLine
 62
7
  6
CONTINUOUS
 10
13.2010943933
 20
7.0862542569
 11
13.2010943933
 21
6.9512542569
  0
LINE
  5
38F
100
AcDbEntity
  8
0
100
AcDbLine
 62
9
  6
CONTINUOUS
 10
13.2010943933
 20
5.7932542569
 11
13.2010943933
 21
5.3412542569
  0
LINE
  5
390
100
AcDbEntity
  8
0
100
AcDbLine
 62
7
  6
CONTINUOUS
 10
14.6646446607
 20
4.799098647
 11
14.6594891949
 21
4.795740763
  0
LINE
  5
391
100
AcDbEntity
  8
0
100
AcDbLine
 62
6
  6
CONTINUOUS
 10
13.9435943933
 20
7.0862542569
 11
13.9435943933
 21
6.9312542569
  0
LINE
  5
392
100
AcDbEntity
  8
0
100
AcDbLine
 62
7
  6
CONTINUOUS
 10
14.6683331922
 20
4.8035468971
 11
14.6646446607
 21
4.799098647
  0
LINE
  5
393
100
AcDbEntity
  8
0
100
AcDbLine
 62
7
  6
CONTINUOUS
 10
15.1750085227
 20
4.8018535107
 11
15.1720997418
 21
4.8072647115
  0
LINE
  5
394
100
AcDbEntity
  8
0
100
AcDbLine
 62
9
  6
CONTINUOUS
 10
14.6710953186
 20
4.812217529
 11
14.6710944238
 21
4.8123964531
  0
LINE
  5
395
100
AcDbEntity
  8
0
100
AcDbLine
 62
7
  6
CONTINUOUS
 10
14.4210943933
 20
2.8722366702
 11
14.4210943933
 21
4.7554464842
  0
LINE
  5
396
100
AcDbEntity
  8
0
100
AcDbLine
 62
9
  6
CONTINUOUS
 10
14.4410943933
 20
4.6449375391
 11
14.4410943933
 21
2.8647445383
  0
LINE
  5
397
100
AcDbEntity
  8
0
100
AcDbLine
 62
9
  6
CONTINUOUS
 10
14.4610943933
 20
2.8462008612
 11
14.4610943933
 21
2.8336929931
  0
LINE
  5
398
100
AcDbEntity
  8
0
100
AcDbLine
 62
9
  6
CONTINUOUS
 10
14.4610943933
 20
4.6634812162
 11
14.4610943933
 21
4.7939901613
  0
LINE
  5
399
100
AcDbEntity
  8
0
100
AcDbLine
 62
7
  6
CONTINUOUS
 10
14.6710944231
 20
4.8123976675
 11
14.6710943933
 21
6.8687542569
  0
LINE
  5
39A
100
AcDbEntity
  8
0
100
AcDbLine
 62
6
  6
CONTINUOUS
 10
14.6710943933
 20
6.8687542569
 11
14.6710943933
 21
6.9312542569
  0
LINE
  5
39B
100
AcDbEntity
  8
0
100
AcDbLine
 62
9
  6
CONTINUOUS
 10
14.9210943925
 20
4.693965914
 11
14.9210943933
 21
4.7125095841
  0
LINE
  5
39C
100
AcDbEntity
  8
0
100
AcDbLine
 62
7
  6
CONTINUOUS
 10
14.6710944099
 20
4.8124522696
 11
14.6710444312
 21
4.8115823523
  0
LINE
  5
39D
100
AcDbEntity
  8
0
100
AcDbLine
 62
6
  6
CONTINUOUS
 10
14.6710946328
 20
4.812393854
 11
14.6710444312
 21
4.8115823523
  0
LINE
  5
39E
100
AcDbEntity
  8
0
100
AcDbLine
 62
7
  6
CONTINUOUS
 10
14.6710444312
 20
4.8115823523
 11
14.6703916155
 21
4.8082090658
  0
LINE
  5
39F
100
AcDbEntity
  8
0
100
AcDbLine
 62
7
  6
CONTINUOUS
 10
14.6703916155
 20
4.8082090658
 11
14.6683331922
 21
4.8035468971
  0
LINE
  5
3A0
100
AcDbEntity
  8
0
100
AcDbLine
 62
9
  6
CONTINUOUS
 10
15.189836159
 20
4.7925338383
 11
15.1908640831
 21
4.7939901611
  0
LINE
  5
3A1
100
AcDbEntity
  8
0
100
AcDbLine
 62
7
  6
CONTINUOUS
 10
15.1720997418
 20
4.8072647115
 11
15.1711616222
 21
4.8114054414
  0
LINE
  5
3A2
100
AcDbEntity
  8
0
100
AcDbLine
 62
7
  6
CONTINUOUS
 10
15.1711616222
 20
4.8114054414
 11
15.1710943659
 21
4.8124649592
  0
LINE
  5
3A3
100
AcDbEntity
  8
0
100
AcDbLine
 62
7
  6
CONTINUOUS
 10
15.1710943933
 20
4.8118463914
 11
15.1710943933
 21
6.8687542569
  0
LINE
  5
3A4
100
AcDbEntity
  8
0
100
AcDbLine
 62
6
  6
CONTINUOUS
 10
15.1710943933
 20
6.8687542569
 11
15.1710943933
 21
6.9312542569
  0
LINE
  5
3A5
100
AcDbEntity
  8
0
100
AcDbLine
 62
9
  6
CONTINUOUS
 10
15.3810943933
 20
2.8462008612
 11
15.3810943933
 21
2.8336929931
  0
LINE
  5
3A6
100
AcDbEntity
  8
0
100
AcDbLine
 62
9
  6
CONTINUOUS
 10
15.3810943933
 20
4.6634812162
 11
15.3810943933
 21
4.7939901613
  0
LINE
  5
3A7
100
AcDbEntity
  8
0
100
AcDbLine
 62
9
  6
CONTINUOUS
 10
15.4010943933
 20
2.8647445383
 11
15.4010943933
 21
4.6449375391
  0
LINE
  5
3A8
100
AcDbEntity
  8
0
100
AcDbLine
 62
7
  6
CONTINUOUS
 10
15.4210943933
 20
2.8722366702
 11
15.4210943933
 21
4.7554464842
  0
LINE
  5
3A9
100
AcDbEntity
  8
0
100
AcDbLine
 62
9
  6
CONTINUOUS
 10
15.1710943637
 20
4.8123979024
 11
15.1710943755
 21
4.8124645031
  0
LINE
  5
3AA
100
AcDbEntity
  8
0
100
AcDbLine
 62
6
  6
CONTINUOUS
 10
15.8985943933
 20
7.0862542569
 11
15.8985943933
 21
6.9312542569
  0
ARC
  5
3AB
100
AcDbEntity
  8
0
100
AcDbCircle
 62
9
  6
CONTINUOUS
 10
2.1247194989
 20
5.481729648
 40
0.0791820956
100
AcDbArc
 50
227.3680142884
 51
230.4397040822
  0
ARC
  5
3AC
100
AcDbEntity
  8
0
100
AcDbCircle
 62
9
  6
CONTINUOUS
 10
1.7518674787
 20
5.817520844
 40
0.0529126696
100
AcDbArc
 50
207.297824651
 51
225.1238144086
  0
ARC
  5
3AD
100
AcDbEntity
  8
0
100
AcDbCircle
 62
6
  6
CONTINUOUS
 10
2.1560943933
 20
5.8332542569
 40
0.02
100
AcDbArc
 50
180.0
 51
270.0
  0
ARC
  5
3AE
100
AcDbEntity
  8
0
100
AcDbCircle
 62
6
  6
CONTINUOUS
 10
1.6860943933
 20
5.8332542569
 40
0.02
100
AcDbArc
 50
270.0
 51
360.0
  0
ARC
  5
3AF
100
AcDbEntity
  8
0
100
AcDbCircle
 62
9
  6
CONTINUOUS
 10
0.6610943933
 20
5.7932542569
 40
0.02
100
AcDbArc
 50
90.0
 51
180.0
  0
ARC
  5
3B0
100
AcDbEntity
  8
0
100
AcDbCircle
 62
9
  6
CONTINUOUS
 10
2.2145943933
 20
5.7932542569
 40
0.02
100
AcDbArc
 50
0.0
 51
90.0
  0
ARC
  5
3B1
100
AcDbEntity
  8
0
100
AcDbCircle
 62
6
  6
CONTINUOUS
 10
2.2145943933
 20
5.3412542569
 40
0.02
100
AcDbArc
 50
270.0
 51
360.0
  0
ARC
  5
3B2
100
AcDbEntity
  8
0
100
AcDbCircle
 62
6
  6
CONTINUOUS
 10
0.6610943933
 20
5.3412542569
 40
0.02
100
AcDbArc
 50
180.0
 51
270.0
  0
ARC
  5
3B3
100
AcDbEntity
  8
0
100
AcDbCircle
 62
7
  6
CONTINUOUS
 10
2.4510943933
 20
6.9512542569
 40
0.02
100
AcDbArc
 50
270.0
 51
360.0
  0
ARC
  5
3B4
100
AcDbEntity
  8
0
100
AcDbCircle
 62
7
  6
CONTINUOUS
 10
0.6610943933
 20
6.9512542569
 40
0.02
100
AcDbArc
 50
180.0
 51
270.0
  0
ARC
  5
3B5
100
AcDbEntity
  8
0
100
AcDbCircle
 62
6
  6
CONTINUOUS
 10
4.1535943933
 20
6.9512542569
 40
0.02
100
AcDbArc
 50
180.0
 51
270.0
  0
ARC
  5
3B6
100
AcDbEntity
  8
0
100
AcDbCircle
 62
7
  6
CONTINUOUS
 10
4.2510943933
 20
5.3762542569
 40
0.02
100
AcDbArc
 50
180.0
 51
270.0
  0
ARC
  5
3B7
100
AcDbEntity
  8
0
100
AcDbCircle
 62
7
  6
CONTINUOUS
 10
5.5910943933
 20
5.3762542569
 40
0.02
100
AcDbArc
 50
270.0
 51
360.0
  0
ARC
  5
3B8
100
AcDbEntity
  8
0
100
AcDbCircle
 62
7
  6
CONTINUOUS
 10
5.5910943933
 20
5.6712542569
 40
0.02
100
AcDbArc
 50
0.0
 51
90.0
  0
ARC
  5
3B9
100
AcDbEntity
  8
0
100
AcDbCircle
 62
7
  6
CONTINUOUS
 10
4.2510943933
 20
5.6712542569
 40
0.02
100
AcDbArc
 50
90.0
 51
180.0
  0
ARC
  5
3BA
100
AcDbEntity
  8
0
100
AcDbCircle
 62
9
  6
CONTINUOUS
 10
7.7174472393
 20
5.481757251
 40
0.0792173444
100
AcDbArc
 50
309.5599003721
 51
312.6300628075
  0
ARC
  5
3BB
100
AcDbEntity
  8
0
100
AcDbCircle
 62
6
  6
CONTINUOUS
 10
7.6275943933
 20
5.3412542569
 40
0.02
100
AcDbArc
 50
180.0
 51
270.0
  0
ARC
  5
3BC
100
AcDbEntity
  8
0
100
AcDbCircle
 62
6
  6
CONTINUOUS
 10
7.6860943933
 20
5.8332542569
 40
0.02
100
AcDbArc
 50
270.0
 51
360.0
  0
ARC
  5
3BD
100
AcDbEntity
  8
0
100
AcDbCircle
 62
6
  6
CONTINUOUS
 10
7.6275943933
 20
5.7932542569
 40
0.02
100
AcDbArc
 50
90.0
 51
180.0
  0
ARC
  5
3BE
100
AcDbEntity
  8
0
100
AcDbCircle
 62
7
  6
CONTINUOUS
 10
7.3910943933
 20
6.9512542569
 40
0.02
100
AcDbArc
 50
180.0
 51
270.0
  0
ARC
  5
3BF
100
AcDbEntity
  8
0
100
AcDbCircle
 62
9
  6
CONTINUOUS
 10
5.6885943933
 20
6.9512542569
 40
0.02
100
AcDbArc
 50
270.0
 51
360.0
  0
ARC
  5
3C0
100
AcDbEntity
  8
0
100
AcDbCircle
 62
7
  6
CONTINUOUS
 10
14.4610978571
 20
2.8746704081
 40
0.0409774152
100
AcDbArc
 50
266.7062055476
 51
269.9951571053
  0
ARC
  5
3C1
100
AcDbEntity
  8
0
100
AcDbCircle
 62
7
  6
CONTINUOUS
 10
15.3810909294
 20
2.8746704082
 40
0.0409774152
100
AcDbArc
 50
270.0048429842
 51
273.2937944674
  0
ARC
  5
3C2
100
AcDbEntity
  8
0
100
AcDbCircle
 62
7
  6
CONTINUOUS
 10
15.3810909294
 20
4.7530127462
 40
0.0409774152
100
AcDbArc
 50
86.7062055327
 51
89.9951570158
  0
ARC
  5
3C3
100
AcDbEntity
  8
0
100
AcDbCircle
 62
7
  6
CONTINUOUS
 10
14.4610978571
 20
4.7530127462
 40
0.0409774152
100
AcDbArc
 50
90.0048428946
 51
93.2937944523
  0
ARC
  5
3C4
100
AcDbEntity
  8
0
100
AcDbCircle
 62
9
  6
CONTINUOUS
 10
8.0871580321
 20
5.8204239986
 40
0.0571981866
100
AcDbArc
 50
315.0790967481
 51
318.8146528693
  0
ARC
  5
3C5
100
AcDbEntity
  8
0
100
AcDbCircle
 62
9
  6
CONTINUOUS
 10
8.0882495505
 20
5.8206503696
 40
0.0365329546
100
AcDbArc
 50
324.4737611047
 51
329.708671307
  0
ARC
  5
3C6
100
AcDbEntity
  8
0
100
AcDbCircle
 62
6
  6
CONTINUOUS
 10
8.1560943933
 20
5.8332542569
 40
0.02
100
AcDbArc
 50
180.0
 51
270.0
  0
ARC
  5
3C7
100
AcDbEntity
  8
0
100
AcDbCircle
 62
6
  6
CONTINUOUS
 10
9.1810943933
 20
5.3412542569
 40
0.02
100
AcDbArc
 50
270.0
 51
360.0
  0
ARC
  5
3C8
100
AcDbEntity
  8
0
100
AcDbCircle
 62
6
  6
CONTINUOUS
 10
9.1810943933
 20
5.7932542569
 40
0.02
100
AcDbArc
 50
0.0
 51
90.0
  0
ARC
  5
3C9
100
AcDbEntity
  8
0
100
AcDbCircle
 62
7
  6
CONTINUOUS
 10
11.3910943933
 20
6.9512542569
 40
0.02
100
AcDbArc
 50
180.0
 51
270.0
  0
ARC
  5
3CA
100
AcDbEntity
  8
0
100
AcDbCircle
 62
7
  6
CONTINUOUS
 10
9.1810943933
 20
6.9512542569
 40
0.02
100
AcDbArc
 50
270.0
 51
360.0
  0
ARC
  5
3CB
100
AcDbEntity
  8
0
100
AcDbCircle
 62
6
  6
CONTINUOUS
 10
11.6275943933
 20
5.3412542569
 40
0.02
100
AcDbArc
 50
180.0
 51
270.0
  0
ARC
  5
3CC
100
AcDbEntity
  8
0
100
AcDbCircle
 62
6
  6
CONTINUOUS
 10
13.1810943933
 20
5.3412542569
 40
0.02
100
AcDbArc
 50
270.0
 51
360.0
  0
ARC
  5
3CD
100
AcDbEntity
  8
0
100
AcDbCircle
 62
9
  6
CONTINUOUS
 10
11.7174472393
 20
5.481757251
 40
0.0792173444
100
AcDbArc
 50
309.5599003717
 51
312.6300628075
  0
ARC
  5
3CE
100
AcDbEntity
  8
0
100
AcDbCircle
 62
9
  6
CONTINUOUS
 10
12.0871580323
 20
5.8204239984
 40
0.0571981863
100
AcDbArc
 50
315.0790967342
 51
318.814652873
  0
ARC
  5
3CF
100
AcDbEntity
  8
0
100
AcDbCircle
 62
9
  6
CONTINUOUS
 10
12.0882495505
 20
5.8206503696
 40
0.0365329546
100
AcDbArc
 50
324.4737611077
 51
329.7086713092
  0
ARC
  5
3D0
100
AcDbEntity
  8
0
100
AcDbCircle
 62
6
  6
CONTINUOUS
 10
11.6860943933
 20
5.8332542569
 40
0.02
100
AcDbArc
 50
270.0
 51
360.0
  0
ARC
  5
3D1
100
AcDbEntity
  8
0
100
AcDbCircle
 62
6
  6
CONTINUOUS
 10
12.1560943933
 20
5.8332542569
 40
0.02
100
AcDbArc
 50
180.0
 51
270.0
  0
ARC
  5
3D2
100
AcDbEntity
  8
0
100
AcDbCircle
 62
6
  6
CONTINUOUS
 10
11.6275943933
 20
5.7932542569
 40
0.02
100
AcDbArc
 50
90.0
 51
180.0
  0
ARC
  5
3D3
100
AcDbEntity
  8
0
100
AcDbCircle
 62
6
  6
CONTINUOUS
 10
13.1810943933
 20
5.7932542569
 40
0.02
100
AcDbArc
 50
0.0
 51
90.0
  0
ARC
  5
3D4
100
AcDbEntity
  8
0
100
AcDbCircle
 62
9
  6
CONTINUOUS
 10
14.9141266213
 20
5.2817794176
 40
0.587472344
100
AcDbArc
 50
261.6880716078
 51
263.3364218723
  0
ARC
  5
3D5
100
AcDbEntity
  8
0
100
AcDbCircle
 62
9
  6
CONTINUOUS
 10
14.9137047574
 20
5.279087383
 40
0.5847500091
100
AcDbArc
 50
261.6918872324
 51
263.3192018152
  0
ARC
  5
3D6
100
AcDbEntity
  8
0
100
AcDbCircle
 62
9
  6
CONTINUOUS
 10
14.9286511063
 20
5.2772339455
 40
0.5828897142
100
AcDbArc
 50
276.6834581217
 51
278.3181474259
  0
ARC
  5
3D7
100
AcDbEntity
  8
0
100
AcDbCircle
 62
9
  6
CONTINUOUS
 10
14.9289891323
 20
5.2752137348
 40
0.5808439001
100
AcDbArc
 50
276.6735338565
 51
278.3141084349
  0
ARC
  5
3D8
100
AcDbEntity
  8
0
100
AcDbCircle
 62
9
  6
CONTINUOUS
 10
14.9101949163
 20
5.2544666035
 40
0.5598780586
100
AcDbArc
 50
260.1232944896
 51
261.6821365742
  0
ARC
  5
3D9
100
AcDbEntity
  8
0
100
AcDbCircle
 62
9
  6
CONTINUOUS
 10
14.9099252251
 20
5.2528353201
 40
0.5582273267
100
AcDbArc
 50
260.1229248402
 51
261.6864002826
  0
ARC
  5
3DA
100
AcDbEntity
  8
0
100
AcDbCircle
 62
9
  6
CONTINUOUS
 10
14.9332093826
 20
5.2467794593
 40
0.5520961745
100
AcDbArc
 50
278.3073041559
 51
280.1289786334
  0
ARC
  5
3DB
100
AcDbEntity
  8
0
100
AcDbCircle
 62
9
  6
CONTINUOUS
 10
14.9334489767
 20
5.2454080306
 40
0.5507065642
100
AcDbArc
 50
278.3033847895
 51
280.1297804641
  0
ARC
  5
3DC
100
AcDbEntity
  8
0
100
AcDbCircle
 62
9
  6
CONTINUOUS
 10
14.9067424284
 20
5.2340616152
 40
0.5391832984
100
AcDbArc
 50
259.8533243663
 51
260.1128041649
  0
ARC
  5
3DD
100
AcDbEntity
  8
0
100
AcDbCircle
 62
9
  6
CONTINUOUS
 10
14.9065575363
 20
5.2329310983
 40
0.5380404569
100
AcDbArc
 50
259.8521794247
 51
260.1126489748
  0
ARC
  5
3DE
100
AcDbEntity
  8
0
100
AcDbCircle
 62
9
  6
CONTINUOUS
 10
14.9058329502
 20
5.2289778341
 40
0.5340188061
100
AcDbArc
 50
259.6204244454
 51
259.8532869109
  0
ARC
  5
3DF
100
AcDbEntity
  8
0
100
AcDbCircle
 62
9
  6
CONTINUOUS
 10
14.9056659366
 20
5.2279478647
 40
0.5329780892
100
AcDbArc
 50
259.6179689464
 51
259.8521433354
  0
ARC
  5
3E0
100
AcDbEntity
  8
0
100
AcDbCircle
 62
9
  6
CONTINUOUS
 10
14.936752945
 20
5.2267207489
 40
0.5317269061
100
AcDbArc
 50
280.1332116556
 51
280.6228362495
  0
ARC
  5
3E1
100
AcDbEntity
  8
0
100
AcDbCircle
 62
9
  6
CONTINUOUS
 10
14.9369399598
 20
5.2256482791
 40
0.5306408427
100
AcDbArc
 50
280.1339643136
 51
280.6246041659
  0
ARC
  5
3E2
100
AcDbEntity
  8
0
100
AcDbCircle
 62
9
  6
CONTINUOUS
 10
14.9043750415
 20
5.2210560449
 40
0.5259639817
100
AcDbArc
 50
259.103771144
 51
259.6211645587
  0
ARC
  5
3E3
100
AcDbEntity
  8
0
100
AcDbCircle
 62
9
  6
CONTINUOUS
 10
14.904235592
 20
5.2201777963
 40
0.5250774688
100
AcDbArc
 50
259.0996902385
 51
259.6186976204
  0
ARC
  5
3E4
100
AcDbEntity
  8
0
100
AcDbCircle
 62
9
  6
CONTINUOUS
 10
14.9384748677
 20
5.2175255216
 40
0.5223718425
100
AcDbArc
 50
280.6231284947
 51
281.004553205
  0
ARC
  5
3E5
100
AcDbEntity
  8
0
100
AcDbCircle
 62
9
  6
CONTINUOUS
 10
14.9386414903
 20
5.2165635036
 40
0.5213980971
100
AcDbArc
 50
280.6248933185
 51
281.0070330513
  0
ARC
  5
3E6
100
AcDbEntity
  8
0
100
AcDbCircle
 62
9
  6
CONTINUOUS
 10
14.9025103014
 20
5.2113501618
 40
0.5160805912
100
AcDbArc
 50
258.7216912744
 51
259.1033725876
  0
ARC
  5
3E7
100
AcDbEntity
  8
0
100
AcDbCircle
 62
9
  6
CONTINUOUS
 10
14.9024077843
 20
5.2106675491
 40
0.5153931686
100
AcDbArc
 50
258.7179855287
 51
259.0992939128
  0
ARC
  5
3E8
100
AcDbEntity
  8
0
100
AcDbCircle
 62
9
  6
CONTINUOUS
 10
14.9146359852
 20
5.2169841564
 40
0.5041311436
100
AcDbArc
 50
260.6797584458
 51
262.835975837
  0
ARC
  5
3E9
100
AcDbEntity
  8
0
100
AcDbCircle
 62
9
  6
CONTINUOUS
 10
14.9000925378
 20
5.1990945957
 40
0.5035908987
100
AcDbArc
 50
257.8965061632
 51
258.7187129775
  0
ARC
  5
3EA
100
AcDbEntity
  8
0
100
AcDbCircle
 62
9
  6
CONTINUOUS
 10
14.9144607526
 20
5.2157551031
 40
0.5028898324
100
AcDbArc
 50
260.676770962
 51
262.838321607
  0
ARC
  5
3EB
100
AcDbEntity
  8
0
100
AcDbCircle
 62
9
  6
CONTINUOUS
 10
14.9424950252
 20
5.1972375001
 40
0.5016894863
100
AcDbArc
 50
280.9961573407
 51
282.2673379862
  0
ARC
  5
3EC
100
AcDbEntity
  8
0
100
AcDbCircle
 62
9
  6
CONTINUOUS
 10
14.9426236304
 20
5.1964728397
 40
0.5009167234
100
AcDbArc
 50
280.9986850649
 51
282.271786149
  0
ARC
  5
3ED
100
AcDbEntity
  8
0
100
AcDbCircle
 62
9
  6
CONTINUOUS
 10
14.9282947073
 20
5.2118071698
 40
0.4989020883
100
AcDbArc
 50
277.1504285022
 51
279.3327143611
  0
ARC
  5
3EE
100
AcDbEntity
  8
0
100
AcDbCircle
 62
9
  6
CONTINUOUS
 10
14.8968045624
 20
5.1836354795
 40
0.4877860156
100
AcDbArc
 50
257.4664328284
 51
257.8933870783
  0
ARC
  5
3EF
100
AcDbEntity
  8
0
100
AcDbCircle
 62
9
  6
CONTINUOUS
 10
14.9096745347
 20
5.1862678135
 40
0.4730166836
100
AcDbArc
 50
258.2590540987
 51
260.6702223373
  0
ARC
  5
3F0
100
AcDbEntity
  8
0
100
AcDbCircle
 62
9
  6
CONTINUOUS
 10
14.9341229608
 20
5.177590451
 40
0.4641931787
100
AcDbArc
 50
279.3077473861
 51
282.0577530394
  0
ARC
  5
3F1
100
AcDbEntity
  8
0
100
AcDbCircle
 62
9
  6
CONTINUOUS
 10
14.9042415462
 20
5.159242925
 40
0.4454517131
100
AcDbArc
 50
257.6159657033
 51
258.2359150432
  0
ARC
  5
3F2
100
AcDbEntity
  8
0
100
AcDbCircle
 62
9
  6
CONTINUOUS
 10
14.9040808882
 20
5.1585566369
 40
0.4447481611
100
AcDbArc
 50
257.6172643683
 51
258.2381919765
  0
ARC
  5
3F3
100
AcDbEntity
  8
0
100
AcDbCircle
 62
9
  6
CONTINUOUS
 10
14.938788187
 20
5.1553705532
 40
0.4414889595
100
AcDbArc
 50
282.0680551279
 51
282.5499184749
  0
ARC
  5
3F4
100
AcDbEntity
  8
0
100
AcDbCircle
 62
9
  6
CONTINUOUS
 10
14.9019302524
 20
5.1487205379
 40
0.4346784727
100
AcDbArc
 50
256.9849783014
 51
257.6160777964
  0
ARC
  5
3F5
100
AcDbEntity
  8
0
100
AcDbCircle
 62
9
  6
CONTINUOUS
 10
14.9017184482
 20
5.1478001859
 40
0.433735334
100
AcDbArc
 50
256.9849051193
 51
257.6173777172
  0
ARC
  5
3F6
100
AcDbEntity
  8
0
100
AcDbCircle
 62
9
  6
CONTINUOUS
 10
14.9429620776
 20
5.1369559131
 40
0.4226073603
100
AcDbArc
 50
282.540042419
 51
283.9757132872
  0
ARC
  5
3F7
100
AcDbEntity
  8
0
100
AcDbCircle
 62
9
  6
CONTINUOUS
 10
14.8988962905
 20
5.1356129101
 40
0.4212255682
100
AcDbArc
 50
256.2310460813
 51
256.9855838244
  0
ARC
  5
3F8
100
AcDbEntity
  8
0
100
AcDbCircle
 62
9
  6
CONTINUOUS
 10
14.8961478171
 20
5.1244499086
 40
0.40972804
100
AcDbArc
 50
255.5872537184
 51
256.2327657369
  0
ARC
  5
3F9
100
AcDbEntity
  8
0
100
AcDbCircle
 62
9
  6
CONTINUOUS
 10
14.8958296526
 20
5.1230843582
 40
0.4083271626
100
AcDbArc
 50
255.582834294
 51
256.2305728537
  0
ARC
  5
3FA
100
AcDbEntity
  8
0
100
AcDbCircle
 62
9
  6
CONTINUOUS
 10
14.9472135545
 20
5.1198256065
 40
0.4049573654
100
AcDbArc
 50
283.9773438912
 51
284.7183776329
  0
ARC
  5
3FB
100
AcDbEntity
  8
0
100
AcDbCircle
 62
9
  6
CONTINUOUS
 10
14.8934297344
 20
5.1138616391
 40
0.3987964611
100
AcDbArc
 50
255.0454709148
 51
255.5868315668
  0
ARC
  5
3FC
100
AcDbEntity
  8
0
100
AcDbCircle
 62
9
  6
CONTINUOUS
 10
14.8930701304
 20
5.1123380301
 40
0.3972321852
100
AcDbArc
 50
255.038893654
 51
255.5824015109
  0
ARC
  5
3FD
100
AcDbEntity
  8
0
100
AcDbCircle
 62
9
  6
CONTINUOUS
 10
14.9511546836
 20
5.1048672133
 40
0.3894884968
100
AcDbArc
 50
284.7167073527
 51
285.5155054898
  0
ARC
  5
3FE
100
AcDbEntity
  8
0
100
AcDbCircle
 62
9
  6
CONTINUOUS
 10
14.8907771268
 20
5.103934067
 40
0.3885206149
100
AcDbArc
 50
254.4807841571
 51
255.0456084329
  0
ARC
  5
3FF
100
AcDbEntity
  8
0
100
AcDbCircle
 62
9
  6
CONTINUOUS
 10
14.8903815209
 20
5.1022803392
 40
0.3868213367
100
AcDbArc
 50
254.471705686
 51
255.0390332672
  0
ARC
  5
400
100
AcDbEntity
  8
0
100
AcDbCircle
 62
7
  6
CONTINUOUS
 10
13.1810943933
 20
6.9512542569
 40
0.02
100
AcDbArc
 50
270.0
 51
360.0
  0
SPLINE
  5
401
100
AcDbEntity
  8
0
100
AcDbSpline
 62
7
  6
CONTINUOUS
 70
0
 71
3
 72
9
 73
5
 74
3
 42
0.0000001
 43
0.0000001
 44
0.0000000001
 12
0.0
 22
-0.0186932801
 32
0.0
 13
0.0089693596
 23
-0.0164008935
 33
0.0
 40
0.0
 40
0.0
 40
0.0
 40
0.0
 40
0.4991218256
 40
1.0
 40
1.0
 40
1.0
 40
1.0
 10
14.4210943933
 20
2.8722366702
 30
0.0
 10
14.4210943933
 20
2.8691265955
 30
0.0
 10
14.421892197
 20
2.862872508
 30
0.0
 10
14.4242037482
 20
2.8570079768
 30
0.0
 10
14.425701267
 20
2.8542696936
 30
0.0
 11
14.4210943933
 21
2.8722366702
 31
0.0
 11
14.4222679044
 21
2.8629805397
 31
0.0
 11
14.425701267
 21
2.8542696936
 31
0.0
  0
SPLINE
  5
402
100
AcDbEntity
  8
0
100
AcDbSpline
 62
7
  6
CONTINUOUS
 70
0
 71
3
 72
9
 73
5
 74
3
 42
0.0000001
 43
0.0000001
 44
0.0000000001
 12
0.0129609859
 22
-0.023699769
 32
0.0
 13
0.0250647581
 23
-0.0100709535
 33
0.0
 40
0.0
 40
0.0
 40
0.0
 40
0.0
 40
0.4984177817
 40
1.0
 40
1.0
 40
1.0
 40
1.0
 10
14.425701267
 20
2.8542696936
 30
0.0
 10
14.4278545956
 20
2.8503322315
 30
0.0
 10
14.4336224152
 20
2.8431478219
 30
0.0
 10
14.4414753364
 20
2.8383555181
 30
0.0
 10
14.4456660154
 20
2.8366717143
 30
0.0
 11
14.425701267
 21
2.8542696936
 31
0.0
 11
14.4341221448
 21
2.8437648041
 31
0.0
 11
14.4456660154
 21
2.8366717143
 31
0.0
  0
SPLINE
  5
403
100
AcDbEntity
  8
0
100
AcDbSpline
 62
7
  6
CONTINUOUS
 70
0
 71
3
 72
8
 73
4
 74
2
 42
0.0000001
 43
0.0000001
 44
0.0000000001
 12
0.0124315715
 22
-0.0049949726
 32
0.0
 13
0.0133754505
 23
-0.0007687945
 33
0.0
 40
0.0
 40
0.0
 40
0.0
 40
0.0
 40
1.0
 40
1.0
 40
1.0
 40
1.0
 10
14.4456660154
 20
2.8366717143
 30
0.0
 10
14.4498098725
 20
2.8350067235
 30
0.0
 10
14.4542849794
 20
2.8340169506
 30
0.0
 10
14.4587434629
 20
2.8337606858
 30
0.0
 11
14.4456660154
 21
2.8366717143
 31
0.0
 11
14.4587434629
 21
2.8337606858
 31
0.0
  0
SPLINE
  5
404
100
AcDbEntity
  8
0
100
AcDbSpline
 62
7
  6
CONTINUOUS
 70
0
 71
3
 72
9
 73
5
 74
3
 42
0.0000001
 43
0.0000001
 44
0.0000000001
 12
0.0
 22
-0.0186932801
 32
0.0
 13
-0.0089693596
 23
-0.0164008935
 33
0.0
 40
0.0
 40
0.0
 40
0.0
 40
0.0
 40
0.4991218256
 40
1.0
 40
1.0
 40
1.0
 40
1.0
 10
15.4210943933
 20
2.8722366702
 30
0.0
 10
15.4210943933
 20
2.8691265955
 30
0.0
 10
15.4202965896
 20
2.862872508
 30
0.0
 10
15.4179850384
 20
2.8570079768
 30
0.0
 10
15.4164875196
 20
2.8542696936
 30
0.0
 11
15.4210943933
 21
2.8722366702
 31
0.0
 11
15.4199208821
 21
2.8629805397
 31
0.0
 11
15.4164875196
 21
2.8542696936
 31
0.0
  0
SPLINE
  5
405
100
AcDbEntity
  8
0
100
AcDbSpline
 62
7
  6
CONTINUOUS
 70
0
 71
3
 72
9
 73
5
 74
3
 42
0.0000001
 43
0.0000001
 44
0.0000000001
 12
-0.0129609859
 22
-0.023699769
 32
0.0
 13
-0.0250647581
 23
-0.0100709535
 33
0.0
 40
0.0
 40
0.0
 40
0.0
 40
0.0
 40
0.4984177817
 40
1.0
 40
1.0
 40
1.0
 40
1.0
 10
15.4164875196
 20
2.8542696936
 30
0.0
 10
15.414334191
 20
2.8503322315
 30
0.0
 10
15.4085663713
 20
2.8431478219
 30
0.0
 10
15.4007134502
 20
2.8383555181
 30
0.0
 10
15.3965227712
 20
2.8366717143
 30
0.0
 11
15.4164875196
 21
2.8542696936
 31
0.0
 11
15.4080666417
 21
2.8437648041
 31
0.0
 11
15.3965227712
 21
2.8366717143
 31
0.0
  0
SPLINE
  5
406
100
AcDbEntity
  8
0
100
AcDbSpline
 62
7
  6
CONTINUOUS
 70
0
 71
3
 72
8
 73
4
 74
2
 42
0.0000001
 43
0.0000001
 44
0.0000000001
 12
-0.0124315715
 22
-0.0049949726
 32
0.0
 13
-0.0133754505
 23
-0.0007687945
 33
0.0
 40
0.0
 40
0.0
 40
0.0
 40
0.0
 40
1.0
 40
1.0
 40
1.0
 40
1.0
 10
15.3965227712
 20
2.8366717143
 30
0.0
 10
15.392378914
 20
2.8350067235
 30
0.0
 10
15.3879038071
 20
2.8340169506
 30
0.0
 10
15.3834453236
 20
2.8337606858
 30
0.0
 11
15.3965227712
 21
2.8366717143
 31
0.0
 11
15.3834453236
 21
2.8337606858
 31
0.0
  0
SPLINE
  5
407
100
AcDbEntity
  8
0
100
AcDbSpline
 62
7
  6
CONTINUOUS
 70
0
 71
3
 72
9
 73
5
 74
3
 42
0.0000001
 43
0.0000001
 44
0.0000000001
 12
0.0
 22
0.0186932801
 32
0.0
 13
-0.0089693596
 23
0.0164008935
 33
0.0
 40
0.0
 40
0.0
 40
0.0
 40
0.0
 40
0.4991218256
 40
1.0
 40
1.0
 40
1.0
 40
1.0
 10
15.4210943933
 20
4.7554464842
 30
0.0
 10
15.4210943933
 20
4.7585565589
 30
0.0
 10
15.4202965896
 20
4.7648106463
 30
0.0
 10
15.4179850384
 20
4.7706751776
 30
0.0
 10
15.4164875196
 20
4.7734134608
 30
0.0
 11
15.4210943933
 21
4.7554464842
 31
0.0
 11
15.4199208821
 21
4.7647026147
 31
0.0
 11
15.4164875196
 21
4.7734134608
 31
0.0
  0
SPLINE
  5
408
100
AcDbEntity
  8
0
100
AcDbSpline
 62
7
  6
CONTINUOUS
 70
0
 71
3
 72
9
 73
5
 74
3
 42
0.0000001
 43
0.0000001
 44
0.0000000001
 12
-0.0129609859
 22
0.023699769
 32
0.0
 13
-0.0250647581
 23
0.0100709535
 33
0.0
 40
0.0
 40
0.0
 40
0.0
 40
0.0
 40
0.4984177817
 40
1.0
 40
1.0
 40
1.0
 40
1.0
 10
15.4164875196
 20
4.7734134608
 30
0.0
 10
15.414334191
 20
4.7773509229
 30
0.0
 10
15.4085663713
 20
4.7845353325
 30
0.0
 10
15.4007134502
 20
4.7893276363
 30
0.0
 10
15.3965227712
 20
4.79101144
 30
0.0
 11
15.4164875196
 21
4.7734134608
 31
0.0
 11
15.4080666417
 21
4.7839183503
 31
0.0
 11
15.3965227712
 21
4.79101144
 31
0.0
  0
SPLINE
  5
409
100
AcDbEntity
  8
0
100
AcDbSpline
 62
7
  6
CONTINUOUS
 70
0
 71
3
 72
8
 73
4
 74
2
 42
0.0000001
 43
0.0000001
 44
0.0000000001
 12
-0.0124315715
 22
0.0049949726
 32
0.0
 13
-0.0133754505
 23
0.0007687945
 33
0.0
 40
0.0
 40
0.0
 40
0.0
 40
0.0
 40
1.0
 40
1.0
 40
1.0
 40
1.0
 10
15.3965227712
 20
4.79101144
 30
0.0
 10
15.392378914
 20
4.7926764309
 30
0.0
 10
15.3879038071
 20
4.7936662037
 30
0.0
 10
15.3834453236
 20
4.7939224686
 30
0.0
 11
15.3965227712
 21
4.79101144
 31
0.0
 11
15.3834453236
 21
4.7939224686
 31
0.0
  0
SPLINE
  5
40A
100
AcDbEntity
  8
0
100
AcDbSpline
 62
7
  6
CONTINUOUS
 70
0
 71
3
 72
9
 73
5
 74
3
 42
0.0000001
 43
0.0000001
 44
0.0000000001
 12
0.0
 22
0.0186932801
 32
0.0
 13
0.0089693596
 23
0.0164008935
 33
0.0
 40
0.0
 40
0.0
 40
0.0
 40
0.0
 40
0.4991218256
 40
1.0
 40
1.0
 40
1.0
 40
1.0
 10
14.4210943933
 20
4.7554464842
 30
0.0
 10
14.4210943933
 20
4.7585565589
 30
0.0
 10
14.421892197
 20
4.7648106463
 30
0.0
 10
14.4242037482
 20
4.7706751776
 30
0.0
 10
14.425701267
 20
4.7734134608
 30
0.0
 11
14.4210943933
 21
4.7554464842
 31
0.0
 11
14.4222679044
 21
4.7647026147
 31
0.0
 11
14.425701267
 21
4.7734134608
 31
0.0
  0
SPLINE
  5
40B
100
AcDbEntity
  8
0
100
AcDbSpline
 62
7
  6
CONTINUOUS
 70
0
 71
3
 72
9
 73
5
 74
3
 42
0.0000001
 43
0.0000001
 44
0.0000000001
 12
0.0129609859
 22
0.023699769
 32
0.0
 13
0.0250647581
 23
0.0100709535
 33
0.0
 40
0.0
 40
0.0
 40
0.0
 40
0.0
 40
0.4984177817
 40
1.0
 40
1.0
 40
1.0
 40
1.0
 10
14.425701267
 20
4.7734134608
 30
0.0
 10
14.4278545956
 20
4.7773509229
 30
0.0
 10
14.4336224152
 20
4.7845353325
 30
0.0
 10
14.4414753364
 20
4.7893276363
 30
0.0
 10
14.4456660154
 20
4.79101144
 30
0.0
 11
14.425701267
 21
4.7734134608
 31
0.0
 11
14.4341221448
 21
4.7839183503
 31
0.0
 11
14.4456660154
 21
4.79101144
 31
0.0
  0
SPLINE
  5
40C
100
AcDbEntity
  8
0
100
AcDbSpline
 62
7
  6
CONTINUOUS
 70
0
 71
3
 72
8
 73
4
 74
2
 42
0.0000001
 43
0.0000001
 44
0.0000000001
 12
0.0124315715
 22
0.0049949726
 32
0.0
 13
0.0133754505
 23
0.0007687945
 33
0.0
 40
0.0
 40
0.0
 40
0.0
 40
0.0
 40
1.0
 40
1.0
 40
1.0
 40
1.0
 10
14.4456660154
 20
4.79101144
 30
0.0
 10
14.4498098725
 20
4.7926764309
 30
0.0
 10
14.4542849794
 20
4.7936662037
 30
0.0
 10
14.4587434629
 20
4.7939224686
 30
0.0
 11
14.4456660154
 21
4.79101144
 31
0.0
 11
14.4587434629
 21
4.7939224686
 31
0.0
  0
SPLINE
  5
40D
100
AcDbEntity
  8
0
100
AcDbSpline
 62
9
  6
CONTINUOUS
 70
0
 71
3
 72
15
 73
11
 74
9
 42
0.0000001
 43
0.0000001
 44
0.0000000001
 12
-0.0447717685
 22
-0.1656603114
 32
0.0
 13
-0.1676807086
 23
-0.0364832836
 33
0.0
 40
0.0
 40
0.0
 40
0.0
 40
0.0
 40
0.0809323896
 40
0.1704719178
 40
0.2721731367
 40
0.3883703324
 40
0.5196784719
 40
0.6659646901
 40
0.8264409062
 40
1.0
 40
1.0
 40
1.0
 40
1.0
 10
15.189836159
 20
4.7925338383
 30
0.0
 10
15.1886283303
 20
4.7880647434
 30
0.0
 10
15.1848733098
 20
4.7789496468
 30
0.0
 10
15.1758164715
 20
4.7661540507
 30
0.0
 10
15.1630164677
 20
4.7539629995
 30
0.0
 10
15.1465664873
 20
4.7425293081
 30
0.0
 10
15.126657026
 20
4.7319063762
 30
0.0
 10
15.1034960739
 20
4.7222591159
 30
0.0
 10
15.0773485644
 20
4.7137431586
 30
0.0
 10
15.0587939361
 20
4.709112553
 30
0.0
 10
15.0490930989
 20
4.7070018844
 30
0.0
 11
15.189836159
 21
4.7925338383
 31
0.0
 11
15.1846306874
 21
4.7796579692
 31
0.0
 11
15.175870757
 21
4.7670343142
 31
0.0
 11
15.1633602418
 21
4.754865905
 31
0.0
 11
15.1470900223
 21
4.7433386072
 31
0.0
 11
15.1272706919
 21
4.7326181179
 31
0.0
 11
15.1041369807
 21
4.7228710509
 31
0.0
 11
15.0779752345
 21
4.7142732484
 31
0.0
 11
15.0490930989
 21
4.7070018844
 31
0.0
  0
SPLINE
  5
40E
100
AcDbEntity
  8
0
100
AcDbSpline
 62
9
  6
CONTINUOUS
 70
0
 71
3
 72
8
 73
4
 74
2
 42
0.0000001
 43
0.0000001
 44
0.0000000001
 12
0.0052328402
 22
-0.0079373418
 32
0.0
 13
0.0081347589
 23
-0.0046455175
 33
0.0
 40
0.0
 40
0.0
 40
0.0
 40
0.0
 40
1.0
 40
1.0
 40
1.0
 40
1.0
 10
15.1729791611
 20
4.8017629404
 30
0.0
 10
15.1747234411
 20
4.7991171598
 30
0.0
 10
15.177127478
 20
4.7969230908
 30
0.0
 10
15.1798390643
 20
4.7953745849
 30
0.0
 11
15.1729791611
 21
4.8017629404
 31
0.0
 11
15.1798390643
 21
4.7953745849
 31
0.0
  0
SPLINE
  5
40F
100
AcDbEntity
  8
0
100
AcDbSpline
 62
9
  6
CONTINUOUS
 70
0
 71
3
 72
9
 73
5
 74
3
 42
0.0000001
 43
0.0000001
 44
0.0000000001
 12
0.0090739456
 22
-0.0051818588
 32
0.0
 13
0.0104434049
 23
-0.000351344
 33
0.0
 40
0.0
 40
0.0
 40
0.0
 40
0.0
 40
0.2510202041
 40
1.0
 40
1.0
 40
1.0
 40
1.0
 10
15.1798390643
 20
4.7953745849
 30
0.0
 10
15.1805983122
 20
4.7949410012
 30
0.0
 10
15.1837284729
 20
4.7934059084
 30
0.0
 10
15.1872288584
 20
4.7926215581
 30
0.0
 10
15.1898361581
 20
4.7925338416
 30
0.0
 11
15.1798390643
 21
4.7953745849
 31
0.0
 11
15.1821931076
 21
4.7942176277
 31
0.0
 11
15.1898361581
 21
4.7925338416
 31
0.0
  0
SPLINE
  5
410
100
AcDbEntity
  8
0
100
AcDbSpline
 62
9
  6
CONTINUOUS
 70
0
 71
3
 72
9
 73
5
 74
3
 42
0.0000001
 43
0.0000001
 44
0.0000000001
 12
-0.0755743082
 22
0.0000510894
 32
0.0
 13
-0.0750607443
 23
0.0087956428
 33
0.0
 40
0.0
 40
0.0
 40
0.0
 40
0.0
 40
0.5043828558
 40
1.0
 40
1.0
 40
1.0
 40
1.0
 10
14.9210943933
 20
4.693965907
 30
0.0
 10
14.9083882648
 20
4.6939744965
 30
0.0
 10
14.8831926512
 20
4.6947036381
 30
0.0
 10
14.8580766424
 20
4.6968549149
 30
0.0
 10
14.8456761785
 20
4.6983080053
 30
0.0
 11
14.9210943933
 21
4.693965907
 31
0.0
 11
14.8829920454
 21
4.6950718237
 31
0.0
 11
14.8456761785
 21
4.6983080053
 31
0.0
  0
SPLINE
  5
411
100
AcDbEntity
  8
0
100
AcDbSpline
 62
6
  6
CONTINUOUS
 70
0
 71
3
 72
9
 73
5
 74
3
 42
0.0000001
 43
0.0000001
 44
0.0000000001
 12
0.0205001101
 22
0.0
 32
0.0
 13
0.0101059199
 23
0.0178360561
 33
0.0
 40
0.0
 40
0.0
 40
0.0
 40
0.0
 40
0.4984792277
 40
1.0
 40
1.0
 40
1.0
 40
1.0
 10
11.6893531583
 20
5.8132542569
 30
0.0
 10
11.6927594513
 20
5.8132542569
 30
0.0
 10
11.6997136905
 20
5.8151254308
 30
0.0
 10
11.7047440385
 20
5.8202725393
 30
0.0
 10
11.7064334814
 20
5.8232542569
 30
0.0
 11
11.6893531583
 21
5.8132542569
 31
0.0
 11
11.6992144874
 21
5.8159337488
 31
0.0
 11
11.7064334814
 21
5.8232542569
 31
0.0
  0
SPLINE
  5
412
100
AcDbEntity
  8
0
100
AcDbSpline
 62
6
  6
CONTINUOUS
 70
0
 71
3
 72
9
 73
5
 74
3
 42
0.0000001
 43
0.0000001
 44
0.0000000001
 12
0.0051303003
 22
0.0090545269
 32
0.0
 13
0.0
 23
0.0104069418
 33
0.0
 40
0.0
 40
0.0
 40
0.0
 40
0.0
 40
0.2514216303
 40
1.0
 40
1.0
 40
1.0
 40
1.0
 10
11.7064334814
 20
5.8232542569
 30
0.0
 10
11.7068634375
 20
5.8240130915
 30
0.0
 10
11.7083718279
 20
5.8271411316
 30
0.0
 10
11.7090758166
 20
5.830657453
 30
0.0
 10
11.7090758166
 20
5.8332542569
 30
0.0
 11
11.7064334814
 21
5.8232542569
 31
0.0
 11
11.7075710729
 21
5.8256105497
 31
0.0
 11
11.7090758166
 21
5.8332542569
 31
0.0
  0
SPLINE
  5
413
100
AcDbEntity
  8
0
100
AcDbSpline
 62
6
  6
CONTINUOUS
 70
0
 71
3
 72
9
 73
5
 74
3
 42
0.0000001
 43
0.0000001
 44
0.0000000001
 12
0.0
 22
-0.014546033
 32
0.0
 13
0.0096569564
 23
-0.0108779717
 33
0.0
 40
0.0
 40
0.0
 40
0.0
 40
0.0
 40
0.5001552475
 40
1.0
 40
1.0
 40
1.0
 40
1.0
 10
12.13311297
 20
5.8332542569
 30
0.0
 10
12.13311297
 20
5.8308291653
 30
0.0
 10
12.134010766
 20
5.8259440856
 30
0.0
 10
12.1365677722
 20
5.82168222
 30
0.0
 10
12.1381767652
 20
5.8198697876
 30
0.0
 11
12.13311297
 21
5.8332542569
 31
0.0
 11
12.134426105
 21
5.8260984691
 31
0.0
 11
12.1381767652
 21
5.8198697876
 31
0.0
  0
SPLINE
  5
414
100
AcDbEntity
  8
0
100
AcDbSpline
 62
6
  6
CONTINUOUS
 70
0
 71
3
 72
8
 73
4
 74
2
 42
0.0000001
 43
0.0000001
 44
0.0000000001
 12
0.0039204467
 22
-0.0044161438
 32
0.0
 13
0.0050565953
 23
-0.0030500937
 33
0.0
 40
0.0
 40
0.0
 40
0.0
 40
0.0
 40
1.0
 40
1.0
 40
1.0
 40
1.0
 10
12.1381767652
 20
5.8198697876
 30
0.0
 10
12.1394835808
 20
5.8183977397
 30
0.0
 10
12.1410277545
 20
5.8171059823
 30
0.0
 10
12.1427132863
 20
5.8160892844
 30
0.0
 11
12.1381767652
 21
5.8198697876
 31
0.0
 11
12.1427132863
 21
5.8160892844
 31
0.0
  0
SPLINE
  5
415
100
AcDbEntity
  8
0
100
AcDbSpline
 62
6
  6
CONTINUOUS
 70
0
 71
3
 72
8
 73
4
 74
2
 42
0.0000001
 43
0.0000001
 44
0.0000000001
 12
0.0043803618
 22
-0.0026421956
 32
0.0
 13
0.0049115255
 23
-0.0014302743
 33
0.0
 40
0.0
 40
0.0
 40
0.0
 40
0.0
 40
1.0
 40
1.0
 40
1.0
 40
1.0
 10
12.1427132863
 20
5.8160892844
 30
0.0
 10
12.1441734069
 20
5.8152085526
 30
0.0
 10
12.1457634276
 20
5.8145171814
 30
0.0
 10
12.1474006028
 20
5.8140404233
 30
0.0
 11
12.1427132863
 21
5.8160892844
 31
0.0
 11
12.1474006028
 21
5.8140404233
 31
0.0
  0
SPLINE
  5
416
100
AcDbEntity
  8
0
100
AcDbSpline
 62
6
  6
CONTINUOUS
 70
0
 71
3
 72
9
 73
5
 74
3
 42
0.0000001
 43
0.0000001
 44
0.0000000001
 12
0.0052823751
 22
-0.0015382686
 32
0.0
 13
0.0055017957
 23
-0.0
 33
0.0
 40
0.0
 40
0.0
 40
0.0
 40
0.0
 40
0.2517151754
 40
1.0
 40
1.0
 40
1.0
 40
1.0
 10
12.1474006028
 20
5.8140404233
 30
0.0
 10
12.1478438208
 20
5.8139113548
 30
0.0
 10
12.1496216053
 20
5.813459422
 30
0.0
 10
12.1514633249
 20
5.8132542569
 30
0.0
 10
12.1528356283
 20
5.8132542569
 30
0.0
 11
12.1474006028
 21
5.8140404233
 31
0.0
 11
12.1487428624
 21
5.8136994735
 31
0.0
 11
12.1528356283
 21
5.8132542569
 31
0.0
  0
SPLINE
  5
417
100
AcDbEntity
  8
0
100
AcDbSpline
 62
6
  6
CONTINUOUS
 70
0
 71
3
 72
9
 73
5
 74
3
 42
0.0000001
 43
0.0000001
 44
0.0000000001
 12
0.0205001101
 22
0.0
 32
0.0
 13
0.0101059199
 23
0.0178360561
 33
0.0
 40
0.0
 40
0.0
 40
0.0
 40
0.0
 40
0.4984792277
 40
1.0
 40
1.0
 40
1.0
 40
1.0
 10
7.6893531583
 20
5.8132542569
 30
0.0
 10
7.6927594513
 20
5.8132542569
 30
0.0
 10
7.6997136905
 20
5.8151254308
 30
0.0
 10
7.7047440385
 20
5.8202725393
 30
0.0
 10
7.7064334814
 20
5.8232542569
 30
0.0
 11
7.6893531583
 21
5.8132542569
 31
0.0
 11
7.6992144874
 21
5.8159337488
 31
0.0
 11
7.7064334814
 21
5.8232542569
 31
0.0
  0
SPLINE
  5
418
100
AcDbEntity
  8
0
100
AcDbSpline
 62
6
  6
CONTINUOUS
 70
0
 71
3
 72
9
 73
5
 74
3
 42
0.0000001
 43
0.0000001
 44
0.0000000001
 12
0.0051303003
 22
0.0090545269
 32
0.0
 13
0.0
 23
0.0104069418
 33
0.0
 40
0.0
 40
0.0
 40
0.0
 40
0.0
 40
0.2514216303
 40
1.0
 40
1.0
 40
1.0
 40
1.0
 10
7.7064334814
 20
5.8232542569
 30
0.0
 10
7.7068634375
 20
5.8240130915
 30
0.0
 10
7.7083718279
 20
5.8271411316
 30
0.0
 10
7.7090758166
 20
5.830657453
 30
0.0
 10
7.7090758166
 20
5.8332542569
 30
0.0
 11
7.7064334814
 21
5.8232542569
 31
0.0
 11
7.7075710729
 21
5.8256105497
 31
0.0
 11
7.7090758166
 21
5.8332542569
 31
0.0
  0
SPLINE
  5
419
100
AcDbEntity
  8
0
100
AcDbSpline
 62
6
  6
CONTINUOUS
 70
0
 71
3
 72
9
 73
5
 74
3
 42
0.0000001
 43
0.0000001
 44
0.0000000001
 12
0.0
 22
-0.014546033
 32
0.0
 13
0.0096569564
 23
-0.0108779717
 33
0.0
 40
0.0
 40
0.0
 40
0.0
 40
0.0
 40
0.5001552475
 40
1.0
 40
1.0
 40
1.0
 40
1.0
 10
8.13311297
 20
5.8332542569
 30
0.0
 10
8.13311297
 20
5.8308291653
 30
0.0
 10
8.134010766
 20
5.8259440856
 30
0.0
 10
8.1365677722
 20
5.82168222
 30
0.0
 10
8.1381767652
 20
5.8198697876
 30
0.0
 11
8.13311297
 21
5.8332542569
 31
0.0
 11
8.134426105
 21
5.8260984691
 31
0.0
 11
8.1381767652
 21
5.8198697876
 31
0.0
  0
SPLINE
  5
41A
100
AcDbEntity
  8
0
100
AcDbSpline
 62
6
  6
CONTINUOUS
 70
0
 71
3
 72
8
 73
4
 74
2
 42
0.0000001
 43
0.0000001
 44
0.0000000001
 12
0.0039204467
 22
-0.0044161438
 32
0.0
 13
0.0050565953
 23
-0.0030500937
 33
0.0
 40
0.0
 40
0.0
 40
0.0
 40
0.0
 40
1.0
 40
1.0
 40
1.0
 40
1.0
 10
8.1381767652
 20
5.8198697876
 30
0.0
 10
8.1394835808
 20
5.8183977397
 30
0.0
 10
8.1410277545
 20
5.8171059823
 30
0.0
 10
8.1427132863
 20
5.8160892844
 30
0.0
 11
8.1381767652
 21
5.8198697876
 31
0.0
 11
8.1427132863
 21
5.8160892844
 31
0.0
  0
SPLINE
  5
41B
100
AcDbEntity
  8
0
100
AcDbSpline
 62
6
  6
CONTINUOUS
 70
0
 71
3
 72
8
 73
4
 74
2
 42
0.0000001
 43
0.0000001
 44
0.0000000001
 12
0.0043803618
 22
-0.0026421956
 32
0.0
 13
0.0049115255
 23
-0.0014302743
 33
0.0
 40
0.0
 40
0.0
 40
0.0
 40
0.0
 40
1.0
 40
1.0
 40
1.0
 40
1.0
 10
8.1427132863
 20
5.8160892844
 30
0.0
 10
8.1441734069
 20
5.8152085526
 30
0.0
 10
8.1457634276
 20
5.8145171814
 30
0.0
 10
8.1474006028
 20
5.8140404233
 30
0.0
 11
8.1427132863
 21
5.8160892844
 31
0.0
 11
8.1474006028
 21
5.8140404233
 31
0.0
  0
SPLINE
  5
41C
100
AcDbEntity
  8
0
100
AcDbSpline
 62
6
  6
CONTINUOUS
 70
0
 71
3
 72
9
 73
5
 74
3
 42
0.0000001
 43
0.0000001
 44
0.0000000001
 12
0.0052823751
 22
-0.0015382686
 32
0.0
 13
0.0055017957
 23
-0.0
 33
0.0
 40
0.0
 40
0.0
 40
0.0
 40
0.0
 40
0.2517151754
 40
1.0
 40
1.0
 40
1.0
 40
1.0
 10
8.1474006028
 20
5.8140404233
 30
0.0
 10
8.1478438208
 20
5.8139113548
 30
0.0
 10
8.1496216053
 20
5.813459422
 30
0.0
 10
8.1514633249
 20
5.8132542569
 30
0.0
 10
8.1528356283
 20
5.8132542569
 30
0.0
 11
8.1474006028
 21
5.8140404233
 31
0.0
 11
8.1487428624
 21
5.8136994735
 31
0.0
 11
8.1528356283
 21
5.8132542569
 31
0.0
  0
SPLINE
  5
41D
100
AcDbEntity
  8
0
100
AcDbSpline
 62
6
  6
CONTINUOUS
 70
0
 71
3
 72
9
 73
5
 74
3
 42
0.0000001
 43
0.0000001
 44
0.0000000001
 12
0.0
 22
-0.0203309021
 32
0.0
 13
0.017409048
 23
-0.0105009823
 33
0.0
 40
0.0
 40
0.0
 40
0.0
 40
0.0
 40
0.5013684352
 40
1.0
 40
1.0
 40
1.0
 40
1.0
 10
2.13311297
 20
5.8332542569
 30
0.0
 10
2.13311297
 20
5.8298564993
 30
0.0
 10
2.1348731366
 20
5.8229657846
 30
0.0
 10
2.1398197207
 20
5.8178346574
 30
0.0
 10
2.1427132876
 20
5.8160892836
 30
0.0
 11
2.13311297
 21
5.8332542569
 31
0.0
 11
2.1356789247
 21
5.8233892337
 31
0.0
 11
2.1427132876
 21
5.8160892836
 31
0.0
  0
SPLINE
  5
41E
100
AcDbEntity
  8
0
100
AcDbSpline
 62
6
  6
CONTINUOUS
 70
0
 71
3
 72
9
 73
5
 74
3
 42
0.0000001
 43
0.0000001
 44
0.0000000001
 12
0.0090625586
 22
-0.0054664544
 32
0.0
 13
0.0105835766
 23
0.0
 33
0.0
 40
0.0
 40
0.0
 40
0.0
 40
0.0
 40
0.2523122875
 40
1.0
 40
1.0
 40
1.0
 40
1.0
 10
2.1427132876
 20
5.8160892836
 30
0.0
 10
2.1434754859
 20
5.8156295324
 30
0.0
 10
2.1466181789
 20
5.8140180002
 30
0.0
 10
2.1501978916
 20
5.8132542569
 30
0.0
 10
2.1528356283
 20
5.8132542569
 30
0.0
 11
2.1427132876
 21
5.8160892836
 31
0.0
 11
2.1450891873
 21
5.8148702852
 31
0.0
 11
2.1528356283
 21
5.8132542569
 31
0.0
  0
SPLINE
  5
41F
100
AcDbEntity
  8
0
100
AcDbSpline
 62
9
  6
CONTINUOUS
 70
0
 71
3
 72
9
 73
5
 74
3
 42
0.0000001
 43
0.0000001
 44
0.0000000001
 12
0.0048725721
 22
0.0048728774
 32
0.0
 13
0.0040011944
 23
0.0056104667
 33
0.0
 40
0.0
 40
0.0
 40
0.0
 40
0.0
 40
0.2490404248
 40
1.0
 40
1.0
 40
1.0
 40
1.0
 10
12.1135179432
 20
5.7941778068
 30
0.0
 10
12.1139224323
 20
5.7945823213
 30
0.0
 10
12.115516355
 20
5.7962363632
 30
0.0
 10
12.1169802988
 20
5.7980175453
 30
0.0
 10
12.1179818772
 20
5.7994219566
 30
0.0
 11
12.1135179432
 21
5.7941778068
 31
0.0
 11
12.1147082732
 21
5.7954140533
 31
0.0
 11
12.1179818772
 21
5.7994219566
 31
0.0
  0
SPLINE
  5
420
100
AcDbEntity
  8
0
100
AcDbSpline
 62
9
  6
CONTINUOUS
 70
0
 71
3
 72
13
 73
9
 74
7
 42
0.0000001
 43
0.0000001
 44
0.0000000001
 12
0.0144002187
 22
0.0
 32
0.0
 13
0.0046389158
 23
-0.0136325624
 33
0.0
 40
0.0
 40
0.0
 40
0.0
 40
0.0
 40
0.077464687
 40
0.1627147107
 40
0.2617777831
 40
0.3776450174
 40
0.6604395299
 40
1.0
 40
1.0
 40
1.0
 40
1.0
 10
11.6893531583
 20
5.8132542569
 30
0.0
 10
11.6897249944
 20
5.8132542569
 30
0.0
 10
11.6905103313
 20
5.8131086634
 30
0.0
 10
11.6916288423
 20
5.8125084785
 30
0.0
 10
11.6927371115
 20
5.8115775254
 30
0.0
 10
11.6943478704
 20
5.809808227
 30
0.0
 10
11.6963868201
 20
5.8068897983
 30
0.0
 10
11.6976417087
 20
5.8041528464
 30
0.0
 10
11.6981667729
 20
5.80260982
 30
0.0
 11
11.6893531583
 21
5.8132542569
 31
0.0
 11
11.6904523351
 21
5.8130640744
 31
0.0
 11
11.6915469237
 21
5.812508265
 31
0.0
 11
11.6926542605
 21
5.8116089359
 31
0.0
 11
11.6937916816
 21
5.8103881941
 31
0.0
 11
11.6961342221
 21
5.807057105
 31
0.0
 11
11.6981667729
 21
5.80260982
 31
0.0
  0
SPLINE
  5
421
100
AcDbEntity
  8
0
100
AcDbSpline
 62
9
  6
CONTINUOUS
 70
0
 71
3
 72
9
 73
5
 74
3
 42
0.0000001
 43
0.0000001
 44
0.0000000001
 12
0.003065771
 22
-0.0090095005
 32
0.0
 13
0.0003054677
 23
-0.0095119263
 33
0.0
 40
0.0
 40
0.0
 40
0.0
 40
0.0
 40
0.4880795669
 40
1.0
 40
1.0
 40
1.0
 40
1.0
 10
11.6981667729
 20
5.80260982
 30
0.0
 10
11.6986655529
 20
5.8011440356
 30
0.0
 10
11.6994076366
 20
5.7980439884
 30
0.0
 10
11.6997189753
 20
5.7948773733
 30
0.0
 10
11.6997711003
 20
5.7932542569
 30
0.0
 11
11.6981667729
 21
5.80260982
 31
0.0
 11
11.6992873319
 21
5.7981020383
 31
0.0
 11
11.6997711003
 21
5.7932542569
 31
0.0
  0
SPLINE
  5
422
100
AcDbEntity
  8
0
100
AcDbSpline
 62
9
  6
CONTINUOUS
 70
0
 71
3
 72
14
 73
10
 74
8
 42
0.0000001
 43
0.0000001
 44
0.0000000001
 12
-0.0
 22
-0.022678503
 32
0.0
 13
-0.022678503
 23
0.0
 33
0.0
 40
0.0
 40
0.0
 40
0.0
 40
0.0
 40
0.0663585931
 40
0.1462215596
 40
0.2457005784
 40
0.3662159676
 40
0.5060072307
 40
0.6620124977
 40
1.0
 40
1.0
 40
1.0
 40
1.0
 10
15.4210943933
 20
2.8722366702
 30
0.0
 10
15.4210943933
 20
2.8717350324
 30
0.0
 10
15.4207581514
 20
2.8706260558
 30
0.0
 10
15.419513561
 20
2.8692055268
 30
0.0
 10
15.417619979
 20
2.8679301346
 30
0.0
 10
15.4151218299
 20
2.8668304557
 30
0.0
 10
15.4121019264
 20
2.8659227194
 30
0.0
 10
15.4073935746
 20
2.8650092569
 30
0.0
 10
15.4036494101
 20
2.8647445383
 30
0.0
 10
15.4010943933
 20
2.8647445383
 30
0.0
 11
15.4210943933
 21
2.8722366702
 31
0.0
 11
15.4207059089
 21
2.8707827635
 31
0.0
 11
15.4195684898
 21
2.8693732871
 31
0.0
 11
15.4177245507
 21
2.8680734473
 31
0.0
 11
15.4152383457
 21
2.8669382524
 31
0.0
 11
15.41220798
 21
2.8660069036
 31
0.0
 11
15.4087381004
 21
2.8653161518
 31
0.0
 11
15.4010943933
 21
2.8647445383
 31
0.0
  0
SPLINE
  5
423
100
AcDbEntity
  8
0
100
AcDbSpline
 62
9
  6
CONTINUOUS
 70
0
 71
3
 72
14
 73
10
 74
8
 42
0.0000001
 43
0.0000001
 44
0.0000000001
 12
0.022678503
 22
-0.0
 32
0.0
 13
0.0
 23
0.022678503
 33
0.0
 40
0.0
 40
0.0
 40
0.0
 40
0.0
 40
0.3379875023
 40
0.4939927693
 40
0.6337840324
 40
0.7542994216
 40
0.8537784404
 40
0.9336414069
 40
1.0
 40
1.0
 40
1.0
 40
1.0
 10
15.4010943933
 20
4.6449375391
 30
0.0
 10
15.4036494101
 20
4.6449375391
 30
0.0
 10
15.4073935746
 20
4.6452022577
 30
0.0
 10
15.4121019264
 20
4.6461157202
 30
0.0
 10
15.4151218299
 20
4.6470234565
 30
0.0
 10
15.417619979
 20
4.6481231354
 30
0.0
 10
15.419513561
 20
4.6493985275
 30
0.0
 10
15.4207581514
 20
4.6508190565
 30
0.0
 10
15.4210943933
 20
4.6519280331
 30
0.0
 10
15.4210943933
 20
4.652429671
 30
0.0
 11
15.4010943933
 21
4.6449375391
 31
0.0
 11
15.4087381004
 21
4.6455091526
 31
0.0
 11
15.41220798
 21
4.6461999044
 31
0.0
 11
15.4152383457
 21
4.6471312531
 31
0.0
 11
15.4177245507
 21
4.6482664481
 31
0.0
 11
15.4195684898
 21
4.6495662879
 31
0.0
 11
15.4207059089
 21
4.6509757643
 31
0.0
 11
15.4210943933
 21
4.652429671
 31
0.0
  0
SPLINE
  5
424
100
AcDbEntity
  8
0
100
AcDbSpline
 62
9
  6
CONTINUOUS
 70
0
 71
3
 72
11
 73
7
 74
5
 42
0.0000001
 43
0.0000001
 44
0.0000000001
 12
0.0601774587
 22
0.0
 32
0.0
 13
0.0
 23
-0.0601774587
 33
0.0
 40
0.0
 40
0.0
 40
0.0
 40
0.0
 40
0.2586598242
 40
0.5123341807
 40
0.7587859181
 40
1.0
 40
1.0
 40
1.0
 40
1.0
 10
15.3810943933
 20
4.6895170252
 30
0.0
 10
15.3862828902
 20
4.6895170252
 30
0.0
 10
15.3966605789
 20
4.6876339502
 30
0.0
 10
15.4099395084
 20
4.6794894492
 30
0.0
 10
15.418953516
 20
4.667167588
 30
0.0
 10
15.4210943933
 20
4.6572682211
 30
0.0
 10
15.4210943933
 20
4.652429671
 30
0.0
 11
15.3810943933
 21
4.6895170252
 31
0.0
 11
15.3964017306
 21
4.6866939184
 31
0.0
 11
15.4093786645
 21
4.6786543906
 31
0.0
 11
15.4180495746
 21
4.666622387
 31
0.0
 11
15.4210943933
 21
4.652429671
 31
0.0
  0
SPLINE
  5
425
100
AcDbEntity
  8
0
100
AcDbSpline
 62
9
  6
CONTINUOUS
 70
0
 71
3
 72
11
 73
7
 74
5
 42
0.0000001
 43
0.0000001
 44
0.0000000001
 12
-0.0300843672
 22
0.0
 32
0.0
 13
0.0
 23
-0.0300843672
 33
0.0
 40
0.0
 40
0.0
 40
0.0
 40
0.0
 40
0.2583785057
 40
0.5123509664
 40
0.7590430364
 40
1.0
 40
1.0
 40
1.0
 40
1.0
 10
14.4610943933
 20
4.6634812162
 30
0.0
 10
14.458503342
 20
4.6634812162
 30
0.0
 10
14.4533197624
 20
4.6625283064
 30
0.0
 10
14.4466646599
 20
4.6584753564
 30
0.0
 10
14.4421761845
 20
4.6522976294
 30
0.0
 10
14.4410943933
 20
4.647353885
 30
0.0
 10
14.4410943933
 20
4.6449375391
 30
0.0
 11
14.4610943933
 21
4.6634812162
 31
0.0
 11
14.4534510242
 21
4.6620667092
 31
0.0
 11
14.4469506738
 21
4.6580512112
 31
0.0
 11
14.4426199278
 21
4.6520242374
 31
0.0
 11
14.4410943933
 21
4.6449375391
 31
0.0
  0
SPLINE
  5
426
100
AcDbEntity
  8
0
100
AcDbSpline
 62
9
  6
CONTINUOUS
 70
0
 71
3
 72
11
 73
7
 74
5
 42
0.0000001
 43
0.0000001
 44
0.0000000001
 12
0.0
 22
0.0300843643
 32
0.0
 13
-0.0300843643
 23
0.0
 33
0.0
 40
0.0
 40
0.0
 40
0.0
 40
0.0
 40
0.2409608243
 40
0.4876566822
 40
0.7416254534
 40
1.0
 40
1.0
 40
1.0
 40
1.0
 10
15.4010943933
 20
4.6449375391
 30
0.0
 10
15.4010943933
 20
4.6473539235
 30
0.0
 10
15.4000124961
 20
4.6522977294
 30
0.0
 10
15.3955240009
 20
4.6584754729
 30
0.0
 10
15.388868918
 20
4.6625284025
 30
0.0
 10
15.3836854046
 20
4.6634812162
 30
0.0
 10
15.3810943933
 20
4.6634812162
 30
0.0
 11
15.4010943933
 21
4.6449375391
 31
0.0
 11
15.3995687686
 21
4.6520243361
 31
0.0
 11
15.3952379287
 21
4.6580513818
 31
0.0
 11
15.3887376559
 21
4.6620667928
 31
0.0
 11
15.3810943933
 21
4.6634812162
 31
0.0
  0
SPLINE
  5
427
100
AcDbEntity
  8
0
100
AcDbSpline
 62
9
  6
CONTINUOUS
 70
0
 71
3
 72
9
 73
5
 74
3
 42
0.0000001
 43
0.0000001
 44
0.0000000001
 12
0.0103387056
 22
0.0
 32
0.0
 13
0.0091295616
 23
0.0048517976
 33
0.0
 40
0.0
 40
0.0
 40
0.0
 40
0.0
 40
0.250650752
 40
1.0
 40
1.0
 40
1.0
 40
1.0
 10
15.3810943933
 20
2.8462008612
 30
0.0
 10
15.3819581947
 20
2.8462008612
 30
0.0
 10
15.3854006624
 20
2.8464165236
 30
0.0
 10
15.3887942009
 20
2.8474628663
 30
0.0
 10
15.3910746109
 20
2.8486747633
 30
0.0
 11
15.3810943933
 21
2.8462008612
 31
0.0
 11
15.3836808349
 21
2.8463611613
 31
0.0
 11
15.3910746109
 21
2.8486747633
 31
0.0
  0
SPLINE
  5
428
100
AcDbEntity
  8
0
100
AcDbSpline
 62
9
  6
CONTINUOUS
 70
0
 71
3
 72
9
 73
5
 74
3
 42
0.0000001
 43
0.0000001
 44
0.0000000001
 12
0.0089380899
 22
0.0047500422
 32
0.0
 13
0.0053180049
 23
0.008612269
 33
0.0
 40
0.0
 40
0.0
 40
0.0
 40
0.0
 40
0.504924972
 40
1.0
 40
1.0
 40
1.0
 40
1.0
 10
15.3910746109
 20
2.8486747633
 30
0.0
 10
15.3925789658
 20
2.8494742349
 30
0.0
 10
15.3953678254
 20
2.8514466777
 30
0.0
 10
15.3975534612
 20
2.8540777037
 30
0.0
 10
15.398431065
 20
2.8554989434
 30
0.0
 11
15.3910746109
 21
2.8486747633
 31
0.0
 11
15.3952415041
 21
2.8516340114
 31
0.0
 11
15.398431065
 21
2.8554989434
 31
0.0
  0
SPLINE
  5
429
100
AcDbEntity
  8
0
100
AcDbSpline
 62
9
  6
CONTINUOUS
 70
0
 71
3
 72
9
 73
5
 74
3
 42
0.0000001
 43
0.0000001
 44
0.0000000001
 12
0.0051030823
 22
0.0082642116
 32
0.0
 13
0.0
 23
0.0097128081
 33
0.0
 40
0.0
 40
0.0
 40
0.0
 40
0.0
 40
0.504196387
 40
1.0
 40
1.0
 40
1.0
 40
1.0
 10
15.398431065
 20
2.8554989434
 30
0.0
 10
15.3992887169
 20
2.856887872
 30
0.0
 10
15.4006178788
 20
2.8598888204
 30
0.0
 10
15.4010943933
 20
2.8631393232
 30
0.0
 10
15.4010943933
 20
2.8647445383
 30
0.0
 11
15.398431065
 21
2.8554989434
 31
0.0
 11
15.4004122792
 21
2.8599774469
 31
0.0
 11
15.4010943933
 21
2.8647445383
 31
0.0
  0
SPLINE
  5
42A
100
AcDbEntity
  8
0
100
AcDbSpline
 62
9
  6
CONTINUOUS
 70
0
 71
3
 72
11
 73
7
 74
5
 42
0.0000001
 43
0.0000001
 44
0.0000000001
 12
0.0
 22
-0.0300843643
 32
0.0
 13
0.0300843643
 23
0.0
 33
0.0
 40
0.0
 40
0.0
 40
0.0
 40
0.0
 40
0.2409608243
 40
0.4876566822
 40
0.7416254534
 40
1.0
 40
1.0
 40
1.0
 40
1.0
 10
14.4410943933
 20
2.8647445383
 30
0.0
 10
14.4410943933
 20
2.8623281539
 30
0.0
 10
14.4421762904
 20
2.857384348
 30
0.0
 10
14.4466647856
 20
2.8512066046
 30
0.0
 10
14.4533198686
 20
2.8471536749
 30
0.0
 10
14.4585033819
 20
2.8462008612
 30
0.0
 10
14.4610943933
 20
2.8462008612
 30
0.0
 11
14.4410943933
 21
2.8647445383
 31
0.0
 11
14.4426200179
 21
2.8576577413
 31
0.0
 11
14.4469508578
 21
2.8516306957
 31
0.0
 11
14.4534511307
 21
2.8476152847
 31
0.0
 11
14.4610943933
 21
2.8462008612
 31
0.0
  0
SPLINE
  5
42B
100
AcDbEntity
  8
0
100
AcDbSpline
 62
9
  6
CONTINUOUS
 70
0
 71
3
 72
14
 73
10
 74
8
 42
0.0000001
 43
0.0000001
 44
0.0000000001
 12
0.0
 22
-0.022678503
 32
0.0
 13
0.022678503
 23
0.0
 33
0.0
 40
0.0
 40
0.0
 40
0.0
 40
0.0
 40
0.0663585931
 40
0.1462215596
 40
0.2457005784
 40
0.3662159676
 40
0.5060072307
 40
0.6620124977
 40
1.0
 40
1.0
 40
1.0
 40
1.0
 10
14.4210943933
 20
4.652429671
 30
0.0
 10
14.4210943933
 20
4.6519280331
 30
0.0
 10
14.4214306351
 20
4.6508190565
 30
0.0
 10
14.4226752255
 20
4.6493985275
 30
0.0
 10
14.4245688075
 20
4.6481231354
 30
0.0
 10
14.4270669567
 20
4.6470234565
 30
0.0
 10
14.4300868601
 20
4.6461157202
 30
0.0
 10
14.434795212
 20
4.6452022577
 30
0.0
 10
14.4385393764
 20
4.6449375391
 30
0.0
 10
14.4410943933
 20
4.6449375391
 30
0.0
 11
14.4210943933
 21
4.652429671
 31
0.0
 11
14.4214828776
 21
4.6509757643
 31
0.0
 11
14.4226202967
 21
4.6495662879
 31
0.0
 11
14.4244642358
 21
4.6482664481
 31
0.0
 11
14.4269504408
 21
4.6471312531
 31
0.0
 11
14.4299808065
 21
4.6461999044
 31
0.0
 11
14.4334506862
 21
4.6455091526
 31
0.0
 11
14.4410943933
 21
4.6449375391
 31
0.0
  0
SPLINE
  5
42C
100
AcDbEntity
  8
0
100
AcDbSpline
 62
9
  6
CONTINUOUS
 70
0
 71
3
 72
14
 73
10
 74
8
 42
0.0000001
 43
0.0000001
 44
0.0000000001
 12
-0.022678503
 22
-0.0
 32
0.0
 13
-0.0
 23
0.022678503
 33
0.0
 40
0.0
 40
0.0
 40
0.0
 40
0.0
 40
0.3379875023
 40
0.4939927693
 40
0.6337840324
 40
0.7542994216
 40
0.8537784404
 40
0.9336414069
 40
1.0
 40
1.0
 40
1.0
 40
1.0
 10
14.4410943933
 20
2.8647445383
 30
0.0
 10
14.4385393764
 20
2.8647445383
 30
0.0
 10
14.434795212
 20
2.8650092569
 30
0.0
 10
14.4300868601
 20
2.8659227194
 30
0.0
 10
14.4270669567
 20
2.8668304557
 30
0.0
 10
14.4245688075
 20
2.8679301346
 30
0.0
 10
14.4226752255
 20
2.8692055268
 30
0.0
 10
14.4214306351
 20
2.8706260558
 30
0.0
 10
14.4210943933
 20
2.8717350324
 30
0.0
 10
14.4210943933
 20
2.8722366702
 30
0.0
 11
14.4410943933
 21
2.8647445383
 31
0.0
 11
14.4334506862
 21
2.8653161518
 31
0.0
 11
14.4299808065
 21
2.8660069036
 31
0.0
 11
14.4269504408
 21
2.8669382524
 31
0.0
 11
14.4244642358
 21
2.8680734473
 31
0.0
 11
14.4226202967
 21
2.8693732871
 31
0.0
 11
14.4214828776
 21
2.8707827635
 31
0.0
 11
14.4210943933
 21
2.8722366702
 31
0.0
  0
SPLINE
  5
42D
100
AcDbEntity
  8
0
100
AcDbSpline
 62
9
  6
CONTINUOUS
 70
0
 71
3
 72
9
 73
5
 74
3
 42
0.0000001
 43
0.0000001
 44
0.0000000001
 12
-0.0197558913
 22
0.0006647708
 32
0.0
 13
-0.010868504
 23
0.0165109897
 33
0.0
 40
0.0
 40
0.0
 40
0.0
 40
0.0
 40
0.5048262559
 40
1.0
 40
1.0
 40
1.0
 40
1.0
 10
15.189836159
 20
4.7925338311
 30
0.0
 10
15.1865117281
 20
4.7926456957
 30
0.0
 10
15.1798917575
 20
4.7944285378
 30
0.0
 10
15.174773898
 20
4.7990382011
 30
0.0
 10
15.1729799654
 20
4.8017634707
 30
0.0
 11
15.189836159
 21
4.7925338311
 31
0.0
 11
15.1802106705
 21
4.7951661608
 31
0.0
 11
15.1729799654
 21
4.8017634707
 31
0.0
  0
SPLINE
  5
42E
100
AcDbEntity
  8
0
100
AcDbSpline
 62
9
  6
CONTINUOUS
 70
0
 71
3
 72
9
 73
5
 74
3
 42
0.0000001
 43
0.0000001
 44
0.0000000001
 12
-0.0054254513
 22
0.0082421252
 32
0.0
 13
-0.0003823495
 23
0.0098601196
 33
0.0
 40
0.0
 40
0.0
 40
0.0
 40
0.0
 40
0.2554467519
 40
1.0
 40
1.0
 40
1.0
 40
1.0
 10
15.1729799654
 20
4.8017634707
 30
0.0
 10
15.1725179941
 20
4.8024652787
 30
0.0
 10
15.1708940237
 20
4.8053282861
 30
0.0
 10
15.1700242166
 20
4.8086304055
 30
0.0
 10
15.1699293234
 20
4.8110775335
 30
0.0
 11
15.1729799654
 21
4.8017634707
 31
0.0
 11
15.1717375296
 21
4.803956624
 31
0.0
 11
15.1699293234
 21
4.8110775335
 31
0.0
  0
SPLINE
  5
42F
100
AcDbEntity
  8
0
100
AcDbSpline
 62
9
  6
CONTINUOUS
 70
0
 71
3
 72
15
 73
11
 74
9
 42
0.0000001
 43
0.0000001
 44
0.0000000001
 12
-0.1653923596
 22
0.0367512304
 32
0.0
 13
-0.0439451763
 23
0.1636279531
 33
0.0
 40
0.0
 40
0.0
 40
0.0
 40
0.0
 40
0.1734054347
 40
0.3337134932
 40
0.4798445849
 40
0.6110444901
 40
0.7272269554
 40
0.8290414947
 40
0.9188037847
 40
1.0
 40
1.0
 40
1.0
 40
1.0
 10
14.7909647122
 20
4.7074717593
 30
0.0
 10
14.7814047342
 20
4.709596047
 30
0.0
 10
14.7631235377
 20
4.714244181
 30
0.0
 10
14.737370215
 20
4.7227557198
 30
0.0
 10
14.7145672232
 20
4.7323704243
 30
0.0
 10
14.6949704592
 20
4.742937266
 30
0.0
 10
14.6787786818
 20
4.7542956069
 30
0.0
 10
14.6661750814
 20
4.7663924197
 30
0.0
 10
14.6572456929
 20
4.779074526
 30
0.0
 10
14.6535420215
 20
4.7881051815
 30
0.0
 10
14.6523526275
 20
4.7925338383
 30
0.0
 11
14.7909647122
 21
4.7074717593
 31
0.0
 11
14.7625061543
 21
4.7147698741
 31
0.0
 11
14.7367406275
 21
4.7233620446
 31
0.0
 11
14.7139667304
 21
4.7330744478
 31
0.0
 11
14.6944613254
 21
4.7437353657
 31
0.0
 11
14.6784478089
 21
4.7551827113
 31
0.0
 11
14.6661261393
 21
4.7672550433
 31
0.0
 11
14.6574870741
 21
4.779771143
 31
0.0
 11
14.6523526275
 21
4.7925338383
 31
0.0
  0
SPLINE
  5
430
100
AcDbEntity
  8
0
100
AcDbSpline
 62
9
  6
CONTINUOUS
 70
0
 71
3
 72
9
 73
5
 74
3
 42
0.0000001
 43
0.0000001
 44
0.0000000001
 12
-0.0007431365
 22
-0.0191641923
 32
0.0
 13
-0.016655063
 23
-0.009509332
 33
0.0
 40
0.0
 40
0.0
 40
0.0
 40
0.0
 40
0.4902854716
 40
1.0
 40
1.0
 40
1.0
 40
1.0
 10
14.6722594628
 20
4.8110775335
 30
0.0
 10
14.6721380131
 20
4.8079455585
 30
0.0
 10
14.6700725898
 20
4.8015383861
 30
0.0
 10
14.6651778296
 20
4.7969893647
 30
0.0
 10
14.6623480537
 20
4.7953736832
 30
0.0
 11
14.6722594628
 21
4.8110775335
 31
0.0
 11
14.6694326035
 21
4.8021095335
 31
0.0
 11
14.6623480537
 21
4.7953736832
 31
0.0
  0
SPLINE
  5
431
100
AcDbEntity
  8
0
100
AcDbSpline
 62
9
  6
CONTINUOUS
 70
0
 71
3
 72
9
 73
5
 74
3
 42
0.0000001
 43
0.0000001
 44
0.0000000001
 12
-0.0090727541
 22
-0.0051801564
 32
0.0
 13
-0.0104415248
 23
-0.0003513494
 33
0.0
 40
0.0
 40
0.0
 40
0.0
 40
0.0
 40
0.2510200623
 40
1.0
 40
1.0
 40
1.0
 40
1.0
 10
14.6623480537
 20
4.7953736832
 30
0.0
 10
14.6615889059
 20
4.7949402421
 30
0.0
 10
14.6584591995
 20
4.7934056501
 30
0.0
 10
14.6549594584
 20
4.7926215488
 30
0.0
 10
14.6523526275
 20
4.7925338309
 30
0.0
 11
14.6623480537
 21
4.7953736832
 31
0.0
 11
14.6599943515
 21
4.7942171045
 31
0.0
 11
14.6523526275
 21
4.7925338309
 31
0.0
  0
SPLINE
  5
432
100
AcDbEntity
  8
0
100
AcDbSpline
 62
9
  6
CONTINUOUS
 70
0
 71
3
 72
9
 73
5
 74
3
 42
0.0000001
 43
0.0000001
 44
0.0000000001
 12
-0.0094888032
 22
-0.0160759213
 32
0.0
 13
0.0000000001
 23
-0.0185380661
 33
0.0
 40
0.0
 40
0.0
 40
0.0
 40
0.0
 40
0.2169814058
 40
1.0
 40
1.0
 40
1.0
 40
1.0
 10
14.4259972969
 20
4.7732387293
 30
0.0
 10
14.4253109989
 20
4.772076004
 30
0.0
 10
14.4224467773
 20
4.7665384268
 30
0.0
 10
14.4210943932
 20
4.7602850343
 30
0.0
 10
14.4210943933
 20
4.7554464842
 30
0.0
 11
14.4259972969
 21
4.7732387293
 31
0.0
 11
14.424139212
 21
4.7696392002
 31
0.0
 11
14.4210943933
 21
4.7554464842
 31
0.0
  0
SPLINE
  5
433
100
AcDbEntity
  8
0
100
AcDbSpline
 62
9
  6
CONTINUOUS
 70
0
 71
3
 72
9
 73
5
 74
3
 42
0.0000001
 43
0.0000001
 44
0.0000000001
 12
-0.0694940661
 22
0.0000023812
 32
0.0
 13
-0.068950884
 23
0.0086718407
 33
0.0
 40
0.0
 40
0.0
 40
0.0
 40
0.0
 40
0.5042969828
 40
1.0
 40
1.0
 40
1.0
 40
1.0
 10
14.9210943933
 20
4.7125095841
 30
0.0
 10
14.9094125107
 20
4.7125099844
 30
0.0
 10
14.8862428475
 20
4.7132275138
 30
0.0
 10
14.8631587113
 20
4.7153557769
 30
0.0
 10
14.8517656576
 20
4.7167886627
 30
0.0
 11
14.9210943933
 21
4.7125095841
 31
0.0
 11
14.8860654791
 21
4.7135924516
 31
0.0
 11
14.8517656576
 21
4.7167886627
 31
0.0
  0
SPLINE
  5
434
100
AcDbEntity
  8
0
100
AcDbSpline
 62
9
  6
CONTINUOUS
 70
0
 71
3
 72
15
 73
11
 74
9
 42
0.0000001
 43
0.0000001
 44
0.0000000001
 12
-0.1411742102
 22
0.0392296216
 32
0.0
 13
-0.0317668657
 23
0.1430384112
 33
0.0
 40
0.0
 40
0.0
 40
0.0
 40
0.0
 40
0.1694324746
 40
0.3262061233
 40
0.4695003598
 40
0.5991028485
 40
0.7155327617
 40
0.8198143008
 40
0.9137527028
 40
1.0
 40
1.0
 40
1.0
 40
1.0
 10
14.7868239515
 20
4.7295786134
 30
0.0
 10
14.7788507863
 20
4.7317942041
 30
0.0
 10
14.7636314522
 20
4.7365583788
 30
0.0
 10
14.742292772
 20
4.7450162528
 30
0.0
 10
14.7234838582
 20
4.754390327
 30
0.0
 10
14.707369929
 20
4.7645563872
 30
0.0
 10
14.6940554769
 20
4.7753802627
 30
0.0
 10
14.6836354008
 20
4.7867694813
 30
0.0
 10
14.6761876598
 20
4.7985968909
 30
0.0
 10
14.6731726938
 20
4.80696529
 30
0.0
 10
14.672259425
 20
4.8110775154
 30
0.0
 11
14.7868239515
 21
4.7295786134
 31
0.0
 11
14.7631469633
 21
4.7370433362
 31
0.0
 11
14.7418172947
 21
4.7455705159
 31
0.0
 11
14.723064025
 21
4.7550122025
 31
0.0
 11
14.7070556197
 21
4.765227074
 31
0.0
 11
14.6938941393
 21
4.7760810695
 31
0.0
 11
14.6836733404
 21
4.7874390718
 31
0.0
 11
14.6764490431
 21
4.7991549644
 31
0.0
 11
14.672259425
 21
4.8110775154
 31
0.0
  0
SPLINE
  5
435
100
AcDbEntity
  8
0
100
AcDbSpline
 62
9
  6
CONTINUOUS
 70
0
 71
3
 72
15
 73
11
 74
9
 42
0.0000001
 43
0.0000001
 44
0.0000000001
 12
-0.0309608157
 22
-0.1432560004
 32
0.0
 13
-0.141221551
 23
-0.0392087657
 33
0.0
 40
0.0
 40
0.0
 40
0.0
 40
0.0
 40
0.08705154
 40
0.1806592634
 40
0.2845099504
 40
0.4008507581
 40
0.5305106468
 40
0.6738382722
 40
0.8305949708
 40
1.0
 40
1.0
 40
1.0
 40
1.0
 10
15.1699293615
 20
4.8110775154
 30
0.0
 10
15.169030966
 20
4.8069206303
 30
0.0
 10
15.1660489938
 20
4.7985075237
 30
0.0
 10
15.1585562359
 20
4.786694878
 30
0.0
 10
15.1481051776
 20
4.775388432
 30
0.0
 10
15.134802697
 20
4.7645831735
 30
0.0
 10
15.1186970827
 20
4.7543939325
 30
0.0
 10
15.099886478
 20
4.7450009344
 30
0.0
 10
15.0785401221
 20
4.736545755
 30
0.0
 10
15.0633170708
 20
4.7317864724
 30
0.0
 10
15.0553425238
 20
4.7295724183
 30
0.0
 11
15.1699293615
 21
4.8110775154
 31
0.0
 11
15.1657448959
 21
4.7990246516
 31
0.0
 11
15.1585167236
 21
4.7873637132
 31
0.0
 11
15.1482900575
 21
4.77609049
 31
0.0
 11
15.1351251163
 21
4.7652539029
 31
0.0
 11
15.1191144411
 21
4.7550173183
 31
0.0
 11
15.1003582187
 21
4.7455578691
 31
0.0
 11
15.0790243364
 21
4.7370310151
 31
0.0
 11
15.0553425238
 21
4.7295724183
 31
0.0
  0
SPLINE
  5
436
100
AcDbEntity
  8
0
100
AcDbSpline
 62
9
  6
CONTINUOUS
 70
0
 71
3
 72
9
 73
5
 74
3
 42
0.0000001
 43
0.0000001
 44
0.0000000001
 12
-0.0689237852
 22
-0.0086627016
 32
0.0
 13
-0.0694660361
 23
-0.0000197005
 33
0.0
 40
0.0
 40
0.0
 40
0.0
 40
0.0
 40
0.4957042913
 40
1.0
 40
1.0
 40
1.0
 40
1.0
 10
14.9903954565
 20
4.7167851595
 30
0.0
 10
14.9790068511
 20
4.7153537801
 30
0.0
 10
14.9559316451
 20
4.7132301616
 30
0.0
 10
14.9327715346
 20
4.7125128957
 30
0.0
 10
14.9210943933
 20
4.7125095841
 30
0.0
 11
14.9903954565
 21
4.7167851595
 31
0.0
 11
14.9561090309
 21
4.7135939793
 31
0.0
 11
14.9210943933
 21
4.7125095841
 31
0.0
  0
SPLINE
  5
437
100
AcDbEntity
  8
0
100
AcDbSpline
 62
9
  6
CONTINUOUS
 70
0
 71
3
 72
15
 73
11
 74
9
 42
0.0000001
 43
0.0000001
 44
0.0000000001
 12
-0.0400440654
 22
-0.1669100533
 32
0.0
 13
-0.1677252157
 23
-0.0364793786
 33
0.0
 40
0.0
 40
0.0
 40
0.0
 40
0.0
 40
0.0805812356
 40
0.1704038978
 40
0.2725020507
 40
0.388684309
 40
0.5197883026
 40
0.6659776314
 40
0.8264535396
 40
1.0
 40
1.0
 40
1.0
 40
1.0
 10
15.189836159
 20
4.7925338383
 30
0.0
 10
15.1887605589
 20
4.7880505656
 30
0.0
 10
15.1850542266
 20
4.7788860665
 30
0.0
 10
15.1758697106
 20
4.766153097
 30
0.0
 10
15.1629920137
 20
4.7539920636
 30
0.0
 10
15.146541273
 20
4.742536553
 30
0.0
 10
15.1266518752
 20
4.7319006207
 30
0.0
 10
15.1035016934
 20
4.7222552779
 30
0.0
 10
15.0773524085
 20
4.7137428807
 30
0.0
 10
15.0587933906
 20
4.7091134513
 30
0.0
 10
15.0490906848
 20
4.7070031623
 30
0.0
 11
15.189836159
 21
4.7925338383
 31
0.0
 11
15.184799712
 21
4.7796519109
 31
0.0
 11
15.1759432573
 21
4.7670316944
 31
0.0
 11
15.1633281431
 21
4.7548671193
 31
0.0
 11
15.1470548283
 21
4.7433400511
 31
0.0
 11
15.1272697229
 21
4.7326181806
 31
0.0
 11
15.1041476815
 21
4.7228701774
 31
0.0
 11
15.0779786815
 21
4.7142726896
 31
0.0
 11
15.0490906848
 21
4.7070031623
 31
0.0
  0
SPLINE
  5
438
100
AcDbEntity
  8
0
100
AcDbSpline
 62
9
  6
CONTINUOUS
 70
0
 71
3
 72
9
 73
5
 74
3
 42
0.0000001
 43
0.0000001
 44
0.0000000001
 12
-0.0750374152
 22
-0.008804301
 32
0.0
 13
-0.0755521634
 23
-0.0000027032
 33
0.0
 40
0.0
 40
0.0
 40
0.0
 40
0.0
 40
0.4956194328
 40
1.0
 40
1.0
 40
1.0
 40
1.0
 10
14.9964901392
 20
4.6983053795
 30
0.0
 10
14.9840934721
 20
4.696850852
 30
0.0
 10
14.9589854999
 20
4.6946928065
 30
0.0
 10
14.9337967409
 20
4.6939663615
 30
0.0
 10
14.9210943933
 20
4.693965907
 30
0.0
 11
14.9964901392
 21
4.6983053795
 31
0.0
 11
14.9591856299
 21
4.6950633698
 31
0.0
 11
14.9210943933
 21
4.693965907
 31
0.0
  0
SPLINE
  5
439
100
AcDbEntity
  8
0
100
AcDbSpline
 62
9
  6
CONTINUOUS
 70
0
 71
3
 72
20
 73
16
 74
14
 42
0.0000001
 43
0.0000001
 44
0.0000000001
 12
-0.0000031425
 22
0.0047459051
 32
0.0
 13
0.0010659133
 23
-0.0046246572
 33
0.0
 40
0.0
 40
0.0
 40
0.0
 40
0.0
 40
0.16878004
 40
0.2320592486
 40
0.2810638149
 40
0.3158708764
 40
0.3373236542
 40
0.3505040511
 40
0.3697932264
 40
0.4019235305
 40
0.4478700992
 40
0.5075865816
 40
0.5807743042
 40
0.7659652721
 40
1.0
 40
1.0
 40
1.0
 40
1.0
 10
14.6710952823
 20
4.8123929009
 30
0.0
 10
14.6710951055
 20
4.8126599056
 30
0.0
 10
14.67109903
 20
4.8130278727
 30
0.0
 10
14.6711301026
 20
4.8134702771
 30
0.0
 10
14.6711575004
 20
4.8137038379
 30
0.0
 10
14.6711978063
 20
4.8138610622
 30
0.0
 10
14.6712366521
 20
4.8139735168
 30
0.0
 10
14.6713323195
 20
4.8140003602
 30
0.0
 10
14.6714060799
 20
4.8139105411
 30
0.0
 10
14.671481595
 20
4.8137836436
 30
0.0
 10
14.671569061
 20
4.8135802171
 30
0.0
 10
14.6716651818
 20
4.8133153614
 30
0.0
 10
14.6718175244
 20
4.8128350171
 30
0.0
 10
14.6720213003
 20
4.8120833101
 30
0.0
 10
14.6721762714
 20
4.8114382922
 30
0.0
 10
14.672259425
 20
4.8110775154
 30
0.0
 11
14.6710952823
 21
4.8123929009
 31
0.0
 11
14.6711123093
 21
4.8131937341
 31
0.0
 11
14.6711343807
 21
4.8134932392
 31
0.0
 11
14.6711657791
 21
4.813723681
 31
0.0
 11
14.6712067208
 21
4.8138837181
 31
0.0
 11
14.671257422
 21
4.8139720088
 31
0.0
 11
14.6713180981
 21
4.8139872166
 31
0.0
 11
14.6713887678
 21
4.8139290254
 31
0.0
 11
14.6714690175
 21
4.8137993628
 31
0.0
 11
14.6715583759
 21
4.8136004547
 31
0.0
 11
14.6716563719
 21
4.8133345274
 31
0.0
 11
14.6717625343
 21
4.8130038069
 31
0.0
 11
14.6719974738
 21
4.8121568909
 31
0.0
 11
14.672259425
 21
4.8110775154
 31
0.0
  0
SPLINE
  5
43A
100
AcDbEntity
  8
0
100
AcDbSpline
 62
9
  6
CONTINUOUS
 70
0
 71
3
 72
19
 73
15
 74
13
 42
0.0000001
 43
0.0000001
 44
0.0000000001
 12
-0.0000102004
 22
0.0046811962
 32
0.0
 13
-0.0010146262
 23
-0.0045699274
 33
0.0
 40
0.0
 40
0.0
 40
0.0
 40
0.0
 40
0.1649068116
 40
0.2739029644
 40
0.3075640581
 40
0.3283866324
 40
0.3417294089
 40
0.3612255571
 40
0.3932570371
 40
0.438996324
 40
0.4986213548
 40
0.5720549623
 40
0.7596224433
 40
1.0
 40
1.0
 40
1.0
 40
1.0
 10
15.1710931848
 20
4.8124595074
 30
0.0
 10
15.1710926241
 20
4.8127168278
 30
0.0
 10
15.1710830373
 20
4.8131412327
 30
0.0
 10
15.171050165
 20
4.8136282215
 30
0.0
 10
15.1709870977
 20
4.8138693642
 30
0.0
 10
15.1709452467
 20
4.8139765245
 30
0.0
 10
15.1708507753
 20
4.8139982001
 30
0.0
 10
15.170777234
 20
4.8139119807
 30
0.0
 10
15.1707008912
 20
4.8137869164
 30
0.0
 10
15.1706134943
 20
4.8135879006
 30
0.0
 10
15.1705174864
 20
4.813326981
 30
0.0
 10
15.1703653136
 20
4.8128497123
 30
0.0
 10
15.1701624963
 20
4.8120941392
 30
0.0
 10
15.1700106593
 20
4.8114436848
 30
0.0
 10
15.1699293615
 20
4.8110775154
 30
0.0
 11
15.1710931848
 21
4.8124595074
 31
0.0
 11
15.171073944
 21
4.8132312306
 31
0.0
 11
15.171018887
 21
4.813738485
 31
0.0
 11
15.1709773356
 21
4.8138904825
 31
0.0
 11
15.17092612
 21
4.8139734179
 31
0.0
 11
15.1708650066
 21
4.8139863193
 31
0.0
 11
15.1707940177
 21
4.813928961
 31
0.0
 11
15.1707136131
 21
4.8138023952
 31
0.0
 11
15.1706242953
 21
4.8136077992
 31
0.0
 11
15.1705265671
 21
4.8133463503
 31
0.0
 11
15.170420931
 21
4.8130192256
 31
0.0
 11
15.1701879461
 21
4.8121726583
 31
0.0
 11
15.1699293615
 21
4.8110775154
 31
0.0
  0
SPLINE
  5
43B
100
AcDbEntity
  8
0
100
AcDbSpline
 62
9
  6
CONTINUOUS
 70
0
 71
3
 72
13
 73
9
 74
7
 42
0.0000001
 43
0.0000001
 44
0.0000000001
 12
0.0144002187
 22
0.0
 32
0.0
 13
0.0046389158
 23
-0.0136325624
 33
0.0
 40
0.0
 40
0.0
 40
0.0
 40
0.0
 40
0.077464687
 40
0.1627147107
 40
0.2617777831
 40
0.3776450174
 40
0.6604395299
 40
1.0
 40
1.0
 40
1.0
 40
1.0
 10
7.6893531583
 20
5.8132542569
 30
0.0
 10
7.6897249944
 20
5.8132542569
 30
0.0
 10
7.6905103313
 20
5.8131086634
 30
0.0
 10
7.6916288423
 20
5.8125084785
 30
0.0
 10
7.6927371115
 20
5.8115775254
 30
0.0
 10
7.6943478704
 20
5.809808227
 30
0.0
 10
7.6963868201
 20
5.8068897983
 30
0.0
 10
7.6976417087
 20
5.8041528464
 30
0.0
 10
7.6981667729
 20
5.80260982
 30
0.0
 11
7.6893531583
 21
5.8132542569
 31
0.0
 11
7.6904523351
 21
5.8130640744
 31
0.0
 11
7.6915469238
 21
5.812508265
 31
0.0
 11
7.6926542605
 21
5.8116089359
 31
0.0
 11
7.6937916816
 21
5.8103881941
 31
0.0
 11
7.6961342221
 21
5.807057105
 31
0.0
 11
7.6981667729
 21
5.80260982
 31
0.0
  0
SPLINE
  5
43C
100
AcDbEntity
  8
0
100
AcDbSpline
 62
9
  6
CONTINUOUS
 70
0
 71
3
 72
9
 73
5
 74
3
 42
0.0000001
 43
0.0000001
 44
0.0000000001
 12
0.003065771
 22
-0.0090095005
 32
0.0
 13
0.0003054677
 23
-0.0095119263
 33
0.0
 40
0.0
 40
0.0
 40
0.0
 40
0.0
 40
0.4880795669
 40
1.0
 40
1.0
 40
1.0
 40
1.0
 10
7.6981667729
 20
5.80260982
 30
0.0
 10
7.6986655529
 20
5.8011440356
 30
0.0
 10
7.6994076366
 20
5.7980439884
 30
0.0
 10
7.6997189753
 20
5.7948773733
 30
0.0
 10
7.6997711003
 20
5.7932542569
 30
0.0
 11
7.6981667729
 21
5.80260982
 31
0.0
 11
7.6992873319
 21
5.7981020383
 31
0.0
 11
7.6997711003
 21
5.7932542569
 31
0.0
  0
SPLINE
  5
43D
100
AcDbEntity
  8
0
100
AcDbSpline
 62
9
  6
CONTINUOUS
 70
0
 71
3
 72
9
 73
5
 74
3
 42
0.0000001
 43
0.0000001
 44
0.0000000001
 12
0.0048725721
 22
0.0048728774
 32
0.0
 13
0.0040011944
 23
0.0056104667
 33
0.0
 40
0.0
 40
0.0
 40
0.0
 40
0.0
 40
0.2490404248
 40
1.0
 40
1.0
 40
1.0
 40
1.0
 10
8.1135179432
 20
5.7941778068
 30
0.0
 10
8.1139224323
 20
5.7945823213
 30
0.0
 10
8.115516355
 20
5.7962363632
 30
0.0
 10
8.1169802988
 20
5.7980175453
 30
0.0
 10
8.1179818772
 20
5.7994219566
 30
0.0
 11
8.1135179432
 21
5.7941778068
 31
0.0
 11
8.1147082732
 21
5.7954140533
 31
0.0
 11
8.1179818772
 21
5.7994219566
 31
0.0
  0
SPLINE
  5
43E
100
AcDbEntity
  8
0
100
AcDbSpline
 62
9
  6
CONTINUOUS
 70
0
 71
3
 72
13
 73
9
 74
7
 42
0.0000001
 43
0.0000001
 44
0.0000000001
 12
0.0042255012
 22
0.0001120481
 32
0.0
 13
-0.0004486294
 23
-0.0042031116
 33
0.0
 40
0.0
 40
0.0
 40
0.0
 40
0.0
 40
0.0750333416
 40
0.1542820223
 40
0.2644778468
 40
0.4051454169
 40
0.5753520606
 40
1.0
 40
1.0
 40
1.0
 40
1.0
 10
15.1908752513
 20
4.7939818229
 30
0.0
 10
15.1909809358
 20
4.7939846253
 30
0.0
 10
15.1910807181
 20
4.7936879908
 30
0.0
 10
15.1910801224
 20
4.7933530007
 30
0.0
 10
15.1910702452
 20
4.7928730049
 30
0.0
 10
15.1910211311
 20
4.7922871944
 30
0.0
 10
15.1909201214
 20
4.7912531506
 30
0.0
 10
15.1908263413
 20
4.7904214154
 30
0.0
 10
15.1907628381
 20
4.7898264678
 30
0.0
 11
15.1908752513
 21
4.7939818229
 31
0.0
 11
15.1910543086
 21
4.7937200365
 31
0.0
 11
15.1910792749
 21
4.7933859851
 31
0.0
 11
15.1910669593
 21
4.7929203517
 31
0.0
 11
15.1910232597
 21
4.7923273597
 31
0.0
 11
15.1909540743
 21
4.7916112328
 31
0.0
 11
15.1907628381
 21
4.7898264678
 31
0.0
  0
SPLINE
  5
43F
100
AcDbEntity
  8
0
100
AcDbSpline
 62
9
  6
CONTINUOUS
 70
0
 71
3
 72
11
 73
7
 74
5
 42
0.0000001
 43
0.0000001
 44
0.0000000001
 12
-0.0000000003
 22
0.0601774587
 32
0.0
 13
0.0601774587
 23
-0.0000000003
 33
0.0
 40
0.0
 40
0.0
 40
0.0
 40
0.0
 40
0.2412140819
 40
0.4876658193
 40
0.7413401758
 40
1.0
 40
1.0
 40
1.0
 40
1.0
 10
14.4210943933
 20
4.652429671
 30
0.0
 10
14.4210943932
 20
4.6572682211
 30
0.0
 10
14.4232352705
 20
4.667167588
 30
0.0
 10
14.4322492782
 20
4.6794894492
 30
0.0
 10
14.4455282076
 20
4.6876339502
 30
0.0
 10
14.4559058963
 20
4.6895170252
 30
0.0
 10
14.4610943933
 20
4.6895170252
 30
0.0
 11
14.4210943933
 21
4.652429671
 31
0.0
 11
14.424139212
 21
4.666622387
 31
0.0
 11
14.432810122
 21
4.6786543906
 31
0.0
 11
14.445787056
 21
4.6866939184
 31
0.0
 11
14.4610943933
 21
4.6895170252
 31
0.0
  0
SPLINE
  5
440
100
AcDbEntity
  8
0
100
AcDbSpline
 62
9
  6
CONTINUOUS
 70
0
 71
3
 72
9
 73
5
 74
3
 42
0.0000001
 43
0.0000001
 44
0.0000000001
 12
-0.0
 22
0.0185380661
 32
0.0
 13
-0.0094888032
 23
0.0160759213
 33
0.0
 40
0.0
 40
0.0
 40
0.0
 40
0.0
 40
0.7830185941
 40
1.0
 40
1.0
 40
1.0
 40
1.0
 10
15.4210943933
 20
4.7554464842
 30
0.0
 10
15.4210943933
 20
4.7602850343
 30
0.0
 10
15.4197420092
 20
4.7665384268
 30
0.0
 10
15.4168777876
 20
4.772076004
 30
0.0
 10
15.4161914897
 20
4.7732387293
 30
0.0
 11
15.4210943933
 21
4.7554464842
 31
0.0
 11
15.4180495746
 21
4.7696392002
 31
0.0
 11
15.4161914897
 21
4.7732387293
 31
0.0
  0
SPLINE
  5
441
100
AcDbEntity
  8
0
100
AcDbSpline
 62
9
  6
CONTINUOUS
 70
0
 71
3
 72
10
 73
6
 74
4
 42
0.0000001
 43
0.0000001
 44
0.0000000001
 12
0.0069650243
 22
0.0
 32
0.0
 13
0.0040533882
 23
-0.0056640628
 33
0.0
 40
0.0
 40
0.0
 40
0.0
 40
0.0
 40
0.3982020603
 40
0.6743304855
 40
1.0
 40
1.0
 40
1.0
 40
1.0
 10
1.6893531583
 20
5.8132542569
 30
0.0
 10
1.690277654
 20
5.8132542569
 30
0.0
 10
1.6917610013
 20
5.8123981701
 30
0.0
 10
1.6934476498
 20
5.8108470842
 30
0.0
 10
1.6943414471
 20
5.809755247
 30
0.0
 10
1.6947814687
 20
5.8091403762
 30
0.0
 11
1.6893531583
 21
5.8132542569
 31
0.0
 11
1.6919088818
 21
5.8121769884
 31
0.0
 11
1.6933385696
 21
5.8108905789
 31
0.0
 11
1.6947814687
 21
5.8091403762
 31
0.0
  0
SPLINE
  5
442
100
AcDbEntity
  8
0
100
AcDbSpline
 62
9
  6
CONTINUOUS
 70
0
 71
3
 72
9
 73
5
 74
3
 42
0.0000001
 43
0.0000001
 44
0.0000000001
 12
0.0030995764
 22
-0.0043312395
 32
0.0
 13
0.0022812044
 23
-0.0048128075
 33
0.0
 40
0.0
 40
0.0
 40
0.0
 40
0.0
 40
0.2300427055
 40
1.0
 40
1.0
 40
1.0
 40
1.0
 10
1.6947814687
 20
5.8091403762
 30
0.0
 10
1.695019147
 20
5.8088082528
 30
0.0
 10
1.6960019741
 20
5.8073283392
 30
0.0
 10
1.6968193848
 20
5.8057454213
 30
0.0
 10
1.6974048614
 20
5.8045102026
 30
0.0
 11
1.6947814687
 21
5.8091403762
 31
0.0
 11
1.6954625776
 21
5.8081219152
 31
0.0
 11
1.6974048614
 21
5.8045102026
 31
0.0
  0
SPLINE
  5
443
100
AcDbEntity
  8
0
100
AcDbSpline
 62
9
  6
CONTINUOUS
 70
0
 71
3
 72
9
 73
5
 74
3
 42
0.0000001
 43
0.0000001
 44
0.0000000001
 12
0.0025085826
 22
-0.005799576
 32
0.0
 13
0.0048571732
 23
-0.004041774
 33
0.0
 40
0.0
 40
0.0
 40
0.0
 40
0.0
 40
0.2251143798
 40
1.0
 40
1.0
 40
1.0
 40
1.0
 10
12.1257124062
 20
5.8156315132
 30
0.0
 10
12.1259006455
 20
5.8151963238
 30
0.0
 10
12.1268926114
 20
5.8133305042
 30
0.0
 10
12.1283777409
 20
5.8117620142
 30
0.0
 10
12.1296323254
 20
5.8107180433
 30
0.0
 11
12.1257124062
 21
5.8156315132
 31
0.0
 11
12.1263722489
 21
5.8143713458
 31
0.0
 11
12.1296323254
 21
5.8107180433
 31
0.0
  0
SPLINE
  5
444
100
AcDbEntity
  8
0
100
AcDbSpline
 62
9
  6
CONTINUOUS
 70
0
 71
3
 72
9
 73
5
 74
3
 42
0.0000001
 43
0.0000001
 44
0.0000000001
 12
0.0060446696
 22
-0.0050299192
 32
0.0
 13
0.0072434838
 23
-0.0030610556
 33
0.0
 40
0.0
 40
0.0
 40
0.0
 40
0.0
 40
0.2341326752
 40
1.0
 40
1.0
 40
1.0
 40
1.0
 10
12.1296323254
 20
5.8107180433
 30
0.0
 10
12.130104077
 20
5.8103254872
 30
0.0
 10
12.1321987044
 20
5.808744958
 30
0.0
 10
12.1345434905
 20
5.8075147225
 30
0.0
 10
12.136392673
 20
5.8067332684
 30
0.0
 11
12.1296323254
 21
5.8107180433
 31
0.0
 11
12.1310986317
 21
5.8096045826
 31
0.0
 11
12.136392673
 21
5.8067332684
 31
0.0
  0
SPLINE
  5
445
100
AcDbEntity
  8
0
100
AcDbSpline
 62
9
  6
CONTINUOUS
 70
0
 71
3
 72
9
 73
5
 74
3
 42
0.0000001
 43
0.0000001
 44
0.0000000001
 12
0.00795755
 22
-0.003362816
 32
0.0
 13
0.0085065379
 23
-0.0015066341
 33
0.0
 40
0.0
 40
0.0
 40
0.0
 40
0.0
 40
0.2471006975
 40
1.0
 40
1.0
 40
1.0
 40
1.0
 10
12.136392673
 20
5.8067332684
 30
0.0
 10
12.1370481117
 20
5.8064562836
 30
0.0
 10
12.139734772
 20
5.8054177949
 30
0.0
 10
12.1425366313
 20
5.8046784649
 30
0.0
 10
12.1446714868
 20
5.8043003503
 30
0.0
 11
12.136392673
 21
5.8067332684
 31
0.0
 11
12.1383828969
 21
5.8059613273
 31
0.0
 11
12.1446714868
 21
5.8043003503
 31
0.0
  0
SPLINE
  5
446
100
AcDbEntity
  8
0
100
AcDbSpline
 62
9
  6
CONTINUOUS
 70
0
 71
3
 72
9
 73
5
 74
3
 42
0.0000001
 43
0.0000001
 44
0.0000000001
 12
-0.0033150724
 22
-0.0079232071
 32
0.0
 13
-0.0051290627
 23
-0.0068890951
 33
0.0
 40
0.0
 40
0.0
 40
0.0
 40
0.0
 40
0.4822253203
 40
1.0
 40
1.0
 40
1.0
 40
1.0
 10
12.1446746869
 20
5.8043000847
 30
0.0
 10
12.1441418163
 20
5.8030264943
 30
0.0
 10
12.142881443
 20
5.8004499917
 30
0.0
 10
12.1413524887
 20
5.7980181917
 30
0.0
 10
12.1404672558
 20
5.796829192
 30
0.0
 11
12.1446746869
 21
5.8043000847
 31
0.0
 11
12.1428637923
 21
5.800575234
 31
0.0
 11
12.1404672558
 21
5.796829192
 31
0.0
  0
LINE
  5
447
100
AcDbEntity
  8
0
100
AcDbLine
 62
9
  6
CONTINUOUS
 10
12.1404672558
 20
5.796829192
 11
12.1373413174
 21
5.7932542569
  0
SPLINE
  5
448
100
AcDbEntity
  8
0
100
AcDbSpline
 62
9
  6
CONTINUOUS
 70
0
 71
3
 72
15
 73
11
 74
9
 42
0.0000001
 43
0.0000001
 44
0.0000000001
 12
-0.0044193776
 22
-0.0526278772
 32
0.0
 13
0.0373445067
 23
0.0373445067
 33
0.0
 40
0.0
 40
0.0
 40
0.0
 40
0.0
 40
0.1260899936
 40
0.1901847012
 40
0.2546320964
 40
0.3825869094
 40
0.5095848786
 40
0.6347578751
 40
0.7582138923
 40
1.0
 40
1.0
 40
1.0
 40
1.0
 10
11.7186068666
 20
5.4463871186
 30
0.0
 10
11.7184211202
 20
5.444175169
 30
0.0
 10
11.7186859837
 20
5.4407511815
 30
0.0
 10
11.7202521508
 20
5.4365224544
 30
0.0
 10
11.7227018576
 20
5.4326957392
 30
0.0
 10
11.7271733798
 20
5.4289800634
 30
0.0
 10
11.733802557
 20
5.4272163101
 30
0.0
 10
11.7404976244
 20
5.4276777182
 30
0.0
 10
11.748689697
 20
5.4306326017
 30
0.0
 10
11.7539462146
 20
5.4346060782
 30
0.0
 10
11.7569560089
 20
5.4376158725
 30
0.0
 11
11.7186068666
 21
5.4463871186
 31
0.0
 11
11.7191700757
 21
5.4397517739
 31
0.0
 11
11.7203586411
 21
5.4365822609
 31
0.0
 11
11.7221913668
 21
5.4337141488
 31
0.0
 11
11.7274076632
 21
5.4294180292
 31
0.0
 11
11.7338589616
 21
5.4275831694
 31
0.0
 11
11.7404576874
 21
5.4279821218
 31
0.0
 11
11.7466165689
 21
5.4301221758
 31
0.0
 11
11.7569560089
 21
5.4376158725
 31
0.0
  0
SPLINE
  5
449
100
AcDbEntity
  8
0
100
AcDbSpline
 62
9
  6
CONTINUOUS
 70
0
 71
3
 72
9
 73
5
 74
3
 42
0.0000001
 43
0.0000001
 44
0.0000000001
 12
0.0050813496
 22
0.0087229391
 32
0.0
 13
0.0037019575
 23
0.0093917672
 33
0.0
 40
0.0
 40
0.0
 40
0.0
 40
0.0
 40
0.267147137
 40
1.0
 40
1.0
 40
1.0
 40
1.0
 10
12.1197947301
 20
5.8022232587
 30
0.0
 10
12.1202472195
 20
5.8030000281
 30
0.0
 10
12.1218516035
 20
5.8059600117
 30
0.0
 10
12.1231872393
 20
5.8090568502
 30
0.0
 10
12.1240915694
 20
5.8113511113
 30
0.0
 11
12.1197947301
 21
5.8022232587
 31
0.0
 11
12.1210852528
 21
5.8045912974
 31
0.0
 11
12.1240915694
 21
5.8113511113
 31
0.0
  0
LINE
  5
44A
100
AcDbEntity
  8
0
100
AcDbLine
 62
9
  6
CONTINUOUS
 10
12.1240915694
 20
5.8113511113
 11
12.1257066499
 21
5.8156171533
  0
SPLINE
  5
44B
100
AcDbEntity
  8
0
100
AcDbSpline
 62
9
  6
CONTINUOUS
 70
0
 71
3
 72
8
 73
4
 74
2
 42
0.0000001
 43
0.0000001
 44
0.0000000001
 12
-0.005757265
 22
-0.0113108792
 32
0.0
 13
-0.0083531692
 23
-0.0095554515
 33
0.0
 40
0.0
 40
0.0
 40
0.0
 40
0.0
 40
1.0
 40
1.0
 40
1.0
 40
1.0
 10
12.1373413174
 20
5.7932542569
 30
0.0
 10
12.1354222291
 20
5.7894839638
 30
0.0
 10
12.132988824
 20
5.7859443139
 30
0.0
 10
12.1302044343
 20
5.7827591634
 30
0.0
 11
12.1373413174
 21
5.7932542569
 31
0.0
 11
12.1302044343
 21
5.7827591634
 31
0.0
  0
SPLINE
  5
44C
100
AcDbEntity
  8
0
100
AcDbSpline
 62
9
  6
CONTINUOUS
 70
0
 71
3
 72
18
 73
14
 74
12
 42
0.0000001
 43
0.0000001
 44
0.0000000001
 12
-0.0714122515
 22
-0.0589172098
 32
0.0
 13
-0.0027019615
 23
0.0925399734
 33
0.0
 40
0.0
 40
0.0
 40
0.0
 40
0.0
 40
0.1249664519
 40
0.1873662563
 40
0.2498759616
 40
0.3749084579
 40
0.4998821164
 40
0.6246895583
 40
0.6873901949
 40
0.7500764574
 40
0.8126286029
 40
0.8751769796
 40
1.0
 40
1.0
 40
1.0
 40
1.0
 10
11.7678995439
 20
5.4206839131
 30
0.0
 10
11.7649248321
 20
5.4182296882
 30
0.0
 10
11.7601548035
 20
5.4148803279
 30
0.0
 10
11.7531713008
 20
5.4115659638
 30
0.0
 10
11.7458043831
 20
5.4092155422
 30
0.0
 10
11.736081644
 20
5.4081724964
 30
0.0
 10
11.7245428189
 20
5.410256069
 30
0.0
 10
11.7158346491
 20
5.4147893717
 30
0.0
 10
11.710026458
 20
5.4199201797
 30
0.0
 10
11.7063237593
 20
5.4244169811
 30
0.0
 10
11.7034088088
 20
5.429458935
 30
0.0
 10
11.7007128759
 20
5.4367135818
 30
0.0
 10
11.6998835227
 20
5.442519789
 30
0.0
 10
11.6997711003
 20
5.446370162
 30
0.0
 11
11.7678995439
 21
5.4206839131
 31
0.0
 11
11.7583544618
 21
5.4141462848
 31
0.0
 11
11.7531267835
 21
5.4116877525
 31
0.0
 11
11.7476131112
 21
5.4099298901
 31
0.0
 11
11.7361001787
 21
5.4087286089
 31
0.0
 11
11.7247201429
 21
5.410816526
 31
0.0
 11
11.7144904149
 21
5.4161888097
 31
0.0
 11
11.7101362745
 21
5.420027693
 31
0.0
 11
11.7064522381
 21
5.4245118866
 31
0.0
 11
11.7035568667
 21
5.429527161
 31
0.0
 11
11.7015174469
 21
5.4349468362
 31
0.0
 11
11.6997711003
 21
5.446370162
 31
0.0
  0
SPLINE
  5
44D
100
AcDbEntity
  8
0
100
AcDbSpline
 62
9
  6
CONTINUOUS
 70
0
 71
3
 72
13
 73
9
 74
7
 42
0.0000001
 43
0.0000001
 44
0.0000000001
 12
0.0053445773
 22
0.0113572797
 32
0.0
 13
0.0125519843
 23
0.0
 33
0.0
 40
0.0
 40
0.0
 40
0.0
 40
0.0
 40
0.3379981785
 40
0.4868051116
 40
0.6211468144
 40
0.7398154118
 40
0.8415640644
 40
1.0
 40
1.0
 40
1.0
 40
1.0
 10
12.1446746869
 20
5.8043000847
 30
0.0
 10
12.1452768394
 20
5.8055796646
 30
0.0
 10
12.1462069463
 20
5.8073993524
 30
0.0
 10
12.1476721022
 20
5.8095509364
 30
0.0
 10
12.148759697
 20
5.810835912
 30
0.0
 10
12.149842108
 20
5.811861222
 30
0.0
 10
12.1511044877
 20
5.8128048485
 30
0.0
 10
12.1521727331
 20
5.8132542569
 30
0.0
 10
12.1528356283
 20
5.8132542569
 30
0.0
 11
12.1446746869
 21
5.8043000847
 31
0.0
 11
12.1466735945
 21
5.8080422205
 31
0.0
 11
12.1477334299
 21
5.8095802416
 31
0.0
 11
12.1488266878
 21
5.8108640808
 31
0.0
 11
12.1499116849
 21
5.8118846051
 31
0.0
 11
12.1509463818
 21
5.8126332761
 31
0.0
 11
12.1528356283
 21
5.8132542569
 31
0.0
  0
SPLINE
  5
44E
100
AcDbEntity
  8
0
100
AcDbSpline
 62
9
  6
CONTINUOUS
 70
0
 71
3
 72
12
 73
8
 74
6
 42
0.0000001
 43
0.0000001
 44
0.0000000001
 12
-0.009650686
 22
0.0001508268
 32
0.0
 13
-0.0030764699
 23
-0.0091484327
 33
0.0
 40
0.0
 40
0.0
 40
0.0
 40
0.0
 40
0.1254053762
 40
0.2175041598
 40
0.3315076082
 40
0.624638849
 40
1.0
 40
1.0
 40
1.0
 40
1.0
 10
12.13311297
 20
5.8332542569
 30
0.0
 10
12.132709554
 20
5.8332605617
 30
0.0
 10
12.1320577188
 20
5.832816099
 30
0.0
 10
12.1313742384
 20
5.8320227
 30
0.0
 10
12.1304725516
 20
5.8306790788
 30
0.0
 10
12.1293667642
 20
5.8284142156
 30
0.0
 10
12.1286090854
 20
5.826397467
 30
0.0
 10
12.1282241564
 20
5.8252528116
 30
0.0
 11
12.13311297
 21
5.8332542569
 31
0.0
 11
12.1320255184
 21
5.8327227432
 31
0.0
 11
12.1314299189
 21
5.8320628577
 31
0.0
 11
12.1308086271
 21
5.8311546961
 31
0.0
 11
12.1295189247
 21
5.8286364831
 31
0.0
 11
12.1282241564
 21
5.8252528116
 31
0.0
  0
SPLINE
  5
44F
100
AcDbEntity
  8
0
100
AcDbSpline
 62
9
  6
CONTINUOUS
 70
0
 71
3
 72
9
 73
5
 74
3
 42
0.0000001
 43
0.0000001
 44
0.0000000001
 12
-0.0031765251
 22
-0.0094459646
 32
0.0
 13
-0.0020128919
 23
-0.0097603702
 33
0.0
 40
0.0
 40
0.0
 40
0.0
 40
0.0
 40
0.2256228997
 40
1.0
 40
1.0
 40
1.0
 40
1.0
 10
12.1282241564
 20
5.8252528116
 30
0.0
 10
12.1279852574
 20
5.8245424029
 30
0.0
 10
12.1269952313
 20
5.8213706743
 30
0.0
 10
12.1262239043
 20
5.8181338695
 30
0.0
 10
12.1257043252
 20
5.8156144671
 30
0.0
 11
12.1282241564
 21
5.8252528116
 31
0.0
 11
12.1275496453
 21
5.823107861
 31
0.0
 11
12.1257043252
 21
5.8156144671
 31
0.0
  0
LINE
  5
450
100
AcDbEntity
  8
0
100
AcDbLine
 62
9
  6
CONTINUOUS
 10
12.1257043252
 20
5.8156144671
 11
12.0992217842
 21
5.7915958516
  0
LINE
  5
451
100
AcDbEntity
  8
0
100
AcDbLine
 62
9
  6
CONTINUOUS
 10
12.0992217842
 20
5.7915958516
 11
11.7470439741
 21
5.4721783244
  0
LINE
  5
452
100
AcDbEntity
  8
0
100
AcDbLine
 62
9
  6
CONTINUOUS
 10
11.7470439741
 20
5.4721783244
 11
11.7186071253
 21
5.4463880196
  0
SPLINE
  5
453
100
AcDbEntity
  8
0
100
AcDbSpline
 62
9
  6
CONTINUOUS
 70
0
 71
3
 72
15
 73
11
 74
9
 42
0.0000001
 43
0.0000001
 44
0.0000000001
 12
-0.0002058411
 22
0.0421089439
 32
0.0
 13
-0.0421092709
 23
-0.000121782
 33
0.0
 40
0.0
 40
0.0
 40
0.0
 40
0.0
 40
0.3547957589
 40
0.6661923881
 40
0.7923176814
 40
0.8918759589
 40
0.9302837887
 40
0.9607150176
 40
0.9834532912
 40
1.0
 40
1.0
 40
1.0
 40
1.0
 10
11.7186071253
 20
5.7932542569
 30
0.0
 10
11.7185827814
 20
5.7982342818
 30
0.0
 10
11.7180433235
 20
5.807592162
 30
0.0
 10
11.7160376594
 20
5.8185712183
 30
0.0
 10
11.7138531764
 20
5.8257913539
 30
0.0
 10
11.7124637533
 20
5.8292400356
 30
0.0
 10
11.7113172884
 20
5.8313107983
 30
0.0
 10
11.710559902
 20
5.8323557638
 30
0.0
 10
11.7098503954
 20
5.8330380849
 30
0.0
 10
11.7093080732
 20
5.8332549286
 30
0.0
 10
11.7090758166
 20
5.8332542569
 30
0.0
 11
11.7186071253
 21
5.7932542569
 31
0.0
 11
11.7176828716
 21
5.808165894
 31
0.0
 11
11.7152282552
 21
5.8210468413
 31
0.0
 11
11.7136609721
 21
5.8261213905
 31
0.0
 11
11.712030895
 21
5.8299838505
 31
0.0
 11
11.7112316458
 21
5.8313898964
 31
0.0
 11
11.7104630701
 21
5.8324152673
 31
0.0
 11
11.7097396386
 21
5.8330425198
 31
0.0
 11
11.7090758166
 21
5.8332542569
 31
0.0
  0
SPLINE
  5
454
100
AcDbEntity
  8
0
100
AcDbSpline
 62
9
  6
CONTINUOUS
 70
0
 71
3
 72
12
 73
8
 74
6
 42
0.0000001
 43
0.0000001
 44
0.0000000001
 12
-0.009650686
 22
0.0001508268
 32
0.0
 13
-0.0030764699
 23
-0.0091484327
 33
0.0
 40
0.0
 40
0.0
 40
0.0
 40
0.0
 40
0.1254053762
 40
0.2175041598
 40
0.3315076082
 40
0.624638849
 40
1.0
 40
1.0
 40
1.0
 40
1.0
 10
8.13311297
 20
5.8332542569
 30
0.0
 10
8.132709554
 20
5.8332605617
 30
0.0
 10
8.1320577188
 20
5.832816099
 30
0.0
 10
8.1313742384
 20
5.8320227
 30
0.0
 10
8.1304725516
 20
5.8306790788
 30
0.0
 10
8.1293667642
 20
5.8284142156
 30
0.0
 10
8.1286090854
 20
5.826397467
 30
0.0
 10
8.1282241564
 20
5.8252528116
 30
0.0
 11
8.13311297
 21
5.8332542569
 31
0.0
 11
8.1320255184
 21
5.8327227432
 31
0.0
 11
8.1314299189
 21
5.8320628577
 31
0.0
 11
8.1308086271
 21
5.8311546961
 31
0.0
 11
8.1295189247
 21
5.8286364831
 31
0.0
 11
8.1282241564
 21
5.8252528116
 31
0.0
  0
SPLINE
  5
455
100
AcDbEntity
  8
0
100
AcDbSpline
 62
9
  6
CONTINUOUS
 70
0
 71
3
 72
9
 73
5
 74
3
 42
0.0000001
 43
0.0000001
 44
0.0000000001
 12
-0.0031765251
 22
-0.0094459646
 32
0.0
 13
-0.0020128919
 23
-0.0097603702
 33
0.0
 40
0.0
 40
0.0
 40
0.0
 40
0.0
 40
0.2256228997
 40
1.0
 40
1.0
 40
1.0
 40
1.0
 10
8.1282241564
 20
5.8252528116
 30
0.0
 10
8.1279852574
 20
5.8245424029
 30
0.0
 10
8.1269952313
 20
5.8213706743
 30
0.0
 10
8.1262239043
 20
5.8181338695
 30
0.0
 10
8.1257043252
 20
5.8156144671
 30
0.0
 11
8.1282241564
 21
5.8252528116
 31
0.0
 11
8.1275496453
 21
5.823107861
 31
0.0
 11
8.1257043252
 21
5.8156144671
 31
0.0
  0
LINE
  5
456
100
AcDbEntity
  8
0
100
AcDbLine
 62
9
  6
CONTINUOUS
 10
8.1257043252
 20
5.8156144671
 11
8.0992217842
 21
5.7915958516
  0
LINE
  5
457
100
AcDbEntity
  8
0
100
AcDbLine
 62
9
  6
CONTINUOUS
 10
8.0992217842
 20
5.7915958516
 11
7.7470439741
 21
5.4721783244
  0
LINE
  5
458
100
AcDbEntity
  8
0
100
AcDbLine
 62
9
  6
CONTINUOUS
 10
7.7470439741
 20
5.4721783244
 11
7.7186071253
 21
5.4463880196
  0
SPLINE
  5
459
100
AcDbEntity
  8
0
100
AcDbSpline
 62
9
  6
CONTINUOUS
 70
0
 71
3
 72
15
 73
11
 74
9
 42
0.0000001
 43
0.0000001
 44
0.0000000001
 12
-0.0002058411
 22
0.0421089439
 32
0.0
 13
-0.0421092709
 23
-0.000121782
 33
0.0
 40
0.0
 40
0.0
 40
0.0
 40
0.0
 40
0.3547957589
 40
0.6661923881
 40
0.7923176814
 40
0.8918759589
 40
0.9302837887
 40
0.9607150176
 40
0.9834532912
 40
1.0
 40
1.0
 40
1.0
 40
1.0
 10
7.7186071253
 20
5.7932542569
 30
0.0
 10
7.7185827814
 20
5.7982342818
 30
0.0
 10
7.7180433235
 20
5.807592162
 30
0.0
 10
7.7160376594
 20
5.8185712183
 30
0.0
 10
7.7138531764
 20
5.8257913539
 30
0.0
 10
7.7124637533
 20
5.8292400356
 30
0.0
 10
7.7113172884
 20
5.8313107983
 30
0.0
 10
7.710559902
 20
5.8323557638
 30
0.0
 10
7.7098503954
 20
5.8330380849
 30
0.0
 10
7.7093080732
 20
5.8332549286
 30
0.0
 10
7.7090758166
 20
5.8332542569
 30
0.0
 11
7.7186071253
 21
5.7932542569
 31
0.0
 11
7.7176828716
 21
5.808165894
 31
0.0
 11
7.7152282552
 21
5.8210468413
 31
0.0
 11
7.7136609721
 21
5.8261213905
 31
0.0
 11
7.712030895
 21
5.8299838505
 31
0.0
 11
7.7112316458
 21
5.8313898964
 31
0.0
 11
7.7104630701
 21
5.8324152673
 31
0.0
 11
7.7097396386
 21
5.8330425198
 31
0.0
 11
7.7090758166
 21
5.8332542569
 31
0.0
  0
SPLINE
  5
45A
100
AcDbEntity
  8
0
100
AcDbSpline
 62
9
  6
CONTINUOUS
 70
0
 71
3
 72
13
 73
9
 74
7
 42
0.0000001
 43
0.0000001
 44
0.0000000001
 12
0.0053445773
 22
0.0113572797
 32
0.0
 13
0.0125519843
 23
0.0
 33
0.0
 40
0.0
 40
0.0
 40
0.0
 40
0.0
 40
0.3379981785
 40
0.4868051116
 40
0.6211468144
 40
0.7398154118
 40
0.8415640644
 40
1.0
 40
1.0
 40
1.0
 40
1.0
 10
8.1446746869
 20
5.8043000847
 30
0.0
 10
8.1452768394
 20
5.8055796646
 30
0.0
 10
8.1462069463
 20
5.8073993524
 30
0.0
 10
8.1476721022
 20
5.8095509364
 30
0.0
 10
8.148759697
 20
5.810835912
 30
0.0
 10
8.149842108
 20
5.811861222
 30
0.0
 10
8.1511044877
 20
5.8128048485
 30
0.0
 10
8.1521727332
 20
5.8132542569
 30
0.0
 10
8.1528356283
 20
5.8132542569
 30
0.0
 11
8.1446746869
 21
5.8043000847
 31
0.0
 11
8.1466735945
 21
5.8080422205
 31
0.0
 11
8.1477334299
 21
5.8095802416
 31
0.0
 11
8.1488266878
 21
5.8108640808
 31
0.0
 11
8.1499116849
 21
5.8118846051
 31
0.0
 11
8.1509463818
 21
5.8126332761
 31
0.0
 11
8.1528356283
 21
5.8132542569
 31
0.0
  0
SPLINE
  5
45B
100
AcDbEntity
  8
0
100
AcDbSpline
 62
9
  6
CONTINUOUS
 70
0
 71
3
 72
18
 73
14
 74
12
 42
0.0000001
 43
0.0000001
 44
0.0000000001
 12
-0.0714122515
 22
-0.0589172098
 32
0.0
 13
-0.0027019615
 23
0.0925399734
 33
0.0
 40
0.0
 40
0.0
 40
0.0
 40
0.0
 40
0.1249664519
 40
0.1873662563
 40
0.2498759616
 40
0.3749084579
 40
0.4998821164
 40
0.6246895583
 40
0.6873901949
 40
0.7500764574
 40
0.8126286029
 40
0.8751769796
 40
1.0
 40
1.0
 40
1.0
 40
1.0
 10
7.7678995439
 20
5.4206839131
 30
0.0
 10
7.7649248321
 20
5.4182296882
 30
0.0
 10
7.7601548035
 20
5.4148803279
 30
0.0
 10
7.7531713008
 20
5.4115659638
 30
0.0
 10
7.7458043831
 20
5.4092155422
 30
0.0
 10
7.736081644
 20
5.4081724964
 30
0.0
 10
7.7245428189
 20
5.410256069
 30
0.0
 10
7.7158346491
 20
5.4147893717
 30
0.0
 10
7.710026458
 20
5.4199201797
 30
0.0
 10
7.7063237593
 20
5.4244169811
 30
0.0
 10
7.7034088088
 20
5.429458935
 30
0.0
 10
7.7007128759
 20
5.4367135818
 30
0.0
 10
7.6998835227
 20
5.442519789
 30
0.0
 10
7.6997711003
 20
5.446370162
 30
0.0
 11
7.7678995439
 21
5.4206839131
 31
0.0
 11
7.7583544618
 21
5.4141462848
 31
0.0
 11
7.7531267835
 21
5.4116877525
 31
0.0
 11
7.7476131112
 21
5.4099298901
 31
0.0
 11
7.7361001787
 21
5.4087286089
 31
0.0
 11
7.7247201429
 21
5.410816526
 31
0.0
 11
7.7144904149
 21
5.4161888097
 31
0.0
 11
7.7101362745
 21
5.420027693
 31
0.0
 11
7.7064522381
 21
5.4245118866
 31
0.0
 11
7.7035568667
 21
5.429527161
 31
0.0
 11
7.7015174469
 21
5.4349468362
 31
0.0
 11
7.6997711003
 21
5.446370162
 31
0.0
  0
SPLINE
  5
45C
100
AcDbEntity
  8
0
100
AcDbSpline
 62
9
  6
CONTINUOUS
 70
0
 71
3
 72
9
 73
5
 74
3
 42
0.0000001
 43
0.0000001
 44
0.0000000001
 12
0.0050813496
 22
0.0087229391
 32
0.0
 13
0.0037019575
 23
0.0093917672
 33
0.0
 40
0.0
 40
0.0
 40
0.0
 40
0.0
 40
0.267147137
 40
1.0
 40
1.0
 40
1.0
 40
1.0
 10
8.1197947301
 20
5.8022232587
 30
0.0
 10
8.1202472195
 20
5.8030000281
 30
0.0
 10
8.1218516035
 20
5.8059600117
 30
0.0
 10
8.1231872393
 20
5.8090568502
 30
0.0
 10
8.1240915694
 20
5.8113511113
 30
0.0
 11
8.1197947301
 21
5.8022232587
 31
0.0
 11
8.1210852528
 21
5.8045912974
 31
0.0
 11
8.1240915694
 21
5.8113511113
 31
0.0
  0
LINE
  5
45D
100
AcDbEntity
  8
0
100
AcDbLine
 62
9
  6
CONTINUOUS
 10
8.1240915694
 20
5.8113511113
 11
8.1257066499
 21
5.8156171533
  0
SPLINE
  5
45E
100
AcDbEntity
  8
0
100
AcDbSpline
 62
9
  6
CONTINUOUS
 70
0
 71
3
 72
15
 73
11
 74
9
 42
0.0000001
 43
0.0000001
 44
0.0000000001
 12
-0.0044193776
 22
-0.0526278772
 32
0.0
 13
0.0373445067
 23
0.0373445067
 33
0.0
 40
0.0
 40
0.0
 40
0.0
 40
0.0
 40
0.1260899936
 40
0.1901847012
 40
0.2546320964
 40
0.3825869094
 40
0.5095848786
 40
0.6347578751
 40
0.7582138923
 40
1.0
 40
1.0
 40
1.0
 40
1.0
 10
7.7186068666
 20
5.4463871186
 30
0.0
 10
7.7184211202
 20
5.444175169
 30
0.0
 10
7.7186859837
 20
5.4407511815
 30
0.0
 10
7.7202521508
 20
5.4365224544
 30
0.0
 10
7.7227018576
 20
5.4326957392
 30
0.0
 10
7.7271733798
 20
5.4289800634
 30
0.0
 10
7.733802557
 20
5.4272163101
 30
0.0
 10
7.7404976244
 20
5.4276777182
 30
0.0
 10
7.748689697
 20
5.4306326017
 30
0.0
 10
7.7539462146
 20
5.4346060782
 30
0.0
 10
7.7569560089
 20
5.4376158725
 30
0.0
 11
7.7186068666
 21
5.4463871186
 31
0.0
 11
7.7191700757
 21
5.4397517739
 31
0.0
 11
7.7203586411
 21
5.4365822609
 31
0.0
 11
7.7221913668
 21
5.4337141488
 31
0.0
 11
7.7274076632
 21
5.4294180292
 31
0.0
 11
7.7338589616
 21
5.4275831694
 31
0.0
 11
7.7404576874
 21
5.4279821218
 31
0.0
 11
7.7466165689
 21
5.4301221758
 31
0.0
 11
7.7569560089
 21
5.4376158725
 31
0.0
  0
SPLINE
  5
45F
100
AcDbEntity
  8
0
100
AcDbSpline
 62
9
  6
CONTINUOUS
 70
0
 71
3
 72
9
 73
5
 74
3
 42
0.0000001
 43
0.0000001
 44
0.0000000001
 12
0.0025085826
 22
-0.005799576
 32
0.0
 13
0.0048571732
 23
-0.004041774
 33
0.0
 40
0.0
 40
0.0
 40
0.0
 40
0.0
 40
0.2251143798
 40
1.0
 40
1.0
 40
1.0
 40
1.0
 10
8.1257124062
 20
5.8156315132
 30
0.0
 10
8.1259006455
 20
5.8151963238
 30
0.0
 10
8.1268926114
 20
5.8133305042
 30
0.0
 10
8.1283777409
 20
5.8117620142
 30
0.0
 10
8.1296323254
 20
5.8107180434
 30
0.0
 11
8.1257124062
 21
5.8156315132
 31
0.0
 11
8.1263722489
 21
5.8143713458
 31
0.0
 11
8.1296323254
 21
5.8107180434
 31
0.0
  0
SPLINE
  5
460
100
AcDbEntity
  8
0
100
AcDbSpline
 62
9
  6
CONTINUOUS
 70
0
 71
3
 72
9
 73
5
 74
3
 42
0.0000001
 43
0.0000001
 44
0.0000000001
 12
0.0060446696
 22
-0.0050299192
 32
0.0
 13
0.0072434838
 23
-0.0030610556
 33
0.0
 40
0.0
 40
0.0
 40
0.0
 40
0.0
 40
0.2341326752
 40
1.0
 40
1.0
 40
1.0
 40
1.0
 10
8.1296323254
 20
5.8107180434
 30
0.0
 10
8.130104077
 20
5.8103254872
 30
0.0
 10
8.1321987044
 20
5.808744958
 30
0.0
 10
8.1345434905
 20
5.8075147225
 30
0.0
 10
8.136392673
 20
5.8067332684
 30
0.0
 11
8.1296323254
 21
5.8107180434
 31
0.0
 11
8.1310986317
 21
5.8096045826
 31
0.0
 11
8.136392673
 21
5.8067332684
 31
0.0
  0
SPLINE
  5
461
100
AcDbEntity
  8
0
100
AcDbSpline
 62
9
  6
CONTINUOUS
 70
0
 71
3
 72
9
 73
5
 74
3
 42
0.0000001
 43
0.0000001
 44
0.0000000001
 12
0.00795755
 22
-0.003362816
 32
0.0
 13
0.0085065379
 23
-0.0015066341
 33
0.0
 40
0.0
 40
0.0
 40
0.0
 40
0.0
 40
0.2471006975
 40
1.0
 40
1.0
 40
1.0
 40
1.0
 10
8.136392673
 20
5.8067332684
 30
0.0
 10
8.1370481117
 20
5.8064562836
 30
0.0
 10
8.139734772
 20
5.8054177949
 30
0.0
 10
8.1425366313
 20
5.8046784649
 30
0.0
 10
8.1446714867
 20
5.8043003503
 30
0.0
 11
8.136392673
 21
5.8067332684
 31
0.0
 11
8.1383828969
 21
5.8059613273
 31
0.0
 11
8.1446714867
 21
5.8043003503
 31
0.0
  0
SPLINE
  5
462
100
AcDbEntity
  8
0
100
AcDbSpline
 62
9
  6
CONTINUOUS
 70
0
 71
3
 72
9
 73
5
 74
3
 42
0.0000001
 43
0.0000001
 44
0.0000000001
 12
-0.0033150724
 22
-0.0079232071
 32
0.0
 13
-0.0051290627
 23
-0.0068890952
 33
0.0
 40
0.0
 40
0.0
 40
0.0
 40
0.0
 40
0.4822253203
 40
1.0
 40
1.0
 40
1.0
 40
1.0
 10
8.1446746869
 20
5.8043000847
 30
0.0
 10
8.1441418163
 20
5.8030264943
 30
0.0
 10
8.142881443
 20
5.8004499917
 30
0.0
 10
8.1413524887
 20
5.7980181917
 30
0.0
 10
8.1404672558
 20
5.796829192
 30
0.0
 11
8.1446746869
 21
5.8043000847
 31
0.0
 11
8.1428637923
 21
5.800575234
 31
0.0
 11
8.1404672558
 21
5.796829192
 31
0.0
  0
LINE
  5
463
100
AcDbEntity
  8
0
100
AcDbLine
 62
9
  6
CONTINUOUS
 10
8.1404672558
 20
5.796829192
 11
8.1373413174
 21
5.7932542569
  0
SPLINE
  5
464
100
AcDbEntity
  8
0
100
AcDbSpline
 62
9
  6
CONTINUOUS
 70
0
 71
3
 72
8
 73
4
 74
2
 42
0.0000001
 43
0.0000001
 44
0.0000000001
 12
-0.005757265
 22
-0.0113108792
 32
0.0
 13
-0.0083531692
 23
-0.0095554515
 33
0.0
 40
0.0
 40
0.0
 40
0.0
 40
0.0
 40
1.0
 40
1.0
 40
1.0
 40
1.0
 10
8.1373413174
 20
5.7932542569
 30
0.0
 10
8.1354222291
 20
5.7894839638
 30
0.0
 10
8.132988824
 20
5.7859443139
 30
0.0
 10
8.1302044343
 20
5.7827591634
 30
0.0
 11
8.1373413174
 21
5.7932542569
 31
0.0
 11
8.1302044343
 21
5.7827591634
 31
0.0
  0
SPLINE
  5
465
100
AcDbEntity
  8
0
100
AcDbSpline
 62
9
  6
CONTINUOUS
 70
0
 71
3
 72
14
 73
10
 74
8
 42
0.0000001
 43
0.0000001
 44
0.0000000001
 12
-0.0039109884
 22
0.019218437
 32
0.0
 13
-0.0196103848
 23
-0.0002774115
 33
0.0
 40
0.0
 40
0.0
 40
0.0
 40
0.0
 40
0.3768446817
 40
0.5393929847
 40
0.6800568961
 40
0.7969725777
 40
0.888757914
 40
0.9551552793
 40
1.0
 40
1.0
 40
1.0
 40
1.0
 10
1.7164721123
 20
5.8156278671
 30
0.0
 10
1.7159808339
 20
5.818041989
 30
0.0
 10
1.7151687146
 20
5.8214789208
 30
0.0
 10
1.713836978
 20
5.825722465
 30
0.0
 10
1.7128540709
 20
5.8282896741
 30
0.0
 10
1.7118812017
 20
5.8303581263
 30
0.0
 10
1.7109333482
 20
5.8318964979
 30
0.0
 10
1.71007094
 20
5.8329047965
 30
0.0
 10
1.7093689573
 20
5.8332584037
 30
0.0
 10
1.7090758166
 20
5.8332542569
 30
0.0
 11
1.7164721123
 21
5.8156278671
 31
0.0
 11
1.7147268908
 21
5.8228096673
 31
0.0
 11
1.7137608984
 21
5.8258477436
 31
0.0
 11
1.7127643171
 21
5.8284201985
 31
0.0
 11
1.7117679395
 21
5.8304853956
 31
0.0
 11
1.7108031481
 21
5.8320051424
 31
0.0
 11
1.709897645
 21
5.8329409898
 31
0.0
 11
1.7090758166
 21
5.8332542569
 31
0.0
  0
SPLINE
  5
466
100
AcDbEntity
  8
0
100
AcDbSpline
 62
9
  6
CONTINUOUS
 70
0
 71
3
 72
12
 73
8
 74
6
 42
0.0000001
 43
0.0000001
 44
0.0000000001
 12
-0.0130816172
 22
0.0000446126
 32
0.0
 13
-0.0035284636
 23
-0.0125968505
 33
0.0
 40
0.0
 40
0.0
 40
0.0
 40
0.0
 40
0.1172506848
 40
0.2086485152
 40
0.3236381133
 40
0.6216166145
 40
1.0
 40
1.0
 40
1.0
 40
1.0
 10
2.13311297
 20
5.8332542569
 30
0.0
 10
2.1326016938
 20
5.8332560005
 30
0.0
 10
2.1318004623
 20
5.832576666
 30
0.0
 10
2.1309811511
 20
5.8314741076
 30
0.0
 10
2.1298724264
 20
5.8295502948
 30
0.0
 10
2.1285481776
 20
5.8263649863
 30
0.0
 10
2.1276549247
 20
5.8235480977
 30
0.0
 10
2.1272098873
 20
5.8219592847
 30
0.0
 11
2.13311297
 21
5.8332542569
 31
0.0
 11
2.1317874034
 21
5.8324825506
 31
0.0
 11
2.131054366
 21
5.8315379832
 31
0.0
 11
2.1302914876
 21
5.8302415225
 31
0.0
 11
2.1287290326
 21
5.8266702997
 31
0.0
 11
2.1272098873
 21
5.8219592847
 31
0.0
  0
SPLINE
  5
467
100
AcDbEntity
  8
0
100
AcDbSpline
 62
9
  6
CONTINUOUS
 70
0
 71
3
 72
9
 73
5
 74
3
 42
0.0000001
 43
0.0000001
 44
0.0000000001
 12
-0.0036242005
 22
-0.0129386376
 32
0.0
 13
-0.0017285391
 23
-0.0133249888
 33
0.0
 40
0.0
 40
0.0
 40
0.0
 40
0.0
 40
0.2273707291
 40
1.0
 40
1.0
 40
1.0
 40
1.0
 10
2.1272098873
 20
5.8219592847
 30
0.0
 10
2.1269352083
 20
5.8209786622
 30
0.0
 10
2.1258175891
 20
5.8166407352
 30
0.0
 10
2.1250297926
 20
5.812219833
 30
0.0
 10
2.1245846193
 20
5.8087880742
 30
0.0
 11
2.1272098873
 21
5.8219592847
 31
0.0
 11
2.1264440315
 21
5.8190017374
 31
0.0
 11
2.1245846193
 21
5.8087880742
 31
0.0
  0
SPLINE
  5
468
100
AcDbEntity
  8
0
100
AcDbSpline
 62
9
  6
CONTINUOUS
 70
0
 71
3
 72
9
 73
5
 74
3
 42
0.0000001
 43
0.0000001
 44
0.0000000001
 12
-0.0020032112
 22
-0.0154423856
 32
0.0
 13
-0.0000763083
 23
-0.0155715865
 33
0.0
 40
0.0
 40
0.0
 40
0.0
 40
0.0
 40
0.2432095967
 40
1.0
 40
1.0
 40
1.0
 40
1.0
 10
2.1245846193
 20
5.8087880742
 30
0.0
 10
2.1244222192
 20
5.8075361621
 30
0.0
 10
2.1238471419
 20
5.802376945
 30
0.0
 10
2.1236009111
 20
5.7971823993
 30
0.0
 10
2.1235816613
 20
5.7932542569
 30
0.0
 11
2.1245846193
 21
5.8087880742
 31
0.0
 11
2.1241619421
 21
5.8050245302
 31
0.0
 11
2.1235816613
 21
5.7932542569
 31
0.0
  0
LINE
  5
469
100
AcDbEntity
  8
0
100
AcDbLine
 62
9
  6
CONTINUOUS
 10
2.1235816613
 20
5.4463878966
 11
2.0951511343
 21
5.4721727041
  0
LINE
  5
46A
100
AcDbEntity
  8
0
100
AcDbLine
 62
9
  6
CONTINUOUS
 10
2.0951511343
 20
5.4721727041
 11
1.7429521685
 21
5.7916093782
  0
LINE
  5
46B
100
AcDbEntity
  8
0
100
AcDbLine
 62
9
  6
CONTINUOUS
 10
1.7429521685
 20
5.7916093782
 11
1.7164721123
 21
5.8156278671
  0
SPLINE
  5
46C
100
AcDbEntity
  8
0
100
AcDbSpline
 62
9
  6
CONTINUOUS
 70
0
 71
3
 72
9
 73
5
 74
3
 42
0.0000001
 43
0.0000001
 44
0.0000000001
 12
0.0202045843
 22
0.0
 32
0.0
 13
0.0102226465
 23
0.0174276426
 33
0.0
 40
0.0
 40
0.0
 40
0.0
 40
0.0
 40
0.4984122213
 40
1.0
 40
1.0
 40
1.0
 40
1.0
 10
1.6893531583
 20
5.8132542569
 30
0.0
 10
1.6927098955
 20
5.8132542569
 30
0.0
 10
1.6995600463
 20
5.8150692354
 30
0.0
 10
1.7045709302
 20
5.820075764
 30
0.0
 10
1.7062801151
 20
5.8229895949
 30
0.0
 11
1.6893531583
 21
5.8132542569
 31
0.0
 11
1.6990813923
 21
5.8158562999
 31
0.0
 11
1.7062801151
 21
5.8229895949
 31
0.0
  0
SPLINE
  5
46D
100
AcDbEntity
  8
0
100
AcDbSpline
 62
9
  6
CONTINUOUS
 70
0
 71
3
 72
9
 73
5
 74
3
 42
0.0000001
 43
0.0000001
 44
0.0000000001
 12
0.0054177419
 22
0.0092362061
 32
0.0
 13
0.0
 23
0.0107079144
 33
0.0
 40
0.0
 40
0.0
 40
0.0
 40
0.0
 40
0.2514533079
 40
1.0
 40
1.0
 40
1.0
 40
1.0
 10
1.7062801151
 20
5.8229895949
 30
0.0
 10
1.7067342181
 20
5.8237637531
 30
0.0
 10
1.7083278737
 20
5.8269620844
 30
0.0
 10
1.7090758166
 20
5.8305824656
 30
0.0
 10
1.7090758166
 20
5.8332542569
 30
0.0
 11
1.7062801151
 21
5.8229895949
 31
0.0
 11
1.7074822047
 21
5.8253989007
 31
0.0
 11
1.7090758166
 21
5.8332542569
 31
0.0
  0
SPLINE
  5
46E
100
AcDbEntity
  8
0
100
AcDbSpline
 62
9
  6
CONTINUOUS
 70
0
 71
3
 72
9
 73
5
 74
3
 42
0.0000001
 43
0.0000001
 44
0.0000000001
 12
-0.0025580475
 22
-0.005754585
 32
0.0
 13
-0.0048076869
 23
-0.0040675548
 33
0.0
 40
0.0
 40
0.0
 40
0.0
 40
0.0
 40
0.4636021692
 40
1.0
 40
1.0
 40
1.0
 40
1.0
 10
1.7164822895
 20
5.8156254924
 30
0.0
 10
1.7160869841
 20
5.814736213
 30
0.0
 10
1.7149273066
 20
5.8129542008
 30
0.0
 10
1.713430187
 20
5.8114659391
 30
0.0
 10
1.7125705761
 20
5.8107386632
 30
0.0
 11
1.7164822895
 21
5.8156254924
 31
0.0
 11
1.7149392007
 21
5.8131470585
 31
0.0
 11
1.7125705761
 21
5.8107386632
 31
0.0
  0
SPLINE
  5
46F
100
AcDbEntity
  8
0
100
AcDbSpline
 62
9
  6
CONTINUOUS
 70
0
 71
3
 72
9
 73
5
 74
3
 42
0.0000001
 43
0.0000001
 44
0.0000000001
 12
-0.0126147728
 22
-0.0106727583
 32
0.0
 13
-0.0163115505
 23
-0.0026407543
 33
0.0
 40
0.0
 40
0.0
 40
0.0
 40
0.0
 40
0.4763334309
 40
1.0
 40
1.0
 40
1.0
 40
1.0
 10
1.7125705761
 20
5.8107386632
 30
0.0
 10
1.7105676301
 20
5.809044066
 30
0.0
 10
1.7057132511
 20
5.8062494854
 30
0.0
 10
1.7003607637
 20
5.8047459897
 30
0.0
 10
1.6975134925
 20
5.8042850314
 30
0.0
 11
1.7125705761
 21
5.8107386632
 31
0.0
 11
1.7058300065
 21
5.8066747005
 31
0.0
 11
1.6975134925
 21
5.8042850314
 31
0.0
  0
SPLINE
  5
470
100
AcDbEntity
  8
0
100
AcDbSpline
 62
9
  6
CONTINUOUS
 70
0
 71
3
 72
9
 73
5
 74
3
 42
0.0000001
 43
0.0000001
 44
0.0000000001
 12
0.0033515633
 22
-0.0080815212
 32
0.0
 13
0.0051962664
 23
-0.007038663
 33
0.0
 40
0.0
 40
0.0
 40
0.0
 40
0.0
 40
0.4813737453
 40
1.0
 40
1.0
 40
1.0
 40
1.0
 10
1.6974048614
 20
5.8045102026
 30
0.0
 10
1.6979426463
 20
5.8032134585
 30
0.0
 10
1.6992359013
 20
5.8005935058
 30
0.0
 10
1.7007770751
 20
5.798107109
 30
0.0
 10
1.7016753819
 20
5.7968902972
 30
0.0
 11
1.6974048614
 21
5.8045102026
 31
0.0
 11
1.6992451722
 21
5.8007220533
 31
0.0
 11
1.7016753819
 21
5.7968902972
 31
0.0
  0
LINE
  5
471
100
AcDbEntity
  8
0
100
AcDbLine
 62
9
  6
CONTINUOUS
 10
1.7016753819
 20
5.7968902972
 11
1.7048474473
 21
5.7932542569
  0
SPLINE
  5
472
100
AcDbEntity
  8
0
100
AcDbSpline
 62
9
  6
CONTINUOUS
 70
0
 71
3
 72
18
 73
14
 74
12
 42
0.0000001
 43
0.0000001
 44
0.0000000001
 12
-0.0026672418
 22
-0.092567008
 32
0.0
 13
-0.0714318765
 23
0.0589343038
 33
0.0
 40
0.0
 40
0.0
 40
0.0
 40
0.0
 40
0.124824766
 40
0.187372049
 40
0.2499228389
 40
0.3126091313
 40
0.37531083
 40
0.5001189179
 40
0.6250914251
 40
0.7501238248
 40
0.812634116
 40
0.8750341443
 40
1.0
 40
1.0
 40
1.0
 40
1.0
 10
2.1424176862
 20
5.4463961953
 30
0.0
 10
2.1423067069
 20
5.4425446436
 30
0.0
 10
2.1414807793
 20
5.4367364463
 30
0.0
 10
2.1387891587
 20
5.4294778692
 30
0.0
 10
2.1358765316
 20
5.4244327322
 30
0.0
 10
2.132175085
 20
5.4199327559
 30
0.0
 10
2.1263675849
 20
5.4147977802
 30
0.0
 10
2.1176586884
 20
5.4102596287
 30
0.0
 10
2.106117076
 20
5.4081721879
 30
0.0
 10
2.0963913814
 20
5.4092140097
 30
0.0
 10
2.0890220746
 20
5.4115641719
 30
0.0
 10
2.0820362675
 20
5.4148787842
 30
0.0
 10
2.0772647375
 20
5.4182289083
 30
0.0
 10
2.0742892223
 20
5.4206838336
 30
0.0
 11
2.1424176862
 21
5.4463961953
 31
0.0
 11
2.1406772331
 21
5.4349685217
 31
0.0
 11
2.1386409423
 21
5.42954604
 31
0.0
 11
2.1357479039
 21
5.4245276858
 31
0.0
 11
2.1320651732
 21
5.4200403063
 31
0.0
 11
2.1277115165
 21
5.41619826
 31
0.0
 11
2.1174809875
 21
5.410820391
 31
0.0
 11
2.1060984472
 21
5.4087287004
 31
0.0
 11
2.0945820826
 21
5.409928346
 31
0.0
 11
2.0890665895
 21
5.4116860293
 31
0.0
 11
2.0838371858
 21
5.4141447564
 31
0.0
 11
2.0742892223
 21
5.4206838336
 31
0.0
  0
SPLINE
  5
473
100
AcDbEntity
  8
0
100
AcDbSpline
 62
9
  6
CONTINUOUS
 70
0
 71
3
 72
9
 73
5
 74
3
 42
0.0000001
 43
0.0000001
 44
0.0000000001
 12
0.005098209
 22
-0.0137311297
 32
0.0
 13
0.007372598
 23
-0.0126562418
 33
0.0
 40
0.0
 40
0.0
 40
0.0
 40
0.0
 40
0.2174641842
 40
1.0
 40
1.0
 40
1.0
 40
1.0
 10
1.7164823682
 20
5.8156169319
 30
0.0
 10
1.7168519275
 20
5.8146215889
 30
0.0
 10
1.718545586
 20
5.81004589
 30
0.0
 10
1.7204709763
 20
5.8055245392
 30
0.0
 10
1.7223940837
 20
5.8022232183
 30
0.0
 11
1.7164823682
 21
5.8156169319
 31
0.0
 11
1.7175995064
 21
5.8126340578
 31
0.0
 11
1.7223940837
 21
5.8022232183
 31
0.0
  0
SPLINE
  5
474
100
AcDbEntity
  8
0
100
AcDbSpline
 62
9
  6
CONTINUOUS
 70
0
 71
3
 72
15
 73
11
 74
9
 42
0.0000001
 43
0.0000001
 44
0.0000000001
 12
0.037344756
 22
-0.037344756
 32
0.0
 13
-0.0044187957
 23
0.0526282799
 33
0.0
 40
0.0
 40
0.0
 40
0.0
 40
0.0
 40
0.2417866586
 40
0.3652422631
 40
0.490415009
 40
0.6174122108
 40
0.7453673114
 40
0.8098145233
 40
0.8739091635
 40
1.0
 40
1.0
 40
1.0
 40
1.0
 10
2.0852326468
 20
5.4376160033
 30
0.0
 10
2.0882424681
 20
5.434606182
 30
0.0
 10
2.093499022
 20
5.4306326896
 30
0.0
 10
2.1016911036
 20
5.4276776892
 30
0.0
 10
2.1083861783
 20
5.4272161437
 30
0.0
 10
2.115015426
 20
5.4289797939
 30
0.0
 10
2.1194869867
 20
5.432695481
 30
0.0
 10
2.1219367085
 20
5.4365222249
 30
0.0
 10
2.1235028506
 20
5.4407510055
 30
0.0
 10
2.1237677279
 20
5.4441750198
 30
0.0
 10
2.1235820046
 20
5.4463870011
 30
0.0
 11
2.0852326468
 21
5.4376160033
 31
0.0
 11
2.0955721652
 21
5.4301222197
 31
0.0
 11
2.1017310416
 21
5.427982085
 31
0.0
 11
2.1083297909
 21
5.4275830098
 31
0.0
 11
2.1147811218
 21
5.4294177709
 31
0.0
 11
2.1199974842
 21
5.4337139053
 31
0.0
 11
2.1218302121
 21
5.4365820315
 31
0.0
 11
2.1230187645
 21
5.4397515697
 31
0.0
 11
2.1235820046
 21
5.4463870011
 31
0.0
  0
SPLINE
  5
475
100
AcDbEntity
  8
0
100
AcDbSpline
 62
9
  6
CONTINUOUS
 70
0
 71
3
 72
8
 73
4
 74
2
 42
0.0000001
 43
0.0000001
 44
0.0000000001
 12
0.0039342187
 22
-0.0067442012
 32
0.0
 13
0.0052137598
 23
-0.0058119735
 33
0.0
 40
0.0
 40
0.0
 40
0.0
 40
0.0
 40
1.0
 40
1.0
 40
1.0
 40
1.0
 10
1.7223940837
 20
5.8022232183
 30
0.0
 10
1.7237054899
 20
5.7999751513
 30
0.0
 10
1.7252743602
 20
5.7978649421
 30
0.0
 10
1.7270122801
 20
5.7959276176
 30
0.0
 11
1.7223940837
 21
5.8022232183
 31
0.0
 11
1.7270122801
 21
5.7959276176
 31
0.0
  0
LINE
  5
476
100
AcDbEntity
  8
0
100
AcDbLine
 62
9
  6
CONTINUOUS
 10
2.1235816613
 20
5.4463878008
 11
2.1424176862
 21
5.4464123326
  0
SPLINE
  5
477
100
AcDbEntity
  8
0
100
AcDbSpline
 62
9
  6
CONTINUOUS
 70
0
 71
3
 72
15
 73
11
 74
9
 42
0.0000001
 43
0.0000001
 44
0.0000000001
 12
0.000766111
 22
0.0239022373
 32
0.0
 13
0.0239145118
 23
0.0
 33
0.0
 40
0.0
 40
0.0
 40
0.0
 40
0.0
 40
0.1719643969
 40
0.3386069245
 40
0.4929300247
 40
0.6317462161
 40
0.7527378918
 40
0.8527719982
 40
0.9328376452
 40
1.0
 40
1.0
 40
1.0
 40
1.0
 10
2.1424176862
 20
5.7932542569
 30
0.0
 10
2.1424616008
 20
5.7946243681
 30
0.0
 10
2.1427007515
 20
5.7973192977
 30
0.0
 10
2.1434871972
 20
5.8011796129
 30
0.0
 10
2.1447239744
 20
5.8046445924
 30
0.0
 10
2.1462829404
 20
5.8075667505
 30
0.0
 10
2.1479452345
 20
5.8099119181
 30
0.0
 10
2.1495434445
 20
5.8117103542
 30
0.0
 10
2.1511229556
 20
5.8129267199
 30
0.0
 10
2.1523002433
 20
5.8132542569
 30
0.0
 10
2.1528356283
 20
5.8132542569
 30
0.0
 11
2.1424176862
 21
5.7932542569
 31
0.0
 11
2.1427821649
 21
5.7973505181
 31
0.0
 11
2.1436015451
 21
5.801250548
 31
0.0
 11
2.1448529832
 21
5.8047224564
 31
0.0
 11
2.146413461
 21
5.8076525518
 31
0.0
 11
2.1480876519
 21
5.8100124623
 31
0.0
 11
2.1497094429
 21
5.8117710795
 31
0.0
 11
2.1512754118
 21
5.812872867
 31
0.0
 11
2.1528356283
 21
5.8132542569
 31
0.0
  0
ENDSEC
  0
SECTION
  2
OBJECTS
  0
DICTIONARY
  5
C
100
AcDbDictionary
280
0
281
1
  3
ACAD_GROUP
350
D
  3
ACAD_MLINESTYLE
350
17
  3
ACAD_LAYOUT
350
1A
  3
ACAD_PLOTSETTINGS
350
19
  3
ACAD_PLOTSTYLENAME
350
E
  0
DICTIONARY
  5
D
102
{ACAD_REACTORS
330
C
102
}
100
AcDbDictionary
280
0
281
1
  0
ACDBDICTIONARYWDFLT
  5
E
102
{ACAD_REACTORS
330
C
102
}
100
AcDbDictionary
281
1
  3
Normal
350
F
100
AcDbDictionaryWithDefault
340
F
  0
DICTIONARY
  5
17
102
{ACAD_REACTORS
330
C
102
}
100
AcDbDictionary
280
0
281
1
  3
Standard
350
18
  0
DICTIONARY
  5
19
102
{ACAD_REACTORS
330
C
102
}
100
AcDbDictionary
281
1
  0
DICTIONARY
  5
1A
102
{ACAD_REACTORS
330
C
102
}
100
AcDbDictionary
281
1
  3
Model
350
478
  3
Layout1
350
479
  0
ACDBPLACEHOLDER
  5
F
102
{ACAD_REACTORS
330
E
102
}
  0
MLINESTYLE
  5
18
102
{ACAD_REACTORS
330
17
102
}
100
AcDbMlineStyle
  2
STANDARD
 70
0
  3

 62
256
 51
90.0
 52
90.0
 71
2
 49
0.5
 62
256
  6
BYLAYER
 49
-0.5
 62
256
  6
BYLAYER
  0
LAYOUT
  5
478
102
{ACAD_REACTORS
330
1A
102
}
100
AcDbPlotSettings
  1

  2
none_device
  4
ISO_A3_(420.00_x_297.00_MM)
  6

 40
0.0
 41
0.0
 42
0.0
 43
0.0
 44
420.0
 45
297.0
 46
0.0
 47
0.0
 48
0.0
 49
0.0
140
0.0
141
0.0
142
1.0
143
1.0
 70
1024
 72
0
 73
0
 74
0
  7

 75
0
147
1.0
148
0.0
149
0.0
100
AcDbLayout
  1
Model
 70
0
 71
0
 10
0.0
 20
0.0
 11
16.5354330709
 21
11.6929133858
 12
0.0
 22
0.0
 32
0.0
 14
0.0
 24
0.0
 34
0.0
 15
0.0
 25
0.0
 35
0.0
146
0.0
 13
0.0
 23
0.0
 33
0.0
 16
1.0
 26
0.0
 36
0.0
 17
0.0
 27
1.0
 37
0.0
 76
0
330
2F7
345
0
346
0
  0
LAYOUT
  5
479
102
{ACAD_REACTORS
330
1A
102
}
100
AcDbPlotSettings
  1

  2
none_device
  4
ISO_A3_(420.00_x_297.00_MM)
  6

 40
0.0
 41
0.0
 42
0.0
 43
0.0
 44
420.0
 45
297.0
 46
0.0
 47
0.0
 48
0.0
 49
0.0
140
0.0
141
0.0
142
1.0
143
1.0
 70
0
 72
0
 73
0
 74
0
  7

 75
0
147
1.0
148
0.0
149
0.0
100
AcDbLayout
  1
Layout1
 70
0
 71
1
 10
0.0
 20
0.0
 11
16.5354330709
 21
11.6929133858
 12
0.0
 22
0.0
 32
0.0
 14
0.0
 24
0.0
 34
0.0
 15
0.0
 25
0.0
 35
0.0
146
0.0
 13
0.0
 23
0.0
 33
0.0
 16
1.0
 26
0.0
 36
0.0
 17
0.0
 27
1.0
 37
0.0
 76
0
330
2F8
345
0
346
0
  0
ENDSEC
  0
EOF
