999
DXF file: E:\BT Custom\CADOUTPUT\_FRONT.dxf
999
Pro/ENGINEER 2018400 by Parametric Technology Corporation
  0
SECTION
  2
HEADER
  9
$ACADVER
  1
AC1018
  9
$DWGCODEPAGE
  3
ANSI_1252
  9
$EXTMAX
 10
22.0
 20
17.0
 30
0.0
  9
$EXTMIN
 10
0.0
 20
0.0
 30
0.0
  9
$LIMMIN
 10
0.0
 20
0.0
  9
$LIMMAX
 10
22.0
 20
17.0
  9
$VIEWCTR
 10
11.0
 20
8.5
  9
$VIEWSIZE
 40
17.0
  9
$CLAYER
  8
0
  9
$LTSCALE
 40
1.21
  9
$CELTYPE
  6
BYLAYER
  9
$DIMSCALE
 40
1.0
  9
$DIMASZ
 40
0.1
  9
$DIMEXO
 40
0.0625
  9
$DIMDLI
 40
0.836
  9
$DIMEXE
 40
0.125
  9
$DIMCEN
 40
0.198
  9
$DIMLFAC
 40
1.0
  9
$DIMBLK
  1
_FILLED
  9
$DIMALT
 70
1
  9
$DIMALTD
 70
2
  9
$DIMALTTD
 70
2
  9
$DIMALTF
 40
25.4
  9
$DIMTXT
 40
0.08
  9
$DIMTOL
 70
1
  9
$DIMLIM
 70
0
  9
$DIMTFAC
 40
1.0
  9
$DIMTP
 40
0.001
  9
$DIMTM
 40
0.001
  9
$DIMGAP
 40
0.09
  9
$DIMDSEP
 70
46
  9
$AUNITS
 70
0
  9
$PDMODE
 70
3
  9
$PDSIZE
 40
0.06
  9
$HANDSEED
  5
2BA
  9
$TILEMODE
 70
1
  9
$MEASUREMENT
 70
0
  9
$INSUNITS
 70
1
  0
ENDSEC
  0
SECTION
  2
CLASSES
  0
CLASS
  1
ACDBDICTIONARYWDFLT
  2
AcDbDictionaryWithDefault
  3
AutoCAD 2000
 90
0
 91
1
280
0
281
0
  0
CLASS
  1
ACDBPLACEHOLDER
  2
AcDbPlaceHolder
  3
AutoCAD 2000
 90
0
 91
1
280
0
281
0
  0
CLASS
  1
LAYOUT
  2
AcDbLayout
  3
AutoCAD 2000
 90
0
 91
0
280
0
281
0
  0
ENDSEC
  0
SECTION
  2
TABLES
  0
TABLE
  2
VPORT
  5
8
100
AcDbSymbolTable
 70
2
  0
VPORT
  5
1F4
100
AcDbSymbolTableRecord
100
AcDbViewportTableRecord
  2
*ACTIVE
 70
0
 10
0.0
 20
0.0
 11
1.0
 21
1.0
 12
11.0
 22
8.5
 13
0.0
 23
0.0
 14
1.0
 24
1.0
 15
0.0
 25
0.0
 16
0.0
 26
0.0
 36
1.0
 17
0.0
 27
0.0
 37
0.0
 40
17.0
 41
1.2941176471
 42
50.0
 43
0.0
 44
0.0
 50
0.0
 51
0.0
 71
0
 72
100
 73
1
 74
1
 75
0
 76
0
 77
0
 78
0
  0
ENDTAB
  0
TABLE
  2
LTYPE
  5
5
100
AcDbSymbolTable
 70
6
  0
LTYPE
  5
14
100
AcDbSymbolTableRecord
100
AcDbLinetypeTableRecord
  2
BYBLOCK
 70
0
  3

 72
65
 73
0
 40
0.0
  0
LTYPE
  5
15
100
AcDbSymbolTableRecord
100
AcDbLinetypeTableRecord
  2
BYLAYER
 70
0
  3

 72
65
 73
0
 40
0.0
  0
LTYPE
  5
16
100
AcDbSymbolTableRecord
100
AcDbLinetypeTableRecord
  2
CONTINUOUS
 70
64
  3
Solid line
 72
65
 73
0
 40
0.0
  0
LTYPE
  5
1F5
100
AcDbSymbolTableRecord
100
AcDbLinetypeTableRecord
  2
CENTER
 70
64
  3
____ _ ____ _ ____ _ ____ _ ____ _ ____ _ ____
 72
65
 73
4
 40
0.6
 49
0.375
 74
0
 49
-0.075
 74
0
 49
0.075
 74
0
 49
-0.075
 74
0
  0
LTYPE
  5
1F6
100
AcDbSymbolTableRecord
100
AcDbLinetypeTableRecord
  2
HIDDEN
 70
64
  3
- - - - - - - - - - - - - - - - - - - -
 72
65
 73
2
 40
0.2
 49
0.1
 74
0
 49
-0.1
 74
0
  0
LTYPE
  5
1F7
100
AcDbSymbolTableRecord
100
AcDbLinetypeTableRecord
  2
PHANTOM
 70
64
  3
_____ _ _ _____ _ _ _____ _ _ _____
 72
65
 73
6
 40
0.8
 49
0.45
 74
0
 49
-0.05
 74
0
 49
0.1
 74
0
 49
-0.05
 74
0
 49
0.1
 74
0
 49
-0.05
 74
0
  0
LTYPE
  5
1F8
100
AcDbSymbolTableRecord
100
AcDbLinetypeTableRecord
  2
DOT
 70
64
  3
. . . . . . . . . . . . . . . . . . . .
 72
65
 73
2
 40
0.2
 49
0.1
 74
0
 49
-0.1
 74
0
  0
LTYPE
  5
1F9
100
AcDbSymbolTableRecord
100
AcDbLinetypeTableRecord
  2
DASHED
 70
64
  3
- - - - - - - - - - - - - - - - - - - -
 72
65
 73
2
 40
0.2
 49
0.1
 74
0
 49
-0.1
 74
0
  0
ENDTAB
  0
TABLE
  2
LAYER
  5
2
100
AcDbSymbolTable
 70
36
  0
LAYER
  5
10
100
AcDbSymbolTableRecord
100
AcDbLayerTableRecord
  2
0
 70
0
 62
7
  6
CONTINUOUS
370
-3
390
F
  0
LAYER
  5
1FA
100
AcDbSymbolTableRecord
100
AcDbLayerTableRecord
  2
DEFAULT_1
 70
0
 62
7
  6
CENTER
370
-3
390
F
  0
LAYER
  5
1FB
100
AcDbSymbolTableRecord
100
AcDbLayerTableRecord
  2
DEFAULT_2
 70
0
 62
8
  6
HIDDEN
370
-3
390
F
  0
LAYER
  5
1FC
100
AcDbSymbolTableRecord
100
AcDbLayerTableRecord
  2
DEFAULT_3
 70
0
 62
7
  6
PHANTOM
370
-3
390
F
  0
LAYER
  5
1FD
100
AcDbSymbolTableRecord
100
AcDbLayerTableRecord
  2
ALL_FEATURES
 70
0
 62
7
  6
CONTINUOUS
370
-3
390
F
  0
LAYER
  5
1FE
100
AcDbSymbolTableRecord
100
AcDbLayerTableRecord
  2
AXES_FEATURES
 70
0
 62
7
  6
CONTINUOUS
370
-3
390
F
  0
LAYER
  5
1FF
100
AcDbSymbolTableRecord
100
AcDbLayerTableRecord
  2
DIMENSIONS
 70
0
 62
7
  6
CONTINUOUS
370
-3
390
F
  0
ENDTAB
  0
TABLE
  2
STYLE
  5
3
100
AcDbSymbolTable
 70
1
  0
STYLE
  5
11
100
AcDbSymbolTableRecord
100
AcDbTextStyleTableRecord
  2
STANDARD
 70
0
 40
0.0
 41
0.8
 50
0.0
 71
0
 42
0.2
  3
txt
  4

  0
STYLE
  5
200
100
AcDbSymbolTableRecord
100
AcDbTextStyleTableRecord
  2
TEXTSTYLE_1
 70
0
 40
0.0
 41
0.8
 50
0.0
 71
0
 42
0.2
  3
gdt
  4

  0
ENDTAB
  0
TABLE
  2
VIEW
  5
6
100
AcDbSymbolTable
 70
0
  0
ENDTAB
  0
TABLE
  2
UCS
  5
7
100
AcDbSymbolTable
 70
0
  0
ENDTAB
  0
TABLE
  2
APPID
  5
9
100
AcDbSymbolTable
 70
1
  0
APPID
  5
201
100
AcDbSymbolTableRecord
100
AcDbRegAppTableRecord
  2
ACAD
 70
0
  0
ENDTAB
  0
TABLE
  2
BLOCK_RECORD
  5
1
100
AcDbSymbolTable
 70
0
  0
BLOCK_RECORD
  5
202
100
AcDbSymbolTableRecord
100
AcDbBlockTableRecord
  2
*Model_Space
  0
BLOCK_RECORD
  5
203
100
AcDbSymbolTableRecord
100
AcDbBlockTableRecord
  2
*Paper_Space
  0
BLOCK_RECORD
  5
204
100
AcDbSymbolTableRecord
100
AcDbBlockTableRecord
  2
_FILLED
  0
ENDTAB
  0
TABLE
  2
DIMSTYLE
  5
A
100
AcDbSymbolTable
 70
1
100
AcDbDimStyleTable
 71
0
  0
DIMSTYLE
105
205
100
AcDbSymbolTableRecord
100
AcDbDimStyleTableRecord
  2
STANDARD
 70
0
  3

  4

 40
1.0
 41
0.1
 42
0.0625
 43
0.38
 44
0.125
 45
0.0
 46
0.0
 47
0.001
 48
0.001
140
0.08
141
0.09
142
0.0
143
25.4
144
1.0
145
0.0
146
1.0
147
0.09
 71
1.0
 72
0.0
 73
1
 74
1
 75
0
 76
0
 77
0
 78
4
 79
1
170
1
171
2
172
0
173
0
174
0
175
0
176
0
177
0
178
0
270
2
179
3
271
3
272
3
273
2
274
2
275
0
280
0
281
0
282
0
283
1
284
4
285
0
286
0
287
3
288
0
340
11
278
46
341
204
342
204
343
204
344
204
  0
ENDTAB
  0
ENDSEC
  0
SECTION
  2
BLOCKS
  0
BLOCK
  5
20
100
AcDbEntity
  8
0
100
AcDbBlockBegin
  2
*Model_Space
 70
0
 10
0.0
 20
0.0
 30
0.0
  3
*Model_Space
  1

  0
ENDBLK
  5
21
100
AcDbEntity
  8
0
100
AcDbBlockEnd
  0
BLOCK
  5
1C
100
AcDbEntity
  8
0
100
AcDbBlockBegin
  2
*Paper_Space
 70
0
 10
0.0
 20
0.0
 30
0.0
  3
*Paper_Space
  1

  0
ENDBLK
  5
1D
100
AcDbEntity
  8
0
100
AcDbBlockEnd
  0
BLOCK
  5
206
100
AcDbEntity
  8
0
100
AcDbBlockBegin
  2
_FILLED
 70
64
 10
0.0
 20
0.0
  3
_FILLED
  1

  0
SOLID
  5
207
100
AcDbEntity
  8
0
  6
BYBLOCK
 62
0
100
AcDbTrace
 10
0.0
 20
0.0
 11
-1.0
 21
0.2
 12
-1.0
 22
-0.2
 13
-1.0
 23
-0.2
  0
ENDBLK
  5
208
100
AcDbEntity
  8
0
  6
BYBLOCK
 62
0
100
AcDbBlockEnd
  0
ENDSEC
  0
SECTION
  2
ENTITIES
  0
LINE
  5
209
100
AcDbEntity
  8
0
100
AcDbLine
 62
7
  6
CONTINUOUS
 10
4.3776923427
 20
9.1111695021
 11
4.3776923427
 21
10.0151695021
  0
LINE
  5
20A
100
AcDbEntity
  8
0
100
AcDbLine
 62
9
  6
CONTINUOUS
 10
4.4176923427
 20
10.0551695021
 11
4.4176923427
 21
9.0711695021
  0
LINE
  5
20B
100
AcDbEntity
  8
0
100
AcDbLine
 62
7
  6
CONTINUOUS
 10
4.4776923427
 20
6.5451695021
 11
4.4776923427
 21
6.8151695021
  0
LINE
  5
20C
100
AcDbEntity
  8
0
100
AcDbLine
 62
9
  6
CONTINUOUS
 10
4.5176923427
 20
6.8551695021
 11
4.5176923427
 21
6.5451695021
  0
LINE
  5
20D
100
AcDbEntity
  8
0
100
AcDbLine
 62
7
  6
CONTINUOUS
 10
6.5076923427
 20
9.0311695021
 11
6.5076923427
 21
7.2811695021
  0
LINE
  5
20E
100
AcDbEntity
  8
0
100
AcDbLine
 62
7
  6
CONTINUOUS
 10
6.5076923427
 20
6.8551695021
 11
6.5076923427
 21
7.2311695021
  0
LINE
  5
20F
100
AcDbEntity
  8
0
100
AcDbLine
 62
7
  6
CONTINUOUS
 10
6.5976923427
 20
7.2311695021
 11
6.5976923427
 21
7.2811695021
  0
LINE
  5
210
100
AcDbEntity
  8
0
100
AcDbLine
 62
7
  6
CONTINUOUS
 10
7.2776923427
 20
7.2311695021
 11
7.2776923427
 21
7.2811695021
  0
LINE
  5
211
100
AcDbEntity
  8
0
100
AcDbLine
 62
9
  6
CONTINUOUS
 10
7.3426671998
 20
9.8049022067
 11
7.3426671998
 21
9.1111623651
  0
LINE
  5
212
100
AcDbEntity
  8
0
100
AcDbLine
 62
7
  6
CONTINUOUS
 10
7.3676923427
 20
9.0311695021
 11
7.3676923427
 21
7.2811695021
  0
LINE
  5
213
100
AcDbEntity
  8
0
100
AcDbLine
 62
7
  6
CONTINUOUS
 10
7.3676923427
 20
6.8551695021
 11
7.3676923427
 21
7.2311695021
  0
LINE
  5
214
100
AcDbEntity
  8
0
100
AcDbLine
 62
9
  6
CONTINUOUS
 10
7.3803379507
 20
9.8049138507
 11
7.3803389286
 21
9.1111695021
  0
LINE
  5
215
100
AcDbEntity
  8
0
100
AcDbLine
 62
9
  6
CONTINUOUS
 10
7.5246923427
 20
9.0711695021
 11
7.5246923427
 21
10.0551695021
  0
LINE
  5
216
100
AcDbEntity
  8
0
100
AcDbLine
 62
7
  6
CONTINUOUS
 10
7.5646923427
 20
10.0151695021
 11
7.5646923427
 21
9.1111695021
  0
LINE
  5
217
100
AcDbEntity
  8
0
100
AcDbLine
 62
9
  6
CONTINUOUS
 10
8.0976923427
 20
6.5451695021
 11
8.0976923427
 21
6.8551695021
  0
LINE
  5
218
100
AcDbEntity
  8
0
100
AcDbLine
 62
7
  6
CONTINUOUS
 10
8.1376923427
 20
6.8151695021
 11
8.1376923427
 21
6.5451695021
  0
LINE
  5
219
100
AcDbEntity
  8
0
100
AcDbLine
 62
9
  6
CONTINUOUS
 10
7.2376848402
 20
9.8507305421
 11
6.5245630219
 21
9.1376087238
  0
LINE
  5
21A
100
AcDbEntity
  8
0
100
AcDbLine
 62
7
  6
CONTINUOUS
 10
7.265969114
 20
9.8224462734
 11
6.5528472959
 21
9.1093244554
  0
LINE
  5
21B
100
AcDbEntity
  8
0
100
AcDbLine
 62
9
  6
CONTINUOUS
 10
6.5245630219
 20
9.1376087238
 11
6.5528472931
 21
9.1093244525
  0
LINE
  5
21C
100
AcDbEntity
  8
0
100
AcDbLine
 62
7
  6
CONTINUOUS
 10
4.4776923427
 20
6.5451695021
 11
8.1376923427
 21
6.5451695021
  0
LINE
  5
21D
100
AcDbEntity
  8
0
100
AcDbLine
 62
7
  6
CONTINUOUS
 10
9.9377089593
 20
6.5451695021
 11
11.9376757262
 21
6.5451695021
  0
LINE
  5
21E
100
AcDbEntity
  8
0
100
AcDbLine
 62
7
  6
CONTINUOUS
 10
13.7376923427
 20
6.5451695021
 11
17.3976923427
 21
6.5451695021
  0
LINE
  5
21F
100
AcDbEntity
  8
0
100
AcDbLine
 62
9
  6
CONTINUOUS
 10
17.3976923427
 20
6.8151695021
 11
13.7376923427
 21
6.8151695021
  0
LINE
  5
220
100
AcDbEntity
  8
0
100
AcDbLine
 62
9
  6
CONTINUOUS
 10
8.1376923427
 20
6.8151695021
 11
4.4776923427
 21
6.8151695021
  0
LINE
  5
221
100
AcDbEntity
  8
0
100
AcDbLine
 62
7
  6
CONTINUOUS
 10
4.5176923427
 20
6.8551695021
 11
8.0976923427
 21
6.8551695021
  0
LINE
  5
222
100
AcDbEntity
  8
0
100
AcDbLine
 62
7
  6
CONTINUOUS
 10
13.7776923427
 20
6.8551695021
 11
17.3576923427
 21
6.8551695021
  0
LINE
  5
223
100
AcDbEntity
  8
0
100
AcDbLine
 62
9
  6
CONTINUOUS
 10
11.9376923427
 20
6.9251695021
 11
11.5463512322
 21
6.9251695021
  0
LINE
  5
224
100
AcDbEntity
  8
0
100
AcDbLine
 62
9
  6
CONTINUOUS
 10
10.3290334533
 20
6.9251695021
 11
9.9376923427
 21
6.9251695021
  0
LINE
  5
225
100
AcDbEntity
  8
0
100
AcDbLine
 62
7
  6
CONTINUOUS
 10
11.8976773493
 20
6.9651695021
 11
11.514366756
 21
6.9651695021
  0
LINE
  5
226
100
AcDbEntity
  8
0
100
AcDbLine
 62
7
  6
CONTINUOUS
 10
10.3610179295
 20
6.9651695021
 11
9.9777073362
 21
6.9651695021
  0
LINE
  5
227
100
AcDbEntity
  8
0
100
AcDbLine
 62
7
  6
CONTINUOUS
 10
11.4326923427
 20
7.0451695021
 11
10.4426923427
 21
7.0451695021
  0
LINE
  5
228
100
AcDbEntity
  8
0
100
AcDbLine
 62
9
  6
CONTINUOUS
 10
11.4001923427
 20
7.1251695021
 11
10.4751923427
 21
7.1251695021
  0
LINE
  5
229
100
AcDbEntity
  8
0
100
AcDbLine
 62
7
  6
CONTINUOUS
 10
15.3676915246
 20
7.2311695021
 11
14.5076931609
 21
7.2311695021
  0
LINE
  5
22A
100
AcDbEntity
  8
0
100
AcDbLine
 62
7
  6
CONTINUOUS
 10
7.3676915246
 20
7.2311695021
 11
6.5076931609
 21
7.2311695021
  0
LINE
  5
22B
100
AcDbEntity
  8
0
100
AcDbLine
 62
7
  6
CONTINUOUS
 10
10.4276923427
 20
7.2791644515
 11
10.5066900572
 21
7.2791644515
  0
LINE
  5
22C
100
AcDbEntity
  8
0
100
AcDbLine
 62
7
  6
CONTINUOUS
 10
11.3686946282
 20
7.2791644515
 11
11.4476923427
 21
7.2791644515
  0
LINE
  5
22D
100
AcDbEntity
  8
0
100
AcDbLine
 62
7
  6
CONTINUOUS
 10
6.5076923427
 20
7.2811695021
 11
7.3676923427
 21
7.2811695021
  0
LINE
  5
22E
100
AcDbEntity
  8
0
100
AcDbLine
 62
7
  6
CONTINUOUS
 10
14.5076923427
 20
7.2811695021
 11
15.3676923427
 21
7.2811695021
  0
LINE
  5
22F
100
AcDbEntity
  8
0
100
AcDbLine
 62
9
  6
CONTINUOUS
 10
10.5104088365
 20
7.2892720662
 11
11.3649804298
 21
7.2892720662
  0
LINE
  5
230
100
AcDbEntity
  8
0
100
AcDbLine
 62
7
  6
CONTINUOUS
 10
11.3558607276
 20
7.2951695021
 11
10.5195284409
 21
7.2951695021
  0
LINE
  5
231
100
AcDbEntity
  8
0
100
AcDbLine
 62
9
  6
CONTINUOUS
 10
10.3876923427
 20
7.3191644515
 11
11.4876923427
 21
7.3191644515
  0
LINE
  5
232
100
AcDbEntity
  8
0
100
AcDbLine
 62
9
  6
CONTINUOUS
 10
6.5051984892
 20
9.1111694971
 11
6.5402917818
 21
9.0932315728
  0
LINE
  5
233
100
AcDbEntity
  8
0
100
AcDbLine
 62
9
  6
CONTINUOUS
 10
7.2659690512
 20
9.8224462106
 11
7.23768478
 21
9.8507304819
  0
LINE
  5
234
100
AcDbEntity
  8
0
100
AcDbLine
 62
9
  6
CONTINUOUS
 10
11.4876923427
 20
7.4791644515
 11
10.3876923427
 21
7.4791644515
  0
LINE
  5
235
100
AcDbEntity
  8
0
100
AcDbLine
 62
7
  6
CONTINUOUS
 10
10.4276987747
 20
7.5191644515
 11
11.4476859107
 21
7.5191644515
  0
LINE
  5
236
100
AcDbEntity
  8
0
100
AcDbLine
 62
9
  6
CONTINUOUS
 10
11.7476923427
 20
7.7551695021
 11
10.1276923427
 21
7.7551695021
  0
LINE
  5
237
100
AcDbEntity
  8
0
100
AcDbLine
 62
7
  6
CONTINUOUS
 10
10.1676930802
 20
7.7951695021
 11
11.7076916053
 21
7.7951695021
  0
LINE
  5
238
100
AcDbEntity
  8
0
100
AcDbLine
 62
7
  6
CONTINUOUS
 10
9.9276923427
 20
11.3801695021
 11
9.9276923427
 21
11.8001695021
  0
LINE
  5
239
100
AcDbEntity
  8
0
100
AcDbLine
 62
7
  6
CONTINUOUS
 10
9.9376923427
 20
6.9251695021
 11
9.9376923427
 21
6.5451695021
  0
LINE
  5
23A
100
AcDbEntity
  8
0
100
AcDbLine
 62
7
  6
CONTINUOUS
 10
10.1276923427
 20
11.9501695021
 11
10.1276923427
 21
11.8401695021
  0
LINE
  5
23B
100
AcDbEntity
  8
0
100
AcDbLine
 62
7
  6
CONTINUOUS
 10
10.1276923427
 20
7.7551695021
 11
10.1276923427
 21
6.9651695021
  0
LINE
  5
23C
100
AcDbEntity
  8
0
100
AcDbLine
 62
7
  6
CONTINUOUS
 10
10.1276923427
 20
10.1401695021
 11
10.1276923427
 21
11.3401695021
  0
LINE
  5
23D
100
AcDbEntity
  8
0
100
AcDbLine
 62
7
  6
CONTINUOUS
 10
10.2376923427
 20
7.7951695021
 11
10.2376923427
 21
10.1401695021
  0
LINE
  5
23E
100
AcDbEntity
  8
0
100
AcDbLine
 62
7
  6
CONTINUOUS
 10
10.3876923427
 20
7.3191644515
 11
10.3876923427
 21
7.4791644515
  0
LINE
  5
23F
100
AcDbEntity
  8
0
100
AcDbLine
 62
7
  6
CONTINUOUS
 10
10.4751923427
 20
7.0451695021
 11
10.4751923427
 21
7.1251695021
  0
LINE
  5
240
100
AcDbEntity
  8
0
100
AcDbLine
 62
9
  6
CONTINUOUS
 10
15.3676923427
 20
9.0311695021
 11
15.3617294961
 21
9.0311695021
  0
LINE
  5
241
100
AcDbEntity
  8
0
100
AcDbLine
 62
9
  6
CONTINUOUS
 10
14.5136551893
 20
9.0311695021
 11
14.5076923427
 21
9.0311695021
  0
LINE
  5
242
100
AcDbEntity
  8
0
100
AcDbLine
 62
9
  6
CONTINUOUS
 10
7.3676923427
 20
9.0311695021
 11
7.3617294961
 21
9.0311695021
  0
LINE
  5
243
100
AcDbEntity
  8
0
100
AcDbLine
 62
9
  6
CONTINUOUS
 10
6.5136551893
 20
9.0311695021
 11
6.5076923427
 21
9.0311695021
  0
LINE
  5
244
100
AcDbEntity
  8
0
100
AcDbLine
 62
7
  6
CONTINUOUS
 10
17.4576923427
 20
9.0711695021
 11
15.4011748127
 21
9.0711695021
  0
LINE
  5
245
100
AcDbEntity
  8
0
100
AcDbLine
 62
7
  6
CONTINUOUS
 10
14.4742098727
 20
9.0711695021
 11
14.3506923427
 21
9.0711695021
  0
LINE
  5
246
100
AcDbEntity
  8
0
100
AcDbLine
 62
7
  6
CONTINUOUS
 10
7.5246923427
 20
9.0711695021
 11
7.4011748127
 21
9.0711695021
  0
LINE
  5
247
100
AcDbEntity
  8
0
100
AcDbLine
 62
7
  6
CONTINUOUS
 10
6.4742098727
 20
9.0711695021
 11
4.4176923427
 21
9.0711695021
  0
LINE
  5
248
100
AcDbEntity
  8
0
100
AcDbLine
 62
9
  6
CONTINUOUS
 10
4.3776923427
 20
9.1111695021
 11
6.5051984944
 21
9.1111695022
  0
LINE
  5
249
100
AcDbEntity
  8
0
100
AcDbLine
 62
9
  6
CONTINUOUS
 10
7.3426671998
 20
9.1111695019
 11
7.5646923427
 21
9.1111695021
  0
LINE
  5
24A
100
AcDbEntity
  8
0
100
AcDbLine
 62
9
  6
CONTINUOUS
 10
15.3701862348
 20
9.1111695022
 11
17.4976923427
 21
9.1111695021
  0
LINE
  5
24B
100
AcDbEntity
  8
0
100
AcDbLine
 62
9
  6
CONTINUOUS
 10
14.5327174803
 20
9.111169773
 11
14.3106923427
 21
9.1111695021
  0
LINE
  5
24C
100
AcDbEntity
  8
0
100
AcDbLine
 62
7
  6
CONTINUOUS
 10
11.4001923427
 20
7.0451695021
 11
11.4001923427
 21
7.1251695021
  0
LINE
  5
24D
100
AcDbEntity
  8
0
100
AcDbLine
 62
7
  6
CONTINUOUS
 10
11.4876923427
 20
7.3191644515
 11
11.4876923427
 21
7.4791644515
  0
LINE
  5
24E
100
AcDbEntity
  8
0
100
AcDbLine
 62
7
  6
CONTINUOUS
 10
11.6376923427
 20
7.7951695021
 11
11.6376923427
 21
10.1401695021
  0
LINE
  5
24F
100
AcDbEntity
  8
0
100
AcDbLine
 62
7
  6
CONTINUOUS
 10
11.7476923427
 20
11.9501695021
 11
11.7476923427
 21
11.8401695021
  0
LINE
  5
250
100
AcDbEntity
  8
0
100
AcDbLine
 62
7
  6
CONTINUOUS
 10
11.7476923427
 20
7.7551695021
 11
11.7476923427
 21
6.9651695021
  0
LINE
  5
251
100
AcDbEntity
  8
0
100
AcDbLine
 62
7
  6
CONTINUOUS
 10
11.7476923427
 20
10.1401695021
 11
11.7476923427
 21
11.3401695021
  0
LINE
  5
252
100
AcDbEntity
  8
0
100
AcDbLine
 62
7
  6
CONTINUOUS
 10
11.9376923427
 20
6.9251695021
 11
11.9376923427
 21
6.5451695021
  0
LINE
  5
253
100
AcDbEntity
  8
0
100
AcDbLine
 62
7
  6
CONTINUOUS
 10
11.9476923427
 20
11.3801695021
 11
11.9476923427
 21
11.8001695021
  0
LINE
  5
254
100
AcDbEntity
  8
0
100
AcDbLine
 62
9
  6
CONTINUOUS
 10
7.3803389286
 20
9.8049019175
 11
7.3426671998
 21
9.8049019175
  0
LINE
  5
255
100
AcDbEntity
  8
0
100
AcDbLine
 62
9
  6
CONTINUOUS
 10
17.4976923427
 20
10.0151695021
 11
14.3106923427
 21
10.0151695021
  0
LINE
  5
256
100
AcDbEntity
  8
0
100
AcDbLine
 62
9
  6
CONTINUOUS
 10
7.5646923427
 20
10.0151695021
 11
4.3776923427
 21
10.0151695021
  0
LINE
  5
257
100
AcDbEntity
  8
0
100
AcDbLine
 62
7
  6
CONTINUOUS
 10
4.4176923427
 20
10.0551695021
 11
7.5246923427
 21
10.0551695021
  0
LINE
  5
258
100
AcDbEntity
  8
0
100
AcDbLine
 62
7
  6
CONTINUOUS
 10
14.3506923427
 20
10.0551695021
 11
17.4576923427
 21
10.0551695021
  0
LINE
  5
259
100
AcDbEntity
  8
0
100
AcDbLine
 62
7
  6
CONTINUOUS
 10
10.1276934669
 20
10.1401695021
 11
11.7476912186
 21
10.1401695021
  0
LINE
  5
25A
100
AcDbEntity
  8
0
100
AcDbLine
 62
9
  6
CONTINUOUS
 10
14.6377001069
 20
9.8507302805
 11
14.6094158356
 21
9.8224460093
  0
LINE
  5
25B
100
AcDbEntity
  8
0
100
AcDbLine
 62
9
  6
CONTINUOUS
 10
15.3701862119
 20
9.1111695477
 11
15.3350928677
 21
9.0932315092
  0
LINE
  5
25C
100
AcDbEntity
  8
0
100
AcDbLine
 62
7
  6
CONTINUOUS
 10
9.9676923427
 20
11.3401695021
 11
11.9076923427
 21
11.3401695021
  0
LINE
  5
25D
100
AcDbEntity
  8
0
100
AcDbLine
 62
9
  6
CONTINUOUS
 10
9.9276923427
 20
11.3801695021
 11
11.9476923427
 21
11.3801695021
  0
LINE
  5
25E
100
AcDbEntity
  8
0
100
AcDbLine
 62
7
  6
CONTINUOUS
 10
13.7376923427
 20
6.5451695021
 11
13.7376923427
 21
6.8151695021
  0
LINE
  5
25F
100
AcDbEntity
  8
0
100
AcDbLine
 62
9
  6
CONTINUOUS
 10
13.7776923427
 20
6.8551695021
 11
13.7776923427
 21
6.5451695021
  0
LINE
  5
260
100
AcDbEntity
  8
0
100
AcDbLine
 62
9
  6
CONTINUOUS
 10
11.9476923427
 20
11.8001695021
 11
9.9276923427
 21
11.8001695021
  0
LINE
  5
261
100
AcDbEntity
  8
0
100
AcDbLine
 62
7
  6
CONTINUOUS
 10
9.9677082828
 20
11.8401695021
 11
11.9076764027
 21
11.8401695021
  0
LINE
  5
262
100
AcDbEntity
  8
0
100
AcDbLine
 62
9
  6
CONTINUOUS
 10
11.7476923427
 20
11.9501695021
 11
10.1276923427
 21
11.9501695021
  0
LINE
  5
263
100
AcDbEntity
  8
0
100
AcDbLine
 62
7
  6
CONTINUOUS
 10
11.7076912891
 20
11.9901695021
 11
10.1676933964
 21
11.9901695021
  0
LINE
  5
264
100
AcDbEntity
  8
0
100
AcDbLine
 62
7
  6
CONTINUOUS
 10
14.3106923427
 20
9.1111695021
 11
14.3106923427
 21
10.0151695021
  0
LINE
  5
265
100
AcDbEntity
  8
0
100
AcDbLine
 62
9
  6
CONTINUOUS
 10
15.3225376336
 20
9.1093242113
 11
15.3508219049
 21
9.1376084825
  0
LINE
  5
266
100
AcDbEntity
  8
0
100
AcDbLine
 62
7
  6
CONTINUOUS
 10
15.3225376512
 20
9.1093241937
 11
14.6094158395
 21
9.8224460054
  0
LINE
  5
267
100
AcDbEntity
  8
0
100
AcDbLine
 62
9
  6
CONTINUOUS
 10
15.3508219252
 20
9.1376084622
 11
14.6377001069
 21
9.8507302805
  0
LINE
  5
268
100
AcDbEntity
  8
0
100
AcDbLine
 62
9
  6
CONTINUOUS
 10
14.3506923427
 20
10.0551695021
 11
14.3506923427
 21
9.0711695021
  0
LINE
  5
269
100
AcDbEntity
  8
0
100
AcDbLine
 62
9
  6
CONTINUOUS
 10
14.4950457569
 20
9.1111695021
 11
14.4950466738
 21
9.8048641098
  0
LINE
  5
26A
100
AcDbEntity
  8
0
100
AcDbLine
 62
7
  6
CONTINUOUS
 10
14.5076923427
 20
9.0311695021
 11
14.5076923427
 21
7.2811695021
  0
LINE
  5
26B
100
AcDbEntity
  8
0
100
AcDbLine
 62
7
  6
CONTINUOUS
 10
14.5076923427
 20
6.8551695021
 11
14.5076923427
 21
7.2311695021
  0
LINE
  5
26C
100
AcDbEntity
  8
0
100
AcDbLine
 62
9
  6
CONTINUOUS
 10
14.5327174803
 20
9.1111621361
 11
14.5327174803
 21
9.8049024891
  0
LINE
  5
26D
100
AcDbEntity
  8
0
100
AcDbLine
 62
7
  6
CONTINUOUS
 10
14.5976923427
 20
7.2311695021
 11
14.5976923427
 21
7.2811695021
  0
LINE
  5
26E
100
AcDbEntity
  8
0
100
AcDbLine
 62
7
  6
CONTINUOUS
 10
15.2776923427
 20
7.2311695021
 11
15.2776923427
 21
7.2811695021
  0
LINE
  5
26F
100
AcDbEntity
  8
0
100
AcDbLine
 62
7
  6
CONTINUOUS
 10
15.3676923427
 20
9.0311695021
 11
15.3676923427
 21
7.2811695021
  0
LINE
  5
270
100
AcDbEntity
  8
0
100
AcDbLine
 62
7
  6
CONTINUOUS
 10
15.3676923427
 20
6.8551695021
 11
15.3676923427
 21
7.2311695021
  0
LINE
  5
271
100
AcDbEntity
  8
0
100
AcDbLine
 62
9
  6
CONTINUOUS
 10
17.3576923427
 20
6.5451695021
 11
17.3576923427
 21
6.8551695021
  0
LINE
  5
272
100
AcDbEntity
  8
0
100
AcDbLine
 62
7
  6
CONTINUOUS
 10
17.3976923427
 20
6.8151695021
 11
17.3976923427
 21
6.5451695021
  0
LINE
  5
273
100
AcDbEntity
  8
0
100
AcDbLine
 62
9
  6
CONTINUOUS
 10
17.4576923427
 20
9.0711695021
 11
17.4576923427
 21
10.0551695021
  0
LINE
  5
274
100
AcDbEntity
  8
0
100
AcDbLine
 62
7
  6
CONTINUOUS
 10
17.4976923427
 20
10.0151695021
 11
17.4976923427
 21
9.1111695021
  0
ARC
  5
275
100
AcDbEntity
  8
0
100
AcDbCircle
 62
7
  6
CONTINUOUS
 10
10.8464719365
 20
6.3622744624
 40
0.9
100
AcDbArc
 50
11.7251268757
 51
49.3560828237
  0
ARC
  5
276
100
AcDbEntity
  8
0
100
AcDbCircle
 62
7
  6
CONTINUOUS
 10
10.8751923427
 20
7.1251695021
 40
0.4
100
AcDbArc
 50
155.7790568907
 51
180.0
  0
ARC
  5
277
100
AcDbEntity
  8
0
100
AcDbCircle
 62
7
  6
CONTINUOUS
 10
10.4276923427
 20
7.3191644515
 40
0.04
100
AcDbArc
 50
180.0
 51
270.0
  0
ARC
  5
278
100
AcDbEntity
  8
0
100
AcDbCircle
 62
7
  6
CONTINUOUS
 10
10.4276923427
 20
7.4791644515
 40
0.04
100
AcDbArc
 50
90.0
 51
180.0
  0
ARC
  5
279
100
AcDbEntity
  8
0
100
AcDbCircle
 62
7
  6
CONTINUOUS
 10
9.9776923427
 20
6.9251695021
 40
0.04
100
AcDbArc
 50
90.0
 51
180.0
  0
ARC
  5
27A
100
AcDbEntity
  8
0
100
AcDbCircle
 62
7
  6
CONTINUOUS
 10
10.1676923427
 20
7.7551695021
 40
0.04
100
AcDbArc
 50
90.0
 51
180.0
  0
ARC
  5
27B
100
AcDbEntity
  8
0
100
AcDbCircle
 62
7
  6
CONTINUOUS
 10
7.4076923427
 20
9.0311695021
 40
0.04
100
AcDbArc
 50
99.2587646005
 51
180.0
  0
ARC
  5
27C
100
AcDbEntity
  8
0
100
AcDbCircle
 62
7
  6
CONTINUOUS
 10
6.4676923427
 20
9.0311695021
 40
0.04
100
AcDbArc
 50
0.0
 51
80.7412353995
  0
ARC
  5
27D
100
AcDbEntity
  8
0
100
AcDbCircle
 62
7
  6
CONTINUOUS
 10
4.5176923427
 20
6.8151695021
 40
0.04
100
AcDbArc
 50
90.0
 51
180.0
  0
ARC
  5
27E
100
AcDbEntity
  8
0
100
AcDbCircle
 62
7
  6
CONTINUOUS
 10
8.0976923427
 20
6.8151695021
 40
0.04
100
AcDbArc
 50
0.0
 51
90.0
  0
ARC
  5
27F
100
AcDbEntity
  8
0
100
AcDbCircle
 62
7
  6
CONTINUOUS
 10
4.4176923427
 20
9.1111695021
 40
0.04
100
AcDbArc
 50
180.0
 51
270.0
  0
ARC
  5
280
100
AcDbEntity
  8
0
100
AcDbCircle
 62
7
  6
CONTINUOUS
 10
7.5246923427
 20
9.1111695021
 40
0.04
100
AcDbArc
 50
270.0
 51
360.0
  0
ARC
  5
281
100
AcDbEntity
  8
0
100
AcDbCircle
 62
7
  6
CONTINUOUS
 10
10.5195239579
 20
7.2851695021
 40
0.01
100
AcDbArc
 50
90.0
 51
155.7790568908
  0
ARC
  5
282
100
AcDbEntity
  8
0
100
AcDbCircle
 62
7
  6
CONTINUOUS
 10
10.1676923427
 20
11.9501695021
 40
0.04
100
AcDbArc
 50
90.0
 51
180.0
  0
ARC
  5
283
100
AcDbEntity
  8
0
100
AcDbCircle
 62
7
  6
CONTINUOUS
 10
9.9676923427
 20
11.8001695021
 40
0.04
100
AcDbArc
 50
90.0
 51
180.0
  0
ARC
  5
284
100
AcDbEntity
  8
0
100
AcDbCircle
 62
7
  6
CONTINUOUS
 10
9.9676923427
 20
11.3801695021
 40
0.04
100
AcDbArc
 50
180.0
 51
270.0
  0
ARC
  5
285
100
AcDbEntity
  8
0
100
AcDbCircle
 62
7
  6
CONTINUOUS
 10
4.4176923427
 20
10.0151695021
 40
0.04
100
AcDbArc
 50
90.0
 51
180.0
  0
ARC
  5
286
100
AcDbEntity
  8
0
100
AcDbCircle
 62
7
  6
CONTINUOUS
 10
7.5246923427
 20
10.0151695021
 40
0.04
100
AcDbArc
 50
0.0
 51
90.0
  0
ARC
  5
287
100
AcDbEntity
  8
0
100
AcDbCircle
 62
7
  6
CONTINUOUS
 10
11.028912749
 20
6.3622744624
 40
0.9
100
AcDbArc
 50
130.6439171763
 51
168.2748731243
  0
ARC
  5
288
100
AcDbEntity
  8
0
100
AcDbCircle
 62
7
  6
CONTINUOUS
 10
11.0001923427
 20
7.1251695021
 40
0.4
100
AcDbArc
 50
0.0
 51
24.2209431093
  0
ARC
  5
289
100
AcDbEntity
  8
0
100
AcDbCircle
 62
7
  6
CONTINUOUS
 10
11.4476923427
 20
7.3191644515
 40
0.04
100
AcDbArc
 50
270.0
 51
360.0
  0
ARC
  5
28A
100
AcDbEntity
  8
0
100
AcDbCircle
 62
7
  6
CONTINUOUS
 10
11.4476923427
 20
7.4791644515
 40
0.04
100
AcDbArc
 50
0.0
 51
90.0
  0
ARC
  5
28B
100
AcDbEntity
  8
0
100
AcDbCircle
 62
7
  6
CONTINUOUS
 10
11.8976923427
 20
6.9251695021
 40
0.04
100
AcDbArc
 50
0.0
 51
90.0
  0
ARC
  5
28C
100
AcDbEntity
  8
0
100
AcDbCircle
 62
7
  6
CONTINUOUS
 10
11.7076923427
 20
7.7551695021
 40
0.04
100
AcDbArc
 50
0.0
 51
90.0
  0
ARC
  5
28D
100
AcDbEntity
  8
0
100
AcDbCircle
 62
7
  6
CONTINUOUS
 10
14.4676923427
 20
9.0311695021
 40
0.04
100
AcDbArc
 50
0.0
 51
80.7412353995
  0
ARC
  5
28E
100
AcDbEntity
  8
0
100
AcDbCircle
 62
7
  6
CONTINUOUS
 10
15.4076923427
 20
9.0311695021
 40
0.04
100
AcDbArc
 50
99.2587646005
 51
180.0
  0
ARC
  5
28F
100
AcDbEntity
  8
0
100
AcDbCircle
 62
7
  6
CONTINUOUS
 10
13.7776923427
 20
6.8151695021
 40
0.04
100
AcDbArc
 50
90.0
 51
180.0
  0
ARC
  5
290
100
AcDbEntity
  8
0
100
AcDbCircle
 62
7
  6
CONTINUOUS
 10
17.3576923427
 20
6.8151695021
 40
0.04
100
AcDbArc
 50
0.0
 51
90.0
  0
ARC
  5
291
100
AcDbEntity
  8
0
100
AcDbCircle
 62
7
  6
CONTINUOUS
 10
17.4576923427
 20
9.1111695021
 40
0.04
100
AcDbArc
 50
270.0
 51
360.0
  0
ARC
  5
292
100
AcDbEntity
  8
0
100
AcDbCircle
 62
7
  6
CONTINUOUS
 10
14.3506923427
 20
9.1111695021
 40
0.04
100
AcDbArc
 50
180.0
 51
270.0
  0
ARC
  5
293
100
AcDbEntity
  8
0
100
AcDbCircle
 62
7
  6
CONTINUOUS
 10
11.3558607276
 20
7.2851695021
 40
0.01
100
AcDbArc
 50
24.2209431092
 51
90.0
  0
ARC
  5
294
100
AcDbEntity
  8
0
100
AcDbCircle
 62
7
  6
CONTINUOUS
 10
11.7076923427
 20
11.9501695021
 40
0.04
100
AcDbArc
 50
0.0
 51
90.0
  0
ARC
  5
295
100
AcDbEntity
  8
0
100
AcDbCircle
 62
7
  6
CONTINUOUS
 10
11.9076923427
 20
11.8001695021
 40
0.04
100
AcDbArc
 50
0.0
 51
90.0
  0
ARC
  5
296
100
AcDbEntity
  8
0
100
AcDbCircle
 62
7
  6
CONTINUOUS
 10
11.9076923427
 20
11.3801695021
 40
0.04
100
AcDbArc
 50
270.0
 51
360.0
  0
ARC
  5
297
100
AcDbEntity
  8
0
100
AcDbCircle
 62
7
  6
CONTINUOUS
 10
17.4576923427
 20
10.0151695021
 40
0.04
100
AcDbArc
 50
0.0
 51
90.0
  0
ARC
  5
298
100
AcDbEntity
  8
0
100
AcDbCircle
 62
7
  6
CONTINUOUS
 10
14.3506923427
 20
10.0151695021
 40
0.04
100
AcDbArc
 50
90.0
 51
180.0
  0
SPLINE
  5
299
100
AcDbEntity
  8
0
100
AcDbSpline
 62
9
  6
CONTINUOUS
 70
0
 71
3
 72
19
 73
15
 74
0
 42
0.0000001
 43
0.0000001
 44
0.0000000001
 40
0.0
 40
0.0
 40
0.0
 40
0.0
 40
0.0207572244
 40
0.0454568162
 40
0.0755902209
 40
0.1118810151
 40
0.1546133075
 40
0.2037776005
 40
0.2592414874
 40
0.3208111608
 40
0.4612816276
 40
0.6230585292
 40
0.803653504
 40
1.0
 40
1.0
 40
1.0
 40
1.0
 10
6.5136551893
 20
9.0311695021
 30
0.0
 10
6.5139268984
 20
9.031169442
 30
0.0
 10
6.5145231463
 20
9.0313040542
 30
0.0
 10
6.5153809844
 20
9.0318153443
 30
0.0
 10
6.5162672682
 20
9.0326216401
 30
0.0
 10
6.5171839537
 20
9.0337216236
 30
0.0
 10
6.5181291864
 20
9.0351102964
 30
0.0
 10
6.5190977461
 20
9.0367798749
 30
0.0
 10
6.5200829023
 20
9.0387205618
 30
0.0
 10
6.5214706269
 20
9.0417933348
 30
0.0
 10
6.5231742745
 20
9.0462447777
 30
0.0
 10
6.5250927663
 20
9.0522696262
 30
0.0
 10
6.5269028133
 20
9.0590876442
 30
0.0
 10
6.5279622538
 20
9.0639083827
 30
0.0
 10
6.5284639402
 20
9.0664290908
 30
0.0
  0
SPLINE
  5
29A
100
AcDbEntity
  8
0
100
AcDbSpline
 62
9
  6
CONTINUOUS
 70
0
 71
3
 72
23
 73
19
 74
0
 42
0.0000001
 43
0.0000001
 44
0.0000000001
 40
0.0
 40
0.0
 40
0.0
 40
0.0
 40
0.0077998251
 40
0.016709513
 40
0.027176076
 40
0.0394518727
 40
0.0536714848
 40
0.0698958923
 40
0.1083121833
 40
0.15443277
 40
0.2077888205
 40
0.26780005
 40
0.3338419714
 40
0.4052655715
 40
0.4813989251
 40
0.6451175638
 40
0.8198965404
 40
1.0
 40
1.0
 40
1.0
 40
1.0
 10
7.3617294961
 20
9.0311695021
 30
0.0
 10
7.3615103961
 20
9.0311694946
 30
0.0
 10
7.3610396088
 20
9.0312545867
 30
0.0
 10
7.3603481726
 20
9.0315924899
 30
0.0
 10
7.3596365401
 20
9.0321321913
 30
0.0
 10
7.3589032507
 20
9.0328705944
 30
0.0
 10
7.3581484477
 20
9.0338055424
 30
0.0
 10
7.3570547381
 20
9.0354027599
 30
0.0
 10
7.3556799218
 20
9.0378831202
 30
0.0
 10
7.3540727124
 20
9.041409937
 30
0.0
 10
7.3524610075
 20
9.0455925326
 30
0.0
 10
7.3508767713
 20
9.0503783877
 30
0.0
 10
7.3493535827
 20
9.0557138576
 30
0.0
 10
7.3479228161
 20
9.0615421987
 30
0.0
 10
7.3461327821
 20
9.0701023286
 30
0.0
 10
7.3443281407
 20
9.0816180023
 30
0.0
 10
7.3429777557
 20
9.096131539
 30
0.0
 10
7.342666661
 20
9.1061031897
 30
0.0
 10
7.3426671998
 20
9.1111623651
 30
0.0
  0
SPLINE
  5
29B
100
AcDbEntity
  8
0
100
AcDbSpline
 62
9
  6
CONTINUOUS
 70
0
 71
3
 72
15
 73
11
 74
0
 42
0.0000001
 43
0.0000001
 44
0.0000000001
 40
0.0
 40
0.0
 40
0.0
 40
0.0
 40
0.1158407857
 40
0.2384943794
 40
0.3666808691
 40
0.4977643541
 40
0.6292281279
 40
0.7584461614
 40
0.8825590062
 40
1.0
 40
1.0
 40
1.0
 40
1.0
 10
7.4011748122
 20
9.071169494
 30
0.0
 10
7.3987695492
 20
9.0711694943
 30
0.0
 10
7.393806957
 20
9.0707020939
 30
0.0
 10
7.38644823
 20
9.0685669121
 30
0.0
 10
7.3793941326
 20
9.0648265586
 30
0.0
 10
7.3730680741
 20
9.0596540488
 30
0.0
 10
7.3679731651
 20
9.0532385137
 30
0.0
 10
7.3642905646
 20
9.0460886507
 30
0.0
 10
7.362189421
 20
9.0386336666
 30
0.0
 10
7.3617294752
 20
9.0336079911
 30
0.0
 10
7.3617294742
 20
9.0311695021
 30
0.0
  0
SPLINE
  5
29C
100
AcDbEntity
  8
0
100
AcDbSpline
 62
9
  6
CONTINUOUS
 70
0
 71
3
 72
18
 73
14
 74
0
 42
0.0000001
 43
0.0000001
 44
0.0000000001
 40
0.0
 40
0.0
 40
0.0
 40
0.0
 40
0.0298809296
 40
0.0642696859
 40
0.1039387306
 40
0.1491790242
 40
0.1999736576
 40
0.2559961052
 40
0.3818934913
 40
0.5232125691
 40
0.6758413013
 40
0.8360414742
 40
1.0
 40
1.0
 40
1.0
 40
1.0
 10
7.4011746118
 20
9.071169494
 30
0.0
 10
7.4006982472
 20
9.0711694753
 30
0.0
 10
7.3996723899
 20
9.071333958
 30
0.0
 10
7.3981282905
 20
9.0719587124
 30
0.0
 10
7.3964996286
 20
9.0729537371
 30
0.0
 10
7.3948062486
 20
9.074307038
 30
0.0
 10
7.393070497
 20
9.0760041062
 30
0.0
 10
7.3906434546
 20
9.0788146486
 30
0.0
 10
7.3877335878
 20
9.0830900049
 30
0.0
 10
7.3847046507
 20
9.0890773227
 30
0.0
 10
7.3822735404
 20
9.0959200556
 30
0.0
 10
7.3807141761
 20
9.1033816611
 30
0.0
 10
7.3803406579
 20
9.1085556594
 30
0.0
 10
7.3803410085
 20
9.1111695016
 30
0.0
  0
SPLINE
  5
29D
100
AcDbEntity
  8
0
100
AcDbSpline
 62
9
  6
CONTINUOUS
 70
0
 71
3
 72
15
 73
11
 74
0
 42
0.0000001
 43
0.0000001
 44
0.0000000001
 40
0.0
 40
0.0
 40
0.0
 40
0.0
 40
0.1174411856
 40
0.2415541876
 40
0.370772325
 40
0.5022361388
 40
0.6333195885
 40
0.7615059774
 40
0.8841594127
 40
1.0
 40
1.0
 40
1.0
 40
1.0
 10
6.5136551847
 20
9.0311695021
 30
0.0
 10
6.513655185
 20
9.0336079947
 30
0.0
 10
6.5131952404
 20
9.0386336771
 30
0.0
 10
6.5110940958
 20
9.0460886696
 30
0.0
 10
6.5074114923
 20
9.053238537
 30
0.0
 10
6.5023165815
 20
9.0596540722
 30
0.0
 10
6.4959905242
 20
9.0648265785
 30
0.0
 10
6.4889364324
 20
9.0685669269
 30
0.0
 10
6.4815777154
 20
9.0707021048
 30
0.0
 10
6.4766151314
 20
9.0711695044
 30
0.0
 10
6.4742098729
 20
9.0711695044
 30
0.0
  0
SPLINE
  5
29E
100
AcDbEntity
  8
0
100
AcDbSpline
 62
9
  6
CONTINUOUS
 70
0
 71
3
 72
9
 73
5
 74
0
 42
0.0000001
 43
0.0000001
 44
0.0000000001
 40
0.0
 40
0.0
 40
0.0
 40
0.0
 40
0.5000300981
 40
1.0
 40
1.0
 40
1.0
 40
1.0
 10
6.5245630219
 20
9.1376087238
 30
0.0
 10
6.5206885498
 20
9.1337345977
 30
0.0
 10
6.5135007366
 20
9.1254028679
 30
0.0
 10
6.5076912921
 20
9.1160479362
 30
0.0
 10
6.5051984944
 20
9.1111695022
 30
0.0
  0
SPLINE
  5
29F
100
AcDbEntity
  8
0
100
AcDbSpline
 62
9
  6
CONTINUOUS
 70
0
 71
3
 72
24
 73
20
 74
0
 42
0.0000001
 43
0.0000001
 44
0.0000000001
 40
0.0
 40
0.0
 40
0.0
 40
0.0
 40
0.0624543253
 40
0.1250446786
 40
0.1875846545
 40
0.2500712193
 40
0.3125734482
 40
0.3750748438
 40
0.4375754406
 40
0.4688557504
 40
0.5001314863
 40
0.5626466228
 40
0.6251455684
 40
0.6876090802
 40
0.7500569986
 40
0.8125180424
 40
0.8750394568
 40
0.9375759349
 40
1.0
 40
1.0
 40
1.0
 40
1.0
 10
7.3803379507
 20
9.8049138507
 30
0.0
 10
7.3803372878
 20
9.8089533706
 30
0.0
 10
7.3797298127
 20
9.8170540928
 30
0.0
 10
7.3769883971
 20
9.8289223479
 30
0.0
 10
7.372372651
 20
9.840203954
 30
0.0
 10
7.3659830304
 20
9.8505793564
 30
0.0
 10
7.3579458485
 20
9.8597367521
 30
0.0
 10
7.348501006
 20
9.8674330517
 30
0.0
 10
7.3396631711
 20
9.8724416504
 30
0.0
 10
7.3321874285
 20
9.8755495586
 30
0.0
 10
7.3244827066
 20
9.878040553
 30
0.0
 10
7.3145193732
 20
9.8799945303
 30
0.0
 10
7.3023598813
 20
9.8805008255
 30
0.0
 10
7.2902637416
 20
9.8792278767
 30
0.0
 10
7.2784648938
 20
9.8763038578
 30
0.0
 10
7.2671516858
 20
9.8718562083
 30
0.0
 10
7.2564770587
 20
9.8660345324
 30
0.0
 10
7.2465733576
 20
9.8589925262
 30
0.0
 10
7.2405398075
 20
9.8535855507
 30
0.0
 10
7.2376848402
 20
9.8507305421
 30
0.0
  0
SPLINE
  5
2A0
100
AcDbEntity
  8
0
100
AcDbSpline
 62
9
  6
CONTINUOUS
 70
0
 71
3
 72
15
 73
11
 74
0
 42
0.0000001
 43
0.0000001
 44
0.0000000001
 40
0.0
 40
0.0
 40
0.0
 40
0.0
 40
0.1430022206
 40
0.2858606091
 40
0.4251601813
 40
0.5584329505
 40
0.6838008314
 40
0.7997501717
 40
0.9052225432
 40
1.0
 40
1.0
 40
1.0
 40
1.0
 10
6.4905296448
 20
9.0890786789
 30
0.0
 10
6.4926739098
 20
9.0886952028
 30
0.0
 10
6.4969294326
 20
9.0877457303
 30
0.0
 10
6.5031242896
 20
9.0858353289
 30
0.0
 10
6.5090057169
 20
9.0834789046
 30
0.0
 10
6.5144070501
 20
9.0807039249
 30
0.0
 10
6.5191694607
 20
9.0775373021
 30
0.0
 10
6.5231807015
 20
9.0740741376
 30
0.0
 10
6.5263313464
 20
9.0704061033
 30
0.0
 10
6.5278865489
 20
9.0677526123
 30
0.0
 10
6.5284632297
 20
9.0664290906
 30
0.0
  0
SPLINE
  5
2A1
100
AcDbEntity
  8
0
100
AcDbSpline
 62
9
  6
CONTINUOUS
 70
0
 71
3
 72
12
 73
8
 74
0
 42
0.0000001
 43
0.0000001
 44
0.0000000001
 40
0.0
 40
0.0
 40
0.0
 40
0.0
 40
0.2604762862
 40
0.3898949882
 40
0.5179368211
 40
0.7667662312
 40
1.0
 40
1.0
 40
1.0
 40
1.0
 10
6.5051984944
 20
9.1111695021
 30
0.0
 10
6.5035469621
 20
9.1095442971
 30
0.0
 10
6.5012012759
 20
9.1069769361
 30
0.0
 10
6.4983936392
 20
9.1033214067
 30
0.0
 10
6.4958624585
 20
9.0995935036
 30
0.0
 10
6.4931697288
 20
9.0948707397
 30
0.0
 10
6.4913619189
 20
9.0909789607
 30
0.0
 10
6.4905296447
 20
9.0890784687
 30
0.0
  0
SPLINE
  5
2A2
100
AcDbEntity
  8
0
100
AcDbSpline
 62
9
  6
CONTINUOUS
 70
0
 71
3
 72
14
 73
10
 74
0
 42
0.0000001
 43
0.0000001
 44
0.0000000001
 40
0.0
 40
0.0
 40
0.0
 40
0.0
 40
0.072500531
 40
0.1589556191
 40
0.2612427142
 40
0.3795946948
 40
0.5136466519
 40
0.6626847609
 40
1.0
 40
1.0
 40
1.0
 40
1.0
 10
6.4742098727
 20
9.0711695021
 30
0.0
 10
6.4748173848
 20
9.0711694602
 30
0.0
 10
6.4761490877
 20
9.071442226
 30
0.0
 10
6.4781216322
 20
9.0724207045
 30
0.0
 10
6.4802028686
 20
9.0739510904
 30
0.0
 10
6.482351845
 20
9.0760133788
 30
0.0
 10
6.4845245766
 20
9.078588582
 30
0.0
 10
6.4875118255
 20
9.0828487251
 30
0.0
 10
6.4894159116
 20
9.0864806374
 30
0.0
 10
6.4905296447
 20
9.0890784687
 30
0.0
  0
LINE
  5
2A3
100
AcDbEntity
  8
0
100
AcDbLine
 62
9
  6
CONTINUOUS
 10
7.3426671998
 20
9.8049022067
 11
6.5629046263
 21
9.0976760178
  0
LINE
  5
2A4
100
AcDbEntity
  8
0
100
AcDbLine
 62
9
  6
CONTINUOUS
 10
6.5629046263
 20
9.0976760178
 11
6.5284639402
 21
9.0664290908
  0
SPLINE
  5
2A5
100
AcDbEntity
  8
0
100
AcDbSpline
 62
9
  6
CONTINUOUS
 70
0
 71
3
 72
21
 73
17
 74
0
 42
0.0000001
 43
0.0000001
 44
0.0000000001
 40
0.0
 40
0.0
 40
0.0
 40
0.0
 40
0.1400382743
 40
0.2745326551
 40
0.3397876888
 40
0.4034895515
 40
0.4655259263
 40
0.5260648254
 40
0.5855430951
 40
0.6442143627
 40
0.7023833273
 40
0.7603829234
 40
0.818665376
 40
0.877841805
 40
0.9382495049
 40
1.0
 40
1.0
 40
1.0
 40
1.0
 10
7.2659689976
 20
9.8224463767
 30
0.0
 10
7.2694662246
 20
9.8259434701
 30
0.0
 10
7.2768864312
 20
9.832268084
 30
0.0
 10
7.2874476648
 20
9.838186715
 30
0.0
 10
7.2962839799
 20
9.8411739784
 30
0.0
 10
7.302920417
 20
9.8424924027
 30
0.0
 10
7.3095138788
 20
9.8428490858
 30
0.0
 10
7.3159389228
 20
9.8421754877
 30
0.0
 10
7.3220342863
 20
9.840413258
 30
0.0
 10
7.3276352399
 20
9.8376083411
 30
0.0
 10
7.3325524359
 20
9.8338095587
 30
0.0
 10
7.3366351935
 20
9.8291414851
 30
0.0
 10
7.3397273713
 20
9.8237265017
 30
0.0
 10
7.3417976305
 20
9.8177606754
 30
0.0
 10
7.3428385702
 20
9.8114128902
 30
0.0
 10
7.3428369548
 20
9.8070768458
 30
0.0
 10
7.342665504
 20
9.8049027536
 30
0.0
  0
SPLINE
  5
2A6
100
AcDbEntity
  8
0
100
AcDbSpline
 62
9
  6
CONTINUOUS
 70
0
 71
3
 72
9
 73
5
 74
0
 42
0.0000001
 43
0.0000001
 44
0.0000000001
 40
0.0
 40
0.0
 40
0.0
 40
0.0
 40
0.2453790925
 40
1.0
 40
1.0
 40
1.0
 40
1.0
 10
6.540291772
 20
9.0932315105
 30
0.0
 10
6.5411321871
 20
9.0946772078
 30
0.0
 10
6.5447751699
 20
9.1004414171
 30
0.0
 10
6.5492109692
 20
9.1056881352
 30
0.0
 10
6.5528474418
 20
9.1093244539
 30
0.0
  0
SPLINE
  5
2A7
100
AcDbEntity
  8
0
100
AcDbSpline
 62
9
  6
CONTINUOUS
 70
0
 71
3
 72
10
 73
6
 74
0
 42
0.0000001
 43
0.0000001
 44
0.0000000001
 40
0.0
 40
0.0
 40
0.0
 40
0.0
 40
0.2175423479
 40
0.4577268634
 40
1.0
 40
1.0
 40
1.0
 40
1.0
 10
6.5284643261
 20
9.0664290909
 30
0.0
 10
6.5291946714
 20
9.0684260723
 30
0.0
 10
6.5307542035
 20
9.0726202016
 30
0.0
 10
6.5343559087
 20
9.0817042706
 30
0.0
 10
6.5376281257
 20
9.0886489586
 30
0.0
 10
6.540291669
 20
9.0932314985
 30
0.0
  0
SPLINE
  5
2A8
100
AcDbEntity
  8
0
100
AcDbSpline
 62
9
  6
CONTINUOUS
 70
0
 71
3
 72
19
 73
15
 74
0
 42
0.0000001
 43
0.0000001
 44
0.0000000001
 40
0.0
 40
0.0
 40
0.0
 40
0.0
 40
0.1963579565
 40
0.3769915484
 40
0.5387776933
 40
0.6792289771
 40
0.7407826069
 40
0.7962298057
 40
0.8453807627
 40
0.8881067425
 40
0.9244000433
 40
0.9545398917
 40
0.9792438759
 40
1.0
 40
1.0
 40
1.0
 40
1.0
 10
15.3469225055
 20
9.066432316
 30
0.0
 10
15.3474245771
 20
9.0639113977
 30
0.0
 10
15.3484837208
 20
9.0590896989
 30
0.0
 10
15.35029185
 20
9.0522699891
 30
0.0
 10
15.3522099885
 20
9.0462442623
 30
0.0
 10
15.3539140812
 20
9.0417930802
 30
0.0
 10
15.355302027
 20
9.038720964
 30
0.0
 10
15.3562872326
 20
9.0367808543
 30
0.0
 10
15.3572558035
 20
9.0351117195
 30
0.0
 10
15.3582010388
 20
9.0337232231
 30
0.0
 10
15.359117651
 20
9.0326230535
 30
0.0
 10
15.3600038207
 20
9.0318163019
 30
0.0
 10
15.3608615091
 20
9.0313044442
 30
0.0
 10
15.3614577876
 20
9.031169494
 30
0.0
 10
15.3617294961
 20
9.0311695021
 30
0.0
  0
SPLINE
  5
2A9
100
AcDbEntity
  8
0
100
AcDbSpline
 62
9
  6
CONTINUOUS
 70
0
 71
3
 72
23
 73
19
 74
0
 42
0.0000001
 43
0.0000001
 44
0.0000000001
 40
0.0
 40
0.0
 40
0.0
 40
0.0
 40
0.0078000685
 40
0.0167105464
 40
0.0271788987
 40
0.0394569548
 40
0.0536783269
 40
0.0699027313
 40
0.1083145618
 40
0.1544306062
 40
0.2077886443
 40
0.267806639
 40
0.3338550982
 40
0.4052828716
 40
0.4814193876
 40
0.6451420248
 40
0.8199071509
 40
1.0
 40
1.0
 40
1.0
 40
1.0
 10
14.5136551893
 20
9.0311695021
 30
0.0
 10
14.5138742948
 20
9.0311694516
 30
0.0
 10
14.5143451253
 20
9.0312545835
 30
0.0
 10
14.5150365182
 20
9.0315927587
 30
0.0
 10
14.5157480618
 20
9.0321327879
 30
0.0
 10
14.5164812688
 20
9.0328714864
 30
0.0
 10
14.5172360256
 20
9.0338065992
 30
0.0
 10
14.5183297555
 20
9.0354036884
 30
0.0
 10
14.5197047923
 20
9.03788361
 30
0.0
 10
14.5213122322
 20
9.0414100886
 30
0.0
 10
14.5229239102
 20
9.0455927954
 30
0.0
 10
14.52450808
 20
9.0503790888
 30
0.0
 10
14.5260313186
 20
9.0557150153
 30
0.0
 10
14.5274621513
 20
9.0615436993
 30
0.0
 10
14.5292522887
 20
9.0701040771
 30
0.0
 10
14.5310563603
 20
9.0816195708
 30
0.0
 10
14.5324071314
 20
9.0961323745
 30
0.0
 10
14.5327183163
 20
9.1061032924
 30
0.0
 10
14.5327174803
 20
9.1111621361
 30
0.0
  0
SPLINE
  5
2AA
100
AcDbEntity
  8
0
100
AcDbSpline
 62
9
  6
CONTINUOUS
 70
0
 71
3
 72
15
 73
11
 74
0
 42
0.0000001
 43
0.0000001
 44
0.0000000001
 40
0.0
 40
0.0
 40
0.0
 40
0.0
 40
0.1158405014
 40
0.2384938673
 40
0.3666802095
 40
0.4977636387
 40
0.6292274647
 40
0.758445644
 40
0.8825587183
 40
1.0
 40
1.0
 40
1.0
 40
1.0
 10
15.4011748122
 20
9.0711694939
 30
0.0
 10
15.3987695551
 20
9.0711694942
 30
0.0
 10
15.3938069736
 20
9.0707020962
 30
0.0
 10
15.3864482586
 20
9.0685669227
 30
0.0
 10
15.3793941656
 20
9.0648265804
 30
0.0
 10
15.3730681039
 20
9.0596540794
 30
0.0
 10
15.3679731861
 20
9.0532385474
 30
0.0
 10
15.3642905746
 20
9.0460886798
 30
0.0
 10
15.3621894228
 20
9.0386336834
 30
0.0
 10
15.3617294746
 20
9.0336079971
 30
0.0
 10
15.3617294736
 20
9.0311695021
 30
0.0
  0
SPLINE
  5
2AB
100
AcDbEntity
  8
0
100
AcDbSpline
 62
9
  6
CONTINUOUS
 70
0
 71
3
 72
15
 73
11
 74
0
 42
0.0000001
 43
0.0000001
 44
0.0000000001
 40
0.0
 40
0.0
 40
0.0
 40
0.0
 40
0.0949714729
 40
0.2002993677
 40
0.3157561136
 40
0.441119908
 40
0.5749956844
 40
0.7144833897
 40
0.8570387434
 40
1.0
 40
1.0
 40
1.0
 40
1.0
 10
15.3469231523
 20
9.0664323159
 30
0.0
 10
15.3474991567
 20
9.0677623703
 30
0.0
 10
15.3490486635
 20
9.0704268068
 30
0.0
 10
15.3522025317
 20
9.0740985261
 30
0.0
 10
15.3562489495
 20
9.0775223746
 30
0.0
 10
15.3610198286
 20
9.0806898838
 30
0.0
 10
15.3663633415
 20
9.0836172503
 30
0.0
 10
15.3722196178
 20
9.0861021236
 30
0.0
 10
15.378464726
 20
9.0879052815
 30
0.0
 10
15.3827617039
 20
9.0886757232
 30
0.0
 10
15.3849252858
 20
9.0889572899
 30
0.0
  0
SPLINE
  5
2AC
100
AcDbEntity
  8
0
100
AcDbSpline
 62
9
  6
CONTINUOUS
 70
0
 71
3
 72
14
 73
10
 74
0
 42
0.0000001
 43
0.0000001
 44
0.0000000001
 40
0.0
 40
0.0
 40
0.0
 40
0.0
 40
0.0726099886
 40
0.1591054634
 40
0.2614253932
 40
0.3798098044
 40
0.5138483457
 40
0.6628058142
 40
1.0
 40
1.0
 40
1.0
 40
1.0
 10
15.4011748127
 20
9.0711695021
 30
0.0
 10
15.400569778
 20
9.0711694927
 30
0.0
 10
15.3992441755
 20
9.0714397702
 30
0.0
 10
15.397280053
 20
9.0724109402
 30
0.0
 10
15.3952067417
 20
9.0739290887
 30
0.0
 10
15.3930647449
 20
9.075975309
 30
0.0
 10
15.3909002175
 20
9.0785323201
 30
0.0
 10
15.3879303935
 20
9.0827674232
 30
0.0
 10
15.3860395885
 20
9.0863776403
 30
0.0
 10
15.3849252859
 20
9.0889569604
 30
0.0
  0
SPLINE
  5
2AD
100
AcDbEntity
  8
0
100
AcDbSpline
 62
9
  6
CONTINUOUS
 70
0
 71
3
 72
12
 73
8
 74
0
 42
0.0000001
 43
0.0000001
 44
0.0000000001
 40
0.0
 40
0.0
 40
0.0
 40
0.0
 40
0.2330219569
 40
0.4818654556
 40
0.6099376934
 40
0.7394023933
 40
1.0
 40
1.0
 40
1.0
 40
1.0
 10
15.3849252859
 20
9.0889569604
 30
0.0
 10
15.3840915736
 20
9.0908665503
 30
0.0
 10
15.3822643288
 20
9.0947721761
 30
0.0
 10
15.3795596757
 20
9.0995182152
 30
0.0
 10
15.3770218396
 20
9.1032709369
 30
0.0
 10
15.3742049221
 20
9.1069518512
 30
0.0
 10
15.3718475075
 20
9.1095354431
 30
0.0
 10
15.3701862348
 20
9.1111695021
 30
0.0
  0
SPLINE
  5
2AE
100
AcDbEntity
  8
0
100
AcDbSpline
 62
9
  6
CONTINUOUS
 70
0
 71
3
 72
9
 73
5
 74
0
 42
0.0000001
 43
0.0000001
 44
0.0000000001
 40
0.0
 40
0.0
 40
0.0
 40
0.0
 40
0.4999700978
 40
1.0
 40
1.0
 40
1.0
 40
1.0
 10
15.3701862348
 20
9.1111695022
 30
0.0
 10
15.3676934682
 20
9.116047891
 30
0.0
 10
15.361884102
 20
9.1254027401
 30
0.0
 10
15.3546963461
 20
9.1337343681
 30
0.0
 10
15.3508219252
 20
9.1376084622
 30
0.0
  0
SPLINE
  5
2AF
100
AcDbEntity
  8
0
100
AcDbSpline
 62
9
  6
CONTINUOUS
 70
0
 71
3
 72
28
 73
24
 74
0
 42
0.0000001
 43
0.0000001
 44
0.0000000001
 40
0.0
 40
0.0
 40
0.0
 40
0.0
 40
0.0624143756
 40
0.1249474335
 40
0.1874702692
 40
0.2499352056
 40
0.3123846219
 40
0.3748581509
 40
0.4373513386
 40
0.4998753818
 40
0.5311516424
 40
0.5624291314
 40
0.6249300826
 40
0.6561995334
 40
0.6874704471
 40
0.7187437568
 40
0.7500134123
 40
0.7812727273
 40
0.812526997
 40
0.8437889906
 40
0.8750631034
 40
0.9375855223
 40
1.0
 40
1.0
 40
1.0
 40
1.0
 10
14.6377001069
 20
9.8507302805
 30
0.0
 10
14.6348443166
 20
9.8535862915
 30
0.0
 10
14.6288083199
 20
9.8589950833
 30
0.0
 10
14.6188998824
 20
9.8660390793
 30
0.0
 10
14.60821947
 20
9.8718625456
 30
0.0
 10
14.5968995663
 20
9.8763101893
 30
0.0
 10
14.5850932777
 20
9.8792329396
 30
0.0
 10
14.572990573
 20
9.880500801
 30
0.0
 10
14.5608242144
 20
9.879992356
 30
0.0
 10
14.5508580348
 20
9.8780266875
 30
0.0
 10
14.5431499609
 20
9.8755322054
 30
0.0
 10
14.5356724376
 20
9.8724198358
 30
0.0
 10
14.5286002929
 20
9.86839836
 30
0.0
 10
14.522112528
 20
9.8635507317
 30
0.0
 10
14.5175686183
 20
9.8595134496
 30
0.0
 10
14.5133789606
 20
9.8551106828
 30
0.0
 10
14.5095703112
 20
9.8503752114
 30
0.0
 10
14.5061716047
 20
9.8453388356
 30
0.0
 10
14.5032057896
 20
9.8400368324
 30
0.0
 10
14.5006830073
 20
9.8345092504
 30
0.0
 10
14.4979250706
 20
9.8268929197
 30
0.0
 10
14.4956446005
 20
9.8170001571
 30
0.0
 10
14.4950453198
 20
9.8089029696
 30
0.0
 10
14.4950466738
 20
9.8048641098
 30
0.0
  0
SPLINE
  5
2B0
100
AcDbEntity
  8
0
100
AcDbSpline
 62
9
  6
CONTINUOUS
 70
0
 71
3
 72
10
 73
6
 74
0
 42
0.0000001
 43
0.0000001
 44
0.0000000001
 40
0.0
 40
0.0
 40
0.0
 40
0.0
 40
0.2804687889
 40
0.6654411701
 40
1.0
 40
1.0
 40
1.0
 40
1.0
 10
15.3350929619
 20
9.0932315792
 30
0.0
 10
15.3364738797
 20
9.0908628843
 30
0.0
 10
15.3394892337
 20
9.0850893685
 30
0.0
 10
15.3433292744
 20
9.0760908135
 30
0.0
 10
15.3457894487
 20
9.0695006201
 30
0.0
 10
15.3469218849
 20
9.0664323161
 30
0.0
  0
LINE
  5
2B1
100
AcDbEntity
  8
0
100
AcDbLine
 62
9
  6
CONTINUOUS
 10
15.3469225055
 20
9.066432316
 11
15.3124803691
 21
9.0976760495
  0
LINE
  5
2B2
100
AcDbEntity
  8
0
100
AcDbLine
 62
9
  6
CONTINUOUS
 10
15.3124803691
 20
9.0976760495
 11
14.5327174803
 21
9.8049024891
  0
SPLINE
  5
2B3
100
AcDbEntity
  8
0
100
AcDbSpline
 62
9
  6
CONTINUOUS
 70
0
 71
3
 72
21
 73
17
 74
0
 42
0.0000001
 43
0.0000001
 44
0.0000000001
 40
0.0
 40
0.0
 40
0.0
 40
0.0
 40
0.0617492102
 40
0.1221555312
 40
0.1813310552
 40
0.2396132747
 40
0.2976131498
 40
0.3557828792
 40
0.4144554546
 40
0.4739343338
 40
0.5344718918
 40
0.5965057722
 40
0.6602051459
 40
0.7254585373
 40
0.8599534607
 40
1.0
 40
1.0
 40
1.0
 40
1.0
 10
14.5327188537
 20
9.8049029114
 30
0.0
 10
14.5325473231
 20
9.8070769798
 30
0.0
 10
14.5325456036
 20
9.8114129921
 30
0.0
 10
14.5335865223
 20
9.8177607416
 30
0.0
 10
14.5356568281
 20
9.8237265443
 30
0.0
 10
14.5387490391
 20
9.829141558
 30
0.0
 10
14.5428317855
 20
9.8338097782
 30
0.0
 10
14.5477490489
 20
9.8376087471
 30
0.0
 10
14.5533501483
 20
9.840413771
 30
0.0
 10
14.5594456032
 20
9.8421760554
 30
0.0
 10
14.565870625
 20
9.8428496137
 30
0.0
 10
14.5724639433
 20
9.8424928015
 30
0.0
 10
14.5791002022
 20
9.841174242
 30
0.0
 10
14.5879364593
 20
9.8381868662
 30
0.0
 10
14.5984981987
 20
9.8322683474
 30
0.0
 10
14.6059187538
 20
9.8259433866
 30
0.0
 10
14.6094160665
 20
9.8224458765
 30
0.0
  0
SPLINE
  5
2B4
100
AcDbEntity
  8
0
100
AcDbSpline
 62
9
  6
CONTINUOUS
 70
0
 71
3
 72
9
 73
5
 74
0
 42
0.0000001
 43
0.0000001
 44
0.0000000001
 40
0.0
 40
0.0
 40
0.0
 40
0.0
 40
0.2549358942
 40
1.0
 40
1.0
 40
1.0
 40
1.0
 10
15.3225373617
 20
9.1093243419
 30
0.0
 10
15.3237657226
 20
9.1080960365
 30
0.0
 10
15.3284448455
 20
9.1031432288
 30
0.0
 10
15.3325414022
 20
9.0976207139
 30
0.0
 10
15.3350928593
 20
9.0932315896
 30
0.0
  0
LINE
  5
2B5
100
AcDbEntity
  8
0
100
AcDbLine
 62
9
  6
CONTINUOUS
 10
14.5327174803
 20
9.8049046602
 11
14.4950457568
 21
9.8048641091
  0
SPLINE
  5
2B6
100
AcDbEntity
  8
0
100
AcDbSpline
 62
9
  6
CONTINUOUS
 70
0
 71
3
 72
15
 73
11
 74
0
 42
0.0000001
 43
0.0000001
 44
0.0000000001
 40
0.0
 40
0.0
 40
0.0
 40
0.0
 40
0.1174412862
 40
0.2415543689
 40
0.3707725579
 40
0.5022363904
 40
0.6333198208
 40
0.761506158
 40
0.8841595129
 40
1.0
 40
1.0
 40
1.0
 40
1.0
 10
14.5136551832
 20
9.0311695021
 30
0.0
 10
14.5136551836
 20
9.0336079968
 30
0.0
 10
14.5131952384
 20
9.0386336829
 30
0.0
 10
14.5110940912
 20
9.0460886798
 30
0.0
 10
14.5074114842
 20
9.053238549
 30
0.0
 10
14.5023165706
 20
9.0596540833
 30
0.0
 10
14.4959905124
 20
9.0648265867
 30
0.0
 10
14.4889364223
 20
9.0685669313
 30
0.0
 10
14.4815777095
 20
9.0707021064
 30
0.0
 10
14.4766151293
 20
9.0711695052
 30
0.0
 10
14.4742098729
 20
9.0711695051
 30
0.0
  0
SPLINE
  5
2B7
100
AcDbEntity
  8
0
100
AcDbSpline
 62
9
  6
CONTINUOUS
 70
0
 71
3
 72
18
 73
14
 74
0
 42
0.0000001
 43
0.0000001
 44
0.0000000001
 40
0.0
 40
0.0
 40
0.0
 40
0.0
 40
0.163894888
 40
0.3240334031
 40
0.4766396977
 40
0.617969274
 40
0.7438975727
 40
0.7999399413
 40
0.8507558602
 40
0.8960175019
 40
0.935705776
 40
0.9701095042
 40
1.0
 40
1.0
 40
1.0
 40
1.0
 10
14.4950440661
 20
9.1111695016
 30
0.0
 10
14.4950445584
 20
9.1085566678
 30
0.0
 10
14.4946714248
 20
9.1033846242
 30
0.0
 10
14.4931125019
 20
9.0959253278
 30
0.0
 10
14.4906822972
 20
9.0890835387
 30
0.0
 10
14.487654098
 20
9.0830954981
 30
0.0
 10
14.4847442715
 20
9.0788189099
 30
0.0
 10
14.4823168795
 20
9.0760071382
 30
0.0
 10
14.4805806543
 20
9.0743091172
 30
0.0
 10
14.4788866875
 20
9.0729549595
 30
0.0
 10
14.4772574022
 20
9.0719592406
 30
0.0
 10
14.4757127276
 20
9.0713340248
 30
0.0
 10
14.4746864635
 20
9.0711694362
 30
0.0
 10
14.4742099453
 20
9.0711695051
 30
0.0
  0
ENDSEC
  0
SECTION
  2
OBJECTS
  0
DICTIONARY
  5
C
100
AcDbDictionary
280
0
281
1
  3
ACAD_GROUP
350
D
  3
ACAD_MLINESTYLE
350
17
  3
ACAD_LAYOUT
350
1A
  3
ACAD_PLOTSETTINGS
350
19
  3
ACAD_PLOTSTYLENAME
350
E
  0
DICTIONARY
  5
D
102
{ACAD_REACTORS
330
C
102
}
100
AcDbDictionary
280
0
281
1
  0
ACDBDICTIONARYWDFLT
  5
E
102
{ACAD_REACTORS
330
C
102
}
100
AcDbDictionary
281
1
  3
Normal
350
F
100
AcDbDictionaryWithDefault
340
F
  0
DICTIONARY
  5
17
102
{ACAD_REACTORS
330
C
102
}
100
AcDbDictionary
280
0
281
1
  3
Standard
350
18
  0
DICTIONARY
  5
19
102
{ACAD_REACTORS
330
C
102
}
100
AcDbDictionary
281
1
  0
DICTIONARY
  5
1A
102
{ACAD_REACTORS
330
C
102
}
100
AcDbDictionary
281
1
  3
Model
350
2B8
  3
Layout1
350
2B9
  0
ACDBPLACEHOLDER
  5
F
102
{ACAD_REACTORS
330
E
102
}
  0
MLINESTYLE
  5
18
102
{ACAD_REACTORS
330
17
102
}
100
AcDbMlineStyle
  2
STANDARD
 70
0
  3

 62
256
 51
90.0
 52
90.0
 71
2
 49
0.5
 62
256
  6
BYLAYER
 49
-0.5
 62
256
  6
BYLAYER
  0
LAYOUT
  5
2B8
102
{ACAD_REACTORS
330
1A
102
}
100
AcDbPlotSettings
  1

  2
none_device
  4
ANSI_C_(22.00_x_17.00_Inches)
  6

 40
0.0
 41
0.0
 42
0.0
 43
0.0
 44
558.8
 45
431.8
 46
0.0
 47
0.0
 48
0.0
 49
0.0
140
0.0
141
0.0
142
1.0
143
1.0
 70
1024
 72
0
 73
0
 74
0
  7

 75
0
147
1.0
148
0.0
149
0.0
100
AcDbLayout
  1
Model
 70
0
 71
0
 10
0.0
 20
0.0
 11
22.0
 21
17.0
 12
0.0
 22
0.0
 32
0.0
 14
0.0
 24
0.0
 34
0.0
 15
0.0
 25
0.0
 35
0.0
146
0.0
 13
0.0
 23
0.0
 33
0.0
 16
1.0
 26
0.0
 36
0.0
 17
0.0
 27
1.0
 37
0.0
 76
0
330
202
345
0
346
0
  0
LAYOUT
  5
2B9
102
{ACAD_REACTORS
330
1A
102
}
100
AcDbPlotSettings
  1

  2
none_device
  4
ANSI_C_(22.00_x_17.00_Inches)
  6

 40
0.0
 41
0.0
 42
0.0
 43
0.0
 44
558.8
 45
431.8
 46
0.0
 47
0.0
 48
0.0
 49
0.0
140
0.0
141
0.0
142
1.0
143
1.0
 70
0
 72
0
 73
0
 74
0
  7

 75
0
147
1.0
148
0.0
149
0.0
100
AcDbLayout
  1
Layout1
 70
0
 71
1
 10
0.0
 20
0.0
 11
22.0
 21
17.0
 12
0.0
 22
0.0
 32
0.0
 14
0.0
 24
0.0
 34
0.0
 15
0.0
 25
0.0
 35
0.0
146
0.0
 13
0.0
 23
0.0
 33
0.0
 16
1.0
 26
0.0
 36
0.0
 17
0.0
 27
1.0
 37
0.0
 76
0
330
203
345
0
346
0
  0
ENDSEC
  0
EOF
