999
DXF file: E:\BT Custom\CADOUTPUT\_RIGHT.dxf
999
Pro/ENGINEER 2018400 by Parametric Technology Corporation
  0
SECTION
  2
HEADER
  9
$ACADVER
  1
AC1018
  9
$DWGCODEPAGE
  3
ANSI_1252
  9
$EXTMAX
 10
22.0
 20
17.0
 30
0.0
  9
$EXTMIN
 10
0.0
 20
0.0
 30
0.0
  9
$LIMMIN
 10
0.0
 20
0.0
  9
$LIMMAX
 10
22.0
 20
17.0
  9
$VIEWCTR
 10
11.0
 20
8.5
  9
$VIEWSIZE
 40
17.0
  9
$CLAYER
  8
0
  9
$LTSCALE
 40
1.21
  9
$CELTYPE
  6
BYLAYER
  9
$DIMSCALE
 40
1.0
  9
$DIMASZ
 40
0.1
  9
$DIMEXO
 40
0.0625
  9
$DIMDLI
 40
0.836
  9
$DIMEXE
 40
0.125
  9
$DIMCEN
 40
0.198
  9
$DIMLFAC
 40
1.0
  9
$DIMBLK
  1
_FILLED
  9
$DIMALT
 70
1
  9
$DIMALTD
 70
2
  9
$DIMALTTD
 70
2
  9
$DIMALTF
 40
25.4
  9
$DIMTXT
 40
0.08
  9
$DIMTOL
 70
1
  9
$DIMLIM
 70
0
  9
$DIMTFAC
 40
1.0
  9
$DIMTP
 40
0.001
  9
$DIMTM
 40
0.001
  9
$DIMGAP
 40
0.09
  9
$DIMDSEP
 70
46
  9
$AUNITS
 70
0
  9
$PDMODE
 70
3
  9
$PDSIZE
 40
0.06
  9
$HANDSEED
  5
29B
  9
$TILEMODE
 70
1
  9
$MEASUREMENT
 70
0
  9
$INSUNITS
 70
1
  0
ENDSEC
  0
SECTION
  2
CLASSES
  0
CLASS
  1
ACDBDICTIONARYWDFLT
  2
AcDbDictionaryWithDefault
  3
AutoCAD 2000
 90
0
 91
1
280
0
281
0
  0
CLASS
  1
ACDBPLACEHOLDER
  2
AcDbPlaceHolder
  3
AutoCAD 2000
 90
0
 91
1
280
0
281
0
  0
CLASS
  1
LAYOUT
  2
AcDbLayout
  3
AutoCAD 2000
 90
0
 91
0
280
0
281
0
  0
ENDSEC
  0
SECTION
  2
TABLES
  0
TABLE
  2
VPORT
  5
8
100
AcDbSymbolTable
 70
2
  0
VPORT
  5
1F4
100
AcDbSymbolTableRecord
100
AcDbViewportTableRecord
  2
*ACTIVE
 70
0
 10
0.0
 20
0.0
 11
1.0
 21
1.0
 12
11.0
 22
8.5
 13
0.0
 23
0.0
 14
1.0
 24
1.0
 15
0.0
 25
0.0
 16
0.0
 26
0.0
 36
1.0
 17
0.0
 27
0.0
 37
0.0
 40
17.0
 41
1.2941176471
 42
50.0
 43
0.0
 44
0.0
 50
0.0
 51
0.0
 71
0
 72
100
 73
1
 74
1
 75
0
 76
0
 77
0
 78
0
  0
ENDTAB
  0
TABLE
  2
LTYPE
  5
5
100
AcDbSymbolTable
 70
6
  0
LTYPE
  5
14
100
AcDbSymbolTableRecord
100
AcDbLinetypeTableRecord
  2
BYBLOCK
 70
0
  3

 72
65
 73
0
 40
0.0
  0
LTYPE
  5
15
100
AcDbSymbolTableRecord
100
AcDbLinetypeTableRecord
  2
BYLAYER
 70
0
  3

 72
65
 73
0
 40
0.0
  0
LTYPE
  5
16
100
AcDbSymbolTableRecord
100
AcDbLinetypeTableRecord
  2
CONTINUOUS
 70
64
  3
Solid line
 72
65
 73
0
 40
0.0
  0
LTYPE
  5
1F5
100
AcDbSymbolTableRecord
100
AcDbLinetypeTableRecord
  2
CENTER
 70
64
  3
____ _ ____ _ ____ _ ____ _ ____ _ ____ _ ____
 72
65
 73
4
 40
0.6
 49
0.375
 74
0
 49
-0.075
 74
0
 49
0.075
 74
0
 49
-0.075
 74
0
  0
LTYPE
  5
1F6
100
AcDbSymbolTableRecord
100
AcDbLinetypeTableRecord
  2
HIDDEN
 70
64
  3
- - - - - - - - - - - - - - - - - - - -
 72
65
 73
2
 40
0.2
 49
0.1
 74
0
 49
-0.1
 74
0
  0
LTYPE
  5
1F7
100
AcDbSymbolTableRecord
100
AcDbLinetypeTableRecord
  2
PHANTOM
 70
64
  3
_____ _ _ _____ _ _ _____ _ _ _____
 72
65
 73
6
 40
0.8
 49
0.45
 74
0
 49
-0.05
 74
0
 49
0.1
 74
0
 49
-0.05
 74
0
 49
0.1
 74
0
 49
-0.05
 74
0
  0
LTYPE
  5
1F8
100
AcDbSymbolTableRecord
100
AcDbLinetypeTableRecord
  2
DOT
 70
64
  3
. . . . . . . . . . . . . . . . . . . .
 72
65
 73
2
 40
0.2
 49
0.1
 74
0
 49
-0.1
 74
0
  0
LTYPE
  5
1F9
100
AcDbSymbolTableRecord
100
AcDbLinetypeTableRecord
  2
DASHED
 70
64
  3
- - - - - - - - - - - - - - - - - - - -
 72
65
 73
2
 40
0.2
 49
0.1
 74
0
 49
-0.1
 74
0
  0
ENDTAB
  0
TABLE
  2
LAYER
  5
2
100
AcDbSymbolTable
 70
36
  0
LAYER
  5
10
100
AcDbSymbolTableRecord
100
AcDbLayerTableRecord
  2
0
 70
0
 62
7
  6
CONTINUOUS
370
-3
390
F
  0
LAYER
  5
1FA
100
AcDbSymbolTableRecord
100
AcDbLayerTableRecord
  2
DEFAULT_1
 70
0
 62
7
  6
CENTER
370
-3
390
F
  0
LAYER
  5
1FB
100
AcDbSymbolTableRecord
100
AcDbLayerTableRecord
  2
DEFAULT_2
 70
0
 62
8
  6
HIDDEN
370
-3
390
F
  0
LAYER
  5
1FC
100
AcDbSymbolTableRecord
100
AcDbLayerTableRecord
  2
DEFAULT_3
 70
0
 62
7
  6
PHANTOM
370
-3
390
F
  0
LAYER
  5
1FD
100
AcDbSymbolTableRecord
100
AcDbLayerTableRecord
  2
ALL_FEATURES
 70
0
 62
7
  6
CONTINUOUS
370
-3
390
F
  0
LAYER
  5
1FE
100
AcDbSymbolTableRecord
100
AcDbLayerTableRecord
  2
AXES_FEATURES
 70
0
 62
7
  6
CONTINUOUS
370
-3
390
F
  0
LAYER
  5
1FF
100
AcDbSymbolTableRecord
100
AcDbLayerTableRecord
  2
DIMENSIONS
 70
0
 62
7
  6
CONTINUOUS
370
-3
390
F
  0
ENDTAB
  0
TABLE
  2
STYLE
  5
3
100
AcDbSymbolTable
 70
1
  0
STYLE
  5
11
100
AcDbSymbolTableRecord
100
AcDbTextStyleTableRecord
  2
STANDARD
 70
0
 40
0.0
 41
0.8
 50
0.0
 71
0
 42
0.2
  3
txt
  4

  0
STYLE
  5
200
100
AcDbSymbolTableRecord
100
AcDbTextStyleTableRecord
  2
TEXTSTYLE_1
 70
0
 40
0.0
 41
0.8
 50
0.0
 71
0
 42
0.2
  3
gdt
  4

  0
ENDTAB
  0
TABLE
  2
VIEW
  5
6
100
AcDbSymbolTable
 70
0
  0
ENDTAB
  0
TABLE
  2
UCS
  5
7
100
AcDbSymbolTable
 70
0
  0
ENDTAB
  0
TABLE
  2
APPID
  5
9
100
AcDbSymbolTable
 70
1
  0
APPID
  5
201
100
AcDbSymbolTableRecord
100
AcDbRegAppTableRecord
  2
ACAD
 70
0
  0
ENDTAB
  0
TABLE
  2
BLOCK_RECORD
  5
1
100
AcDbSymbolTable
 70
0
  0
BLOCK_RECORD
  5
202
100
AcDbSymbolTableRecord
100
AcDbBlockTableRecord
  2
*Model_Space
  0
BLOCK_RECORD
  5
203
100
AcDbSymbolTableRecord
100
AcDbBlockTableRecord
  2
*Paper_Space
  0
BLOCK_RECORD
  5
204
100
AcDbSymbolTableRecord
100
AcDbBlockTableRecord
  2
_FILLED
  0
ENDTAB
  0
TABLE
  2
DIMSTYLE
  5
A
100
AcDbSymbolTable
 70
1
100
AcDbDimStyleTable
 71
0
  0
DIMSTYLE
105
205
100
AcDbSymbolTableRecord
100
AcDbDimStyleTableRecord
  2
STANDARD
 70
0
  3

  4

 40
1.0
 41
0.1
 42
0.0625
 43
0.38
 44
0.125
 45
0.0
 46
0.0
 47
0.001
 48
0.001
140
0.08
141
0.09
142
0.0
143
25.4
144
1.0
145
0.0
146
1.0
147
0.09
 71
1.0
 72
0.0
 73
1
 74
1
 75
0
 76
0
 77
0
 78
4
 79
1
170
1
171
2
172
0
173
0
174
0
175
0
176
0
177
0
178
0
270
2
179
3
271
3
272
3
273
2
274
2
275
0
280
0
281
0
282
0
283
1
284
4
285
0
286
0
287
3
288
0
340
11
278
46
341
204
342
204
343
204
344
204
  0
ENDTAB
  0
ENDSEC
  0
SECTION
  2
BLOCKS
  0
BLOCK
  5
20
100
AcDbEntity
  8
0
100
AcDbBlockBegin
  2
*Model_Space
 70
0
 10
0.0
 20
0.0
 30
0.0
  3
*Model_Space
  1

  0
ENDBLK
  5
21
100
AcDbEntity
  8
0
100
AcDbBlockEnd
  0
BLOCK
  5
1C
100
AcDbEntity
  8
0
100
AcDbBlockBegin
  2
*Paper_Space
 70
0
 10
0.0
 20
0.0
 30
0.0
  3
*Paper_Space
  1

  0
ENDBLK
  5
1D
100
AcDbEntity
  8
0
100
AcDbBlockEnd
  0
BLOCK
  5
206
100
AcDbEntity
  8
0
100
AcDbBlockBegin
  2
_FILLED
 70
64
 10
0.0
 20
0.0
  3
_FILLED
  1

  0
SOLID
  5
207
100
AcDbEntity
  8
0
  6
BYBLOCK
 62
0
100
AcDbTrace
 10
0.0
 20
0.0
 11
-1.0
 21
0.2
 12
-1.0
 22
-0.2
 13
-1.0
 23
-0.2
  0
ENDBLK
  5
208
100
AcDbEntity
  8
0
  6
BYBLOCK
 62
0
100
AcDbBlockEnd
  0
ENDSEC
  0
SECTION
  2
ENTITIES
  0
LINE
  5
209
100
AcDbEntity
  8
0
100
AcDbLine
 62
7
  6
CONTINUOUS
 10
-0.3625165177
 20
6.787391804
 11
-0.3625165177
 21
6.867391804
  0
LINE
  5
20A
100
AcDbEntity
  8
0
100
AcDbLine
 62
7
  6
CONTINUOUS
 10
0.5624834823
 20
6.787391804
 11
0.5624834823
 21
6.867391804
  0
LINE
  5
20B
100
AcDbEntity
  8
0
100
AcDbLine
 62
7
  6
CONTINUOUS
 10
3.4799834823
 20
6.557391804
 11
3.4799834823
 21
6.287391804
  0
LINE
  5
20C
100
AcDbEntity
  8
0
100
AcDbLine
 62
7
  6
CONTINUOUS
 10
3.5499834823
 20
7.0613867534
 11
3.5499834823
 21
7.2213867534
  0
LINE
  5
20D
100
AcDbEntity
  8
0
100
AcDbLine
 62
7
  6
CONTINUOUS
 10
3.9049834823
 20
6.597391804
 11
3.9049834823
 21
7.0213867534
  0
LINE
  5
20E
100
AcDbEntity
  8
0
100
AcDbLine
 62
7
  6
CONTINUOUS
 10
4.2949834823
 20
7.0213867534
 11
4.2949834823
 21
6.597391804
  0
LINE
  5
20F
100
AcDbEntity
  8
0
100
AcDbLine
 62
7
  6
CONTINUOUS
 10
4.6499834823
 20
7.0613867534
 11
4.6499834823
 21
7.2213867534
  0
LINE
  5
210
100
AcDbEntity
  8
0
100
AcDbLine
 62
7
  6
CONTINUOUS
 10
4.7199834823
 20
6.557391804
 11
4.7199834823
 21
6.287391804
  0
LINE
  5
211
100
AcDbEntity
  8
0
100
AcDbLine
 62
7
  6
CONTINUOUS
 10
-0.6900165177
 20
6.287391804
 11
0.8899834823
 21
6.287391804
  0
LINE
  5
212
100
AcDbEntity
  8
0
100
AcDbLine
 62
7
  6
CONTINUOUS
 10
3.4799887977
 20
6.287391804
 11
4.7199781669
 21
6.287391804
  0
LINE
  5
213
100
AcDbEntity
  8
0
100
AcDbLine
 62
7
  6
CONTINUOUS
 10
10.9999834823
 20
6.287391804
 11
13.1999834823
 21
6.287391804
  0
LINE
  5
214
100
AcDbEntity
  8
0
100
AcDbLine
 62
7
  6
CONTINUOUS
 10
20.0999834823
 20
6.287391804
 11
22.0999834823
 21
6.287391804
  0
LINE
  5
215
100
AcDbEntity
  8
0
100
AcDbLine
 62
9
  6
CONTINUOUS
 10
13.1999834823
 20
6.557391804
 11
10.9999834823
 21
6.557391804
  0
LINE
  5
216
100
AcDbEntity
  8
0
100
AcDbLine
 62
9
  6
CONTINUOUS
 10
4.7199834823
 20
6.557391804
 11
3.4799834823
 21
6.557391804
  0
LINE
  5
217
100
AcDbEntity
  8
0
100
AcDbLine
 62
7
  6
CONTINUOUS
 10
4.6799830772
 20
6.597391804
 11
3.5199834823
 21
6.597391804
  0
LINE
  5
218
100
AcDbEntity
  8
0
100
AcDbLine
 62
7
  6
CONTINUOUS
 10
11.0399834823
 20
6.597391804
 11
13.1599834823
 21
6.597391804
  0
LINE
  5
219
100
AcDbEntity
  8
0
100
AcDbLine
 62
9
  6
CONTINUOUS
 10
22.0999834823
 20
6.667391804
 11
20.0999834823
 21
6.667391804
  0
LINE
  5
21A
100
AcDbEntity
  8
0
100
AcDbLine
 62
7
  6
CONTINUOUS
 10
22.0599834823
 20
6.707391804
 11
20.1399834823
 21
6.707391804
  0
LINE
  5
21B
100
AcDbEntity
  8
0
100
AcDbLine
 62
7
  6
CONTINUOUS
 10
0.594983013
 20
6.787391804
 11
-0.3950160484
 21
6.787391804
  0
LINE
  5
21C
100
AcDbEntity
  8
0
100
AcDbLine
 62
9
  6
CONTINUOUS
 10
0.5624834823
 20
6.867391804
 11
-0.3625165177
 21
6.867391804
  0
LINE
  5
21D
100
AcDbEntity
  8
0
100
AcDbLine
 62
7
  6
CONTINUOUS
 10
12.5299834823
 20
6.973391804
 11
11.6699834823
 21
6.973391804
  0
LINE
  5
21E
100
AcDbEntity
  8
0
100
AcDbLine
 62
7
  6
CONTINUOUS
 10
3.5899834823
 20
7.0213867534
 11
4.6099834823
 21
7.0213867534
  0
LINE
  5
21F
100
AcDbEntity
  8
0
100
AcDbLine
 62
7
  6
CONTINUOUS
 10
11.6699843004
 20
7.023391804
 11
12.5299826642
 21
7.023391804
  0
LINE
  5
220
100
AcDbEntity
  8
0
100
AcDbLine
 62
9
  6
CONTINUOUS
 10
-0.3273046047
 20
7.0314943681
 11
0.5272715694
 21
7.0314943681
  0
LINE
  5
221
100
AcDbEntity
  8
0
100
AcDbLine
 62
7
  6
CONTINUOUS
 10
-0.3181849026
 20
7.037391804
 11
0.5181515405
 21
7.037391804
  0
LINE
  5
222
100
AcDbEntity
  8
0
100
AcDbLine
 62
9
  6
CONTINUOUS
 10
3.5499834823
 20
7.0613867534
 11
4.6499834823
 21
7.0613867534
  0
LINE
  5
223
100
AcDbEntity
  8
0
100
AcDbLine
 62
9
  6
CONTINUOUS
 10
4.6499834823
 20
7.2213867534
 11
3.5499834823
 21
7.2213867534
  0
LINE
  5
224
100
AcDbEntity
  8
0
100
AcDbLine
 62
7
  6
CONTINUOUS
 10
4.6099834823
 20
7.2613867534
 11
3.5899886728
 21
7.2613867534
  0
LINE
  5
225
100
AcDbEntity
  8
0
100
AcDbLine
 62
9
  6
CONTINUOUS
 10
21.9099834823
 20
7.497391804
 11
20.2899834823
 21
7.497391804
  0
LINE
  5
226
100
AcDbEntity
  8
0
100
AcDbLine
 62
7
  6
CONTINUOUS
 10
21.8699834823
 20
7.537391804
 11
20.3300172368
 21
7.537391804
  0
LINE
  5
227
100
AcDbEntity
  8
0
100
AcDbLine
 62
7
  6
CONTINUOUS
 10
11.9554674123
 20
9.5848093844
 11
11.898513532
 21
9.5597051414
  0
LINE
  5
228
100
AcDbEntity
  8
0
100
AcDbLine
 62
7
  6
CONTINUOUS
 10
11.9554175027
 20
9.584791789
 11
11.9554129095
 21
9.5847901545
  0
LINE
  5
229
100
AcDbEntity
  8
0
100
AcDbLine
 62
9
  6
CONTINUOUS
 10
12.1713451844
 20
8.773391804
 11
12.0286217802
 21
8.773391804
  0
LINE
  5
22A
100
AcDbEntity
  8
0
100
AcDbLine
 62
7
  6
CONTINUOUS
 10
12.1779834823
 20
8.813391804
 11
12.0219834823
 21
8.813391804
  0
LINE
  5
22B
100
AcDbEntity
  8
0
100
AcDbLine
 62
9
  6
CONTINUOUS
 10
11.9819834823
 20
8.853391804
 11
12.2179834823
 21
8.853391804
  0
LINE
  5
22C
100
AcDbEntity
  8
0
100
AcDbLine
 62
7
  6
CONTINUOUS
 10
10.9999834823
 20
6.287391804
 11
10.9999834823
 21
6.557391804
  0
LINE
  5
22D
100
AcDbEntity
  8
0
100
AcDbLine
 62
9
  6
CONTINUOUS
 10
11.0399834823
 20
6.597391804
 11
11.0399834823
 21
6.287391804
  0
LINE
  5
22E
100
AcDbEntity
  8
0
100
AcDbLine
 62
7
  6
CONTINUOUS
 10
11.7031782533
 20
9.3454918316
 11
11.6795324566
 21
9.2699395376
  0
LINE
  5
22F
100
AcDbEntity
  8
0
100
AcDbLine
 62
7
  6
CONTINUOUS
 10
11.7033577056
 20
9.3458342621
 11
11.7031782533
 21
9.3454918316
  0
LWPOLYLINE
  5
230
100
AcDbEntity
  8
0
100
AcDbPolyline
 62
7
  6
CONTINUOUS
 90
4
 70
0
 10
11.738344882
 20
9.4124571488
 10
11.7034664921
 20
9.3461796621
 10
11.6797016904
 20
9.270725743
 10
11.6699834666
 20
9.1798885085
  0
LINE
  5
231
100
AcDbEntity
  8
0
100
AcDbLine
 62
7
  6
CONTINUOUS
 10
11.782782167
 20
9.4701418828
 11
11.737949274
 21
9.4118418354
  0
LINE
  5
232
100
AcDbEntity
  8
0
100
AcDbLine
 62
7
  6
CONTINUOUS
 10
11.898513532
 20
9.5597051414
 11
11.835684758
 21
9.5190096798
  0
LWPOLYLINE
  5
233
100
AcDbEntity
  8
0
100
AcDbPolyline
 62
7
  6
CONTINUOUS
 90
3
 70
0
 10
11.8992022909
 20
9.560069776
 10
11.8362919871
 20
9.5194819381
 10
11.7825547406
 20
9.469846657
  0
LINE
  5
234
100
AcDbEntity
  8
0
100
AcDbLine
 62
9
  6
CONTINUOUS
 10
12.2179834823
 20
9.757391804
 11
11.9819834823
 21
9.757391804
  0
LINE
  5
235
100
AcDbEntity
  8
0
100
AcDbLine
 62
7
  6
CONTINUOUS
 10
12.0219834823
 20
9.797391804
 11
12.1779834823
 21
9.797391804
  0
LINE
  5
236
100
AcDbEntity
  8
0
100
AcDbLine
 62
7
  6
CONTINUOUS
 10
20.2899834823
 20
9.882391804
 11
21.9099834823
 21
9.882391804
  0
LINE
  5
237
100
AcDbEntity
  8
0
100
AcDbLine
 62
7
  6
CONTINUOUS
 10
11.6699834823
 20
6.973391804
 11
11.6699834823
 21
6.597391804
  0
LINE
  5
238
100
AcDbEntity
  8
0
100
AcDbLine
 62
7
  6
CONTINUOUS
 10
11.6699834823
 20
7.023391804
 11
11.6699834823
 21
9.1798240031
  0
LINE
  5
239
100
AcDbEntity
  8
0
100
AcDbLine
 62
7
  6
CONTINUOUS
 10
11.7599834823
 20
6.973391804
 11
11.7599834823
 21
7.023391804
  0
LINE
  5
23A
100
AcDbEntity
  8
0
100
AcDbLine
 62
9
  6
CONTINUOUS
 10
11.9419834823
 20
8.8515464956
 11
11.9419834823
 21
9.5646683073
  0
LINE
  5
23B
100
AcDbEntity
  8
0
100
AcDbLine
 62
7
  6
CONTINUOUS
 10
11.9819834823
 20
8.853391804
 11
11.9819834823
 21
9.757391804
  0
LINE
  5
23C
100
AcDbEntity
  8
0
100
AcDbLine
 62
9
  6
CONTINUOUS
 10
12.0219834823
 20
9.797391804
 11
12.0219834823
 21
8.813391804
  0
LINE
  5
23D
100
AcDbEntity
  8
0
100
AcDbLine
 62
9
  6
CONTINUOUS
 10
12.1779834823
 20
8.813391804
 11
12.1779834823
 21
9.797391804
  0
LINE
  5
23E
100
AcDbEntity
  8
0
100
AcDbLine
 62
7
  6
CONTINUOUS
 10
12.2179834823
 20
9.757391804
 11
12.2179834823
 21
8.853391804
  0
LINE
  5
23F
100
AcDbEntity
  8
0
100
AcDbLine
 62
9
  6
CONTINUOUS
 10
12.2579834823
 20
9.5646685753
 11
12.2579834823
 21
8.8515467573
  0
LINE
  5
240
100
AcDbEntity
  8
0
100
AcDbLine
 62
7
  6
CONTINUOUS
 10
11.6795324566
 20
9.2699395376
 11
11.6710248163
 21
9.1896221108
  0
LWPOLYLINE
  5
241
100
AcDbEntity
  8
0
100
AcDbPolyline
 62
7
  6
CONTINUOUS
 90
5
 70
0
 10
11.9819834851
 20
9.6224683709
 10
11.9795198136
 20
9.608647234
 10
11.972421744
 20
9.5965162709
 10
11.9615742019
 20
9.587594284
 10
11.9554320775
 20
9.584796989
  0
LINE
  5
242
100
AcDbEntity
  8
0
100
AcDbLine
 62
7
  6
CONTINUOUS
 10
12.2445225215
 20
9.5848011913
 11
12.2445184016
 21
9.5848026567
  0
LINE
  5
243
100
AcDbEntity
  8
0
100
AcDbLine
 62
7
  6
CONTINUOUS
 10
12.3014475909
 20
9.5597082396
 11
12.2445184016
 21
9.5848026567
  0
LWPOLYLINE
  5
244
100
AcDbEntity
  8
0
100
AcDbPolyline
 62
7
  6
CONTINUOUS
 90
3
 70
0
 10
12.2445358639
 20
9.5847962775
 10
12.2383930911
 20
9.5875936957
 10
12.2275472268
 20
9.5965134156
  0
LINE
  5
245
100
AcDbEntity
  8
0
100
AcDbLine
 62
7
  6
CONTINUOUS
 10
12.363674646
 20
9.5194821954
 11
12.3010605105
 21
9.5598788649
  0
LINE
  5
246
100
AcDbEntity
  8
0
100
AcDbLine
 62
7
  6
CONTINUOUS
 10
12.3642773015
 20
9.5190135018
 11
12.3014475909
 21
9.5597082396
  0
LINE
  5
247
100
AcDbEntity
  8
0
100
AcDbLine
 62
7
  6
CONTINUOUS
 10
12.4176842802
 20
9.469595585
 11
12.363674646
 21
9.5194821954
  0
LINE
  5
248
100
AcDbEntity
  8
0
100
AcDbLine
 62
7
  6
CONTINUOUS
 10
12.462014712
 20
9.4118464822
 11
12.4174103038
 21
9.4698490976
  0
LINE
  5
249
100
AcDbEntity
  8
0
100
AcDbLine
 62
7
  6
CONTINUOUS
 10
12.2275458848
 20
9.5965157086
 11
12.2204488362
 21
9.6086420402
  0
LINE
  5
24A
100
AcDbEntity
  8
0
100
AcDbLine
 62
7
  6
CONTINUOUS
 10
12.2204482473
 20
9.6086453424
 11
12.217983466
 21
9.6224677029
  0
LWPOLYLINE
  5
24B
100
AcDbEntity
  8
0
100
AcDbPolyline
 62
7
  6
CONTINUOUS
 90
3
 70
0
 10
12.5203048476
 20
9.2703554949
 10
12.5202651995
 20
9.2707260881
 10
12.508073546
 20
9.3094348262
  0
LWPOLYLINE
  5
24C
100
AcDbEntity
  8
0
100
AcDbPolyline
 62
7
  6
CONTINUOUS
 90
4
 70
0
 10
12.5299835011
 20
9.1797911024
 10
12.5204333593
 20
9.2699448966
 10
12.4967866367
 20
9.3454967993
 10
12.4616218964
 20
9.4124574382
  0
LINE
  5
24D
100
AcDbEntity
  8
0
100
AcDbLine
 62
7
  6
CONTINUOUS
 10
12.4399834823
 20
6.973391804
 11
12.4399834823
 21
7.023391804
  0
LINE
  5
24E
100
AcDbEntity
  8
0
100
AcDbLine
 62
7
  6
CONTINUOUS
 10
12.5299834823
 20
6.973391804
 11
12.5299834823
 21
6.597391804
  0
LINE
  5
24F
100
AcDbEntity
  8
0
100
AcDbLine
 62
7
  6
CONTINUOUS
 10
12.5299834823
 20
7.023391804
 11
12.5299834823
 21
9.17982252
  0
LINE
  5
250
100
AcDbEntity
  8
0
100
AcDbLine
 62
7
  6
CONTINUOUS
 10
20.1299834823
 20
11.082391804
 11
22.0699834823
 21
11.082391804
  0
LINE
  5
251
100
AcDbEntity
  8
0
100
AcDbLine
 62
9
  6
CONTINUOUS
 10
20.0899834823
 20
11.122391804
 11
22.1099834823
 21
11.122391804
  0
LINE
  5
252
100
AcDbEntity
  8
0
100
AcDbLine
 62
7
  6
CONTINUOUS
 10
12.4966083914
 20
9.3458369163
 11
12.4965003444
 21
9.3461799676
  0
LINE
  5
253
100
AcDbEntity
  8
0
100
AcDbLine
 62
9
  6
CONTINUOUS
 10
13.1599834823
 20
6.287391804
 11
13.1599834823
 21
6.597391804
  0
LINE
  5
254
100
AcDbEntity
  8
0
100
AcDbLine
 62
7
  6
CONTINUOUS
 10
13.1999834823
 20
6.557391804
 11
13.1999834823
 21
6.287391804
  0
LINE
  5
255
100
AcDbEntity
  8
0
100
AcDbLine
 62
9
  6
CONTINUOUS
 10
22.1099834823
 20
11.542391804
 11
20.0899834823
 21
11.542391804
  0
LINE
  5
256
100
AcDbEntity
  8
0
100
AcDbLine
 62
7
  6
CONTINUOUS
 10
22.0699834823
 20
11.582391804
 11
20.1299951519
 21
11.582391804
  0
LINE
  5
257
100
AcDbEntity
  8
0
100
AcDbLine
 62
9
  6
CONTINUOUS
 10
21.9099834823
 20
11.692391804
 11
20.2899834823
 21
11.692391804
  0
LINE
  5
258
100
AcDbEntity
  8
0
100
AcDbLine
 62
7
  6
CONTINUOUS
 10
21.8699834823
 20
11.732391804
 11
20.3299834823
 21
11.732391804
  0
LINE
  5
259
100
AcDbEntity
  8
0
100
AcDbLine
 62
7
  6
CONTINUOUS
 10
20.0899834823
 20
11.122391804
 11
20.0899834823
 21
11.542391804
  0
LINE
  5
25A
100
AcDbEntity
  8
0
100
AcDbLine
 62
7
  6
CONTINUOUS
 10
20.0999834823
 20
6.667391804
 11
20.0999834823
 21
6.287391804
  0
LINE
  5
25B
100
AcDbEntity
  8
0
100
AcDbLine
 62
7
  6
CONTINUOUS
 10
20.2899834823
 20
11.692391804
 11
20.2899834823
 21
11.582391804
  0
LINE
  5
25C
100
AcDbEntity
  8
0
100
AcDbLine
 62
7
  6
CONTINUOUS
 10
20.2899834823
 20
7.497391804
 11
20.2899834823
 21
6.707391804
  0
LINE
  5
25D
100
AcDbEntity
  8
0
100
AcDbLine
 62
7
  6
CONTINUOUS
 10
20.2899834823
 20
9.882391804
 11
20.2899834823
 21
11.082391804
  0
LINE
  5
25E
100
AcDbEntity
  8
0
100
AcDbLine
 62
7
  6
CONTINUOUS
 10
20.3999834823
 20
7.537391804
 11
20.3999834823
 21
9.882391804
  0
LINE
  5
25F
100
AcDbEntity
  8
0
100
AcDbLine
 62
7
  6
CONTINUOUS
 10
21.7999834823
 20
7.537391804
 11
21.7999834823
 21
9.882391804
  0
LINE
  5
260
100
AcDbEntity
  8
0
100
AcDbLine
 62
7
  6
CONTINUOUS
 10
21.9099834823
 20
11.692391804
 11
21.9099834823
 21
11.582391804
  0
LINE
  5
261
100
AcDbEntity
  8
0
100
AcDbLine
 62
7
  6
CONTINUOUS
 10
21.9099834823
 20
7.497391804
 11
21.9099834823
 21
6.707391804
  0
LINE
  5
262
100
AcDbEntity
  8
0
100
AcDbLine
 62
7
  6
CONTINUOUS
 10
21.9099834823
 20
9.882391804
 11
21.9099834823
 21
11.082391804
  0
LINE
  5
263
100
AcDbEntity
  8
0
100
AcDbLine
 62
7
  6
CONTINUOUS
 10
22.0999834823
 20
6.667391804
 11
22.0999834823
 21
6.287391804
  0
LINE
  5
264
100
AcDbEntity
  8
0
100
AcDbLine
 62
7
  6
CONTINUOUS
 10
22.1099834823
 20
11.122391804
 11
22.1099834823
 21
11.542391804
  0
ARC
  5
265
100
AcDbEntity
  8
0
100
AcDbCircle
 62
7
  6
CONTINUOUS
 10
0.1912038886
 20
6.1044967643
 40
0.9
100
AcDbArc
 50
130.6439171763
 51
168.2748731243
  0
ARC
  5
266
100
AcDbEntity
  8
0
100
AcDbCircle
 62
7
  6
CONTINUOUS
 10
0.008763076
 20
6.1044967643
 40
0.9
100
AcDbArc
 50
11.7251268757
 51
49.3560828237
  0
ARC
  5
267
100
AcDbEntity
  8
0
100
AcDbCircle
 62
7
  6
CONTINUOUS
 10
0.0374834823
 20
6.867391804
 40
0.4
100
AcDbArc
 50
155.7790568908
 51
180.0
  0
ARC
  5
268
100
AcDbEntity
  8
0
100
AcDbCircle
 62
7
  6
CONTINUOUS
 10
0.1624834823
 20
6.867391804
 40
0.4
100
AcDbArc
 50
0.0
 51
24.2209431092
  0
ARC
  5
269
100
AcDbEntity
  8
0
100
AcDbCircle
 62
7
  6
CONTINUOUS
 10
4.6099834823
 20
7.0613867534
 40
0.04
100
AcDbArc
 50
270.0
 51
360.0
  0
ARC
  5
26A
100
AcDbEntity
  8
0
100
AcDbCircle
 62
7
  6
CONTINUOUS
 10
3.5899834823
 20
7.0613867534
 40
0.04
100
AcDbArc
 50
180.0
 51
270.0
  0
ARC
  5
26B
100
AcDbEntity
  8
0
100
AcDbCircle
 62
7
  6
CONTINUOUS
 10
3.5899834823
 20
7.2213867534
 40
0.04
100
AcDbArc
 50
90.0
 51
180.0
  0
ARC
  5
26C
100
AcDbEntity
  8
0
100
AcDbCircle
 62
7
  6
CONTINUOUS
 10
4.6099834823
 20
7.2213867534
 40
0.04
100
AcDbArc
 50
0.0
 51
90.0
  0
ARC
  5
26D
100
AcDbEntity
  8
0
100
AcDbCircle
 62
7
  6
CONTINUOUS
 10
4.6799834823
 20
6.557391804
 40
0.04
100
AcDbArc
 50
0.0
 51
90.0
  0
ARC
  5
26E
100
AcDbEntity
  8
0
100
AcDbCircle
 62
7
  6
CONTINUOUS
 10
3.5199834823
 20
6.557391804
 40
0.04
100
AcDbArc
 50
90.0
 51
180.0
  0
ARC
  5
26F
100
AcDbEntity
  8
0
100
AcDbCircle
 62
7
  6
CONTINUOUS
 10
-0.3181849026
 20
7.027391804
 40
0.01
100
AcDbArc
 50
90.0
 51
155.7790568908
  0
ARC
  5
270
100
AcDbEntity
  8
0
100
AcDbCircle
 62
7
  6
CONTINUOUS
 10
0.5181518672
 20
7.027391804
 40
0.01
100
AcDbArc
 50
24.2209431092
 51
90.0
  0
ARC
  5
271
100
AcDbEntity
  8
0
100
AcDbCircle
 62
7
  6
CONTINUOUS
 10
13.1599834823
 20
6.557391804
 40
0.04
100
AcDbArc
 50
0.0
 51
90.0
  0
ARC
  5
272
100
AcDbEntity
  8
0
100
AcDbCircle
 62
7
  6
CONTINUOUS
 10
11.0399834823
 20
6.557391804
 40
0.04
100
AcDbArc
 50
90.0
 51
180.0
  0
ARC
  5
273
100
AcDbEntity
  8
0
100
AcDbCircle
 62
7
  6
CONTINUOUS
 10
12.0219834823
 20
8.853391804
 40
0.04
100
AcDbArc
 50
179.9999999899
 51
270.0
  0
ARC
  5
274
100
AcDbEntity
  8
0
100
AcDbCircle
 62
7
  6
CONTINUOUS
 10
12.1779834823
 20
8.853391804
 40
0.04
100
AcDbArc
 50
270.0
 51
360.0
  0
ARC
  5
275
100
AcDbEntity
  8
0
100
AcDbCircle
 62
7
  6
CONTINUOUS
 10
21.8699834823
 20
7.497391804
 40
0.04
100
AcDbArc
 50
0.0
 51
90.0
  0
ARC
  5
276
100
AcDbEntity
  8
0
100
AcDbCircle
 62
7
  6
CONTINUOUS
 10
20.3299834823
 20
7.497391804
 40
0.04
100
AcDbArc
 50
90.0
 51
180.0
  0
ARC
  5
277
100
AcDbEntity
  8
0
100
AcDbCircle
 62
7
  6
CONTINUOUS
 10
20.1399834823
 20
6.667391804
 40
0.04
100
AcDbArc
 50
90.0
 51
180.0
  0
ARC
  5
278
100
AcDbEntity
  8
0
100
AcDbCircle
 62
7
  6
CONTINUOUS
 10
22.0599834823
 20
6.667391804
 40
0.04
100
AcDbArc
 50
0.0
 51
90.0
  0
ARC
  5
279
100
AcDbEntity
  8
0
100
AcDbCircle
 62
9
  6
CONTINUOUS
 10
12.0999978007
 20
9.2081075058
 40
0.3899929302
100
AcDbArc
 50
293.8972743978
 51
66.1027449378
  0
ARC
  5
27A
100
AcDbEntity
  8
0
100
AcDbCircle
 62
9
  6
CONTINUOUS
 10
12.0999691379
 20
9.2081075464
 40
0.3899929092
100
AcDbArc
 50
113.8972701997
 51
246.1027471
  0
ARC
  5
27B
100
AcDbEntity
  8
0
100
AcDbCircle
 62
7
  6
CONTINUOUS
 10
12.0219834823
 20
9.757391804
 40
0.04
100
AcDbArc
 50
90.0
 51
180.0
  0
ARC
  5
27C
100
AcDbEntity
  8
0
100
AcDbCircle
 62
7
  6
CONTINUOUS
 10
12.1779834823
 20
9.757391804
 40
0.04
100
AcDbArc
 50
0.0
 51
90.0
  0
ARC
  5
27D
100
AcDbEntity
  8
0
100
AcDbCircle
 62
7
  6
CONTINUOUS
 10
20.1299834823
 20
11.542391804
 40
0.04
100
AcDbArc
 50
90.0
 51
180.0
  0
ARC
  5
27E
100
AcDbEntity
  8
0
100
AcDbCircle
 62
7
  6
CONTINUOUS
 10
22.0699834823
 20
11.542391804
 40
0.04
100
AcDbArc
 50
0.0
 51
90.0
  0
ARC
  5
27F
100
AcDbEntity
  8
0
100
AcDbCircle
 62
7
  6
CONTINUOUS
 10
22.0699834823
 20
11.122391804
 40
0.04
100
AcDbArc
 50
270.0
 51
360.0
  0
ARC
  5
280
100
AcDbEntity
  8
0
100
AcDbCircle
 62
7
  6
CONTINUOUS
 10
20.3299834823
 20
11.692391804
 40
0.04
100
AcDbArc
 50
90.0
 51
180.0
  0
ARC
  5
281
100
AcDbEntity
  8
0
100
AcDbCircle
 62
7
  6
CONTINUOUS
 10
20.1299834823
 20
11.122391804
 40
0.04
100
AcDbArc
 50
180.0
 51
270.0
  0
ARC
  5
282
100
AcDbEntity
  8
0
100
AcDbCircle
 62
7
  6
CONTINUOUS
 10
21.8699834823
 20
11.692391804
 40
0.04
100
AcDbArc
 50
0.0
 51
90.0
  0
SPLINE
  5
283
100
AcDbEntity
  8
0
100
AcDbSpline
 62
9
  6
CONTINUOUS
 70
0
 71
3
 72
16
 73
12
 74
0
 42
0.0000001
 43
0.0000001
 44
0.0000000001
 40
0.0
 40
0.0
 40
0.0
 40
0.0
 40
0.0269982928
 40
0.0584312804
 40
0.0947111564
 40
0.1360350428
 40
0.2339974839
 40
0.3521040809
 40
0.4892440644
 40
0.6439919485
 40
1.0
 40
1.0
 40
1.0
 40
1.0
 10
11.9554240869
 20
9.5847701539
 30
0.0
 10
11.9552172836
 20
9.5846948674
 30
0.0
 10
11.9547878519
 20
9.5844816913
 30
0.0
 10
11.9541537061
 20
9.5840383945
 30
0.0
 10
11.9534831692
 20
9.5834528832
 30
0.0
 10
11.9524840773
 20
9.5824266312
 30
0.0
 10
11.9511675998
 20
9.5807877036
 30
0.0
 10
11.9495353162
 20
9.5784143604
 30
0.0
 10
11.9477824583
 20
9.5755674191
 30
0.0
 10
11.9451773057
 20
9.5709724261
 30
0.0
 10
11.9432735743
 20
9.5672676288
 30
0.0
 10
11.9419833006
 20
9.5646681784
 30
0.0
  0
SPLINE
  5
284
100
AcDbEntity
  8
0
100
AcDbSpline
 62
9
  6
CONTINUOUS
 70
0
 71
3
 72
15
 73
11
 74
0
 42
0.0000001
 43
0.0000001
 44
0.0000000001
 40
0.0
 40
0.0
 40
0.0
 40
0.0
 40
0.121843533
 40
0.2476228843
 40
0.375812896
 40
0.5050811862
 40
0.6338482185
 40
0.7602665555
 40
0.8826868163
 40
1.0
 40
1.0
 40
1.0
 40
1.0
 10
11.9419834823
 20
8.8515465349
 30
0.0
 10
11.9433921181
 20
8.8515465349
 30
0.0
 10
11.9462559854
 20
8.8516556023
 30
0.0
 10
11.9505767769
 20
8.8521488906
 30
0.0
 10
11.9549300516
 20
8.8530008722
 30
0.0
 10
11.9592258605
 20
8.8542411254
 30
0.0
 10
11.9633712661
 20
8.8558620697
 30
0.0
 10
11.9672738979
 20
8.8578346052
 30
0.0
 10
11.9708362258
 20
8.860137316
 30
0.0
 10
11.9729728086
 20
8.8619156604
 30
0.0
 10
11.9739587103
 20
8.862847025
 30
0.0
  0
SPLINE
  5
285
100
AcDbEntity
  8
0
100
AcDbSpline
 62
9
  6
CONTINUOUS
 70
0
 71
3
 72
12
 73
8
 74
0
 42
0.0000001
 43
0.0000001
 44
0.0000000001
 40
0.0
 40
0.0
 40
0.0
 40
0.0
 40
0.2809579471
 40
0.4133103488
 40
0.5399942528
 40
0.7782047354
 40
1.0
 40
1.0
 40
1.0
 40
1.0
 10
11.9739587103
 20
8.862847025
 30
0.0
 10
11.9752725199
 20
8.8640881588
 30
0.0
 10
11.9770593774
 20
8.8660834907
 30
0.0
 10
11.9789765372
 20
8.8689860156
 30
0.0
 10
11.9804536714
 20
8.8718291961
 30
0.0
 10
11.9816581993
 20
8.875436847
 30
0.0
 10
11.9819839833
 20
8.8784038494
 30
0.0
 10
11.9819839732
 20
8.8798306158
 30
0.0
  0
SPLINE
  5
286
100
AcDbEntity
  8
0
100
AcDbSpline
 62
9
  6
CONTINUOUS
 70
0
 71
3
 72
17
 73
13
 74
0
 42
0.0000001
 43
0.0000001
 44
0.0000000001
 40
0.0
 40
0.0
 40
0.0
 40
0.0
 40
0.0379968124
 40
0.0779256524
 40
0.1667785689
 40
0.217533075
 40
0.2728855573
 40
0.3970034832
 40
0.5373552925
 40
0.6887932487
 40
0.8449721991
 40
1.0
 40
1.0
 40
1.0
 40
1.0
 10
11.981983273
 20
8.8533918945
 30
0.0
 10
11.9819832807
 20
8.8528795722
 30
0.0
 10
11.9818821482
 20
8.8518264622
 30
0.0
 10
11.9812620733
 20
8.8496541679
 30
0.0
 10
11.9799844585
 20
8.8475421599
 30
0.0
 10
11.9781983332
 20
8.8456093875
 30
0.0
 10
11.9758386981
 20
8.8435822095
 30
0.0
 10
11.9721585275
 20
8.8412874929
 30
0.0
 10
11.9669923718
 20
8.8390689945
 30
0.0
 10
11.9611993083
 20
8.8373207869
 30
0.0
 10
11.9550731026
 20
8.8361041464
 30
0.0
 10
11.9509005531
 20
8.8356183469
 30
0.0
 10
11.9488167451
 20
8.8354539096
 30
0.0
  0
SPLINE
  5
287
100
AcDbEntity
  8
0
100
AcDbSpline
 62
9
  6
CONTINUOUS
 70
0
 71
3
 72
12
 73
8
 74
0
 42
0.0000001
 43
0.0000001
 44
0.0000000001
 40
0.0
 40
0.0
 40
0.0
 40
0.0
 40
0.2396120868
 40
0.3631749407
 40
0.4884387142
 40
0.7426540996
 40
1.0
 40
1.0
 40
1.0
 40
1.0
 10
11.9488167188
 20
8.8354538811
 30
0.0
 10
11.9497363831
 20
8.8329610983
 30
0.0
 10
11.9513905039
 20
8.8292714063
 30
0.0
 10
11.9541044436
 20
8.8245805616
 30
0.0
 10
11.9572265129
 20
8.8199530793
 30
0.0
 10
11.9617261802
 20
8.8144875472
 30
0.0
 10
11.9658098776
 20
8.8105327128
 30
0.0
 10
11.967958405
 20
8.808654618
 30
0.0
  0
SPLINE
  5
288
100
AcDbEntity
  8
0
100
AcDbSpline
 62
9
  6
CONTINUOUS
 70
0
 71
3
 72
22
 73
18
 74
0
 42
0.0000001
 43
0.0000001
 44
0.0000000001
 40
0.0
 40
0.0
 40
0.0
 40
0.0
 40
0.0763950144
 40
0.1505489054
 40
0.222347356
 40
0.2917877448
 40
0.4238947641
 40
0.4869896225
 40
0.5483298441
 40
0.6081168735
 40
0.6665584688
 40
0.723854304
 40
0.7802039798
 40
0.835804506
 40
0.8908454094
 40
0.9455148255
 40
1.0
 40
1.0
 40
1.0
 40
1.0
 10
11.9679582047
 20
8.808654618
 30
0.0
 10
11.9554840386
 20
8.8123056381
 30
0.0
 10
11.9311949642
 20
8.8205506013
 30
0.0
 10
11.8964795966
 20
8.8356836999
 30
0.0
 10
11.8641912851
 20
8.8531120826
 30
0.0
 10
11.8251882426
 20
8.8785104266
 30
0.0
 10
11.790511303
 20
8.9075982868
 30
0.0
 10
11.7607232997
 20
8.9395491356
 30
0.0
 10
11.7412234757
 20
8.9641320729
 30
0.0
 10
11.7241782145
 20
8.989524011
 30
0.0
 10
11.7095345824
 20
9.0155859797
 30
0.0
 10
11.6972370813
 20
9.042189597
 30
0.0
 10
11.6872408904
 20
9.0692253596
 30
0.0
 10
11.6795079682
 20
9.0965942077
 30
0.0
 10
11.6740062518
 20
9.1242060325
 30
0.0
 10
11.6707145194
 20
9.1519744637
 30
0.0
 10
11.6699832594
 20
9.170553764
 30
0.0
 10
11.6699833541
 20
9.1798236171
 30
0.0
  0
SPLINE
  5
289
100
AcDbEntity
  8
0
100
AcDbSpline
 62
9
  6
CONTINUOUS
 70
0
 71
3
 72
9
 73
5
 74
0
 42
0.0000001
 43
0.0000001
 44
0.0000000001
 40
0.0
 40
0.0
 40
0.0
 40
0.0
 40
0.4872893471
 40
1.0
 40
1.0
 40
1.0
 40
1.0
 10
11.9419834521
 20
8.8515466438
 30
0.0
 10
11.9432467072
 20
8.849001963
 30
0.0
 10
11.9456754318
 20
8.8436975339
 30
0.0
 10
11.9478016321
 20
8.8382653886
 30
0.0
 10
11.948816913
 20
8.8354538915
 30
0.0
  0
SPLINE
  5
28A
100
AcDbEntity
  8
0
100
AcDbSpline
 62
9
  6
CONTINUOUS
 70
0
 71
3
 72
17
 73
13
 74
0
 42
0.0000001
 43
0.0000001
 44
0.0000000001
 40
0.0
 40
0.0
 40
0.0
 40
0.0
 40
0.0962901567
 40
0.2015156828
 40
0.2584196636
 40
0.3182321526
 40
0.4457458681
 40
0.5132176986
 40
0.5825520641
 40
0.723993842
 40
0.8646781178
 40
1.0
 40
1.0
 40
1.0
 40
1.0
 10
11.9819844385
 20
9.5929527769
 30
0.0
 10
11.9819844301
 20
9.5912210397
 30
0.0
 10
11.981499436
 20
9.5875830399
 30
0.0
 10
11.9797095549
 20
9.5832366822
 30
0.0
 10
11.9775256637
 20
9.5798855741
 30
0.0
 10
11.974714534
 20
9.5765002432
 30
0.0
 10
11.9712168719
 20
9.5734780024
 30
0.0
 10
11.9671947172
 20
9.5709349697
 30
0.0
 10
11.9627364253
 20
9.5686495822
 30
0.0
 10
11.9567714738
 20
9.566470216
 30
0.0
 10
11.9493864994
 20
9.5649923578
 30
0.0
 10
11.9444171884
 20
9.5646682734
 30
0.0
 10
11.9419834823
 20
9.5646682733
 30
0.0
  0
SPLINE
  5
28B
100
AcDbEntity
  8
0
100
AcDbSpline
 62
9
  6
CONTINUOUS
 70
0
 71
3
 72
12
 73
8
 74
0
 42
0.0000001
 43
0.0000001
 44
0.0000000001
 40
0.0
 40
0.0
 40
0.0
 40
0.0
 40
0.2224741111
 40
0.4609705969
 40
0.5875666458
 40
0.7196972357
 40
1.0
 40
1.0
 40
1.0
 40
1.0
 10
12.2179829996
 20
8.879830848
 30
0.0
 10
12.2179829894
 20
8.8784378909
 30
0.0
 10
12.2182931256
 20
8.8755442898
 30
0.0
 10
12.2194403977
 20
8.8720201811
 30
0.0
 10
12.2208469107
 20
8.8692372395
 30
0.0
 10
12.2226731841
 20
8.8663936141
 30
0.0
 10
12.2243795215
 20
8.864430642
 30
0.0
 10
12.225635658
 20
8.8632049721
 30
0.0
  0
SPLINE
  5
28C
100
AcDbEntity
  8
0
100
AcDbSpline
 62
9
  6
CONTINUOUS
 70
0
 71
3
 72
15
 73
11
 74
0
 42
0.0000001
 43
0.0000001
 44
0.0000000001
 40
0.0
 40
0.0
 40
0.0
 40
0.0
 40
0.1168117601
 40
0.2388948797
 40
0.3651901722
 40
0.4940222315
 40
0.6234873175
 40
0.7519223199
 40
0.8779507385
 40
1.0
 40
1.0
 40
1.0
 40
1.0
 10
12.225635658
 20
8.8632049721
 30
0.0
 10
12.2266166027
 20
8.8622478195
 30
0.0
 10
12.2287507535
 20
8.8604173169
 30
0.0
 10
12.2323283045
 20
8.8580424619
 30
0.0
 10
12.2362674321
 20
8.8560076852
 30
0.0
 10
12.2404649759
 20
8.854333542
 30
0.0
 10
12.2448240063
 20
8.853050449
 30
0.0
 10
12.2492472613
 20
8.8521693312
 30
0.0
 10
12.2536396581
 20
8.8516594761
 30
0.0
 10
12.256551486
 20
8.8515467602
 30
0.0
 10
12.2579834823
 20
8.8515467601
 30
0.0
  0
SPLINE
  5
28D
100
AcDbEntity
  8
0
100
AcDbSpline
 62
9
  6
CONTINUOUS
 70
0
 71
3
 72
21
 73
17
 74
0
 42
0.0000001
 43
0.0000001
 44
0.0000000001
 40
0.0
 40
0.0
 40
0.0
 40
0.0
 40
0.1756615602
 40
0.355191009
 40
0.5285051092
 40
0.684142292
 40
0.7518503237
 40
0.8117169248
 40
0.8632532861
 40
0.9060271005
 40
0.9399111688
 40
0.9657184243
 40
0.9760399103
 40
0.9849518013
 40
0.992794104
 40
1.0
 40
1.0
 40
1.0
 40
1.0
 10
12.1713451851
 20
8.773391804
 30
0.0
 10
12.171345185
 20
8.7758205753
 30
0.0
 10
12.1714199771
 20
8.7807318506
 30
0.0
 10
12.1717590749
 20
8.7880328535
 30
0.0
 10
12.1723536671
 20
8.7950397029
 30
0.0
 10
12.1730564792
 20
8.8004821949
 30
0.0
 10
12.1737599228
 20
8.8043351738
 30
0.0
 10
12.1743041546
 20
8.8067520183
 30
0.0
 10
12.1748773236
 20
8.808806237
 30
0.0
 10
12.1754681559
 20
8.8104798339
 30
0.0
 10
12.1760727562
 20
8.8117635964
 30
0.0
 10
12.1766156026
 20
8.8125745021
 30
0.0
 10
12.1770594526
 20
8.8130144022
 30
0.0
 10
12.1773672789
 20
8.8132313584
 30
0.0
 10
12.1776748991
 20
8.8133620024
 30
0.0
 10
12.1778838512
 20
8.8133918063
 30
0.0
 10
12.177983483
 20
8.8133918063
 30
0.0
  0
SPLINE
  5
28E
100
AcDbEntity
  8
0
100
AcDbSpline
 62
9
  6
CONTINUOUS
 70
0
 71
3
 72
19
 73
15
 74
0
 42
0.0000001
 43
0.0000001
 44
0.0000000001
 40
0.0
 40
0.0
 40
0.0
 40
0.0
 40
0.0219648651
 40
0.0465580556
 40
0.0758072008
 40
0.1108838086
 40
0.1524159988
 40
0.2006602907
 40
0.255628473
 40
0.3171993768
 40
0.4590412232
 40
0.6230008177
 40
0.8051302528
 40
1.0
 40
1.0
 40
1.0
 40
1.0
 10
12.2113296225
 20
8.8313009808
 30
0.0
 10
12.2112016612
 20
8.8311072707
 30
0.0
 10
12.2110152215
 20
8.8306363003
 30
0.0
 10
12.2110014605
 20
8.8298233461
 30
0.0
 10
12.211222847
 20
8.8289029675
 30
0.0
 10
12.2116739935
 20
8.8278746162
 30
0.0
 10
12.2123544844
 20
8.8267411476
 30
0.0
 10
12.2132537722
 20
8.8255018776
 30
0.0
 10
12.2143625709
 20
8.8241576827
 30
0.0
 10
12.2161945605
 20
8.8221314873
 30
0.0
 10
12.2189470298
 20
8.8193890555
 30
0.0
 10
12.2227808119
 20
8.8159370164
 30
0.0
 10
12.2271948611
 20
8.8123003088
 30
0.0
 10
12.2303593295
 20
8.8098773208
 30
0.0
 10
12.2320144451
 20
8.8086513925
 30
0.0
  0
SPLINE
  5
28F
100
AcDbEntity
  8
0
100
AcDbSpline
 62
9
  6
CONTINUOUS
 70
0
 71
3
 72
18
 73
14
 74
0
 42
0.0000001
 43
0.0000001
 44
0.0000000001
 40
0.0
 40
0.0
 40
0.0
 40
0.0
 40
0.0368701302
 40
0.0756870734
 40
0.1622732503
 40
0.2118888017
 40
0.2661660994
 40
0.3886642854
 40
0.4567637646
 40
0.5287664912
 40
0.6814714821
 40
0.8406347004
 40
1.0
 40
1.0
 40
1.0
 40
1.0
 10
12.2179834912
 20
8.8533918589
 30
0.0
 10
12.21798349
 20
8.852894681
 30
0.0
 10
12.2180784135
 20
8.8518718454
 30
0.0
 10
12.2186647133
 20
8.849753682
 30
0.0
 10
12.2198850174
 20
8.84768072
 30
0.0
 10
12.2216056654
 20
8.8457695629
 30
0.0
 10
12.2239010173
 20
8.8437471592
 30
0.0
 10
12.226701726
 20
8.8419591917
 30
0.0
 10
12.2298837216
 20
8.8404024851
 30
0.0
 10
12.2335419076
 20
8.8389092885
 30
0.0
 10
12.238500221
 20
8.8373839724
 30
0.0
 10
12.2447367392
 20
8.8361251905
 30
0.0
 10
12.2490076736
 20
8.8356229092
 30
0.0
 10
12.2511499858
 20
8.835453849
 30
0.0
  0
SPLINE
  5
290
100
AcDbEntity
  8
0
100
AcDbSpline
 62
9
  6
CONTINUOUS
 70
0
 71
3
 72
11
 73
7
 74
0
 42
0.0000001
 43
0.0000001
 44
0.0000000001
 40
0.0
 40
0.0
 40
0.0
 40
0.0
 40
0.2506001378
 40
0.500000211
 40
0.7493622779
 40
1.0
 40
1.0
 40
1.0
 40
1.0
 10
12.1713451844
 20
8.773391804
 30
0.0
 10
12.1774531368
 20
8.7733915765
 30
0.0
 10
12.1897029483
 20
8.7750902326
 30
0.0
 10
12.2066604432
 20
8.782405734
 30
0.0
 10
12.2211958174
 20
8.7937685459
 30
0.0
 10
12.2288058841
 20
8.8034528467
 30
0.0
 10
12.2320142158
 20
8.8086513927
 30
0.0
  0
SPLINE
  5
291
100
AcDbEntity
  8
0
100
AcDbSpline
 62
9
  6
CONTINUOUS
 70
0
 71
3
 72
23
 73
19
 74
0
 42
0.0000001
 43
0.0000001
 44
0.0000000001
 40
0.0
 40
0.0
 40
0.0
 40
0.0
 40
0.0763863704
 40
0.1505314891
 40
0.2223218609
 40
0.2917545772
 40
0.3589189286
 40
0.4239555245
 40
0.4870437518
 40
0.5483775691
 40
0.6081586259
 40
0.6665941737
 40
0.7238840649
 40
0.7802279337
 40
0.8358226127
 40
0.8908576219
 40
0.9455210235
 40
1.0
 40
1.0
 40
1.0
 40
1.0
 10
12.2320142158
 20
8.8086513927
 30
0.0
 10
12.2444875406
 20
8.8123021318
 30
0.0
 10
12.2687721147
 20
8.820554053
 30
0.0
 10
12.3034872058
 20
8.8356826459
 30
0.0
 10
12.3357705437
 20
8.8531089383
 30
0.0
 10
12.3655147409
 20
8.8724788559
 30
0.0
 10
12.3926646392
 20
8.893512772
 30
0.0
 10
12.4172303375
 20
8.9159393634
 30
0.0
 10
12.4392369186
 20
8.9395410055
 30
0.0
 10
12.4587349681
 20
8.9641204118
 30
0.0
 10
12.4757804364
 20
8.9895107062
 30
0.0
 10
12.4904243504
 20
9.0155703867
 30
0.0
 10
12.5027224923
 20
9.042171856
 30
0.0
 10
12.5127195346
 20
9.0692054759
 30
0.0
 10
12.5204536499
 20
9.0965722068
 30
0.0
 10
12.5259568378
 20
9.1241819411
 30
0.0
 10
12.5292503311
 20
9.1519483203
 30
0.0
 10
12.5299829669
 20
9.1705263176
 30
0.0
 10
12.5299836085
 20
9.1797955329
 30
0.0
  0
SPLINE
  5
292
100
AcDbEntity
  8
0
100
AcDbSpline
 62
9
  6
CONTINUOUS
 70
0
 71
3
 72
16
 73
12
 74
0
 42
0.0000001
 43
0.0000001
 44
0.0000000001
 40
0.0
 40
0.0
 40
0.0
 40
0.0
 40
0.3560824749
 40
0.5108565692
 40
0.6480092275
 40
0.766111016
 40
0.8640494894
 40
0.9053551487
 40
0.9416136289
 40
0.9730235947
 40
1.0
 40
1.0
 40
1.0
 40
1.0
 10
12.2579836334
 20
9.5646684919
 30
0.0
 10
12.2566927151
 20
9.5672688396
 30
0.0
 10
12.2547882152
 20
9.5709749409
 30
0.0
 10
12.2521821582
 20
9.575571495
 30
0.0
 10
12.2504288051
 20
9.5784191145
 30
0.0
 10
12.2487961307
 20
9.5807926157
 30
0.0
 10
12.2474792915
 20
9.5824312326
 30
0.0
 10
12.2464799266
 20
9.5834568352
 30
0.0
 10
12.2458092698
 20
9.5840416679
 30
0.0
 10
12.2451750261
 20
9.584484121
 30
0.0
 10
12.2447455309
 20
9.5846965622
 30
0.0
 10
12.2445387274
 20
9.5847714329
 30
0.0
  0
SPLINE
  5
293
100
AcDbEntity
  8
0
100
AcDbSpline
 62
9
  6
CONTINUOUS
 70
0
 71
3
 72
9
 73
5
 74
0
 42
0.0000001
 43
0.0000001
 44
0.0000000001
 40
0.0
 40
0.0
 40
0.0
 40
0.0
 40
0.5127129726
 40
1.0
 40
1.0
 40
1.0
 40
1.0
 10
12.2511497524
 20
8.835453813
 30
0.0
 10
12.2521650892
 20
8.8382653812
 30
0.0
 10
12.2542914049
 20
8.8436976329
 30
0.0
 10
12.2567202194
 20
8.8490021744
 30
0.0
 10
12.2579834954
 20
8.8515469064
 30
0.0
  0
SPLINE
  5
294
100
AcDbEntity
  8
0
100
AcDbSpline
 62
9
  6
CONTINUOUS
 70
0
 71
3
 72
11
 73
7
 74
0
 42
0.0000001
 43
0.0000001
 44
0.0000000001
 40
0.0
 40
0.0
 40
0.0
 40
0.0
 40
0.250638337
 40
0.5000021931
 40
0.7494031996
 40
1.0
 40
1.0
 40
1.0
 40
1.0
 10
11.9679582047
 20
8.808654618
 30
0.0
 10
11.9711671056
 20
8.8034564501
 30
0.0
 10
11.9787669253
 20
8.7937639281
 30
0.0
 10
11.9933084395
 20
8.7824072748
 30
0.0
 10
12.0102637268
 20
8.7750889304
 30
0.0
 10
12.022513947
 20
8.7733917733
 30
0.0
 10
12.0286217802
 20
8.773391804
 30
0.0
  0
SPLINE
  5
295
100
AcDbEntity
  8
0
100
AcDbSpline
 62
9
  6
CONTINUOUS
 70
0
 71
3
 72
11
 73
7
 74
0
 42
0.0000001
 43
0.0000001
 44
0.0000000001
 40
0.0
 40
0.0
 40
0.0
 40
0.0
 40
0.2574320151
 40
0.5116292513
 40
0.7603898991
 40
1.0
 40
1.0
 40
1.0
 40
1.0
 10
12.2320140912
 20
8.8086513928
 30
0.0
 10
12.2341556517
 20
8.8105380118
 30
0.0
 10
12.2382402771
 20
8.8144905123
 30
0.0
 10
12.2436116987
 20
8.8210144492
 30
0.0
 10
12.2480099098
 20
8.8279998556
 30
0.0
 10
12.2502524597
 20
8.8329535358
 30
0.0
 10
12.2511499532
 20
8.8354538004
 30
0.0
  0
SPLINE
  5
296
100
AcDbEntity
  8
0
100
AcDbSpline
 62
9
  6
CONTINUOUS
 70
0
 71
3
 72
17
 73
13
 74
0
 42
0.0000001
 43
0.0000001
 44
0.0000000001
 40
0.0
 40
0.0
 40
0.0
 40
0.0
 40
0.1353218183
 40
0.2760059926
 40
0.4174476667
 40
0.4867819921
 40
0.5542537986
 40
0.681767531
 40
0.7415800541
 40
0.7984840821
 40
0.9037097334
 40
1.0
 40
1.0
 40
1.0
 40
1.0
 10
12.2579834823
 20
9.5646685478
 30
0.0
 10
12.2555497871
 20
9.5646685479
 30
0.0
 10
12.250580499
 20
9.5649926307
 30
0.0
 10
12.2431955591
 20
9.566470482
 30
0.0
 10
12.2372306353
 20
9.5686498367
 30
0.0
 10
12.2327723629
 20
9.5709352115
 30
0.0
 10
12.2287502234
 20
9.5734782309
 30
0.0
 10
12.2252525714
 20
9.5765004552
 30
0.0
 10
12.2224414446
 20
9.5798857677
 30
0.0
 10
12.2202575511
 20
9.5832368595
 30
0.0
 10
12.2184676586
 20
9.5875831968
 30
0.0
 10
12.2179826456
 20
9.591221183
 30
0.0
 10
12.2179826267
 20
9.5929529153
 30
0.0
  0
SPLINE
  5
297
100
AcDbEntity
  8
0
100
AcDbSpline
 62
9
  6
CONTINUOUS
 70
0
 71
3
 72
21
 73
17
 74
0
 42
0.0000001
 43
0.0000001
 44
0.0000000001
 40
0.0
 40
0.0
 40
0.0
 40
0.0
 40
0.007205891
 40
0.0150481877
 40
0.0239600725
 40
0.0342815525
 40
0.0600887971
 40
0.0939728561
 40
0.1367466628
 40
0.1882830177
 40
0.2481496137
 40
0.3158576418
 40
0.4714948223
 40
0.6448089305
 40
0.8243384016
 40
1.0
 40
1.0
 40
1.0
 40
1.0
 10
12.0219834791
 20
8.8133917958
 30
0.0
 10
12.0220831107
 20
8.8133917959
 30
0.0
 10
12.0222920627
 20
8.8133619921
 30
0.0
 10
12.0225996826
 20
8.8132313484
 30
0.0
 10
12.0229075087
 20
8.8130143924
 30
0.0
 10
12.0233513582
 20
8.8125744925
 30
0.0
 10
12.0238942041
 20
8.8117635872
 30
0.0
 10
12.0244988038
 20
8.8104798254
 30
0.0
 10
12.0250896354
 20
8.8088062291
 30
0.0
 10
12.0256628038
 20
8.8067520112
 30
0.0
 10
12.026207035
 20
8.8043351675
 30
0.0
 10
12.0269104779
 20
8.8004821898
 30
0.0
 10
12.0276132893
 20
8.7950396993
 30
0.0
 10
12.028207881
 20
8.7880328515
 30
0.0
 10
12.0285469786
 20
8.7807318498
 30
0.0
 10
12.0286217708
 20
8.7758205751
 30
0.0
 10
12.0286217709
 20
8.773391804
 30
0.0
  0
SPLINE
  5
298
100
AcDbEntity
  8
0
100
AcDbSpline
 62
9
  6
CONTINUOUS
 70
0
 71
3
 72
21
 73
17
 74
0
 42
0.0000001
 43
0.0000001
 44
0.0000000001
 40
0.0
 40
0.0
 40
0.0
 40
0.0
 40
0.1966500969
 40
0.3803870063
 40
0.5455671708
 40
0.6200583561
 40
0.6887362616
 40
0.7513790118
 40
0.8076816739
 40
0.8572464939
 40
0.8996236618
 40
0.9344507181
 40
0.9619847886
 40
0.9732832369
 40
0.9831755018
 40
1.0
 40
1.0
 40
1.0
 40
1.0
 10
11.9679579958
 20
8.8086546178
 30
0.0
 10
11.9696105263
 20
8.8098872049
 30
0.0
 10
11.9727666265
 20
8.8123263896
 30
0.0
 10
11.9771771193
 20
8.8159684469
 30
0.0
 10
11.9805147514
 20
8.8188975616
 30
0.0
 10
11.9828393297
 20
8.8211448894
 30
0.0
 10
11.984324204
 20
8.8227117119
 30
0.0
 10
11.9855895236
 20
8.8242193297
 30
0.0
 10
11.9866404808
 20
8.8256406922
 30
0.0
 10
11.9874851715
 20
8.8269464512
 30
0.0
 10
11.9881314763
 20
8.8281090817
 30
0.0
 10
11.9885915483
 20
8.8291070722
 30
0.0
 10
11.988831083
 20
8.8298455245
 30
0.0
 10
11.988903213
 20
8.830353108
 30
0.0
 10
11.9889018405
 20
8.8307518232
 30
0.0
 10
11.9888164409
 20
8.8310330153
 30
0.0
 10
11.9887183329
 20
8.8311795918
 30
0.0
  0
ENDSEC
  0
SECTION
  2
OBJECTS
  0
DICTIONARY
  5
C
100
AcDbDictionary
280
0
281
1
  3
ACAD_GROUP
350
D
  3
ACAD_MLINESTYLE
350
17
  3
ACAD_LAYOUT
350
1A
  3
ACAD_PLOTSETTINGS
350
19
  3
ACAD_PLOTSTYLENAME
350
E
  0
DICTIONARY
  5
D
102
{ACAD_REACTORS
330
C
102
}
100
AcDbDictionary
280
0
281
1
  0
ACDBDICTIONARYWDFLT
  5
E
102
{ACAD_REACTORS
330
C
102
}
100
AcDbDictionary
281
1
  3
Normal
350
F
100
AcDbDictionaryWithDefault
340
F
  0
DICTIONARY
  5
17
102
{ACAD_REACTORS
330
C
102
}
100
AcDbDictionary
280
0
281
1
  3
Standard
350
18
  0
DICTIONARY
  5
19
102
{ACAD_REACTORS
330
C
102
}
100
AcDbDictionary
281
1
  0
DICTIONARY
  5
1A
102
{ACAD_REACTORS
330
C
102
}
100
AcDbDictionary
281
1
  3
Model
350
299
  3
Layout1
350
29A
  0
ACDBPLACEHOLDER
  5
F
102
{ACAD_REACTORS
330
E
102
}
  0
MLINESTYLE
  5
18
102
{ACAD_REACTORS
330
17
102
}
100
AcDbMlineStyle
  2
STANDARD
 70
0
  3

 62
256
 51
90.0
 52
90.0
 71
2
 49
0.5
 62
256
  6
BYLAYER
 49
-0.5
 62
256
  6
BYLAYER
  0
LAYOUT
  5
299
102
{ACAD_REACTORS
330
1A
102
}
100
AcDbPlotSettings
  1

  2
none_device
  4
ANSI_C_(22.00_x_17.00_Inches)
  6

 40
0.0
 41
0.0
 42
0.0
 43
0.0
 44
558.8
 45
431.8
 46
0.0
 47
0.0
 48
0.0
 49
0.0
140
0.0
141
0.0
142
1.0
143
1.0
 70
1024
 72
0
 73
0
 74
0
  7

 75
0
147
1.0
148
0.0
149
0.0
100
AcDbLayout
  1
Model
 70
0
 71
0
 10
0.0
 20
0.0
 11
22.0
 21
17.0
 12
0.0
 22
0.0
 32
0.0
 14
0.0
 24
0.0
 34
0.0
 15
0.0
 25
0.0
 35
0.0
146
0.0
 13
0.0
 23
0.0
 33
0.0
 16
1.0
 26
0.0
 36
0.0
 17
0.0
 27
1.0
 37
0.0
 76
0
330
202
345
0
346
0
  0
LAYOUT
  5
29A
102
{ACAD_REACTORS
330
1A
102
}
100
AcDbPlotSettings
  1

  2
none_device
  4
ANSI_C_(22.00_x_17.00_Inches)
  6

 40
0.0
 41
0.0
 42
0.0
 43
0.0
 44
558.8
 45
431.8
 46
0.0
 47
0.0
 48
0.0
 49
0.0
140
0.0
141
0.0
142
1.0
143
1.0
 70
0
 72
0
 73
0
 74
0
  7

 75
0
147
1.0
148
0.0
149
0.0
100
AcDbLayout
  1
Layout1
 70
0
 71
1
 10
0.0
 20
0.0
 11
22.0
 21
17.0
 12
0.0
 22
0.0
 32
0.0
 14
0.0
 24
0.0
 34
0.0
 15
0.0
 25
0.0
 35
0.0
146
0.0
 13
0.0
 23
0.0
 33
0.0
 16
1.0
 26
0.0
 36
0.0
 17
0.0
 27
1.0
 37
0.0
 76
0
330
203
345
0
346
0
  0
ENDSEC
  0
EOF
