999
DXF file: E:\BT Custom\CADOUTPUT\_FRONT.dxf
999
Pro/ENGINEER 2018400 by Parametric Technology Corporation
  0
SECTION
  2
HEADER
  9
$ACADVER
  1
AC1018
  9
$DWGCODEPAGE
  3
ANSI_1252
  9
$EXTMAX
 10
22.0
 20
17.0
 30
0.0
  9
$EXTMIN
 10
0.0
 20
0.0
 30
0.0
  9
$LIMMIN
 10
0.0
 20
0.0
  9
$LIMMAX
 10
22.0
 20
17.0
  9
$VIEWCTR
 10
11.0
 20
8.5
  9
$VIEWSIZE
 40
17.0
  9
$CLAYER
  8
0
  9
$LTSCALE
 40
1.21
  9
$CELTYPE
  6
BYLAYER
  9
$DIMSCALE
 40
1.0
  9
$DIMASZ
 40
0.1
  9
$DIMEXO
 40
0.0625
  9
$DIMDLI
 40
0.836
  9
$DIMEXE
 40
0.125
  9
$DIMCEN
 40
0.198
  9
$DIMLFAC
 40
1.0
  9
$DIMBLK
  1
_FILLED
  9
$DIMALT
 70
1
  9
$DIMALTD
 70
2
  9
$DIMALTTD
 70
2
  9
$DIMALTF
 40
25.4
  9
$DIMTXT
 40
0.08
  9
$DIMTOL
 70
1
  9
$DIMLIM
 70
0
  9
$DIMTFAC
 40
1.0
  9
$DIMTP
 40
0.001
  9
$DIMTM
 40
0.001
  9
$DIMGAP
 40
0.09
  9
$DIMDSEP
 70
46
  9
$AUNITS
 70
0
  9
$PDMODE
 70
3
  9
$PDSIZE
 40
0.06
  9
$HANDSEED
  5
5B1
  9
$TILEMODE
 70
1
  9
$MEASUREMENT
 70
0
  9
$INSUNITS
 70
1
  0
ENDSEC
  0
SECTION
  2
CLASSES
  0
CLASS
  1
ACDBDICTIONARYWDFLT
  2
AcDbDictionaryWithDefault
  3
AutoCAD 2000
 90
0
 91
1
280
0
281
0
  0
CLASS
  1
ACDBPLACEHOLDER
  2
AcDbPlaceHolder
  3
AutoCAD 2000
 90
0
 91
1
280
0
281
0
  0
CLASS
  1
LAYOUT
  2
AcDbLayout
  3
AutoCAD 2000
 90
0
 91
0
280
0
281
0
  0
ENDSEC
  0
SECTION
  2
TABLES
  0
TABLE
  2
VPORT
  5
8
100
AcDbSymbolTable
 70
2
  0
VPORT
  5
1F4
100
AcDbSymbolTableRecord
100
AcDbViewportTableRecord
  2
*ACTIVE
 70
0
 10
0.0
 20
0.0
 11
1.0
 21
1.0
 12
11.0
 22
8.5
 13
0.0
 23
0.0
 14
1.0
 24
1.0
 15
0.0
 25
0.0
 16
0.0
 26
0.0
 36
1.0
 17
0.0
 27
0.0
 37
0.0
 40
17.0
 41
1.2941176471
 42
50.0
 43
0.0
 44
0.0
 50
0.0
 51
0.0
 71
0
 72
100
 73
1
 74
1
 75
0
 76
0
 77
0
 78
0
  0
ENDTAB
  0
TABLE
  2
LTYPE
  5
5
100
AcDbSymbolTable
 70
6
  0
LTYPE
  5
14
100
AcDbSymbolTableRecord
100
AcDbLinetypeTableRecord
  2
BYBLOCK
 70
0
  3

 72
65
 73
0
 40
0.0
  0
LTYPE
  5
15
100
AcDbSymbolTableRecord
100
AcDbLinetypeTableRecord
  2
BYLAYER
 70
0
  3

 72
65
 73
0
 40
0.0
  0
LTYPE
  5
16
100
AcDbSymbolTableRecord
100
AcDbLinetypeTableRecord
  2
CONTINUOUS
 70
64
  3
Solid line
 72
65
 73
0
 40
0.0
  0
LTYPE
  5
1F5
100
AcDbSymbolTableRecord
100
AcDbLinetypeTableRecord
  2
CENTER
 70
64
  3
____ _ ____ _ ____ _ ____ _ ____ _ ____ _ ____
 72
65
 73
4
 40
0.6
 49
0.375
 74
0
 49
-0.075
 74
0
 49
0.075
 74
0
 49
-0.075
 74
0
  0
LTYPE
  5
1F6
100
AcDbSymbolTableRecord
100
AcDbLinetypeTableRecord
  2
HIDDEN
 70
64
  3
- - - - - - - - - - - - - - - - - - - -
 72
65
 73
2
 40
0.2
 49
0.1
 74
0
 49
-0.1
 74
0
  0
LTYPE
  5
1F7
100
AcDbSymbolTableRecord
100
AcDbLinetypeTableRecord
  2
PHANTOM
 70
64
  3
_____ _ _ _____ _ _ _____ _ _ _____
 72
65
 73
6
 40
0.8
 49
0.45
 74
0
 49
-0.05
 74
0
 49
0.1
 74
0
 49
-0.05
 74
0
 49
0.1
 74
0
 49
-0.05
 74
0
  0
LTYPE
  5
1F8
100
AcDbSymbolTableRecord
100
AcDbLinetypeTableRecord
  2
DOT
 70
64
  3
. . . . . . . . . . . . . . . . . . . .
 72
65
 73
2
 40
0.2
 49
0.1
 74
0
 49
-0.1
 74
0
  0
LTYPE
  5
1F9
100
AcDbSymbolTableRecord
100
AcDbLinetypeTableRecord
  2
DASHED
 70
64
  3
- - - - - - - - - - - - - - - - - - - -
 72
65
 73
2
 40
0.2
 49
0.1
 74
0
 49
-0.1
 74
0
  0
ENDTAB
  0
TABLE
  2
LAYER
  5
2
100
AcDbSymbolTable
 70
36
  0
LAYER
  5
10
100
AcDbSymbolTableRecord
100
AcDbLayerTableRecord
  2
0
 70
0
 62
7
  6
CONTINUOUS
370
-3
390
F
  0
LAYER
  5
1FA
100
AcDbSymbolTableRecord
100
AcDbLayerTableRecord
  2
DEFAULT_1
 70
0
 62
7
  6
CENTER
370
-3
390
F
  0
LAYER
  5
1FB
100
AcDbSymbolTableRecord
100
AcDbLayerTableRecord
  2
DEFAULT_2
 70
0
 62
8
  6
HIDDEN
370
-3
390
F
  0
LAYER
  5
1FC
100
AcDbSymbolTableRecord
100
AcDbLayerTableRecord
  2
DEFAULT_3
 70
0
 62
7
  6
PHANTOM
370
-3
390
F
  0
LAYER
  5
1FD
100
AcDbSymbolTableRecord
100
AcDbLayerTableRecord
  2
ALL_FEATURES
 70
0
 62
7
  6
CONTINUOUS
370
-3
390
F
  0
LAYER
  5
1FE
100
AcDbSymbolTableRecord
100
AcDbLayerTableRecord
  2
AXES_FEATURES
 70
0
 62
7
  6
CONTINUOUS
370
-3
390
F
  0
LAYER
  5
1FF
100
AcDbSymbolTableRecord
100
AcDbLayerTableRecord
  2
DIMENSIONS
 70
0
 62
7
  6
CONTINUOUS
370
-3
390
F
  0
ENDTAB
  0
TABLE
  2
STYLE
  5
3
100
AcDbSymbolTable
 70
1
  0
STYLE
  5
11
100
AcDbSymbolTableRecord
100
AcDbTextStyleTableRecord
  2
STANDARD
 70
0
 40
0.0
 41
0.8
 50
0.0
 71
0
 42
0.2
  3
txt
  4

  0
STYLE
  5
200
100
AcDbSymbolTableRecord
100
AcDbTextStyleTableRecord
  2
TEXTSTYLE_1
 70
0
 40
0.0
 41
0.8
 50
0.0
 71
0
 42
0.2
  3
gdt
  4

  0
ENDTAB
  0
TABLE
  2
VIEW
  5
6
100
AcDbSymbolTable
 70
0
  0
ENDTAB
  0
TABLE
  2
UCS
  5
7
100
AcDbSymbolTable
 70
0
  0
ENDTAB
  0
TABLE
  2
APPID
  5
9
100
AcDbSymbolTable
 70
1
  0
APPID
  5
201
100
AcDbSymbolTableRecord
100
AcDbRegAppTableRecord
  2
ACAD
 70
0
  0
ENDTAB
  0
TABLE
  2
BLOCK_RECORD
  5
1
100
AcDbSymbolTable
 70
0
  0
BLOCK_RECORD
  5
202
100
AcDbSymbolTableRecord
100
AcDbBlockTableRecord
  2
*Model_Space
  0
BLOCK_RECORD
  5
203
100
AcDbSymbolTableRecord
100
AcDbBlockTableRecord
  2
*Paper_Space
  0
BLOCK_RECORD
  5
204
100
AcDbSymbolTableRecord
100
AcDbBlockTableRecord
  2
_FILLED
  0
ENDTAB
  0
TABLE
  2
DIMSTYLE
  5
A
100
AcDbSymbolTable
 70
1
100
AcDbDimStyleTable
 71
0
  0
DIMSTYLE
105
205
100
AcDbSymbolTableRecord
100
AcDbDimStyleTableRecord
  2
STANDARD
 70
0
  3

  4

 40
1.0
 41
0.1
 42
0.0625
 43
0.38
 44
0.125
 45
0.0
 46
0.0
 47
0.001
 48
0.001
140
0.08
141
0.09
142
0.0
143
25.4
144
1.0
145
0.0
146
1.0
147
0.09
 71
1.0
 72
0.0
 73
1
 74
1
 75
0
 76
0
 77
0
 78
4
 79
1
170
1
171
2
172
0
173
0
174
0
175
0
176
0
177
0
178
0
270
2
179
3
271
3
272
3
273
2
274
2
275
0
280
0
281
0
282
0
283
1
284
4
285
0
286
0
287
3
288
0
340
11
278
46
341
204
342
204
343
204
344
204
  0
ENDTAB
  0
ENDSEC
  0
SECTION
  2
BLOCKS
  0
BLOCK
  5
20
100
AcDbEntity
  8
0
100
AcDbBlockBegin
  2
*Model_Space
 70
0
 10
0.0
 20
0.0
 30
0.0
  3
*Model_Space
  1

  0
ENDBLK
  5
21
100
AcDbEntity
  8
0
100
AcDbBlockEnd
  0
BLOCK
  5
1C
100
AcDbEntity
  8
0
100
AcDbBlockBegin
  2
*Paper_Space
 70
0
 10
0.0
 20
0.0
 30
0.0
  3
*Paper_Space
  1

  0
ENDBLK
  5
1D
100
AcDbEntity
  8
0
100
AcDbBlockEnd
  0
BLOCK
  5
206
100
AcDbEntity
  8
0
100
AcDbBlockBegin
  2
_FILLED
 70
64
 10
0.0
 20
0.0
  3
_FILLED
  1

  0
SOLID
  5
207
100
AcDbEntity
  8
0
  6
BYBLOCK
 62
0
100
AcDbTrace
 10
0.0
 20
0.0
 11
-1.0
 21
0.2
 12
-1.0
 22
-0.2
 13
-1.0
 23
-0.2
  0
ENDBLK
  5
208
100
AcDbEntity
  8
0
  6
BYBLOCK
 62
0
100
AcDbBlockEnd
  0
ENDSEC
  0
SECTION
  2
ENTITIES
  0
LINE
  5
209
100
AcDbEntity
  8
0
100
AcDbLine
 62
7
  6
CONTINUOUS
 10
3.8276923427
 20
10.0921548766
 11
3.8276923427
 21
9.6421841277
  0
LINE
  5
20A
100
AcDbEntity
  8
0
100
AcDbLine
 62
9
  6
CONTINUOUS
 10
3.8476923427
 20
10.1121695021
 11
3.8476923427
 21
9.6221695021
  0
LINE
  5
20B
100
AcDbEntity
  8
0
100
AcDbLine
 62
9
  6
CONTINUOUS
 10
3.9010579464
 20
9.6221695021
 11
3.9010579464
 21
10.1121695021
  0
LINE
  5
20C
100
AcDbEntity
  8
0
100
AcDbLine
 62
9
  6
CONTINUOUS
 10
3.9117943749
 20
9.61904342
 11
3.9117943749
 21
10.1152955843
  0
LINE
  5
20D
100
AcDbEntity
  8
0
100
AcDbLine
 62
7
  6
CONTINUOUS
 10
4.3966923427
 20
9.4824089995
 11
4.3966923427
 21
10.2519300048
  0
LINE
  5
20E
100
AcDbEntity
  8
0
100
AcDbLine
 62
9
  6
CONTINUOUS
 10
4.7676923427
 20
10.2195435996
 11
4.7676923427
 21
9.5147954047
  0
LINE
  5
20F
100
AcDbEntity
  8
0
100
AcDbLine
 62
9
  6
CONTINUOUS
 10
5.2748523221
 20
9.6130099257
 11
5.2748523221
 21
10.1213290786
  0
LINE
  5
210
100
AcDbEntity
  8
0
100
AcDbLine
 62
9
  6
CONTINUOUS
 10
5.7976923427
 20
10.0711695021
 11
5.7976923427
 21
9.6631695021
  0
LINE
  5
211
100
AcDbEntity
  8
0
100
AcDbLine
 62
7
  6
CONTINUOUS
 10
5.8826923427
 20
6.6251695021
 11
5.8826923427
 21
6.5451695021
  0
LINE
  5
212
100
AcDbEntity
  8
0
100
AcDbLine
 62
7
  6
CONTINUOUS
 10
6.0876923427
 20
6.8651695021
 11
6.0876923427
 21
6.7951695021
  0
LINE
  5
213
100
AcDbEntity
  8
0
100
AcDbLine
 62
7
  6
CONTINUOUS
 10
6.0976923427
 20
10.0821562348
 11
6.0976923427
 21
9.6521827695
  0
LINE
  5
214
100
AcDbEntity
  8
0
100
AcDbLine
 62
9
  6
CONTINUOUS
 10
6.1176923427
 20
10.1021695021
 11
6.1176923427
 21
9.6321695021
  0
LINE
  5
215
100
AcDbEntity
  8
0
100
AcDbLine
 62
9
  6
CONTINUOUS
 10
6.1576923427
 20
9.6321695021
 11
6.1576923427
 21
10.1021695021
  0
LINE
  5
216
100
AcDbEntity
  8
0
100
AcDbLine
 62
7
  6
CONTINUOUS
 10
6.1776923427
 20
9.652183164
 11
6.1776923427
 21
10.0821558403
  0
LINE
  5
217
100
AcDbEntity
  8
0
100
AcDbLine
 62
7
  6
CONTINUOUS
 10
6.2726923427
 20
7.2951695021
 11
6.2726923427
 21
7.2231695021
  0
LINE
  5
218
100
AcDbEntity
  8
0
100
AcDbLine
 62
7
  6
CONTINUOUS
 10
6.2726923427
 20
7.0671695021
 11
6.2726923427
 21
6.9951695021
  0
LINE
  5
219
100
AcDbEntity
  8
0
100
AcDbLine
 62
7
  6
CONTINUOUS
 10
6.3776923427
 20
8.9958655171
 11
6.3776923427
 21
7.3251695021
  0
LINE
  5
21A
100
AcDbEntity
  8
0
100
AcDbLine
 62
7
  6
CONTINUOUS
 10
6.5806923427
 20
9.9971695021
 11
6.5806923427
 21
10.0471695021
  0
LINE
  5
21B
100
AcDbEntity
  8
0
100
AcDbLine
 62
7
  6
CONTINUOUS
 10
6.5806923427
 20
10.1670470404
 11
6.5806923427
 21
10.2170470404
  0
LINE
  5
21C
100
AcDbEntity
  8
0
100
AcDbLine
 62
7
  6
CONTINUOUS
 10
6.6376923427
 20
10.2270470404
 11
6.6376923427
 21
10.227891085
  0
LINE
  5
21D
100
AcDbEntity
  8
0
100
AcDbLine
 62
7
  6
CONTINUOUS
 10
6.6526923427
 20
9.9625853846
 11
6.6526923427
 21
9.9871695021
  0
LINE
  5
21E
100
AcDbEntity
  8
0
100
AcDbLine
 62
7
  6
CONTINUOUS
 10
6.7276923427
 20
9.2551695021
 11
6.7276923427
 21
9.2821695021
  0
LINE
  5
21F
100
AcDbEntity
  8
0
100
AcDbLine
 62
9
  6
CONTINUOUS
 10
6.3967985414
 20
9.9880855831
 11
6.1788394956
 21
9.6768078062
  0
LINE
  5
220
100
AcDbEntity
  8
0
100
AcDbLine
 62
7
  6
CONTINUOUS
 10
7.1476923427
 20
9.2551695021
 11
7.1476923427
 21
9.2821695021
  0
LINE
  5
221
100
AcDbEntity
  8
0
100
AcDbLine
 62
7
  6
CONTINUOUS
 10
7.2226923427
 20
9.3750403802
 11
7.2226923427
 21
9.9871695021
  0
LINE
  5
222
100
AcDbEntity
  8
0
100
AcDbLine
 62
7
  6
CONTINUOUS
 10
7.2376923427
 20
10.2270470404
 11
7.2376923427
 21
10.227891085
  0
LINE
  5
223
100
AcDbEntity
  8
0
100
AcDbLine
 62
7
  6
CONTINUOUS
 10
7.2946923427
 20
9.9971695021
 11
7.2946923427
 21
10.0471695021
  0
LINE
  5
224
100
AcDbEntity
  8
0
100
AcDbLine
 62
7
  6
CONTINUOUS
 10
7.2946923427
 20
10.1670470404
 11
7.2946923427
 21
10.2170470404
  0
LINE
  5
225
100
AcDbEntity
  8
0
100
AcDbLine
 62
7
  6
CONTINUOUS
 10
7.4976923427
 20
8.9958655171
 11
7.4976923427
 21
7.3251695021
  0
LINE
  5
226
100
AcDbEntity
  8
0
100
AcDbLine
 62
7
  6
CONTINUOUS
 10
7.6026923427
 20
7.2951695021
 11
7.6026923427
 21
7.2231695021
  0
LINE
  5
227
100
AcDbEntity
  8
0
100
AcDbLine
 62
7
  6
CONTINUOUS
 10
7.6026923427
 20
7.0671695021
 11
7.6026923427
 21
6.9951695021
  0
LINE
  5
228
100
AcDbEntity
  8
0
100
AcDbLine
 62
7
  6
CONTINUOUS
 10
7.7876923427
 20
6.8651695021
 11
7.7876923427
 21
6.7951695021
  0
LINE
  5
229
100
AcDbEntity
  8
0
100
AcDbLine
 62
7
  6
CONTINUOUS
 10
7.9926923427
 20
6.6251695021
 11
7.9926923427
 21
6.5451695021
  0
LINE
  5
22A
100
AcDbEntity
  8
0
100
AcDbLine
 62
7
  6
CONTINUOUS
 10
5.8826923427
 20
6.5451695021
 11
7.9926923427
 21
6.5451695021
  0
LINE
  5
22B
100
AcDbEntity
  8
0
100
AcDbLine
 62
7
  6
CONTINUOUS
 10
9.9377089593
 20
6.5451695021
 11
11.9376757262
 21
6.5451695021
  0
LINE
  5
22C
100
AcDbEntity
  8
0
100
AcDbLine
 62
7
  6
CONTINUOUS
 10
13.8826923427
 20
6.5451695021
 11
15.9926923427
 21
6.5451695021
  0
LINE
  5
22D
100
AcDbEntity
  8
0
100
AcDbLine
 62
9
  6
CONTINUOUS
 10
15.9926923427
 20
6.6251695021
 11
13.8826923427
 21
6.6251695021
  0
LINE
  5
22E
100
AcDbEntity
  8
0
100
AcDbLine
 62
9
  6
CONTINUOUS
 10
7.9926923427
 20
6.6251695021
 11
5.8826923427
 21
6.6251695021
  0
LINE
  5
22F
100
AcDbEntity
  8
0
100
AcDbLine
 62
7
  6
CONTINUOUS
 10
15.8226923427
 20
6.7951695021
 11
14.0526923427
 21
6.7951695021
  0
LINE
  5
230
100
AcDbEntity
  8
0
100
AcDbLine
 62
7
  6
CONTINUOUS
 10
7.8226923427
 20
6.7951695021
 11
6.0526923427
 21
6.7951695021
  0
LINE
  5
231
100
AcDbEntity
  8
0
100
AcDbLine
 62
7
  6
CONTINUOUS
 10
15.7876923427
 20
6.8651695021
 11
14.0876923427
 21
6.8651695021
  0
LINE
  5
232
100
AcDbEntity
  8
0
100
AcDbLine
 62
7
  6
CONTINUOUS
 10
7.7876923427
 20
6.8651695021
 11
6.0876923427
 21
6.8651695021
  0
LINE
  5
233
100
AcDbEntity
  8
0
100
AcDbLine
 62
9
  6
CONTINUOUS
 10
11.9376923427
 20
6.9251695021
 11
11.5463512322
 21
6.9251695021
  0
LINE
  5
234
100
AcDbEntity
  8
0
100
AcDbLine
 62
9
  6
CONTINUOUS
 10
10.3290334533
 20
6.9251695021
 11
9.9376923427
 21
6.9251695021
  0
LINE
  5
235
100
AcDbEntity
  8
0
100
AcDbLine
 62
7
  6
CONTINUOUS
 10
11.8976773493
 20
6.9651695021
 11
11.514366756
 21
6.9651695021
  0
LINE
  5
236
100
AcDbEntity
  8
0
100
AcDbLine
 62
7
  6
CONTINUOUS
 10
10.3610179295
 20
6.9651695021
 11
9.9777073362
 21
6.9651695021
  0
LINE
  5
237
100
AcDbEntity
  8
0
100
AcDbLine
 62
7
  6
CONTINUOUS
 10
6.2726923427
 20
6.9951695021
 11
7.6026923427
 21
6.9951695021
  0
LINE
  5
238
100
AcDbEntity
  8
0
100
AcDbLine
 62
7
  6
CONTINUOUS
 10
14.2726923427
 20
6.9951695021
 11
15.6026923427
 21
6.9951695021
  0
LINE
  5
239
100
AcDbEntity
  8
0
100
AcDbLine
 62
7
  6
CONTINUOUS
 10
11.4326923427
 20
7.0451695021
 11
10.4426923427
 21
7.0451695021
  0
LINE
  5
23A
100
AcDbEntity
  8
0
100
AcDbLine
 62
7
  6
CONTINUOUS
 10
15.6026923427
 20
7.0671695021
 11
14.2726923427
 21
7.0671695021
  0
LINE
  5
23B
100
AcDbEntity
  8
0
100
AcDbLine
 62
7
  6
CONTINUOUS
 10
7.6026923427
 20
7.0671695021
 11
6.2726923427
 21
7.0671695021
  0
LINE
  5
23C
100
AcDbEntity
  8
0
100
AcDbLine
 62
9
  6
CONTINUOUS
 10
11.4001923427
 20
7.1251695021
 11
10.4751923427
 21
7.1251695021
  0
LINE
  5
23D
100
AcDbEntity
  8
0
100
AcDbLine
 62
7
  6
CONTINUOUS
 10
6.2726923427
 20
7.2231695021
 11
7.6026923427
 21
7.2231695021
  0
LINE
  5
23E
100
AcDbEntity
  8
0
100
AcDbLine
 62
7
  6
CONTINUOUS
 10
14.2726923427
 20
7.2231695021
 11
15.6026923427
 21
7.2231695021
  0
LINE
  5
23F
100
AcDbEntity
  8
0
100
AcDbLine
 62
9
  6
CONTINUOUS
 10
10.5104088365
 20
7.2892720662
 11
11.3649804298
 21
7.2892720662
  0
LINE
  5
240
100
AcDbEntity
  8
0
100
AcDbLine
 62
7
  6
CONTINUOUS
 10
15.6026923427
 20
7.2951695021
 11
14.2726923427
 21
7.2951695021
  0
LINE
  5
241
100
AcDbEntity
  8
0
100
AcDbLine
 62
7
  6
CONTINUOUS
 10
11.3558607276
 20
7.2951695021
 11
10.5195284409
 21
7.2951695021
  0
LINE
  5
242
100
AcDbEntity
  8
0
100
AcDbLine
 62
7
  6
CONTINUOUS
 10
7.6026923427
 20
7.2951695021
 11
6.2726923427
 21
7.2951695021
  0
LINE
  5
243
100
AcDbEntity
  8
0
100
AcDbLine
 62
7
  6
CONTINUOUS
 10
6.6185784576
 20
9.3688992702
 11
6.1788394956
 21
9.6768078062
  0
LINE
  5
244
100
AcDbEntity
  8
0
100
AcDbLine
 62
7
  6
CONTINUOUS
 10
6.5268062278
 20
9.897053221
 11
6.3967985414
 21
9.9880855831
  0
LINE
  5
245
100
AcDbEntity
  8
0
100
AcDbLine
 62
7
  6
CONTINUOUS
 10
10.5973495465
 20
7.7157992964
 11
10.5997872437
 21
7.7161457424
  0
LINE
  5
246
100
AcDbEntity
  8
0
100
AcDbLine
 62
7
  6
CONTINUOUS
 10
10.5772972253
 20
7.7160920737
 11
10.5780708537
 21
7.7161457424
  0
LINE
  5
247
100
AcDbEntity
  8
0
100
AcDbLine
 62
7
  6
CONTINUOUS
 10
10.563055458
 20
7.7161306739
 11
10.5633540869
 21
7.7161457424
  0
LINE
  5
248
100
AcDbEntity
  8
0
100
AcDbLine
 62
7
  6
CONTINUOUS
 10
10.5558481572
 20
7.716142549
 11
10.5559233885
 21
7.7161457424
  0
LINE
  5
249
100
AcDbEntity
  8
0
100
AcDbLine
 62
9
  6
CONTINUOUS
 10
6.3776923427
 20
7.3251695021
 11
7.4976923427
 21
7.3251695021
  0
LINE
  5
24A
100
AcDbEntity
  8
0
100
AcDbLine
 62
9
  6
CONTINUOUS
 10
14.3776923427
 20
7.3251695021
 11
15.4976923427
 21
7.3251695021
  0
LINE
  5
24B
100
AcDbEntity
  8
0
100
AcDbLine
 62
9
  6
CONTINUOUS
 10
11.2921923427
 20
7.5882445491
 11
10.5831923427
 21
7.5882445491
  0
LINE
  5
24C
100
AcDbEntity
  8
0
100
AcDbLine
 62
9
  6
CONTINUOUS
 10
11.3206923427
 20
7.6182070256
 11
10.5546981669
 21
7.6182070256
  0
LINE
  5
24D
100
AcDbEntity
  8
0
100
AcDbLine
 62
9
  6
CONTINUOUS
 10
10.5262986185
 20
7.6481695022
 11
10.5359562392
 21
7.6481695022
  0
LINE
  5
24E
100
AcDbEntity
  8
0
100
AcDbLine
 62
9
  6
CONTINUOUS
 10
10.5572995359
 20
7.6481695152
 11
10.5716897533
 21
7.6481695022
  0
LINE
  5
24F
100
AcDbEntity
  8
0
100
AcDbLine
 62
9
  6
CONTINUOUS
 10
10.5393355739
 20
7.6481695152
 11
10.5500504924
 21
7.6481695022
  0
LINE
  5
250
100
AcDbEntity
  8
0
100
AcDbLine
 62
9
  6
CONTINUOUS
 10
10.5824758376
 20
7.6481695152
 11
10.6004528383
 21
7.6481695022
  0
LINE
  5
251
100
AcDbEntity
  8
0
100
AcDbLine
 62
9
  6
CONTINUOUS
 10
10.6143744516
 20
7.6481695152
 11
10.6357799066
 21
7.6481695022
  0
LINE
  5
252
100
AcDbEntity
  8
0
100
AcDbLine
 62
9
  6
CONTINUOUS
 10
10.6523745063
 20
7.6481695152
 11
10.6769833571
 21
7.6481695022
  0
LINE
  5
253
100
AcDbEntity
  8
0
100
AcDbLine
 62
9
  6
CONTINUOUS
 10
10.6958097397
 20
7.6481695152
 11
10.7232612114
 21
7.6481695022
  0
LINE
  5
254
100
AcDbEntity
  8
0
100
AcDbLine
 62
9
  6
CONTINUOUS
 10
10.7439514438
 20
7.6481695152
 11
10.7737127238
 21
7.6481695022
  0
LINE
  5
255
100
AcDbEntity
  8
0
100
AcDbLine
 62
9
  6
CONTINUOUS
 10
10.7958640941
 20
7.6481695152
 11
10.827355913
 21
7.6481695022
  0
LINE
  5
256
100
AcDbEntity
  8
0
100
AcDbLine
 62
9
  6
CONTINUOUS
 10
10.8505372699
 20
7.6481695152
 11
10.8831466752
 21
7.6481695022
  0
LINE
  5
257
100
AcDbEntity
  8
0
100
AcDbLine
 62
9
  6
CONTINUOUS
 10
10.9069068201
 20
7.6481695152
 11
10.9399991068
 21
7.6481695022
  0
LINE
  5
258
100
AcDbEntity
  8
0
100
AcDbLine
 62
9
  6
CONTINUOUS
 10
10.9638755755
 20
7.6481695152
 11
10.9968066399
 21
7.6481695023
  0
LINE
  5
259
100
AcDbEntity
  8
0
100
AcDbLine
 62
9
  6
CONTINUOUS
 10
11.020334704
 20
7.6481695152
 11
11.0524635805
 21
7.6481695022
  0
LINE
  5
25A
100
AcDbEntity
  8
0
100
AcDbLine
 62
9
  6
CONTINUOUS
 10
11.075185293
 20
7.6481695152
 11
11.1058866294
 21
7.6481695022
  0
LINE
  5
25B
100
AcDbEntity
  8
0
100
AcDbLine
 62
9
  6
CONTINUOUS
 10
11.1273597381
 20
7.6481695152
 11
11.1560359679
 21
7.6481695022
  0
LINE
  5
25C
100
AcDbEntity
  8
0
100
AcDbLine
 62
9
  6
CONTINUOUS
 10
11.1758425231
 20
7.6481695152
 11
11.201935496
 21
7.6481695022
  0
LINE
  5
25D
100
AcDbEntity
  8
0
100
AcDbLine
 62
9
  6
CONTINUOUS
 10
11.2196899857
 20
7.6481695152
 11
11.242729285
 21
7.6481695022
  0
LINE
  5
25E
100
AcDbEntity
  8
0
100
AcDbLine
 62
9
  6
CONTINUOUS
 10
11.258048685
 20
7.6481695152
 11
11.2777639623
 21
7.6481695022
  0
LINE
  5
25F
100
AcDbEntity
  8
0
100
AcDbLine
 62
9
  6
CONTINUOUS
 10
11.2901720124
 20
7.6481695152
 11
11.3063711058
 21
7.6481695022
  0
LINE
  5
260
100
AcDbEntity
  8
0
100
AcDbLine
 62
9
  6
CONTINUOUS
 10
11.3154347241
 20
7.6481695152
 11
11.3279939097
 21
7.6481695022
  0
LINE
  5
261
100
AcDbEntity
  8
0
100
AcDbLine
 62
9
  6
CONTINUOUS
 10
11.3435545647
 20
7.6481695152
 11
11.3487362717
 21
7.6481695021
  0
LINE
  5
262
100
AcDbEntity
  8
0
100
AcDbLine
 62
9
  6
CONTINUOUS
 10
11.3333451099
 20
7.6481695152
 11
11.342211511
 21
7.6481695022
  0
LINE
  5
263
100
AcDbEntity
  8
0
100
AcDbLine
 62
9
  6
CONTINUOUS
 10
11.342211511
 20
7.6861695025
 11
11.3333451099
 21
7.6861695021
  0
LINE
  5
264
100
AcDbEntity
  8
0
100
AcDbLine
 62
9
  6
CONTINUOUS
 10
11.3487362717
 20
7.6861695021
 11
11.3435545647
 21
7.6861695021
  0
LINE
  5
265
100
AcDbEntity
  8
0
100
AcDbLine
 62
9
  6
CONTINUOUS
 10
11.3279939097
 20
7.6861695025
 11
11.3154347241
 21
7.6861695021
  0
LINE
  5
266
100
AcDbEntity
  8
0
100
AcDbLine
 62
9
  6
CONTINUOUS
 10
11.3063711058
 20
7.6861695025
 11
11.2901720124
 21
7.6861695021
  0
LINE
  5
267
100
AcDbEntity
  8
0
100
AcDbLine
 62
9
  6
CONTINUOUS
 10
11.2777639626
 20
7.6861695025
 11
11.258048685
 21
7.6861695021
  0
LINE
  5
268
100
AcDbEntity
  8
0
100
AcDbLine
 62
9
  6
CONTINUOUS
 10
11.2427292822
 20
7.6861695025
 11
11.2196899857
 21
7.6861695021
  0
LINE
  5
269
100
AcDbEntity
  8
0
100
AcDbLine
 62
9
  6
CONTINUOUS
 10
11.201935496
 20
7.6861695025
 11
11.1758425231
 21
7.6861695021
  0
LINE
  5
26A
100
AcDbEntity
  8
0
100
AcDbLine
 62
9
  6
CONTINUOUS
 10
11.1560359679
 20
7.6861695025
 11
11.1273597381
 21
7.6861695021
  0
LINE
  5
26B
100
AcDbEntity
  8
0
100
AcDbLine
 62
9
  6
CONTINUOUS
 10
11.1058866294
 20
7.6861695198
 11
11.075185293
 21
7.6861695021
  0
LINE
  5
26C
100
AcDbEntity
  8
0
100
AcDbLine
 62
9
  6
CONTINUOUS
 10
11.0524635805
 20
7.6861695025
 11
11.020334704
 21
7.6861695021
  0
LINE
  5
26D
100
AcDbEntity
  8
0
100
AcDbLine
 62
9
  6
CONTINUOUS
 10
10.9968066399
 20
7.6861695024
 11
10.9638755755
 21
7.6861695021
  0
LINE
  5
26E
100
AcDbEntity
  8
0
100
AcDbLine
 62
9
  6
CONTINUOUS
 10
10.9399991068
 20
7.6861695025
 11
10.9069068201
 21
7.6861695021
  0
LINE
  5
26F
100
AcDbEntity
  8
0
100
AcDbLine
 62
9
  6
CONTINUOUS
 10
10.827355913
 20
7.6861695025
 11
10.7958640941
 21
7.6861695021
  0
LINE
  5
270
100
AcDbEntity
  8
0
100
AcDbLine
 62
9
  6
CONTINUOUS
 10
10.7737127238
 20
7.6861695028
 11
10.7439514438
 21
7.6861695021
  0
LINE
  5
271
100
AcDbEntity
  8
0
100
AcDbLine
 62
9
  6
CONTINUOUS
 10
10.7232612114
 20
7.6861695025
 11
10.6958097397
 21
7.6861695021
  0
LINE
  5
272
100
AcDbEntity
  8
0
100
AcDbLine
 62
9
  6
CONTINUOUS
 10
10.6769833571
 20
7.6861695025
 11
10.6523745064
 21
7.6861695021
  0
LINE
  5
273
100
AcDbEntity
  8
0
100
AcDbLine
 62
9
  6
CONTINUOUS
 10
10.6357799066
 20
7.6861695025
 11
10.6143744513
 21
7.6861695021
  0
LINE
  5
274
100
AcDbEntity
  8
0
100
AcDbLine
 62
9
  6
CONTINUOUS
 10
10.6004528383
 20
7.6861695025
 11
10.5824758376
 21
7.6861695021
  0
LINE
  5
275
100
AcDbEntity
  8
0
100
AcDbLine
 62
9
  6
CONTINUOUS
 10
10.5500504924
 20
7.6861695025
 11
10.5393355739
 21
7.6861695021
  0
LINE
  5
276
100
AcDbEntity
  8
0
100
AcDbLine
 62
9
  6
CONTINUOUS
 10
10.5716897533
 20
7.6861695025
 11
10.557299536
 21
7.6861695021
  0
LINE
  5
277
100
AcDbEntity
  8
0
100
AcDbLine
 62
9
  6
CONTINUOUS
 10
10.5359562392
 20
7.6861695025
 11
10.5262986185
 21
7.6861695025
  0
LINE
  5
278
100
AcDbEntity
  8
0
100
AcDbLine
 62
9
  6
CONTINUOUS
 10
10.8831466752
 20
7.6861695212
 11
10.8505372699
 21
7.6861695021
  0
LINE
  5
279
100
AcDbEntity
  8
0
100
AcDbLine
 62
7
  6
CONTINUOUS
 10
11.3191923427
 20
7.7161695021
 11
10.5561987171
 21
7.7161695021
  0
LINE
  5
27A
100
AcDbEntity
  8
0
100
AcDbLine
 62
9
  6
CONTINUOUS
 10
11.7476923427
 20
7.7551695021
 11
11.2012540635
 21
7.7551695021
  0
LINE
  5
27B
100
AcDbEntity
  8
0
100
AcDbLine
 62
9
  6
CONTINUOUS
 10
10.6741306219
 20
7.7551695021
 11
10.1276923427
 21
7.7551695021
  0
LINE
  5
27C
100
AcDbEntity
  8
0
100
AcDbLine
 62
7
  6
CONTINUOUS
 10
11.7076916053
 20
7.7951695021
 11
11.0376443875
 21
7.7951695021
  0
LINE
  5
27D
100
AcDbEntity
  8
0
100
AcDbLine
 62
7
  6
CONTINUOUS
 10
10.837740298
 20
7.7951695021
 11
10.1676930802
 21
7.7951695021
  0
LINE
  5
27E
100
AcDbEntity
  8
0
100
AcDbLine
 62
7
  6
CONTINUOUS
 10
11.3203970638
 20
7.7161456009
 11
11.3203935379
 21
7.7161457424
  0
LINE
  5
27F
100
AcDbEntity
  8
0
100
AcDbLine
 62
7
  6
CONTINUOUS
 10
11.3168421773
 20
7.716137859
 11
11.3166691162
 21
7.7161457424
  0
LINE
  5
280
100
AcDbEntity
  8
0
100
AcDbLine
 62
7
  6
CONTINUOUS
 10
11.3060566181
 20
7.7161178723
 11
11.3055683426
 21
7.7161457426
  0
LINE
  5
281
100
AcDbEntity
  8
0
100
AcDbLine
 62
7
  6
CONTINUOUS
 10
11.28856963
 20
7.7160337527
 11
11.2873072812
 21
7.7161457424
  0
LINE
  5
282
100
AcDbEntity
  8
0
100
AcDbLine
 62
7
  6
CONTINUOUS
 10
11.3271976588
 20
7.7150747927
 11
11.3203971237
 21
7.7161455977
  0
LINE
  5
283
100
AcDbEntity
  8
0
100
AcDbLine
 62
7
  6
CONTINUOUS
 10
10.5479734148
 20
7.6197439504
 11
10.5482520425
 21
7.6196507218
  0
LINE
  5
284
100
AcDbEntity
  8
0
100
AcDbLine
 62
7
  6
CONTINUOUS
 10
10.5556264647
 20
7.6199914782
 11
10.5565929409
 21
7.6196507218
  0
LINE
  5
285
100
AcDbEntity
  8
0
100
AcDbLine
 62
7
  6
CONTINUOUS
 10
10.5703011939
 20
7.620473669
 11
10.5723515057
 21
7.6196507218
  0
LINE
  5
286
100
AcDbEntity
  8
0
100
AcDbLine
 62
7
  6
CONTINUOUS
 10
10.5408842781
 20
7.6235414891
 11
10.5479730579
 21
7.6197422126
  0
LINE
  5
287
100
AcDbEntity
  8
0
100
AcDbLine
 62
7
  6
CONTINUOUS
 10
10.550904753
 20
7.6227404606
 11
10.5556259308
 21
7.6199897195
  0
LINE
  5
288
100
AcDbEntity
  8
0
100
AcDbLine
 62
7
  6
CONTINUOUS
 10
10.5666441756
 20
7.6231421264
 11
10.5703011034
 21
7.620473474
  0
LINE
  5
289
100
AcDbEntity
  8
0
100
AcDbLine
 62
7
  6
CONTINUOUS
 10
9.9276923427
 20
11.3801695021
 11
9.9276923427
 21
11.8001695021
  0
LINE
  5
28A
100
AcDbEntity
  8
0
100
AcDbLine
 62
7
  6
CONTINUOUS
 10
9.9376923427
 20
6.9251695021
 11
9.9376923427
 21
6.5451695021
  0
LWPOLYLINE
  5
28B
100
AcDbEntity
  8
0
100
AcDbPolyline
 62
7
  6
CONTINUOUS
 90
4
 70
0
 10
10.5772929235
 20
7.7160916509
 10
10.5719048825
 20
7.714671418
 10
10.565679607
 20
7.7102573447
 10
10.5613695555
 20
7.7041705511
  0
LINE
  5
28C
100
AcDbEntity
  8
0
100
AcDbLine
 62
7
  6
CONTINUOUS
 10
10.5630542313
 20
7.7161306007
 11
10.5559400651
 21
7.7144827251
  0
LINE
  5
28D
100
AcDbEntity
  8
0
100
AcDbLine
 62
7
  6
CONTINUOUS
 10
10.555848014
 20
7.7161425427
 11
10.5474863372
 21
7.7144177619
  0
LINE
  5
28E
100
AcDbEntity
  8
0
100
AcDbLine
 62
7
  6
CONTINUOUS
 10
11.3245723488
 20
7.7144583663
 11
11.3168417717
 21
7.7161378327
  0
LINE
  5
28F
100
AcDbEntity
  8
0
100
AcDbLine
 62
7
  6
CONTINUOUS
 10
11.3356589629
 20
7.711159834
 11
11.3271976588
 21
7.7150747927
  0
LWPOLYLINE
  5
290
100
AcDbEntity
  8
0
100
AcDbPolyline
 62
7
  6
CONTINUOUS
 90
3
 70
0
 10
11.318728142
 20
7.7103322507
 10
11.3122477521
 20
7.7146168829
 10
11.3060543826
 20
7.7161176914
  0
LINE
  5
291
100
AcDbEntity
  8
0
100
AcDbLine
 62
7
  6
CONTINUOUS
 10
10.5450933599
 20
7.6288234255
 11
10.550904753
 21
7.6227404606
  0
LINE
  5
292
100
AcDbEntity
  8
0
100
AcDbLine
 62
7
  6
CONTINUOUS
 10
10.5887807722
 20
7.624386815
 11
10.5915224425
 21
7.6215061411
  0
LINE
  5
293
100
AcDbEntity
  8
0
100
AcDbLine
 62
7
  6
CONTINUOUS
 10
10.5616896283
 20
7.6295686535
 11
10.5666441756
 21
7.6231421264
  0
LINE
  5
294
100
AcDbEntity
  8
0
100
AcDbLine
 62
7
  6
CONTINUOUS
 10
10.5854418533
 20
7.6304788288
 11
10.5887807722
 21
7.624386815
  0
LINE
  5
295
100
AcDbEntity
  8
0
100
AcDbLine
 62
7
  6
CONTINUOUS
 10
10.6169313264
 20
7.6278821438
 11
10.6186939634
 21
7.6240469317
  0
LWPOLYLINE
  5
296
100
AcDbEntity
  8
0
100
AcDbPolyline
 62
7
  6
CONTINUOUS
 90
5
 70
0
 10
10.5289345057
 20
7.6481695191
 10
10.5291429816
 20
7.6444847755
 10
10.5310259919
 20
7.63672645
 10
10.5349466043
 20
7.6295206749
 10
10.5408842781
 20
7.6235414891
  0
LINE
  5
297
100
AcDbEntity
  8
0
100
AcDbLine
 62
7
  6
CONTINUOUS
 10
10.5393362633
 20
7.6481695174
 11
10.5395581842
 21
7.6441088936
  0
LINE
  5
298
100
AcDbEntity
  8
0
100
AcDbLine
 62
7
  6
CONTINUOUS
 10
10.5573000175
 20
7.6481695156
 11
10.5574867912
 21
7.6440701402
  0
LINE
  5
299
100
AcDbEntity
  8
0
100
AcDbLine
 62
7
  6
CONTINUOUS
 10
10.1276923427
 20
11.9501695021
 11
10.1276923427
 21
11.8401695021
  0
LINE
  5
29A
100
AcDbEntity
  8
0
100
AcDbLine
 62
7
  6
CONTINUOUS
 10
10.1276923427
 20
7.7551695021
 11
10.1276923427
 21
6.9651695021
  0
LINE
  5
29B
100
AcDbEntity
  8
0
100
AcDbLine
 62
7
  6
CONTINUOUS
 10
10.1276923427
 20
10.1401695021
 11
10.1276923427
 21
11.3401695021
  0
LINE
  5
29C
100
AcDbEntity
  8
0
100
AcDbLine
 62
7
  6
CONTINUOUS
 10
10.2376923427
 20
7.7951695021
 11
10.2376923427
 21
10.1401695021
  0
LINE
  5
29D
100
AcDbEntity
  8
0
100
AcDbLine
 62
7
  6
CONTINUOUS
 10
10.4751923427
 20
7.0451695021
 11
10.4751923427
 21
7.1251695021
  0
LINE
  5
29E
100
AcDbEntity
  8
0
100
AcDbLine
 62
7
  6
CONTINUOUS
 10
11.3421018837
 20
7.705223134
 11
11.3356589629
 21
7.711159834
  0
LWPOLYLINE
  5
29F
100
AcDbEntity
  8
0
100
AcDbPolyline
 62
7
  6
CONTINUOUS
 90
3
 70
0
 10
11.3368683582
 20
7.7043417481
 10
11.3315164281
 20
7.7103229263
 10
11.3245723488
 20
7.7144583663
  0
LINE
  5
2A0
100
AcDbEntity
  8
0
100
AcDbLine
 62
7
  6
CONTINUOUS
 10
11.3235099826
 20
7.7041539476
 11
11.318728142
 21
7.7103322507
  0
LWPOLYLINE
  5
2A1
100
AcDbEntity
  8
0
100
AcDbPolyline
 62
7
  6
CONTINUOUS
 90
4
 70
0
 10
11.302919082
 20
7.7038376549
 10
11.2988115338
 20
7.7103219203
 10
11.2933326164
 20
7.7145656629
 10
11.28856288
 20
7.7160328264
  0
LINE
  5
2A2
100
AcDbEntity
  8
0
100
AcDbLine
 62
7
  6
CONTINUOUS
 10
10.6156224854
 20
7.6329806711
 11
10.6169313264
 21
7.6278821438
  0
LWPOLYLINE
  5
2A3
100
AcDbEntity
  8
0
100
AcDbPolyline
 62
7
  6
CONTINUOUS
 90
3
 70
0
 10
10.5395581842
 20
7.6441088936
 10
10.5413288384
 20
7.6362635688
 10
10.5450933599
 20
7.6288234255
  0
LWPOLYLINE
  5
2A4
100
AcDbEntity
  8
0
100
AcDbPolyline
 62
7
  6
CONTINUOUS
 90
3
 70
0
 10
10.5574867912
 20
7.6440701402
 10
10.5588274231
 20
7.6366967215
 10
10.5616896283
 20
7.6295686535
  0
LWPOLYLINE
  5
2A5
100
AcDbEntity
  8
0
100
AcDbPolyline
 62
7
  6
CONTINUOUS
 90
3
 70
0
 10
10.5826052556
 20
7.6442133338
 10
10.583529735
 20
7.6371266329
 10
10.5854418533
 20
7.6304788288
  0
LWPOLYLINE
  5
2A6
100
AcDbEntity
  8
0
100
AcDbPolyline
 62
7
  6
CONTINUOUS
 90
3
 70
0
 10
10.614420761
 20
7.6450560955
 10
10.6148139409
 20
7.6387688912
 10
10.6156224854
 20
7.6329806711
  0
LINE
  5
2A7
100
AcDbEntity
  8
0
100
AcDbLine
 62
7
  6
CONTINUOUS
 10
10.6526559681
 20
7.6295937117
 11
10.6526914403
 21
7.6289295585
  0
LINE
  5
2A8
100
AcDbEntity
  8
0
100
AcDbLine
 62
7
  6
CONTINUOUS
 10
10.6525436346
 20
7.632663939
 11
10.6526559681
 21
7.6295937117
  0
LINE
  5
2A9
100
AcDbEntity
  8
0
100
AcDbLine
 62
7
  6
CONTINUOUS
 10
10.5824761316
 20
7.6481695137
 11
10.5826052556
 21
7.6442133338
  0
LINE
  5
2AA
100
AcDbEntity
  8
0
100
AcDbLine
 62
7
  6
CONTINUOUS
 10
10.6143745869
 20
7.6481695116
 11
10.614420761
 21
7.6450560955
  0
LWPOLYLINE
  5
2AB
100
AcDbEntity
  8
0
100
AcDbPolyline
 62
7
  6
CONTINUOUS
 90
3
 70
0
 10
10.6524044554
 20
7.6410911299
 10
10.6524610665
 20
7.6365132948
 10
10.6525436346
 20
7.632663939
  0
LINE
  5
2AC
100
AcDbEntity
  8
0
100
AcDbLine
 62
7
  6
CONTINUOUS
 10
10.6523745188
 20
7.6481695096
 11
10.6524044554
 21
7.6410911299
  0
LINE
  5
2AD
100
AcDbEntity
  8
0
100
AcDbLine
 62
9
  6
CONTINUOUS
 10
10.5262986185
 20
7.6861695021
 11
10.5262986185
 21
7.6481695021
  0
LINE
  5
2AE
100
AcDbEntity
  8
0
100
AcDbLine
 62
7
  6
CONTINUOUS
 10
10.5289336
 20
7.6861695021
 11
10.5289336
 21
7.6481695152
  0
LINE
  5
2AF
100
AcDbEntity
  8
0
100
AcDbLine
 62
9
  6
CONTINUOUS
 10
10.5290007738
 20
7.6481695021
 11
10.5290007738
 21
7.6861695021
  0
LINE
  5
2B0
100
AcDbEntity
  8
0
100
AcDbLine
 62
9
  6
CONTINUOUS
 10
10.531603774
 20
7.6861695021
 11
10.531603774
 21
7.6481695021
  0
LINE
  5
2B1
100
AcDbEntity
  8
0
100
AcDbLine
 62
9
  6
CONTINUOUS
 10
10.5359562392
 20
7.6861695021
 11
10.5359562392
 21
7.6481695021
  0
LINE
  5
2B2
100
AcDbEntity
  8
0
100
AcDbLine
 62
7
  6
CONTINUOUS
 10
10.5393355739
 20
7.6861695021
 11
10.5393355739
 21
7.6481695152
  0
LINE
  5
2B3
100
AcDbEntity
  8
0
100
AcDbLine
 62
9
  6
CONTINUOUS
 10
10.5396576456
 20
7.6481695021
 11
10.5396576456
 21
7.6861695021
  0
LINE
  5
2B4
100
AcDbEntity
  8
0
100
AcDbLine
 62
7
  6
CONTINUOUS
 10
10.5424310115
 20
7.6220327534
 11
10.5424310115
 21
7.6295945058
  0
LINE
  5
2B5
100
AcDbEntity
  8
0
100
AcDbLine
 62
9
  6
CONTINUOUS
 10
10.5448129816
 20
7.6861695021
 11
10.5448129816
 21
7.6481695021
  0
LINE
  5
2B6
100
AcDbEntity
  8
0
100
AcDbLine
 62
9
  6
CONTINUOUS
 10
10.5500504924
 20
7.6861695021
 11
10.5500504924
 21
7.6481695021
  0
LINE
  5
2B7
100
AcDbEntity
  8
0
100
AcDbLine
 62
7
  6
CONTINUOUS
 10
10.5501243237
 20
7.6220327534
 11
10.5501243237
 21
7.62355736
  0
LINE
  5
2B8
100
AcDbEntity
  8
0
100
AcDbLine
 62
7
  6
CONTINUOUS
 10
10.5572995359
 20
7.6861695021
 11
10.5572995359
 21
7.6481695152
  0
LINE
  5
2B9
100
AcDbEntity
  8
0
100
AcDbLine
 62
9
  6
CONTINUOUS
 10
10.5580618101
 20
7.6481695021
 11
10.5580618101
 21
7.6861695021
  0
LINE
  5
2BA
100
AcDbEntity
  8
0
100
AcDbLine
 62
7
  6
CONTINUOUS
 10
10.5653612066
 20
7.6220327534
 11
10.5653612066
 21
7.6248062613
  0
LINE
  5
2BB
100
AcDbEntity
  8
0
100
AcDbLine
 62
9
  6
CONTINUOUS
 10
10.5656691391
 20
7.6861695021
 11
10.5656691391
 21
7.6481695021
  0
LINE
  5
2BC
100
AcDbEntity
  8
0
100
AcDbLine
 62
9
  6
CONTINUOUS
 10
10.5716897533
 20
7.6861695021
 11
10.5716897533
 21
7.6481695021
  0
LINE
  5
2BD
100
AcDbEntity
  8
0
100
AcDbLine
 62
7
  6
CONTINUOUS
 10
10.5824758376
 20
7.6861695021
 11
10.5824758376
 21
7.6481695152
  0
LINE
  5
2BE
100
AcDbEntity
  8
0
100
AcDbLine
 62
7
  6
CONTINUOUS
 10
10.5831923427
 20
7.2951695021
 11
10.5831923427
 21
7.5882445491
  0
LINE
  5
2BF
100
AcDbEntity
  8
0
100
AcDbLine
 62
9
  6
CONTINUOUS
 10
10.5838550511
 20
7.6481695021
 11
10.5838550511
 21
7.6861695021
  0
LINE
  5
2C0
100
AcDbEntity
  8
0
100
AcDbLine
 62
7
  6
CONTINUOUS
 10
10.5878450915
 20
7.6220327534
 11
10.5878450915
 21
7.6260940082
  0
LINE
  5
2C1
100
AcDbEntity
  8
0
100
AcDbLine
 62
9
  6
CONTINUOUS
 10
10.5937663051
 20
7.6861695021
 11
10.5937663051
 21
7.6481695021
  0
LINE
  5
2C2
100
AcDbEntity
  8
0
100
AcDbLine
 62
9
  6
CONTINUOUS
 10
10.6004528383
 20
7.6861695021
 11
10.6004528383
 21
7.6481695021
  0
LINE
  5
2C3
100
AcDbEntity
  8
0
100
AcDbLine
 62
7
  6
CONTINUOUS
 10
10.6143744512
 20
7.6861695021
 11
10.6143744512
 21
7.6481695152
  0
LINE
  5
2C4
100
AcDbEntity
  8
0
100
AcDbLine
 62
9
  6
CONTINUOUS
 10
10.6165353324
 20
7.6481695021
 11
10.6165353324
 21
7.6861695021
  0
LINE
  5
2C5
100
AcDbEntity
  8
0
100
AcDbLine
 62
7
  6
CONTINUOUS
 10
10.6171383552
 20
7.6220327534
 11
10.6171383552
 21
7.6295945058
  0
LINE
  5
2C6
100
AcDbEntity
  8
0
100
AcDbLine
 62
9
  6
CONTINUOUS
 10
10.6285576002
 20
7.6861695021
 11
10.6285576002
 21
7.6481695021
  0
LINE
  5
2C7
100
AcDbEntity
  8
0
100
AcDbLine
 62
9
  6
CONTINUOUS
 10
10.6357799066
 20
7.6861695021
 11
10.6357799066
 21
7.6481695021
  0
LINE
  5
2C8
100
AcDbEntity
  8
0
100
AcDbLine
 62
7
  6
CONTINUOUS
 10
10.6526708376
 20
7.6220327534
 11
10.6526708376
 21
7.6293153074
  0
LINE
  5
2C9
100
AcDbEntity
  8
0
100
AcDbLine
 62
9
  6
CONTINUOUS
 10
10.6554665697
 20
7.6481695021
 11
10.6554665697
 21
7.6861695021
  0
LINE
  5
2CA
100
AcDbEntity
  8
0
100
AcDbLine
 62
9
  6
CONTINUOUS
 10
10.6693658514
 20
7.6861695021
 11
10.6693658514
 21
7.6481695021
  0
LINE
  5
2CB
100
AcDbEntity
  8
0
100
AcDbLine
 62
9
  6
CONTINUOUS
 10
10.6769833571
 20
7.6861695021
 11
10.6769833571
 21
7.6481695021
  0
LINE
  5
2CC
100
AcDbEntity
  8
0
100
AcDbLine
 62
7
  6
CONTINUOUS
 10
10.6937509394
 20
7.6220327534
 11
10.6937509394
 21
7.7047444984
  0
LINE
  5
2CD
100
AcDbEntity
  8
0
100
AcDbLine
 62
9
  6
CONTINUOUS
 10
10.6958097397
 20
7.6481695021
 11
10.6958097397
 21
7.6861695021
  0
LINE
  5
2CE
100
AcDbEntity
  8
0
100
AcDbLine
 62
9
  6
CONTINUOUS
 10
10.6998910106
 20
7.6481695021
 11
10.6998910106
 21
7.6861695021
  0
LINE
  5
2CF
100
AcDbEntity
  8
0
100
AcDbLine
 62
9
  6
CONTINUOUS
 10
10.7153967726
 20
7.6861695021
 11
10.7153967726
 21
7.6481695021
  0
LINE
  5
2D0
100
AcDbEntity
  8
0
100
AcDbLine
 62
9
  6
CONTINUOUS
 10
10.7232612114
 20
7.6861695021
 11
10.7232612114
 21
7.6481695021
  0
LINE
  5
2D1
100
AcDbEntity
  8
0
100
AcDbLine
 62
7
  6
CONTINUOUS
 10
10.7395790832
 20
7.6220327534
 11
10.7395790832
 21
7.7047444984
  0
LINE
  5
2D2
100
AcDbEntity
  8
0
100
AcDbLine
 62
9
  6
CONTINUOUS
 10
10.7439514438
 20
7.6481695021
 11
10.7439514438
 21
7.6861695021
  0
LINE
  5
2D3
100
AcDbEntity
  8
0
100
AcDbLine
 62
9
  6
CONTINUOUS
 10
10.7489439839
 20
7.6481695021
 11
10.7489439839
 21
7.6861695021
  0
LINE
  5
2D4
100
AcDbEntity
  8
0
100
AcDbLine
 62
9
  6
CONTINUOUS
 10
10.7657544242
 20
7.6861695021
 11
10.7657544242
 21
7.6481695021
  0
LINE
  5
2D5
100
AcDbEntity
  8
0
100
AcDbLine
 62
9
  6
CONTINUOUS
 10
10.7737127238
 20
7.6861695021
 11
10.7737127238
 21
7.6481695021
  0
LINE
  5
2D6
100
AcDbEntity
  8
0
100
AcDbLine
 62
7
  6
CONTINUOUS
 10
10.7892632762
 20
7.6220327534
 11
10.7892632762
 21
7.7047444984
  0
LINE
  5
2D7
100
AcDbEntity
  8
0
100
AcDbLine
 62
9
  6
CONTINUOUS
 10
10.7958640941
 20
7.6481695021
 11
10.7958640941
 21
7.6861695021
  0
LINE
  5
2D8
100
AcDbEntity
  8
0
100
AcDbLine
 62
9
  6
CONTINUOUS
 10
10.8016707294
 20
7.6481695021
 11
10.8016707294
 21
7.6861695021
  0
LINE
  5
2D9
100
AcDbEntity
  8
0
100
AcDbLine
 62
9
  6
CONTINUOUS
 10
10.8194586517
 20
7.6861695021
 11
10.8194586517
 21
7.6481695021
  0
LINE
  5
2DA
100
AcDbEntity
  8
0
100
AcDbLine
 62
9
  6
CONTINUOUS
 10
10.827355913
 20
7.6861695021
 11
10.827355913
 21
7.6481695021
  0
LINE
  5
2DB
100
AcDbEntity
  8
0
100
AcDbLine
 62
7
  6
CONTINUOUS
 10
10.8418364722
 20
7.6220327534
 11
10.8418364722
 21
7.7047444984
  0
LINE
  5
2DC
100
AcDbEntity
  8
0
100
AcDbLine
 62
9
  6
CONTINUOUS
 10
10.8505372699
 20
7.6481695021
 11
10.8505372699
 21
7.6861695021
  0
LINE
  5
2DD
100
AcDbEntity
  8
0
100
AcDbLine
 62
9
  6
CONTINUOUS
 10
10.8570449808
 20
7.6481695021
 11
10.8570449808
 21
7.6861695021
  0
LINE
  5
2DE
100
AcDbEntity
  8
0
100
AcDbLine
 62
9
  6
CONTINUOUS
 10
10.8754641636
 20
7.6861695021
 11
10.8754641636
 21
7.6481695021
  0
LINE
  5
2DF
100
AcDbEntity
  8
0
100
AcDbLine
 62
9
  6
CONTINUOUS
 10
10.8831466752
 20
7.6861695021
 11
10.8831466752
 21
7.6481695021
  0
LINE
  5
2E0
100
AcDbEntity
  8
0
100
AcDbLine
 62
7
  6
CONTINUOUS
 10
10.8962753936
 20
7.6220327534
 11
10.8962753936
 21
7.7047444984
  0
LINE
  5
2E1
100
AcDbEntity
  8
0
100
AcDbLine
 62
9
  6
CONTINUOUS
 10
10.9069068201
 20
7.6481695021
 11
10.9069068201
 21
7.6861695021
  0
LINE
  5
2E2
100
AcDbEntity
  8
0
100
AcDbLine
 62
9
  6
CONTINUOUS
 10
10.9139889414
 20
7.6481695021
 11
10.9139889414
 21
7.6861695021
  0
LINE
  5
2E3
100
AcDbEntity
  8
0
100
AcDbLine
 62
9
  6
CONTINUOUS
 10
10.9326808762
 20
7.6861695021
 11
10.9326808762
 21
7.6481695021
  0
LINE
  5
2E4
100
AcDbEntity
  8
0
100
AcDbLine
 62
9
  6
CONTINUOUS
 10
10.9399991068
 20
7.6861695021
 11
10.9399991068
 21
7.6481695021
  0
LINE
  5
2E5
100
AcDbEntity
  8
0
100
AcDbLine
 62
7
  6
CONTINUOUS
 10
10.9515204488
 20
7.6220327534
 11
10.9515204488
 21
7.7047444984
  0
LINE
  5
2E6
100
AcDbEntity
  8
0
100
AcDbLine
 62
9
  6
CONTINUOUS
 10
10.9638755755
 20
7.6481695021
 11
10.9638755755
 21
7.6861695021
  0
LINE
  5
2E7
100
AcDbEntity
  8
0
100
AcDbLine
 62
9
  6
CONTINUOUS
 10
10.9713942617
 20
7.6481695021
 11
10.9713942617
 21
7.6861695021
  0
LINE
  5
2E8
100
AcDbEntity
  8
0
100
AcDbLine
 62
9
  6
CONTINUOUS
 10
10.9899951314
 20
7.6861695021
 11
10.9899951314
 21
7.6481695021
  0
LINE
  5
2E9
100
AcDbEntity
  8
0
100
AcDbLine
 62
9
  6
CONTINUOUS
 10
10.9968066399
 20
7.6861695021
 11
10.9968066399
 21
7.6481695021
  0
LINE
  5
2EA
100
AcDbEntity
  8
0
100
AcDbLine
 62
7
  6
CONTINUOUS
 10
10.6523858919
 20
7.6905774549
 11
10.6523760053
 21
7.6481695021
  0
LINE
  5
2EB
100
AcDbEntity
  8
0
100
AcDbLine
 62
7
  6
CONTINUOUS
 10
10.6144167143
 20
7.6891439906
 11
10.6143746056
 21
7.6861695038
  0
LWPOLYLINE
  5
2EC
100
AcDbEntity
  8
0
100
AcDbPolyline
 62
7
  6
CONTINUOUS
 90
4
 70
0
 10
10.6525161754
 20
7.7006023287
 10
10.6524753807
 20
7.6986483967
 10
10.6524387476
 20
7.6963394825
 10
10.6523858919
 20
7.6905774549
  0
LINE
  5
2ED
100
AcDbEntity
  8
0
100
AcDbLine
 62
7
  6
CONTINUOUS
 10
10.5826346386
 20
7.6905484146
 11
10.5824761703
 21
7.6861695027
  0
LINE
  5
2EE
100
AcDbEntity
  8
0
100
AcDbLine
 62
7
  6
CONTINUOUS
 10
10.557499656
 20
7.6904065107
 11
10.5573000816
 21
7.6861695015
  0
LINE
  5
2EF
100
AcDbEntity
  8
0
100
AcDbLine
 62
7
  6
CONTINUOUS
 10
10.5395297862
 20
7.689963058
 11
10.5393363553
 21
7.6861695005
  0
LWPOLYLINE
  5
2F0
100
AcDbEntity
  8
0
100
AcDbPolyline
 62
7
  6
CONTINUOUS
 90
5
 70
0
 10
10.652689526
 20
7.7053778463
 10
10.6526557683
 20
7.7047492208
 10
10.6526063096
 20
7.7036072491
 10
10.6525599835
 20
7.7022414572
 10
10.6525161754
 20
7.7006023287
  0
LINE
  5
2F1
100
AcDbEntity
  8
0
100
AcDbLine
 62
7
  6
CONTINUOUS
 10
10.5291659196
 20
7.690050446
 11
10.5289346254
 21
7.6861694996
  0
LWPOLYLINE
  5
2F2
100
AcDbEntity
  8
0
100
AcDbPolyline
 62
7
  6
CONTINUOUS
 90
3
 70
0
 10
10.6155605914
 20
7.7010253659
 10
10.6147961943
 20
7.6953869274
 10
10.6144167143
 20
7.6891439906
  0
LINE
  5
2F3
100
AcDbEntity
  8
0
100
AcDbLine
 62
7
  6
CONTINUOUS
 10
16.6005323634
 20
10.1213290786
 11
17.1076923427
 21
10.2195435996
  0
LINE
  5
2F4
100
AcDbEntity
  8
0
100
AcDbLine
 62
7
  6
CONTINUOUS
 10
15.1623705415
 20
9.2971662329
 11
15.1623808564
 21
9.2971662677
  0
LINE
  5
2F5
100
AcDbEntity
  8
0
100
AcDbLine
 62
9
  6
CONTINUOUS
 10
15.4976923427
 20
8.9958655171
 11
14.3776923427
 21
8.9958655171
  0
LINE
  5
2F6
100
AcDbEntity
  8
0
100
AcDbLine
 62
9
  6
CONTINUOUS
 10
7.4976923427
 20
8.9958655171
 11
6.3776923427
 21
8.9958655171
  0
LINE
  5
2F7
100
AcDbEntity
  8
0
100
AcDbLine
 62
9
  6
CONTINUOUS
 10
15.4791147765
 20
9.01581487
 11
14.396269909
 21
9.01581487
  0
LINE
  5
2F8
100
AcDbEntity
  8
0
100
AcDbLine
 62
9
  6
CONTINUOUS
 10
7.4791147765
 20
9.01581487
 11
6.396269909
 21
9.01581487
  0
LINE
  5
2F9
100
AcDbEntity
  8
0
100
AcDbLine
 62
9
  6
CONTINUOUS
 10
15.2443244823
 20
9.2377149289
 11
14.6310602032
 21
9.2377149289
  0
LINE
  5
2FA
100
AcDbEntity
  8
0
100
AcDbLine
 62
9
  6
CONTINUOUS
 10
7.2443244823
 20
9.2377149289
 11
6.6310602032
 21
9.2377149289
  0
LINE
  5
2FB
100
AcDbEntity
  8
0
100
AcDbLine
 62
7
  6
CONTINUOUS
 10
15.2244871235
 20
9.2551695021
 11
14.650897562
 21
9.2551695021
  0
LINE
  5
2FC
100
AcDbEntity
  8
0
100
AcDbLine
 62
7
  6
CONTINUOUS
 10
7.2244871235
 20
9.2551695021
 11
6.650897562
 21
9.2551695021
  0
LINE
  5
2FD
100
AcDbEntity
  8
0
100
AcDbLine
 62
9
  6
CONTINUOUS
 10
15.1476923427
 20
9.2821695021
 11
14.7276923427
 21
9.2821695021
  0
LINE
  5
2FE
100
AcDbEntity
  8
0
100
AcDbLine
 62
9
  6
CONTINUOUS
 10
7.1476923427
 20
9.2821695021
 11
6.7276923427
 21
9.2821695021
  0
LINE
  5
2FF
100
AcDbEntity
  8
0
100
AcDbLine
 62
9
  6
CONTINUOUS
 10
6.7544409278
 20
9.296833325
 11
7.1595259117
 21
9.296833325
  0
LINE
  5
300
100
AcDbEntity
  8
0
100
AcDbLine
 62
9
  6
CONTINUOUS
 10
14.7158502375
 20
9.296833325
 11
15.1209438333
 21
9.296833325
  0
LINE
  5
301
100
AcDbEntity
  8
0
100
AcDbLine
 62
7
  6
CONTINUOUS
 10
5.2748523221
 20
10.1213290786
 11
4.7676923427
 21
10.2195435996
  0
LWPOLYLINE
  5
302
100
AcDbEntity
  8
0
100
AcDbPolyline
 62
7
  6
CONTINUOUS
 90
4
 70
0
 10
11.275915553
 20
7.7019468178
 10
11.274055459
 20
7.7071655068
 10
11.2712321081
 20
7.7115979468
 10
11.2670532028
 20
7.7148821408
  0
LWPOLYLINE
  5
303
100
AcDbEntity
  8
0
100
AcDbPolyline
 62
7
  6
CONTINUOUS
 90
3
 70
0
 10
11.3484875991
 20
7.6901668049
 10
11.3463720719
 20
7.6980335236
 10
11.3421018837
 20
7.705223134
  0
LWPOLYLINE
  5
304
100
AcDbEntity
  8
0
100
AcDbPolyline
 62
7
  6
CONTINUOUS
 90
3
 70
0
 10
11.3420258794
 20
7.6897463005
 10
11.3403650537
 20
7.6972624909
 10
11.3368683582
 20
7.7043417481
  0
LWPOLYLINE
  5
305
100
AcDbEntity
  8
0
100
AcDbPolyline
 62
7
  6
CONTINUOUS
 90
4
 70
0
 10
11.2418338585
 20
7.7025814478
 10
11.2413813097
 20
7.7053417524
 10
11.2408025465
 20
7.7077064685
 10
11.240622145
 20
7.7082731046
  0
LWPOLYLINE
  5
306
100
AcDbEntity
  8
0
100
AcDbPolyline
 62
7
  6
CONTINUOUS
 90
3
 70
0
 10
11.2777019928
 20
7.6892342859
 10
11.2771225255
 20
7.6958451439
 10
11.275915553
 20
7.7019468178
  0
LINE
  5
307
100
AcDbEntity
  8
0
100
AcDbLine
 62
7
  6
CONTINUOUS
 10
11.3487460309
 20
7.6861695014
 11
11.3484875991
 21
7.6901668049
  0
LINE
  5
308
100
AcDbEntity
  8
0
100
AcDbLine
 62
7
  6
CONTINUOUS
 10
11.3422106072
 20
7.6861695018
 11
11.3420258794
 21
7.6897463005
  0
LINE
  5
309
100
AcDbEntity
  8
0
100
AcDbLine
 62
7
  6
CONTINUOUS
 10
11.3279932469
 20
7.6861695021
 11
11.3278210603
 21
7.689907267
  0
LINE
  5
30A
100
AcDbEntity
  8
0
100
AcDbLine
 62
7
  6
CONTINUOUS
 10
11.3063706659
 20
7.6861695026
 11
11.3062574782
 21
7.6895813263
  0
LINE
  5
30B
100
AcDbEntity
  8
0
100
AcDbLine
 62
7
  6
CONTINUOUS
 10
11.2777637225
 20
7.686169503
 11
11.2777019928
 21
7.6892342859
  0
LWPOLYLINE
  5
30C
100
AcDbEntity
  8
0
100
AcDbPolyline
 62
7
  6
CONTINUOUS
 90
5
 70
0
 10
11.2427292072
 20
7.6861695035
 10
11.2427020753
 20
7.6892988857
 10
11.242519911
 20
7.6946938133
 10
11.2422163039
 20
7.6991046126
 10
11.2418338585
 20
7.7025814478
  0
LINE
  5
30D
100
AcDbEntity
  8
0
100
AcDbLine
 62
7
  6
CONTINUOUS
 10
11.0064963557
 20
7.6220327534
 11
11.0064963557
 21
7.7047444984
  0
LINE
  5
30E
100
AcDbEntity
  8
0
100
AcDbLine
 62
9
  6
CONTINUOUS
 10
11.020334704
 20
7.6481695021
 11
11.020334704
 21
7.6861695021
  0
LINE
  5
30F
100
AcDbEntity
  8
0
100
AcDbLine
 62
9
  6
CONTINUOUS
 10
11.0281436125
 20
7.6481695021
 11
11.0281436125
 21
7.6861695021
  0
LINE
  5
310
100
AcDbEntity
  8
0
100
AcDbLine
 62
9
  6
CONTINUOUS
 10
11.0462913722
 20
7.6861695021
 11
11.0462913722
 21
7.6481695021
  0
LINE
  5
311
100
AcDbEntity
  8
0
100
AcDbLine
 62
9
  6
CONTINUOUS
 10
11.0524635805
 20
7.6861695021
 11
11.0524635805
 21
7.6481695021
  0
LINE
  5
312
100
AcDbEntity
  8
0
100
AcDbLine
 62
7
  6
CONTINUOUS
 10
11.0601330708
 20
7.6220327534
 11
11.0601330708
 21
7.7047444984
  0
LINE
  5
313
100
AcDbEntity
  8
0
100
AcDbLine
 62
9
  6
CONTINUOUS
 10
11.075185293
 20
7.6481695021
 11
11.075185293
 21
7.6861695021
  0
LINE
  5
314
100
AcDbEntity
  8
0
100
AcDbLine
 62
9
  6
CONTINUOUS
 10
11.0831324323
 20
7.6481695021
 11
11.0831324323
 21
7.6861695021
  0
LINE
  5
315
100
AcDbEntity
  8
0
100
AcDbLine
 62
9
  6
CONTINUOUS
 10
11.1004738564
 20
7.6861695021
 11
11.1004738564
 21
7.6481695021
  0
LINE
  5
316
100
AcDbEntity
  8
0
100
AcDbLine
 62
9
  6
CONTINUOUS
 10
11.1058866294
 20
7.6861695021
 11
11.1058866294
 21
7.6481695021
  0
LINE
  5
317
100
AcDbEntity
  8
0
100
AcDbLine
 62
7
  6
CONTINUOUS
 10
11.1113866163
 20
7.6220327534
 11
11.1113866163
 21
7.7047444984
  0
LINE
  5
318
100
AcDbEntity
  8
0
100
AcDbLine
 62
9
  6
CONTINUOUS
 10
11.1273597381
 20
7.6481695021
 11
11.1273597381
 21
7.6861695021
  0
LINE
  5
319
100
AcDbEntity
  8
0
100
AcDbLine
 62
9
  6
CONTINUOUS
 10
11.1352904261
 20
7.6481695021
 11
11.1352904261
 21
7.6861695021
  0
LINE
  5
31A
100
AcDbEntity
  8
0
100
AcDbLine
 62
9
  6
CONTINUOUS
 10
11.1514879836
 20
7.6861695021
 11
11.1514879836
 21
7.6481695021
  0
LINE
  5
31B
100
AcDbEntity
  8
0
100
AcDbLine
 62
9
  6
CONTINUOUS
 10
11.1560359679
 20
7.6861695021
 11
11.1560359679
 21
7.6481695021
  0
LINE
  5
31C
100
AcDbEntity
  8
0
100
AcDbLine
 62
7
  6
CONTINUOUS
 10
11.1592594004
 20
7.6220327534
 11
11.1592594004
 21
7.7047444984
  0
LINE
  5
31D
100
AcDbEntity
  8
0
100
AcDbLine
 62
9
  6
CONTINUOUS
 10
11.1758425231
 20
7.6481695021
 11
11.1758425231
 21
7.6861695021
  0
LINE
  5
31E
100
AcDbEntity
  8
0
100
AcDbLine
 62
9
  6
CONTINUOUS
 10
11.183602398
 20
7.6481695021
 11
11.183602398
 21
7.6861695021
  0
LINE
  5
31F
100
AcDbEntity
  8
0
100
AcDbLine
 62
9
  6
CONTINUOUS
 10
11.1983408219
 20
7.6861695021
 11
11.1983408219
 21
7.6481695021
  0
LINE
  5
320
100
AcDbEntity
  8
0
100
AcDbLine
 62
9
  6
CONTINUOUS
 10
11.201935496
 20
7.6861695021
 11
11.201935496
 21
7.6481695021
  0
LINE
  5
321
100
AcDbEntity
  8
0
100
AcDbLine
 62
7
  6
CONTINUOUS
 10
11.2028196337
 20
7.6220327534
 11
11.2028196337
 21
7.7047444984
  0
LINE
  5
322
100
AcDbEntity
  8
0
100
AcDbLine
 62
9
  6
CONTINUOUS
 10
11.2196899857
 20
7.6481695021
 11
11.2196899857
 21
7.6861695021
  0
LINE
  5
323
100
AcDbEntity
  8
0
100
AcDbLine
 62
9
  6
CONTINUOUS
 10
11.2271280104
 20
7.6481695021
 11
11.2271280104
 21
7.6861695021
  0
LINE
  5
324
100
AcDbEntity
  8
0
100
AcDbLine
 62
9
  6
CONTINUOUS
 10
11.240120434
 20
7.6861695021
 11
11.240120434
 21
7.6481695021
  0
LINE
  5
325
100
AcDbEntity
  8
0
100
AcDbLine
 62
7
  6
CONTINUOUS
 10
11.2412194659
 20
7.6220327534
 11
11.2412194659
 21
7.6284577939
  0
LINE
  5
326
100
AcDbEntity
  8
0
100
AcDbLine
 62
7
  6
CONTINUOUS
 10
11.2427292855
 20
7.6481695022
 11
11.2427292855
 21
7.6861695025
  0
LINE
  5
327
100
AcDbEntity
  8
0
100
AcDbLine
 62
9
  6
CONTINUOUS
 10
11.258048685
 20
7.6481695021
 11
11.258048685
 21
7.6861695021
  0
LINE
  5
328
100
AcDbEntity
  8
0
100
AcDbLine
 62
9
  6
CONTINUOUS
 10
11.2650200868
 20
7.6481695021
 11
11.2650200868
 21
7.6861695021
  0
LINE
  5
329
100
AcDbEntity
  8
0
100
AcDbLine
 62
7
  6
CONTINUOUS
 10
11.2737114879
 20
7.6220327534
 11
11.2737114879
 21
7.6268176352
  0
LINE
  5
32A
100
AcDbEntity
  8
0
100
AcDbLine
 62
9
  6
CONTINUOUS
 10
11.2760136274
 20
7.6861695021
 11
11.2760136274
 21
7.6481695021
  0
LINE
  5
32B
100
AcDbEntity
  8
0
100
AcDbLine
 62
7
  6
CONTINUOUS
 10
11.2777639626
 20
7.6481695022
 11
11.2777639626
 21
7.6861695025
  0
LINE
  5
32C
100
AcDbEntity
  8
0
100
AcDbLine
 62
9
  6
CONTINUOUS
 10
11.2901720124
 20
7.6481695021
 11
11.2901720124
 21
7.6861695021
  0
LINE
  5
32D
100
AcDbEntity
  8
0
100
AcDbLine
 62
7
  6
CONTINUOUS
 10
11.2921923427
 20
7.2951695021
 11
11.2921923427
 21
7.5882445491
  0
LINE
  5
32E
100
AcDbEntity
  8
0
100
AcDbLine
 62
9
  6
CONTINUOUS
 10
11.2965411009
 20
7.6481695021
 11
11.2965411009
 21
7.6861695021
  0
LINE
  5
32F
100
AcDbEntity
  8
0
100
AcDbLine
 62
7
  6
CONTINUOUS
 10
11.2996632794
 20
7.6220327534
 11
11.2996632794
 21
7.6254604882
  0
LINE
  5
330
100
AcDbEntity
  8
0
100
AcDbLine
 62
9
  6
CONTINUOUS
 10
11.3053217817
 20
7.6861695021
 11
11.3053217817
 21
7.6481695021
  0
LINE
  5
331
100
AcDbEntity
  8
0
100
AcDbLine
 62
7
  6
CONTINUOUS
 10
11.3063711058
 20
7.6481695022
 11
11.3063711058
 21
7.6861695025
  0
LINE
  5
332
100
AcDbEntity
  8
0
100
AcDbLine
 62
9
  6
CONTINUOUS
 10
11.3154347241
 20
7.6481695021
 11
11.3154347241
 21
7.6861695021
  0
LINE
  5
333
100
AcDbEntity
  8
0
100
AcDbLine
 62
7
  6
CONTINUOUS
 10
11.3185697185
 20
7.6220327534
 11
11.3185697185
 21
7.6242063021
  0
LINE
  5
334
100
AcDbEntity
  8
0
100
AcDbLine
 62
9
  6
CONTINUOUS
 10
11.3210775321
 20
7.6481695021
 11
11.3210775321
 21
7.6861695021
  0
LINE
  5
335
100
AcDbEntity
  8
0
100
AcDbLine
 62
9
  6
CONTINUOUS
 10
11.3274744472
 20
7.6861695021
 11
11.3274744472
 21
7.6481695021
  0
LINE
  5
336
100
AcDbEntity
  8
0
100
AcDbLine
 62
7
  6
CONTINUOUS
 10
11.3279939097
 20
7.6481695022
 11
11.3279939097
 21
7.6861695025
  0
LINE
  5
337
100
AcDbEntity
  8
0
100
AcDbLine
 62
7
  6
CONTINUOUS
 10
11.3300628126
 20
7.6220327534
 11
11.3300628126
 21
7.6229669508
  0
LINE
  5
338
100
AcDbEntity
  8
0
100
AcDbLine
 62
9
  6
CONTINUOUS
 10
11.3333451099
 20
7.6481695021
 11
11.3333451099
 21
7.6861695021
  0
LINE
  5
339
100
AcDbEntity
  8
0
100
AcDbLine
 62
9
  6
CONTINUOUS
 10
11.3381518068
 20
7.6481695021
 11
11.3381518068
 21
7.6861695021
  0
LINE
  5
33A
100
AcDbEntity
  8
0
100
AcDbLine
 62
9
  6
CONTINUOUS
 10
11.3420404474
 20
7.6861695021
 11
11.3420404474
 21
7.6481695021
  0
LINE
  5
33B
100
AcDbEntity
  8
0
100
AcDbLine
 62
7
  6
CONTINUOUS
 10
11.342211511
 20
7.6481695022
 11
11.342211511
 21
7.6861695025
  0
LINE
  5
33C
100
AcDbEntity
  8
0
100
AcDbLine
 62
9
  6
CONTINUOUS
 10
11.3435545647
 20
7.6481695021
 11
11.3435545647
 21
7.6861695021
  0
LINE
  5
33D
100
AcDbEntity
  8
0
100
AcDbLine
 62
9
  6
CONTINUOUS
 10
11.3474315935
 20
7.6481695021
 11
11.3474315935
 21
7.6861695021
  0
LINE
  5
33E
100
AcDbEntity
  8
0
100
AcDbLine
 62
9
  6
CONTINUOUS
 10
11.3487362717
 20
7.6861695021
 11
11.3487362717
 21
7.6481695021
  0
LINE
  5
33F
100
AcDbEntity
  8
0
100
AcDbLine
 62
7
  6
CONTINUOUS
 10
11.3487471803
 20
7.6481695022
 11
11.3487471803
 21
7.6861695025
  0
LINE
  5
340
100
AcDbEntity
  8
0
100
AcDbLine
 62
7
  6
CONTINUOUS
 10
11.4001923427
 20
7.0451695021
 11
11.4001923427
 21
7.1251695021
  0
LINE
  5
341
100
AcDbEntity
  8
0
100
AcDbLine
 62
7
  6
CONTINUOUS
 10
11.2777029197
 20
7.6451275253
 11
11.2777637522
 21
7.6481695005
  0
LINE
  5
342
100
AcDbEntity
  8
0
100
AcDbLine
 62
7
  6
CONTINUOUS
 10
11.3061814401
 20
7.6437675308
 11
11.3063707214
 21
7.6481695021
  0
LINE
  5
343
100
AcDbEntity
  8
0
100
AcDbLine
 62
7
  6
CONTINUOUS
 10
11.3277719905
 20
7.6439366352
 11
11.3279933235
 21
7.6481695037
  0
LINE
  5
344
100
AcDbEntity
  8
0
100
AcDbLine
 62
7
  6
CONTINUOUS
 10
11.3419645918
 20
7.6440451098
 11
11.3422107148
 21
7.6481695051
  0
LWPOLYLINE
  5
345
100
AcDbEntity
  8
0
100
AcDbPolyline
 62
7
  6
CONTINUOUS
 90
4
 70
0
 10
11.2420879835
 20
7.6338997252
 10
11.2425007421
 20
7.6392809238
 10
11.2427068221
 20
7.645325159
 10
11.2427292158
 20
7.6481694988
  0
LINE
  5
346
100
AcDbEntity
  8
0
100
AcDbLine
 62
7
  6
CONTINUOUS
 10
11.2415124514
 20
7.6296915826
 11
11.2420879835
 21
7.6338997252
  0
LWPOLYLINE
  5
347
100
AcDbEntity
  8
0
100
AcDbPolyline
 62
7
  6
CONTINUOUS
 90
3
 70
0
 10
10.5855141456
 20
7.7040431563
 10
10.5836069999
 20
7.6975888686
 10
10.5826346386
 20
7.6905484146
  0
LWPOLYLINE
  5
348
100
AcDbEntity
  8
0
100
AcDbPolyline
 62
7
  6
CONTINUOUS
 90
3
 70
0
 10
10.5613695555
 20
7.7041705511
 10
10.5587892326
 20
7.6975048154
 10
10.557499656
 20
7.6904065107
  0
LWPOLYLINE
  5
349
100
AcDbEntity
  8
0
100
AcDbPolyline
 62
7
  6
CONTINUOUS
 90
4
 70
0
 10
10.6196989445
 20
7.7117335424
 10
10.6181295541
 20
7.7092902379
 10
10.6166515959
 20
7.7055993028
 10
10.6155605914
 20
7.7010253659
  0
LINE
  5
34A
100
AcDbEntity
  8
0
100
AcDbLine
 62
9
  6
CONTINUOUS
 10
6.702272135
 20
9.3750403802
 11
7.2226923427
 21
9.3750403802
  0
LINE
  5
34B
100
AcDbEntity
  8
0
100
AcDbLine
 62
9
  6
CONTINUOUS
 10
14.6527077224
 20
9.3750403802
 11
15.1731124019
 21
9.3750403802
  0
LINE
  5
34C
100
AcDbEntity
  8
0
100
AcDbLine
 62
7
  6
CONTINUOUS
 10
18.0276923427
 20
9.6221695021
 11
17.974326739
 21
9.6221695021
  0
LINE
  5
34D
100
AcDbEntity
  8
0
100
AcDbLine
 62
7
  6
CONTINUOUS
 10
3.8476923427
 20
9.6221695021
 11
3.9010579464
 21
9.6221695021
  0
LINE
  5
34E
100
AcDbEntity
  8
0
100
AcDbLine
 62
7
  6
CONTINUOUS
 10
15.7576923427
 20
9.6321695021
 11
15.7176923427
 21
9.6321695021
  0
LINE
  5
34F
100
AcDbEntity
  8
0
100
AcDbLine
 62
7
  6
CONTINUOUS
 10
6.1176923427
 20
9.6321695021
 11
6.1576923427
 21
9.6321695021
  0
LINE
  5
350
100
AcDbEntity
  8
0
100
AcDbLine
 62
7
  6
CONTINUOUS
 10
16.0776923427
 20
9.6631695021
 11
15.7776923427
 21
9.6631695021
  0
LINE
  5
351
100
AcDbEntity
  8
0
100
AcDbLine
 62
7
  6
CONTINUOUS
 10
5.7976923427
 20
9.6631695021
 11
6.0976923427
 21
9.6631695021
  0
LWPOLYLINE
  5
352
100
AcDbEntity
  8
0
100
AcDbPolyline
 62
7
  6
CONTINUOUS
 90
3
 70
0
 10
11.3278210603
 20
7.689907267
 10
11.3264313192
 20
7.6972077176
 10
11.3235099826
 20
7.7041539476
  0
LWPOLYLINE
  5
353
100
AcDbEntity
  8
0
100
AcDbPolyline
 62
7
  6
CONTINUOUS
 90
3
 70
0
 10
11.3062574782
 20
7.6895813263
 10
11.3052031438
 20
7.6968974608
 10
11.302919082
 20
7.7038376549
  0
LINE
  5
354
100
AcDbEntity
  8
0
100
AcDbLine
 62
7
  6
CONTINUOUS
 10
11.6376923427
 20
7.7951695021
 11
11.6376923427
 21
10.1401695021
  0
LINE
  5
355
100
AcDbEntity
  8
0
100
AcDbLine
 62
7
  6
CONTINUOUS
 10
11.7476923427
 20
11.9501695021
 11
11.7476923427
 21
11.8401695021
  0
LINE
  5
356
100
AcDbEntity
  8
0
100
AcDbLine
 62
7
  6
CONTINUOUS
 10
11.7476923427
 20
7.7551695021
 11
11.7476923427
 21
6.9651695021
  0
LINE
  5
357
100
AcDbEntity
  8
0
100
AcDbLine
 62
7
  6
CONTINUOUS
 10
11.7476923427
 20
10.1401695021
 11
11.7476923427
 21
11.3401695021
  0
LINE
  5
358
100
AcDbEntity
  8
0
100
AcDbLine
 62
7
  6
CONTINUOUS
 10
11.9376923427
 20
6.9251695021
 11
11.9376923427
 21
6.5451695021
  0
LINE
  5
359
100
AcDbEntity
  8
0
100
AcDbLine
 62
7
  6
CONTINUOUS
 10
11.9476923427
 20
11.3801695021
 11
11.9476923427
 21
11.8001695021
  0
LWPOLYLINE
  5
35A
100
AcDbEntity
  8
0
100
AcDbPolyline
 62
7
  6
CONTINUOUS
 90
3
 70
0
 10
11.2762623371
 20
7.6337827762
 10
11.2772283044
 20
7.6392965157
 10
11.2777029197
 20
7.6451275253
  0
LINE
  5
35B
100
AcDbEntity
  8
0
100
AcDbLine
 62
7
  6
CONTINUOUS
 10
11.2407303689
 20
7.6263981618
 11
11.2415124514
 21
7.6296915826
  0
LINE
  5
35C
100
AcDbEntity
  8
0
100
AcDbLine
 62
7
  6
CONTINUOUS
 10
11.2746854966
 20
7.6286327771
 11
11.2762623371
 21
7.6337827762
  0
LWPOLYLINE
  5
35D
100
AcDbEntity
  8
0
100
AcDbPolyline
 62
7
  6
CONTINUOUS
 90
3
 70
0
 10
11.3025783503
 20
7.6297699394
 10
11.3049972097
 20
7.6365790959
 10
11.3061814401
 20
7.6437675308
  0
LWPOLYLINE
  5
35E
100
AcDbEntity
  8
0
100
AcDbPolyline
 62
7
  6
CONTINUOUS
 90
3
 70
0
 10
11.3226857522
 20
7.6288219915
 10
11.3261436215
 20
7.6362036787
 10
11.3277719905
 20
7.6439366352
  0
LINE
  5
35F
100
AcDbEntity
  8
0
100
AcDbLine
 62
7
  6
CONTINUOUS
 10
11.2721321467
 20
7.6238744087
 11
11.2746854966
 21
7.6286327771
  0
LWPOLYLINE
  5
360
100
AcDbEntity
  8
0
100
AcDbPolyline
 62
7
  6
CONTINUOUS
 90
4
 70
0
 10
10.5494494149
 20
7.710418985
 10
10.5443959469
 20
7.70446203
 10
10.5411067808
 20
7.697421932
 10
10.5395297862
 20
7.689963058
  0
LWPOLYLINE
  5
361
100
AcDbEntity
  8
0
100
AcDbPolyline
 62
7
  6
CONTINUOUS
 90
4
 70
0
 10
10.5402452528
 20
7.7103081023
 10
10.5346601585
 20
7.7044229074
 10
10.5309690416
 20
7.6974621041
 10
10.5291659196
 20
7.690050446
  0
LINE
  5
362
100
AcDbEntity
  8
0
100
AcDbLine
 62
7
  6
CONTINUOUS
 10
6.5906923427
 20
9.9871695021
 11
7.2846923427
 21
9.9871695021
  0
LINE
  5
363
100
AcDbEntity
  8
0
100
AcDbLine
 62
7
  6
CONTINUOUS
 10
14.5906923427
 20
9.9871695021
 11
15.2846923427
 21
9.9871695021
  0
LINE
  5
364
100
AcDbEntity
  8
0
100
AcDbLine
 62
9
  6
CONTINUOUS
 10
6.5806923427
 20
9.9971695021
 11
7.2946923427
 21
9.9971695021
  0
LINE
  5
365
100
AcDbEntity
  8
0
100
AcDbLine
 62
9
  6
CONTINUOUS
 10
14.5806923427
 20
9.9971695021
 11
15.2946923427
 21
9.9971695021
  0
LINE
  5
366
100
AcDbEntity
  8
0
100
AcDbLine
 62
7
  6
CONTINUOUS
 10
15.2946923427
 20
10.0471695021
 11
14.5806923427
 21
10.0471695021
  0
LINE
  5
367
100
AcDbEntity
  8
0
100
AcDbLine
 62
7
  6
CONTINUOUS
 10
7.2946923427
 20
10.0471695021
 11
6.5806923427
 21
10.0471695021
  0
LINE
  5
368
100
AcDbEntity
  8
0
100
AcDbLine
 62
7
  6
CONTINUOUS
 10
16.0776923427
 20
10.0711695021
 11
15.7776923427
 21
10.0711695021
  0
LINE
  5
369
100
AcDbEntity
  8
0
100
AcDbLine
 62
7
  6
CONTINUOUS
 10
5.7976923427
 20
10.0711695021
 11
6.0976923427
 21
10.0711695021
  0
LINE
  5
36A
100
AcDbEntity
  8
0
100
AcDbLine
 62
7
  6
CONTINUOUS
 10
15.7576923427
 20
10.1021695021
 11
15.7176923427
 21
10.1021695021
  0
LINE
  5
36B
100
AcDbEntity
  8
0
100
AcDbLine
 62
7
  6
CONTINUOUS
 10
6.1176923427
 20
10.1021695021
 11
6.1576923427
 21
10.1021695021
  0
LINE
  5
36C
100
AcDbEntity
  8
0
100
AcDbLine
 62
7
  6
CONTINUOUS
 10
18.0276923427
 20
10.1121695021
 11
17.974326739
 21
10.1121695021
  0
LINE
  5
36D
100
AcDbEntity
  8
0
100
AcDbLine
 62
7
  6
CONTINUOUS
 10
3.8476923427
 20
10.1121695021
 11
3.9010579464
 21
10.1121695021
  0
LINE
  5
36E
100
AcDbEntity
  8
0
100
AcDbLine
 62
7
  6
CONTINUOUS
 10
10.1276934669
 20
10.1401695021
 11
11.7476912186
 21
10.1401695021
  0
LINE
  5
36F
100
AcDbEntity
  8
0
100
AcDbLine
 62
7
  6
CONTINUOUS
 10
6.5806923427
 20
10.1670470404
 11
7.2946923427
 21
10.1670470404
  0
LINE
  5
370
100
AcDbEntity
  8
0
100
AcDbLine
 62
7
  6
CONTINUOUS
 10
14.5806923427
 20
10.1670470404
 11
15.2946923427
 21
10.1670470404
  0
LINE
  5
371
100
AcDbEntity
  8
0
100
AcDbLine
 62
9
  6
CONTINUOUS
 10
15.2946923427
 20
10.2170470404
 11
14.5806923427
 21
10.2170470404
  0
LINE
  5
372
100
AcDbEntity
  8
0
100
AcDbLine
 62
9
  6
CONTINUOUS
 10
7.2946923427
 20
10.2170470404
 11
6.5806923427
 21
10.2170470404
  0
LINE
  5
373
100
AcDbEntity
  8
0
100
AcDbLine
 62
7
  6
CONTINUOUS
 10
15.2846923427
 20
10.2270470404
 11
14.5906970244
 21
10.2270470404
  0
LINE
  5
374
100
AcDbEntity
  8
0
100
AcDbLine
 62
7
  6
CONTINUOUS
 10
7.2846923427
 20
10.2270470404
 11
6.5906970244
 21
10.2270470404
  0
LINE
  5
375
100
AcDbEntity
  8
0
100
AcDbLine
 62
9
  6
CONTINUOUS
 10
15.2376923427
 20
10.227891085
 11
14.6376923427
 21
10.227891085
  0
LINE
  5
376
100
AcDbEntity
  8
0
100
AcDbLine
 62
9
  6
CONTINUOUS
 10
7.2376923427
 20
10.227891085
 11
6.6376923427
 21
10.227891085
  0
LINE
  5
377
100
AcDbEntity
  8
0
100
AcDbLine
 62
9
  6
CONTINUOUS
 10
6.6432364302
 20
10.2368406478
 11
7.2321538812
 21
10.2368406478
  0
LINE
  5
378
100
AcDbEntity
  8
0
100
AcDbLine
 62
9
  6
CONTINUOUS
 10
14.6432364302
 20
10.2368406478
 11
15.2321538812
 21
10.2368406478
  0
LINE
  5
379
100
AcDbEntity
  8
0
100
AcDbLine
 62
7
  6
CONTINUOUS
 10
11.2983414208
 20
7.6235063383
 11
11.3025783503
 21
7.6297699394
  0
LINE
  5
37A
100
AcDbEntity
  8
0
100
AcDbLine
 62
7
  6
CONTINUOUS
 10
11.2710699649
 20
7.6225578189
 11
11.2721321467
 21
7.6238744087
  0
LINE
  5
37B
100
AcDbEntity
  8
0
100
AcDbLine
 62
7
  6
CONTINUOUS
 10
11.3172259431
 20
7.6226994025
 11
11.3226857522
 21
7.6288219915
  0
LWPOLYLINE
  5
37C
100
AcDbEntity
  8
0
100
AcDbPolyline
 62
7
  6
CONTINUOUS
 90
4
 70
0
 10
11.3304995218
 20
7.6232112622
 10
11.3362653932
 20
7.6291281044
 10
11.3400900476
 20
7.6363136864
 10
11.3419645918
 20
7.6440451098
  0
LINE
  5
37D
100
AcDbEntity
  8
0
100
AcDbLine
 62
7
  6
CONTINUOUS
 10
11.29525168
 20
7.6208853143
 11
11.2983414208
 21
7.6235063383
  0
LINE
  5
37E
100
AcDbEntity
  8
0
100
AcDbLine
 62
7
  6
CONTINUOUS
 10
11.3132725924
 20
7.620188841
 11
11.3172259431
 21
7.6226994025
  0
LINE
  5
37F
100
AcDbEntity
  8
0
100
AcDbLine
 62
7
  6
CONTINUOUS
 10
10.5559400651
 20
7.7144827251
 11
10.5536489619
 21
7.7130388485
  0
LINE
  5
380
100
AcDbEntity
  8
0
100
AcDbLine
 62
7
  6
CONTINUOUS
 10
10.5560092866
 20
7.7145113237
 11
10.5494494149
 21
7.710418985
  0
LINE
  5
381
100
AcDbEntity
  8
0
100
AcDbLine
 62
7
  6
CONTINUOUS
 10
10.5474262071
 20
7.7143948739
 11
10.5402452528
 21
7.7103081023
  0
LWPOLYLINE
  5
382
100
AcDbEntity
  8
0
100
AcDbPolyline
 62
7
  6
CONTINUOUS
 90
4
 70
0
 10
10.5973424017
 20
7.7157975191
 10
10.59405138
 20
7.7145400188
 10
10.5887517545
 20
7.7099140796
 10
10.5855141456
 20
7.7040431563
  0
LINE
  5
383
100
AcDbEntity
  8
0
100
AcDbLine
 62
7
  6
CONTINUOUS
 10
5.2748523221
 20
9.6130099257
 11
4.7676923427
 21
9.5147954047
  0
LINE
  5
384
100
AcDbEntity
  8
0
100
AcDbLine
 62
7
  6
CONTINUOUS
 10
16.6005323634
 20
9.6130099257
 11
17.1076923427
 21
9.5147954047
  0
LINE
  5
385
100
AcDbEntity
  8
0
100
AcDbLine
 62
7
  6
CONTINUOUS
 10
15.3485784576
 20
9.897053221
 11
15.4785861441
 21
9.9880855831
  0
LINE
  5
386
100
AcDbEntity
  8
0
100
AcDbLine
 62
7
  6
CONTINUOUS
 10
11.3244853059
 20
7.6198466859
 11
11.3304995218
 21
7.6232112622
  0
LWPOLYLINE
  5
387
100
AcDbEntity
  8
0
100
AcDbPolyline
 62
7
  6
CONTINUOUS
 90
6
 70
0
 10
11.3285048265
 20
7.6196633463
 10
11.336343105
 20
7.6236557797
 10
11.3424346295
 20
7.6295381144
 10
11.3465041834
 20
7.6366262356
 10
11.3485017895
 20
7.6442826192
 10
11.3487461684
 20
7.6481695064
  0
LINE
  5
388
100
AcDbEntity
  8
0
100
AcDbLine
 62
7
  6
CONTINUOUS
 10
11.2924626283
 20
7.6196507225
 11
11.2952512022
 21
7.6208861343
  0
LINE
  5
389
100
AcDbEntity
  8
0
100
AcDbLine
 62
7
  6
CONTINUOUS
 10
11.3118238279
 20
7.6196507242
 11
11.313270953
 21
7.620193249
  0
LINE
  5
38A
100
AcDbEntity
  8
0
100
AcDbLine
 62
7
  6
CONTINUOUS
 10
11.3239029837
 20
7.6196507225
 11
11.324484032
 21
7.619851756
  0
LINE
  5
38B
100
AcDbEntity
  8
0
100
AcDbLine
 62
7
  6
CONTINUOUS
 10
11.3284649997
 20
7.6196505236
 11
11.3285046917
 21
7.6196641247
  0
LINE
  5
38C
100
AcDbEntity
  8
0
100
AcDbLine
 62
7
  6
CONTINUOUS
 10
9.9676923427
 20
11.3401695021
 11
11.9076923427
 21
11.3401695021
  0
LINE
  5
38D
100
AcDbEntity
  8
0
100
AcDbLine
 62
7
  6
CONTINUOUS
 10
15.2568062278
 20
9.3688992702
 11
15.6965451899
 21
9.6768078062
  0
LINE
  5
38E
100
AcDbEntity
  8
0
100
AcDbLine
 62
9
  6
CONTINUOUS
 10
9.9276923427
 20
11.3801695021
 11
11.9476923427
 21
11.3801695021
  0
LINE
  5
38F
100
AcDbEntity
  8
0
100
AcDbLine
 62
9
  6
CONTINUOUS
 10
11.9476923427
 20
11.8001695021
 11
9.9276923427
 21
11.8001695021
  0
LINE
  5
390
100
AcDbEntity
  8
0
100
AcDbLine
 62
7
  6
CONTINUOUS
 10
9.9677082828
 20
11.8401695021
 11
11.9076764027
 21
11.8401695021
  0
LINE
  5
391
100
AcDbEntity
  8
0
100
AcDbLine
 62
7
  6
CONTINUOUS
 10
13.8826923427
 20
6.6251695021
 11
13.8826923427
 21
6.5451695021
  0
LINE
  5
392
100
AcDbEntity
  8
0
100
AcDbLine
 62
9
  6
CONTINUOUS
 10
11.7476923427
 20
11.9501695021
 11
10.1276923427
 21
11.9501695021
  0
LINE
  5
393
100
AcDbEntity
  8
0
100
AcDbLine
 62
7
  6
CONTINUOUS
 10
11.7076912891
 20
11.9901695021
 11
10.1676933964
 21
11.9901695021
  0
LINE
  5
394
100
AcDbEntity
  8
0
100
AcDbLine
 62
7
  6
CONTINUOUS
 10
14.0876923427
 20
6.8651695021
 11
14.0876923427
 21
6.7951695021
  0
LINE
  5
395
100
AcDbEntity
  8
0
100
AcDbLine
 62
7
  6
CONTINUOUS
 10
14.2726923427
 20
7.2951695021
 11
14.2726923427
 21
7.2231695021
  0
LINE
  5
396
100
AcDbEntity
  8
0
100
AcDbLine
 62
7
  6
CONTINUOUS
 10
14.2726923427
 20
7.0671695021
 11
14.2726923427
 21
6.9951695021
  0
LINE
  5
397
100
AcDbEntity
  8
0
100
AcDbLine
 62
7
  6
CONTINUOUS
 10
14.3776923427
 20
8.9958655171
 11
14.3776923427
 21
7.3251695021
  0
LINE
  5
398
100
AcDbEntity
  8
0
100
AcDbLine
 62
7
  6
CONTINUOUS
 10
14.5806923427
 20
9.9971695021
 11
14.5806923427
 21
10.0471695021
  0
LINE
  5
399
100
AcDbEntity
  8
0
100
AcDbLine
 62
7
  6
CONTINUOUS
 10
14.5806923427
 20
10.1670470404
 11
14.5806923427
 21
10.2170470404
  0
LINE
  5
39A
100
AcDbEntity
  8
0
100
AcDbLine
 62
7
  6
CONTINUOUS
 10
14.6376923427
 20
10.2270470404
 11
14.6376923427
 21
10.227891085
  0
LINE
  5
39B
100
AcDbEntity
  8
0
100
AcDbLine
 62
7
  6
CONTINUOUS
 10
14.6526923427
 20
9.3750403802
 11
14.6526923427
 21
9.9871695021
  0
LINE
  5
39C
100
AcDbEntity
  8
0
100
AcDbLine
 62
7
  6
CONTINUOUS
 10
14.7276923427
 20
9.2551695021
 11
14.7276923427
 21
9.2821695021
  0
LINE
  5
39D
100
AcDbEntity
  8
0
100
AcDbLine
 62
9
  6
CONTINUOUS
 10
15.6965451899
 20
9.6768078062
 11
15.4785861441
 21
9.9880855831
  0
LINE
  5
39E
100
AcDbEntity
  8
0
100
AcDbLine
 62
7
  6
CONTINUOUS
 10
15.1476923427
 20
9.2551695021
 11
15.1476923427
 21
9.2821695021
  0
LINE
  5
39F
100
AcDbEntity
  8
0
100
AcDbLine
 62
7
  6
CONTINUOUS
 10
15.2226923427
 20
9.9625853846
 11
15.2226923427
 21
9.9871695021
  0
LINE
  5
3A0
100
AcDbEntity
  8
0
100
AcDbLine
 62
7
  6
CONTINUOUS
 10
15.2376923427
 20
10.2270470404
 11
15.2376923427
 21
10.227891085
  0
LINE
  5
3A1
100
AcDbEntity
  8
0
100
AcDbLine
 62
7
  6
CONTINUOUS
 10
15.2946923427
 20
9.9971695021
 11
15.2946923427
 21
10.0471695021
  0
LINE
  5
3A2
100
AcDbEntity
  8
0
100
AcDbLine
 62
7
  6
CONTINUOUS
 10
15.2946923427
 20
10.1670470404
 11
15.2946923427
 21
10.2170470404
  0
LINE
  5
3A3
100
AcDbEntity
  8
0
100
AcDbLine
 62
7
  6
CONTINUOUS
 10
15.4976923427
 20
8.9958655171
 11
15.4976923427
 21
7.3251695021
  0
LINE
  5
3A4
100
AcDbEntity
  8
0
100
AcDbLine
 62
7
  6
CONTINUOUS
 10
15.6026923427
 20
7.2951695021
 11
15.6026923427
 21
7.2231695021
  0
LINE
  5
3A5
100
AcDbEntity
  8
0
100
AcDbLine
 62
7
  6
CONTINUOUS
 10
15.6026923427
 20
7.0671695021
 11
15.6026923427
 21
6.9951695021
  0
LINE
  5
3A6
100
AcDbEntity
  8
0
100
AcDbLine
 62
7
  6
CONTINUOUS
 10
15.6976923427
 20
9.652183164
 11
15.6976923427
 21
10.0821558403
  0
LINE
  5
3A7
100
AcDbEntity
  8
0
100
AcDbLine
 62
9
  6
CONTINUOUS
 10
15.7176923427
 20
10.1021695021
 11
15.7176923427
 21
9.6321695021
  0
LINE
  5
3A8
100
AcDbEntity
  8
0
100
AcDbLine
 62
9
  6
CONTINUOUS
 10
15.7576923427
 20
9.6321695021
 11
15.7576923427
 21
10.1021695021
  0
LINE
  5
3A9
100
AcDbEntity
  8
0
100
AcDbLine
 62
7
  6
CONTINUOUS
 10
15.7776923427
 20
9.6521827695
 11
15.7776923427
 21
10.0821562348
  0
LINE
  5
3AA
100
AcDbEntity
  8
0
100
AcDbLine
 62
7
  6
CONTINUOUS
 10
15.7876923427
 20
6.8651695021
 11
15.7876923427
 21
6.7951695021
  0
LINE
  5
3AB
100
AcDbEntity
  8
0
100
AcDbLine
 62
7
  6
CONTINUOUS
 10
15.9926923427
 20
6.6251695021
 11
15.9926923427
 21
6.5451695021
  0
LINE
  5
3AC
100
AcDbEntity
  8
0
100
AcDbLine
 62
9
  6
CONTINUOUS
 10
16.0776923427
 20
9.6631695021
 11
16.0776923427
 21
10.0711695021
  0
LINE
  5
3AD
100
AcDbEntity
  8
0
100
AcDbLine
 62
9
  6
CONTINUOUS
 10
16.6005323634
 20
10.1213290786
 11
16.6005323634
 21
9.6130099257
  0
LINE
  5
3AE
100
AcDbEntity
  8
0
100
AcDbLine
 62
9
  6
CONTINUOUS
 10
17.1076923427
 20
9.5147954047
 11
17.1076923427
 21
10.2195435996
  0
LINE
  5
3AF
100
AcDbEntity
  8
0
100
AcDbLine
 62
7
  6
CONTINUOUS
 10
17.4786923427
 20
9.4824089995
 11
17.4786923427
 21
10.2519300048
  0
LINE
  5
3B0
100
AcDbEntity
  8
0
100
AcDbLine
 62
9
  6
CONTINUOUS
 10
17.9635903106
 20
10.1152955843
 11
17.9635903106
 21
9.61904342
  0
LINE
  5
3B1
100
AcDbEntity
  8
0
100
AcDbLine
 62
9
  6
CONTINUOUS
 10
17.974326739
 20
10.1121695021
 11
17.974326739
 21
9.6221695021
  0
LINE
  5
3B2
100
AcDbEntity
  8
0
100
AcDbLine
 62
9
  6
CONTINUOUS
 10
18.0276923427
 20
9.6221695021
 11
18.0276923427
 21
10.1121695021
  0
LINE
  5
3B3
100
AcDbEntity
  8
0
100
AcDbLine
 62
7
  6
CONTINUOUS
 10
18.0476923427
 20
9.6421841277
 11
18.0476923427
 21
10.0921548766
  0
ARC
  5
3B4
100
AcDbEntity
  8
0
100
AcDbCircle
 62
7
  6
CONTINUOUS
 10
5.7976923427
 20
6.9131695021
 40
2.75
100
AcDbArc
 50
90.0
 51
100.96
  0
ARC
  5
3B5
100
AcDbEntity
  8
0
100
AcDbCircle
 62
7
  6
CONTINUOUS
 10
6.0837042836
 20
7.1981456205
 40
0.333
100
AcDbArc
 50
270.6861994637
 51
322.4439028905
  0
ARC
  5
3B6
100
AcDbEntity
  8
0
100
AcDbCircle
 62
7
  6
CONTINUOUS
 10
6.0526923427
 20
6.6251695021
 40
0.17
100
AcDbArc
 50
90.0
 51
180.0
  0
ARC
  5
3B7
100
AcDbEntity
  8
0
100
AcDbCircle
 62
7
  6
CONTINUOUS
 10
6.3530664679
 20
7.1451695021
 40
0.112
100
AcDbArc
 50
135.8588345181
 51
224.1411654819
  0
ARC
  5
3B8
100
AcDbEntity
  8
0
100
AcDbCircle
 62
7
  6
CONTINUOUS
 10
7.5223182175
 20
7.1451695021
 40
0.112
100
AcDbArc
 50
315.8588345181
 51
44.1411654819
  0
ARC
  5
3B9
100
AcDbEntity
  8
0
100
AcDbCircle
 62
7
  6
CONTINUOUS
 10
6.3476923427
 20
7.3251695021
 40
0.03
100
AcDbArc
 50
270.0
 51
360.0
  0
ARC
  5
3BA
100
AcDbEntity
  8
0
100
AcDbCircle
 62
7
  6
CONTINUOUS
 10
7.5276923427
 20
7.3251695021
 40
0.03
100
AcDbArc
 50
180.0
 51
270.0
  0
ARC
  5
3BB
100
AcDbEntity
  8
0
100
AcDbCircle
 62
7
  6
CONTINUOUS
 10
4.4273710202
 20
8.4621929239
 40
1.79
100
AcDbArc
 50
79.04
 51
90.9820362042
  0
ARC
  5
3BC
100
AcDbEntity
  8
0
100
AcDbCircle
 62
7
  6
CONTINUOUS
 10
4.3815131184
 20
9.3770616769
 40
0.875
100
AcDbArc
 50
89.0060010065
 51
122.4675202279
  0
ARC
  5
3BD
100
AcDbEntity
  8
0
100
AcDbCircle
 62
7
  6
CONTINUOUS
 10
6.378133879
 20
9.2701691199
 40
0.255
100
AcDbArc
 50
274.078415706
 51
352.6880583707
  0
ARC
  5
3BE
100
AcDbEntity
  8
0
100
AcDbCircle
 62
7
  6
CONTINUOUS
 10
7.4972508065
 20
9.2701691199
 40
0.255
100
AcDbArc
 50
187.3119416293
 51
265.921584294
  0
ARC
  5
3BF
100
AcDbEntity
  8
0
100
AcDbCircle
 62
7
  6
CONTINUOUS
 10
6.5723934359
 20
9.3031013463
 40
0.0803888286
100
AcDbArc
 50
27.5303471369
 51
54.9340842981
  0
ARC
  5
3C0
100
AcDbEntity
  8
0
100
AcDbCircle
 62
7
  6
CONTINUOUS
 10
6.7146731953
 20
9.3771623706
 40
0.0800136139
100
AcDbArc
 50
207.4662661267
 51
268.8045196508
  0
ARC
  5
3C1
100
AcDbEntity
  8
0
100
AcDbCircle
 62
7
  6
CONTINUOUS
 10
7.1426923427
 20
9.3750403802
 40
0.08
100
AcDbArc
 50
282.1531974691
 51
360.0
  0
ARC
  5
3C2
100
AcDbEntity
  8
0
100
AcDbCircle
 62
7
  6
CONTINUOUS
 10
6.650897562
 20
9.2351695021
 40
0.02
100
AcDbArc
 50
90.0
 51
172.688058372
  0
ARC
  5
3C3
100
AcDbEntity
  8
0
100
AcDbCircle
 62
7
  6
CONTINUOUS
 10
7.2244871235
 20
9.2351695021
 40
0.02
100
AcDbArc
 50
7.311941628
 51
90.0
  0
ARC
  5
3C4
100
AcDbEntity
  8
0
100
AcDbCircle
 62
7
  6
CONTINUOUS
 10
7.4776923427
 20
8.9958655171
 40
0.02
100
AcDbArc
 50
0.0
 51
85.9215842941
  0
ARC
  5
3C5
100
AcDbEntity
  8
0
100
AcDbCircle
 62
7
  6
CONTINUOUS
 10
6.3976923427
 20
8.9958655171
 40
0.02
100
AcDbArc
 50
94.0784157059
 51
180.0
  0
ARC
  5
3C6
100
AcDbEntity
  8
0
100
AcDbCircle
 62
7
  6
CONTINUOUS
 10
6.7126923427
 20
9.2821695021
 40
0.015
100
AcDbArc
 50
0.0
 51
88.810124152
  0
ARC
  5
3C7
100
AcDbEntity
  8
0
100
AcDbCircle
 62
7
  6
CONTINUOUS
 10
7.1626923427
 20
9.2821695021
 40
0.015
100
AcDbArc
 50
102.1531974686
 51
180.0
  0
ARC
  5
3C8
100
AcDbEntity
  8
0
100
AcDbCircle
 62
7
  6
CONTINUOUS
 10
7.8226923427
 20
6.6251695021
 40
0.17
100
AcDbArc
 50
0.0
 51
90.0
  0
ARC
  5
3C9
100
AcDbEntity
  8
0
100
AcDbCircle
 62
7
  6
CONTINUOUS
 10
7.7916804019
 20
7.1981456205
 40
0.333
100
AcDbArc
 50
217.5560971095
 51
269.3138005363
  0
ARC
  5
3CA
100
AcDbEntity
  8
0
100
AcDbCircle
 62
7
  6
CONTINUOUS
 10
10.8464719365
 20
6.3622744624
 40
0.9
100
AcDbArc
 50
11.7251268757
 51
49.3560828237
  0
ARC
  5
3CB
100
AcDbEntity
  8
0
100
AcDbCircle
 62
7
  6
CONTINUOUS
 10
9.9776923427
 20
6.9251695021
 40
0.04
100
AcDbArc
 50
90.0
 51
180.0
  0
ARC
  5
3CC
100
AcDbEntity
  8
0
100
AcDbCircle
 62
7
  6
CONTINUOUS
 10
10.5195239579
 20
7.2851695021
 40
0.01
100
AcDbArc
 50
90.0
 51
155.7790568908
  0
ARC
  5
3CD
100
AcDbEntity
  8
0
100
AcDbCircle
 62
7
  6
CONTINUOUS
 10
10.1676923427
 20
7.7551695021
 40
0.04
100
AcDbArc
 50
90.0
 51
180.0
  0
ARC
  5
3CE
100
AcDbEntity
  8
0
100
AcDbCircle
 62
7
  6
CONTINUOUS
 10
10.8751923427
 20
7.1251695021
 40
0.4
100
AcDbArc
 50
155.7790568907
 51
180.0
  0
ARC
  5
3CF
100
AcDbEntity
  8
0
100
AcDbCircle
 62
9
  6
CONTINUOUS
 10
10.6574188528
 20
7.6415186524
 40
0.0401724787
100
AcDbArc
 50
196.7260197492
 51
199.539601057
  0
ARC
  5
3D0
100
AcDbEntity
  8
0
100
AcDbCircle
 62
7
  6
CONTINUOUS
 10
10.5531923427
 20
7.5882445491
 40
0.03
100
AcDbArc
 50
0.0
 51
87.1340160174
  0
ARC
  5
3D1
100
AcDbEntity
  8
0
100
AcDbCircle
 62
9
  6
CONTINUOUS
 10
10.5824257826
 20
7.6390096917
 40
0.0219152094
100
AcDbArc
 50
225.5142383416
 51
226.0766664151
  0
ARC
  5
3D2
100
AcDbEntity
  8
0
100
AcDbCircle
 62
9
  6
CONTINUOUS
 10
10.6070256927
 20
7.6363520331
 40
0.0206114817
100
AcDbArc
 50
217.6255138535
 51
219.5600637496
  0
ARC
  5
3D3
100
AcDbEntity
  8
0
100
AcDbCircle
 62
7
  6
CONTINUOUS
 10
10.562263735
 20
7.6385082799
 40
0.0204622068
100
AcDbArc
 50
238.1389078261
 51
242.6508729424
  0
ARC
  5
3D4
100
AcDbEntity
  8
0
100
AcDbCircle
 62
7
  6
CONTINUOUS
 10
10.5619481511
 20
7.6378853662
 40
0.0197639382
100
AcDbArc
 50
242.6338715706
 51
247.3124582797
  0
ARC
  5
3D5
100
AcDbEntity
  8
0
100
AcDbCircle
 62
7
  6
CONTINUOUS
 10
10.5769435613
 20
7.6342936912
 40
0.0168665804
100
AcDbArc
 50
226.6302049986
 51
231.3075636773
  0
ARC
  5
3D6
100
AcDbEntity
  8
0
100
AcDbCircle
 62
7
  6
CONTINUOUS
 10
10.6272387154
 20
7.6293113916
 40
0.0100364549
100
AcDbArc
 50
211.6374368757
 51
217.9981686478
  0
ARC
  5
3D7
100
AcDbEntity
  8
0
100
AcDbCircle
 62
7
  6
CONTINUOUS
 10
10.6271277987
 20
7.6292298199
 40
0.0098988315
100
AcDbArc
 50
218.0213408039
 51
227.4263638879
  0
ARC
  5
3D8
100
AcDbEntity
  8
0
100
AcDbCircle
 62
7
  6
CONTINUOUS
 10
10.5974965966
 20
7.6287308604
 40
0.0093744126
100
AcDbArc
 50
230.4124087548
 51
236.6002941803
  0
ARC
  5
3D9
100
AcDbEntity
  8
0
100
AcDbCircle
 62
7
  6
CONTINUOUS
 10
10.6057968156
 20
7.6651762049
 40
0.0467292393
100
AcDbArc
 50
247.4081064442
 51
253.6773110615
  0
ARC
  5
3DA
100
AcDbEntity
  8
0
100
AcDbCircle
 62
7
  6
CONTINUOUS
 10
10.5834857795
 20
7.6640143282
 40
0.0457394975
100
AcDbArc
 50
253.1597210979
 51
255.9110482389
  0
ARC
  5
3DB
100
AcDbEntity
  8
0
100
AcDbCircle
 62
7
  6
CONTINUOUS
 10
10.5826116378
 20
7.6613230689
 40
0.0429104448
100
AcDbArc
 50
246.2961015762
 51
253.2358092287
  0
ARC
  5
3DC
100
AcDbEntity
  8
0
100
AcDbCircle
 62
7
  6
CONTINUOUS
 10
10.5671090608
 20
7.6584023585
 40
0.0401531833
100
AcDbArc
 50
253.3581923837
 51
254.8171668872
  0
ARC
  5
3DD
100
AcDbEntity
  8
0
100
AcDbCircle
 62
9
  6
CONTINUOUS
 10
10.6005891129
 20
7.6579368722
 40
0.039696787
100
AcDbArc
 50
250.3657440797
 51
254.6789715718
  0
ARC
  5
3DE
100
AcDbEntity
  8
0
100
AcDbCircle
 62
9
  6
CONTINUOUS
 10
10.5788467829
 20
7.6560706965
 40
0.0378281911
100
AcDbArc
 50
248.3657568902
 51
254.3163541763
  0
ARC
  5
3DF
100
AcDbEntity
  8
0
100
AcDbCircle
 62
9
  6
CONTINUOUS
 10
10.5641607283
 20
7.653118284
 40
0.0348827444
100
AcDbArc
 50
245.7308413369
 51
253.6226508203
  0
ARC
  5
3E0
100
AcDbEntity
  8
0
100
AcDbCircle
 62
7
  6
CONTINUOUS
 10
10.5579067887
 20
7.6516640807
 40
0.0334375428
100
AcDbArc
 50
252.6926070004
 51
253.2174809971
  0
ARC
  5
3E1
100
AcDbEntity
  8
0
100
AcDbCircle
 62
7
  6
CONTINUOUS
 10
10.5577244509
 20
7.6511308444
 40
0.0328742087
100
AcDbArc
 50
245.8848492145
 51
252.7195263103
  0
ARC
  5
3E2
100
AcDbEntity
  8
0
100
AcDbCircle
 62
9
  6
CONTINUOUS
 10
10.5615105956
 20
7.6481690079
 40
0.0325098218
100
AcDbArc
 50
179.9991290004
 51
190.3820145806
  0
ARC
  5
3E3
100
AcDbEntity
  8
0
100
AcDbCircle
 62
7
  6
CONTINUOUS
 10
10.557372381
 20
7.6503390045
 40
0.0320076299
100
AcDbArc
 50
242.1728020793
 51
245.8809466769
  0
ARC
  5
3E4
100
AcDbEntity
  8
0
100
AcDbCircle
 62
9
  6
CONTINUOUS
 10
10.560927033
 20
7.6480503415
 40
0.0319144305
100
AcDbArc
 50
190.3612617125
 51
196.266100895
  0
ARC
  5
3E5
100
AcDbEntity
  8
0
100
AcDbCircle
 62
9
  6
CONTINUOUS
 10
10.5605761039
 20
7.6479505899
 40
0.0315496084
100
AcDbArc
 50
196.2707066203
 51
203.792558655
  0
ARC
  5
3E6
100
AcDbEntity
  8
0
100
AcDbCircle
 62
9
  6
CONTINUOUS
 10
10.5568598798
 20
7.6493887604
 40
0.031178735
100
AcDbArc
 50
242.2396963731
 51
252.513348409
  0
ARC
  5
3E7
100
AcDbEntity
  8
0
100
AcDbCircle
 62
9
  6
CONTINUOUS
 10
10.5596431352
 20
7.6475479334
 40
0.0305334895
100
AcDbArc
 50
203.8074743456
 51
211.0083125886
  0
ARC
  5
3E8
100
AcDbEntity
  8
0
100
AcDbCircle
 62
7
  6
CONTINUOUS
 10
10.5561923427
 20
7.6481695021
 40
0.03
100
AcDbArc
 50
180.0
 51
267.1340160174
  0
ARC
  5
3E9
100
AcDbEntity
  8
0
100
AcDbCircle
 62
9
  6
CONTINUOUS
 10
10.5590700703
 20
7.6472090072
 40
0.0298677182
100
AcDbArc
 50
211.0173869416
 51
218.2546364543
  0
ARC
  5
3EA
100
AcDbEntity
  8
0
100
AcDbCircle
 62
9
  6
CONTINUOUS
 10
10.5553951464
 20
7.6481711112
 40
0.029096528
100
AcDbArc
 50
180.0031685832
 51
180.6397311727
  0
ARC
  5
3EB
100
AcDbEntity
  8
0
100
AcDbCircle
 62
9
  6
CONTINUOUS
 10
10.5581240104
 20
7.6464698319
 40
0.0286671433
100
AcDbArc
 50
218.265249896
 51
228.6759945861
  0
ARC
  5
3EC
100
AcDbEntity
  8
0
100
AcDbCircle
 62
9
  6
CONTINUOUS
 10
10.557580015
 20
7.6458838954
 40
0.0278679116
100
AcDbArc
 50
228.7204659327
 51
233.9622441443
  0
ARC
  5
3ED
100
AcDbEntity
  8
0
100
AcDbCircle
 62
9
  6
CONTINUOUS
 10
10.5572909593
 20
7.6454908663
 40
0.02738004
100
AcDbArc
 50
233.9675024153
 51
243.0011704814
  0
ARC
  5
3EE
100
AcDbEntity
  8
0
100
AcDbCircle
 62
9
  6
CONTINUOUS
 10
10.5570968421
 20
7.6451236295
 40
0.0269647031
100
AcDbArc
 50
243.0144425938
 51
250.2517023128
  0
ARC
  5
3EF
100
AcDbEntity
  8
0
100
AcDbCircle
 62
9
  6
CONTINUOUS
 10
10.556993859
 20
7.6448568346
 40
0.0266788036
100
AcDbArc
 50
250.2662615141
 51
250.8727118993
  0
ARC
  5
3F0
100
AcDbEntity
  8
0
100
AcDbCircle
 62
9
  6
CONTINUOUS
 10
10.5660906205
 20
7.6423716726
 40
0.0246774144
100
AcDbArc
 50
229.6004816387
 51
230.8852794554
  0
ARC
  5
3F1
100
AcDbEntity
  8
0
100
AcDbCircle
 62
9
  6
CONTINUOUS
 10
10.5659541052
 20
7.6422045118
 40
0.0244615928
100
AcDbArc
 50
230.8863627629
 51
231.5212951208
  0
ARC
  5
3F2
100
AcDbEntity
  8
0
100
AcDbCircle
 62
7
  6
CONTINUOUS
 10
10.6068781522
 20
7.6686594804
 40
0.0503760587
100
AcDbArc
 50
253.6104467262
 51
256.6203524518
  0
ARC
  5
3F3
100
AcDbEntity
  8
0
100
AcDbCircle
 62
9
  6
CONTINUOUS
 10
10.601210777
 20
7.6734607336
 40
0.042708442
100
AcDbArc
 50
91.9100897321
 51
95.2178142463
  0
ARC
  5
3F4
100
AcDbEntity
  8
0
100
AcDbCircle
 62
9
  6
CONTINUOUS
 10
10.579460668
 20
7.6755031001
 40
0.0406660964
100
AcDbArc
 50
91.9591692801
 51
93.9987895682
  0
ARC
  5
3F5
100
AcDbEntity
  8
0
100
AcDbCircle
 62
9
  6
CONTINUOUS
 10
10.5646836189
 20
7.6790186466
 40
0.0371505962
100
AcDbArc
 50
92.0509003992
 51
93.3590154995
  0
ARC
  5
3F6
100
AcDbEntity
  8
0
100
AcDbCircle
 62
9
  6
CONTINUOUS
 10
10.5646431406
 20
7.6794054983
 40
0.0367620416
100
AcDbArc
 50
93.3313632839
 51
103.0407179755
  0
ARC
  5
3F7
100
AcDbEntity
  8
0
100
AcDbCircle
 62
9
  6
CONTINUOUS
 10
10.5644499606
 20
7.6802613083
 40
0.0358847135
100
AcDbArc
 50
103.0485576304
 51
106.8688120367
  0
ARC
  5
3F8
100
AcDbEntity
  8
0
100
AcDbCircle
 62
9
  6
CONTINUOUS
 10
10.5616874434
 20
7.6861526758
 40
0.032686674
100
AcDbArc
 50
169.3411011873
 51
179.9705054751
  0
ARC
  5
3F9
100
AcDbEntity
  8
0
100
AcDbCircle
 62
9
  6
CONTINUOUS
 10
10.5571654016
 20
7.6837620999
 40
0.0324071538
100
AcDbArc
 50
92.1963935048
 51
92.9748606809
  0
ARC
  5
3FA
100
AcDbEntity
  8
0
100
AcDbCircle
 62
9
  6
CONTINUOUS
 10
10.5608298756
 20
7.686314638
 40
0.031813946
100
AcDbArc
 50
164.2326770381
 51
169.3420925346
  0
ARC
  5
3FB
100
AcDbEntity
  8
0
100
AcDbCircle
 62
9
  6
CONTINUOUS
 10
10.5605949542
 20
7.6863795645
 40
0.0315702214
100
AcDbArc
 50
155.957457882
 51
164.2302233274
  0
ARC
  5
3FC
100
AcDbEntity
  8
0
100
AcDbCircle
 62
9
  6
CONTINUOUS
 10
10.5596707349
 20
7.6867823462
 40
0.0305620864
100
AcDbArc
 50
149.4162602173
 51
155.9411419924
  0
ARC
  5
3FD
100
AcDbEntity
  8
0
100
AcDbCircle
 62
7
  6
CONTINUOUS
 10
10.5561923427
 20
7.6861695021
 40
0.03
100
AcDbArc
 50
90.0
 51
180.0
  0
ARC
  5
3FE
100
AcDbEntity
  8
0
100
AcDbCircle
 62
9
  6
CONTINUOUS
 10
10.5590567126
 20
7.6871389832
 40
0.0298520276
100
AcDbArc
 50
142.2457056324
 51
149.4059173156
  0
ARC
  5
3FF
100
AcDbEntity
  8
0
100
AcDbCircle
 62
9
  6
CONTINUOUS
 10
10.55537176
 20
7.6861700275
 40
0.0290731416
100
AcDbArc
 50
179.3559132747
 51
180.0010352972
  0
ARC
  5
400
100
AcDbEntity
  8
0
100
AcDbCircle
 62
9
  6
CONTINUOUS
 10
10.5582440248
 20
7.6877571993
 40
0.0288309632
100
AcDbArc
 50
134.3923017174
 51
142.228215527
  0
ARC
  5
401
100
AcDbEntity
  8
0
100
AcDbCircle
 62
9
  6
CONTINUOUS
 10
10.5577760728
 20
7.6882242422
 40
0.0281698671
100
AcDbArc
 50
126.5934367126
 51
134.3767319504
  0
ARC
  5
402
100
AcDbEntity
  8
0
100
AcDbCircle
 62
9
  6
CONTINUOUS
 10
10.5572384682
 20
7.6889439603
 40
0.0272715319
100
AcDbArc
 50
114.8019341518
 51
126.58800077
  0
ARC
  5
403
100
AcDbEntity
  8
0
100
AcDbCircle
 62
9
  6
CONTINUOUS
 10
10.5570318908
 20
7.6893429872
 40
0.0268226619
100
AcDbArc
 50
92.4153577424
 51
114.7589163605
  0
ARC
  5
404
100
AcDbEntity
  8
0
100
AcDbCircle
 62
9
  6
CONTINUOUS
 10
10.5656728384
 20
7.6925115143
 40
0.0239914662
100
AcDbArc
 50
123.0528498819
 51
128.9607646509
  0
ARC
  5
405
100
AcDbEntity
  8
0
100
AcDbCircle
 62
9
  6
CONTINUOUS
 10
10.5645506902
 20
7.6944447609
 40
0.0217511233
100
AcDbArc
 50
111.2282715962
 51
112.1462616073
  0
ARC
  5
406
100
AcDbEntity
  8
0
100
AcDbCircle
 62
9
  6
CONTINUOUS
 10
10.5643976668
 20
7.694900089
 40
0.0212712956
100
AcDbArc
 50
93.5946171944
 51
111.2881425354
  0
ARC
  5
407
100
AcDbEntity
  8
0
100
AcDbCircle
 62
9
  6
CONTINUOUS
 10
10.5643510801
 20
7.6953150376
 40
0.0208542526
100
AcDbArc
 50
92.7401900672
 51
93.5383519052
  0
ARC
  5
408
100
AcDbEntity
  8
0
100
AcDbCircle
 62
7
  6
CONTINUOUS
 10
10.6349364188
 20
7.6661577039
 40
0.0475792216
100
AcDbArc
 50
248.0330198434
 51
248.9425960432
  0
ARC
  5
409
100
AcDbEntity
  8
0
100
AcDbCircle
 62
9
  6
CONTINUOUS
 10
10.6289779137
 20
7.6586429113
 40
0.0404158154
100
AcDbArc
 50
252.8621247788
 51
254.7465296887
  0
ARC
  5
40A
100
AcDbEntity
  8
0
100
AcDbCircle
 62
9
  6
CONTINUOUS
 10
10.6288929606
 20
7.6583650457
 40
0.0401252541
100
AcDbArc
 50
251.8872120822
 51
252.8611278861
  0
ARC
  5
40B
100
AcDbEntity
  8
0
100
AcDbCircle
 62
9
  6
CONTINUOUS
 10
10.6633275886
 20
7.6576897685
 40
0.0394673512
100
AcDbArc
 50
253.0459559847
 51
254.5377347221
  0
ARC
  5
40C
100
AcDbEntity
  8
0
100
AcDbCircle
 62
9
  6
CONTINUOUS
 10
10.6160577297
 20
7.6418834314
 40
0.0312241737
100
AcDbArc
 50
205.2583835767
 51
206.2309723597
  0
ARC
  5
40D
100
AcDbEntity
  8
0
100
AcDbCircle
 62
7
  6
CONTINUOUS
 10
10.9366021252
 20
7.6494907304
 40
0.0312489501
100
AcDbArc
 50
287.2707790793
 51
298.5158852988
  0
ARC
  5
40E
100
AcDbEntity
  8
0
100
AcDbCircle
 62
7
  6
CONTINUOUS
 10
10.8829431982
 20
7.6430652421
 40
0.0249020685
100
AcDbArc
 50
289.9053379351
 51
302.3700289728
  0
ARC
  5
40F
100
AcDbEntity
  8
0
100
AcDbCircle
 62
7
  6
CONTINUOUS
 10
5.7976923427
 20
12.8211695021
 40
2.75
100
AcDbArc
 50
259.04
 51
270.0
  0
ARC
  5
410
100
AcDbEntity
  8
0
100
AcDbCircle
 62
7
  6
CONTINUOUS
 10
4.4273710202
 20
11.2721460804
 40
1.79
100
AcDbArc
 50
269.0179637958
 51
280.96
  0
ARC
  5
411
100
AcDbEntity
  8
0
100
AcDbCircle
 62
7
  6
CONTINUOUS
 10
4.3815131184
 20
10.3572773274
 40
0.875
100
AcDbArc
 50
237.5324797721
 51
270.9939989935
  0
ARC
  5
412
100
AcDbEntity
  8
0
100
AcDbCircle
 62
7
  6
CONTINUOUS
 10
6.9376923427
 20
9.6461695021
 40
0.66
100
AcDbArc
 50
63.5028148323
 51
116.4971851677
  0
ARC
  5
413
100
AcDbEntity
  8
0
100
AcDbCircle
 62
7
  6
CONTINUOUS
 10
4.2826923427
 20
9.8671695021
 40
0.495
100
AcDbArc
 50
156.80823049
 51
203.19176951
  0
ARC
  5
414
100
AcDbEntity
  8
0
100
AcDbCircle
 62
7
  6
CONTINUOUS
 10
6.1776923427
 20
9.6751695021
 40
0.382
100
AcDbArc
 50
55.0000000001
 51
90.0
  0
ARC
  5
415
100
AcDbEntity
  8
0
100
AcDbCircle
 62
7
  6
CONTINUOUS
 10
6.5726892117
 20
9.962590966
 40
0.0800037519
100
AcDbArc
 50
235.0043704086
 51
359.9960059674
  0
ARC
  5
416
100
AcDbEntity
  8
0
100
AcDbCircle
 62
7
  6
CONTINUOUS
 10
7.2585351311
 20
10.1071082713
 40
0.07
100
AcDbArc
 50
301.0998839863
 51
58.9001160137
  0
ARC
  5
417
100
AcDbEntity
  8
0
100
AcDbCircle
 62
7
  6
CONTINUOUS
 10
6.6168495544
 20
10.1071082713
 40
0.07
100
AcDbArc
 50
121.0998839863
 51
238.9001160137
  0
ARC
  5
418
100
AcDbEntity
  8
0
100
AcDbCircle
 62
7
  6
CONTINUOUS
 10
10.1676923427
 20
11.9501695021
 40
0.04
100
AcDbArc
 50
90.0
 51
180.0
  0
ARC
  5
419
100
AcDbEntity
  8
0
100
AcDbCircle
 62
7
  6
CONTINUOUS
 10
9.9676923427
 20
11.8001695021
 40
0.04
100
AcDbArc
 50
90.0
 51
180.0
  0
ARC
  5
41A
100
AcDbEntity
  8
0
100
AcDbCircle
 62
7
  6
CONTINUOUS
 10
9.9676923427
 20
11.3801695021
 40
0.04
100
AcDbArc
 50
180.0
 51
270.0
  0
ARC
  5
41B
100
AcDbEntity
  8
0
100
AcDbCircle
 62
7
  6
CONTINUOUS
 10
3.8476923427
 20
9.6421695021
 40
0.02
100
AcDbArc
 50
180.0
 51
270.0
  0
ARC
  5
41C
100
AcDbEntity
  8
0
100
AcDbCircle
 62
7
  6
CONTINUOUS
 10
3.8476923427
 20
10.0921695021
 40
0.02
100
AcDbArc
 50
90.0
 51
180.0
  0
ARC
  5
41D
100
AcDbEntity
  8
0
100
AcDbCircle
 62
7
  6
CONTINUOUS
 10
3.9010579464
 20
9.6021695021
 40
0.02
100
AcDbArc
 50
57.5324797721
 51
90.0
  0
ARC
  5
41E
100
AcDbEntity
  8
0
100
AcDbCircle
 62
7
  6
CONTINUOUS
 10
3.9010579464
 20
10.1321695021
 40
0.02
100
AcDbArc
 50
270.0
 51
302.4675202279
  0
ARC
  5
41F
100
AcDbEntity
  8
0
100
AcDbCircle
 62
7
  6
CONTINUOUS
 10
6.1176923427
 20
10.0821695021
 40
0.02
100
AcDbArc
 50
90.0
 51
180.0
  0
ARC
  5
420
100
AcDbEntity
  8
0
100
AcDbCircle
 62
7
  6
CONTINUOUS
 10
6.1176923427
 20
9.6521695021
 40
0.02
100
AcDbArc
 50
180.0
 51
270.0
  0
ARC
  5
421
100
AcDbEntity
  8
0
100
AcDbCircle
 62
7
  6
CONTINUOUS
 10
6.1576923427
 20
10.0821695021
 40
0.02
100
AcDbArc
 50
0.0
 51
90.0
  0
ARC
  5
422
100
AcDbEntity
  8
0
100
AcDbCircle
 62
7
  6
CONTINUOUS
 10
6.1576923427
 20
9.6521695021
 40
0.02
100
AcDbArc
 50
270.0
 51
360.0
  0
ARC
  5
423
100
AcDbEntity
  8
0
100
AcDbCircle
 62
7
  6
CONTINUOUS
 10
7.2846923427
 20
9.9971695021
 40
0.01
100
AcDbArc
 50
270.0
 51
360.0
  0
ARC
  5
424
100
AcDbEntity
  8
0
100
AcDbCircle
 62
7
  6
CONTINUOUS
 10
6.5906923427
 20
9.9971695021
 40
0.01
100
AcDbArc
 50
180.0
 51
270.0
  0
ARC
  5
425
100
AcDbEntity
  8
0
100
AcDbCircle
 62
7
  6
CONTINUOUS
 10
6.6476923427
 20
10.227891085
 40
0.01
100
AcDbArc
 50
116.4971851667
 51
180.0
  0
ARC
  5
426
100
AcDbEntity
  8
0
100
AcDbCircle
 62
7
  6
CONTINUOUS
 10
7.2276923427
 20
10.227891085
 40
0.01
100
AcDbArc
 50
0.0
 51
63.5028148333
  0
ARC
  5
427
100
AcDbEntity
  8
0
100
AcDbCircle
 62
7
  6
CONTINUOUS
 10
7.2846923427
 20
10.2170470404
 40
0.01
100
AcDbArc
 50
0.0
 51
90.0
  0
ARC
  5
428
100
AcDbEntity
  8
0
100
AcDbCircle
 62
7
  6
CONTINUOUS
 10
6.5906923427
 20
10.2170470404
 40
0.01
100
AcDbArc
 50
90.0
 51
180.0
  0
ARC
  5
429
100
AcDbEntity
  8
0
100
AcDbCircle
 62
7
  6
CONTINUOUS
 10
6.1776923427
 20
9.6751695021
 40
0.002
100
AcDbArc
 50
55.0000000001
 51
90.0
  0
ARC
  5
42A
100
AcDbEntity
  8
0
100
AcDbCircle
 62
7
  6
CONTINUOUS
 10
11.028912749
 20
6.3622744624
 40
0.9
100
AcDbArc
 50
130.6439171763
 51
168.2748731243
  0
ARC
  5
42B
100
AcDbEntity
  8
0
100
AcDbCircle
 62
7
  6
CONTINUOUS
 10
10.9376923427
 20
7.0341695021
 40
0.768
100
AcDbArc
 50
62.6255897304
 51
117.3744102696
  0
ARC
  5
42C
100
AcDbEntity
  8
0
100
AcDbCircle
 62
7
  6
CONTINUOUS
 10
11.8976923427
 20
6.9251695021
 40
0.04
100
AcDbArc
 50
0.0
 51
90.0
  0
ARC
  5
42D
100
AcDbEntity
  8
0
100
AcDbCircle
 62
7
  6
CONTINUOUS
 10
11.0001923427
 20
7.1251695021
 40
0.4
100
AcDbArc
 50
0.0
 51
24.2209431093
  0
ARC
  5
42E
100
AcDbEntity
  8
0
100
AcDbCircle
 62
7
  6
CONTINUOUS
 10
10.9656258215
 20
7.6461824382
 40
0.0279672811
100
AcDbArc
 50
239.7116100299
 51
251.5626146981
  0
ARC
  5
42F
100
AcDbEntity
  8
0
100
AcDbCircle
 62
7
  6
CONTINUOUS
 10
11.3221923427
 20
7.5882445491
 40
0.03
100
AcDbArc
 50
92.8659839826
 51
180.0
  0
ARC
  5
430
100
AcDbEntity
  8
0
100
AcDbCircle
 62
9
  6
CONTINUOUS
 10
11.2758614459
 20
7.6418586572
 40
0.0282914766
100
AcDbArc
 50
327.5277352511
 51
330.89659019
  0
ARC
  5
431
100
AcDbEntity
  8
0
100
AcDbCircle
 62
9
  6
CONTINUOUS
 10
11.3155355682
 20
7.6423931666
 40
0.024232712
100
AcDbArc
 50
290.1996810197
 51
291.5873184716
  0
ARC
  5
432
100
AcDbEntity
  8
0
100
AcDbCircle
 62
9
  6
CONTINUOUS
 10
11.3016816181
 20
7.6411206133
 40
0.0238429998
100
AcDbArc
 50
311.3585532537
 51
315.3296969441
  0
ARC
  5
433
100
AcDbEntity
  8
0
100
AcDbCircle
 62
7
  6
CONTINUOUS
 10
11.3171671245
 20
7.6414334087
 40
0.0232940488
100
AcDbArc
 50
290.7527648641
 51
299.3316953439
  0
ARC
  5
434
100
AcDbEntity
  8
0
100
AcDbCircle
 62
9
  6
CONTINUOUS
 10
11.2816701668
 20
7.6376276918
 40
0.0210934508
100
AcDbArc
 50
316.9342984966
 51
318.289735118
  0
ARC
  5
435
100
AcDbEntity
  8
0
100
AcDbCircle
 62
9
  6
CONTINUOUS
 10
11.2529619981
 20
7.6351912129
 40
0.0205998791
100
AcDbArc
 50
324.6336444165
 51
326.6819803752
  0
ARC
  5
436
100
AcDbEntity
  8
0
100
AcDbCircle
 62
9
  6
CONTINUOUS
 10
11.2545585571
 20
7.6340593661
 40
0.018642821
100
AcDbArc
 50
321.20253453
 51
324.6302405727
  0
ARC
  5
437
100
AcDbEntity
  8
0
100
AcDbCircle
 62
7
  6
CONTINUOUS
 10
11.3076329654
 20
7.6349551646
 40
0.0169123957
100
AcDbArc
 50
295.1868865408
 51
300.1475876343
  0
ARC
  5
438
100
AcDbEntity
  8
0
100
AcDbCircle
 62
7
  6
CONTINUOUS
 10
11.2637884725
 20
7.6291109321
 40
0.0097965625
100
AcDbArc
 50
310.943292178
 51
318.013711811
  0
ARC
  5
439
100
AcDbEntity
  8
0
100
AcDbCircle
 62
7
  6
CONTINUOUS
 10
11.2545469282
 20
7.6696023289
 40
0.0512919991
100
AcDbArc
 50
283.1274148762
 51
289.3890965614
  0
ARC
  5
43A
100
AcDbEntity
  8
0
100
AcDbCircle
 62
7
  6
CONTINUOUS
 10
11.2558303966
 20
7.6657860053
 40
0.0472660605
100
AcDbArc
 50
289.4573089898
 51
292.2288664503
  0
ARC
  5
43B
100
AcDbEntity
  8
0
100
AcDbCircle
 62
9
  6
CONTINUOUS
 10
11.2613896929
 20
7.6584695812
 40
0.0402364287
100
AcDbArc
 50
285.254893297
 51
288.8185848952
  0
ARC
  5
43C
100
AcDbEntity
  8
0
100
AcDbCircle
 62
9
  6
CONTINUOUS
 10
11.2299531513
 20
7.6583151381
 40
0.0400893851
100
AcDbArc
 50
285.3230802252
 51
287.4930093768
  0
ARC
  5
43D
100
AcDbEntity
  8
0
100
AcDbCircle
 62
7
  6
CONTINUOUS
 10
11.2811926258
 20
7.665938425
 40
0.0476399451
100
AcDbArc
 50
283.6839651032
 51
289.8503200697
  0
ARC
  5
43E
100
AcDbEntity
  8
0
100
AcDbCircle
 62
7
  6
CONTINUOUS
 10
11.2822500738
 20
7.6628716586
 40
0.0443963502
100
AcDbArc
 50
289.9106485852
 51
293.0928020426
  0
ARC
  5
43F
100
AcDbEntity
  8
0
100
AcDbCircle
 62
7
  6
CONTINUOUS
 10
11.3011307064
 20
7.6607862758
 40
0.0425026641
100
AcDbArc
 50
284.5714477575
 51
291.0844237808
  0
ARC
  5
440
100
AcDbEntity
  8
0
100
AcDbCircle
 62
7
  6
CONTINUOUS
 10
11.3019811656
 20
7.6584750654
 40
0.0400402571
100
AcDbArc
 50
291.1386855891
 51
294.4750442223
  0
ARC
  5
441
100
AcDbEntity
  8
0
100
AcDbCircle
 62
9
  6
CONTINUOUS
 10
11.2865198851
 20
7.6571650764
 40
0.0389235705
100
AcDbArc
 50
285.4655377704
 51
290.5660394782
  0
ARC
  5
442
100
AcDbEntity
  8
0
100
AcDbCircle
 62
9
  6
CONTINUOUS
 10
11.3047843443
 20
7.654718238
 40
0.0364779665
100
AcDbArc
 50
285.9858792505
 51
292.8600381391
  0
ARC
  5
443
100
AcDbEntity
  8
0
100
AcDbCircle
 62
7
  6
CONTINUOUS
 10
11.3139379581
 20
7.6546424944
 40
0.0363830433
100
AcDbArc
 50
285.8959972605
 51
292.9086630081
  0
ARC
  5
444
100
AcDbEntity
  8
0
100
AcDbCircle
 62
7
  6
CONTINUOUS
 10
11.3145062091
 20
7.6532316409
 40
0.0348622789
100
AcDbArc
 50
292.9510030933
 51
296.5020767527
  0
ARC
  5
445
100
AcDbEntity
  8
0
100
AcDbCircle
 62
9
  6
CONTINUOUS
 10
11.3075696098
 20
7.6481672264
 40
0.0344708377
100
AcDbArc
 50
348.6276630872
 51
0.003782599
  0
ARC
  5
446
100
AcDbEntity
  8
0
100
AcDbCircle
 62
9
  6
CONTINUOUS
 10
11.3085312452
 20
7.6479845176
 40
0.033492057
100
AcDbArc
 50
346.5500489636
 51
348.6097046703
  0
ARC
  5
447
100
AcDbEntity
  8
0
100
AcDbCircle
 62
9
  6
CONTINUOUS
 10
11.3158130402
 20
7.6513292431
 40
0.033103346
100
AcDbArc
 50
286.8724519223
 51
295.8908992926
  0
ARC
  5
448
100
AcDbEntity
  8
0
100
AcDbCircle
 62
9
  6
CONTINUOUS
 10
11.3090741269
 20
7.6478455665
 40
0.0329317463
100
AcDbArc
 50
336.1718965303
 51
346.5654780128
  0
ARC
  5
449
100
AcDbEntity
  8
0
100
AcDbCircle
 62
9
  6
CONTINUOUS
 10
11.3105901046
 20
7.6472218559
 40
0.0312930408
100
AcDbArc
 50
332.9202075699
 51
336.0951810059
  0
ARC
  5
44A
100
AcDbEntity
  8
0
100
AcDbCircle
 62
9
  6
CONTINUOUS
 10
11.3177792431
 20
7.6481769177
 40
0.0309570295
100
AcDbArc
 50
349.6981028787
 51
359.9862752047
  0
ARC
  5
44B
100
AcDbEntity
  8
0
100
AcDbCircle
 62
9
  6
CONTINUOUS
 10
11.3182343332
 20
7.6480736401
 40
0.0304906335
100
AcDbArc
 50
335.5226568537
 51
349.727160484
  0
ARC
  5
44C
100
AcDbEntity
  8
0
100
AcDbCircle
 62
7
  6
CONTINUOUS
 10
11.3191923427
 20
7.6481695021
 40
0.03
100
AcDbArc
 50
272.8659839826
 51
288.09217517
  0
ARC
  5
44D
100
AcDbEntity
  8
0
100
AcDbCircle
 62
9
  6
CONTINUOUS
 10
11.3186923906
 20
7.6478656648
 40
0.0299875727
100
AcDbArc
 50
326.6959955823
 51
335.5216920884
  0
ARC
  5
44E
100
AcDbEntity
  8
0
100
AcDbCircle
 62
9
  6
CONTINUOUS
 10
11.3188249414
 20
7.647779565
 40
0.0298295151
100
AcDbArc
 50
320.6069346282
 51
326.6944176479
  0
ARC
  5
44F
100
AcDbEntity
  8
0
100
AcDbCircle
 62
7
  6
CONTINUOUS
 10
11.3193292416
 20
7.6480282918
 40
0.0298120747
100
AcDbArc
 50
287.845113264
 51
291.7342363698
  0
ARC
  5
450
100
AcDbEntity
  8
0
100
AcDbCircle
 62
7
  6
CONTINUOUS
 10
11.3195088147
 20
7.6476129736
 40
0.0293597875
100
AcDbArc
 50
291.7088386207
 51
299.393766716
  0
ARC
  5
451
100
AcDbEntity
  8
0
100
AcDbCircle
 62
9
  6
CONTINUOUS
 10
11.3192291365
 20
7.6474481878
 40
0.0293068447
100
AcDbArc
 50
309.5109701659
 51
320.6061029069
  0
ARC
  5
452
100
AcDbEntity
  8
0
100
AcDbCircle
 62
9
  6
CONTINUOUS
 10
11.3193607948
 20
7.6472775451
 40
0.0290881074
100
AcDbArc
 50
288.2390623533
 51
309.4982907739
  0
ARC
  5
453
100
AcDbEntity
  8
0
100
AcDbCircle
 62
9
  6
CONTINUOUS
 10
11.3131766089
 20
7.6455207452
 40
0.0281900125
100
AcDbArc
 50
315.9546539029
 51
322.3022440496
  0
ARC
  5
454
100
AcDbEntity
  8
0
100
AcDbCircle
 62
9
  6
CONTINUOUS
 10
11.3247201858
 20
7.6481909859
 40
0.0188338292
100
AcDbArc
 50
344.2458666505
 51
359.9346433657
  0
ARC
  5
455
100
AcDbEntity
  8
0
100
AcDbCircle
 62
9
  6
CONTINUOUS
 10
11.2858991059
 20
7.6743122683
 40
0.0418568502
100
AcDbArc
 50
85.5745143121
 51
88.0700834341
  0
ARC
  5
456
100
AcDbEntity
  8
0
100
AcDbCircle
 62
9
  6
CONTINUOUS
 10
11.3042051551
 20
7.6770890692
 40
0.0390801574
100
AcDbArc
 50
86.348549876
 51
88.0009134472
  0
ARC
  5
457
100
AcDbEntity
  8
0
100
AcDbCircle
 62
9
  6
CONTINUOUS
 10
11.3043089844
 20
7.6779381784
 40
0.0382261916
100
AcDbArc
 50
73.5216399936
 51
86.422805964
  0
ARC
  5
458
100
AcDbEntity
  8
0
100
AcDbCircle
 62
9
  6
CONTINUOUS
 10
11.3153805405
 20
7.6812662981
 40
0.0349029387
100
AcDbArc
 50
83.8215961878
 51
87.8840011624
  0
ARC
  5
459
100
AcDbEntity
  8
0
100
AcDbCircle
 62
9
  6
CONTINUOUS
 10
11.3074032978
 20
7.6861545344
 40
0.0346371528
100
AcDbArc
 50
0.0247592544
 51
11.4505111979
  0
ARC
  5
45A
100
AcDbEntity
  8
0
100
AcDbCircle
 62
9
  6
CONTINUOUS
 10
11.3086300584
 20
7.6863809946
 40
0.0333898588
100
AcDbArc
 50
11.4875510246
 51
13.185176471
  0
ARC
  5
45B
100
AcDbEntity
  8
0
100
AcDbCircle
 62
9
  6
CONTINUOUS
 10
11.3090761193
 20
7.68649282
 40
0.0329300505
100
AcDbArc
 50
13.1727683159
 51
23.8848042379
  0
ARC
  5
45C
100
AcDbEntity
  8
0
100
AcDbCircle
 62
9
  6
CONTINUOUS
 10
11.3105675509
 20
7.6871115068
 40
0.0313158606
100
AcDbArc
 50
23.9546512945
 51
27.2753478694
  0
ARC
  5
45D
100
AcDbEntity
  8
0
100
AcDbCircle
 62
9
  6
CONTINUOUS
 10
11.3177368419
 20
7.6861578276
 40
0.030999432
100
AcDbArc
 50
0.0215777898
 51
10.4409012453
  0
ARC
  5
45E
100
AcDbEntity
  8
0
100
AcDbCircle
 62
9
  6
CONTINUOUS
 10
11.3182283192
 20
7.6862624781
 40
0.0304971306
100
AcDbArc
 50
10.4148779357
 51
25.153761854
  0
ARC
  5
45F
100
AcDbEntity
  8
0
100
AcDbCircle
 62
7
  6
CONTINUOUS
 10
11.3191923427
 20
7.6861695021
 40
0.03
100
AcDbArc
 50
87.7052955705
 51
90.0
  0
ARC
  5
460
100
AcDbEntity
  8
0
100
AcDbCircle
 62
9
  6
CONTINUOUS
 10
11.3187201055
 20
7.6864934826
 40
0.0299537096
100
AcDbArc
 50
25.152940304
 51
34.9207297958
  0
ARC
  5
461
100
AcDbEntity
  8
0
100
AcDbCircle
 62
9
  6
CONTINUOUS
 10
11.3192018789
 20
7.6864275323
 40
0.029741795
100
AcDbArc
 50
81.336814025
 51
87.7037489757
  0
ARC
  5
462
100
AcDbEntity
  8
0
100
AcDbCircle
 62
9
  6
CONTINUOUS
 10
11.3189365416
 20
7.6866395197
 40
0.0296926464
100
AcDbArc
 50
34.9287472502
 51
39.9685176185
  0
ARC
  5
463
100
AcDbEntity
  8
0
100
AcDbCircle
 62
9
  6
CONTINUOUS
 10
11.3192389449
 20
7.6866293539
 40
0.0295366935
100
AcDbArc
 50
73.256017679
 51
81.3489253756
  0
ARC
  5
464
100
AcDbEntity
  8
0
100
AcDbCircle
 62
9
  6
CONTINUOUS
 10
11.3192311987
 20
7.6868853754
 40
0.0293088925
100
AcDbArc
 50
39.9701884431
 51
53.1329531892
  0
ARC
  5
465
100
AcDbEntity
  8
0
100
AcDbCircle
 62
9
  6
CONTINUOUS
 10
11.3193128366
 20
7.6868829602
 40
0.0292725519
100
AcDbArc
 50
71.2496574171
 51
73.2515077819
  0
ARC
  5
466
100
AcDbEntity
  8
0
100
AcDbCircle
 62
9
  6
CONTINUOUS
 10
11.3193068061
 20
7.6869826248
 40
0.0291857288
100
AcDbArc
 50
53.1371589287
 51
56.226664629
  0
ARC
  5
467
100
AcDbEntity
  8
0
100
AcDbCircle
 62
9
  6
CONTINUOUS
 10
11.3194002173
 20
7.6871234253
 40
0.0290167611
100
AcDbArc
 50
56.2254309073
 51
71.2604128612
  0
ARC
  5
468
100
AcDbEntity
  8
0
100
AcDbCircle
 62
9
  6
CONTINUOUS
 10
11.3130009284
 20
7.6886649418
 40
0.0284228577
100
AcDbArc
 50
36.8797444121
 51
42.162664142
  0
ARC
  5
469
100
AcDbEntity
  8
0
100
AcDbCircle
 62
9
  6
CONTINUOUS
 10
11.3139012427
 20
7.6894824658
 40
0.0272067538
100
AcDbArc
 50
42.1591717912
 51
52.1428912291
  0
ARC
  5
46A
100
AcDbEntity
  8
0
100
AcDbCircle
 62
9
  6
CONTINUOUS
 10
11.3149651199
 20
7.6908151802
 40
0.0255016317
100
AcDbArc
 50
52.1925406388
 51
62.7919105041
  0
ARC
  5
46B
100
AcDbEntity
  8
0
100
AcDbCircle
 62
9
  6
CONTINUOUS
 10
11.3154336983
 20
7.6916613171
 40
0.0245348915
100
AcDbArc
 50
62.861635864
 51
68.8534140293
  0
ARC
  5
46C
100
AcDbEntity
  8
0
100
AcDbCircle
 62
9
  6
CONTINUOUS
 10
11.3155527843
 20
7.6919594532
 40
0.024213871
100
AcDbArc
 50
68.8617255701
 51
80.4955738018
  0
ARC
  5
46D
100
AcDbEntity
  8
0
100
AcDbCircle
 62
9
  6
CONTINUOUS
 10
11.3155829255
 20
7.6921061762
 40
0.0240641857
100
AcDbArc
 50
80.5086691297
 51
81.5834172562
  0
ARC
  5
46E
100
AcDbEntity
  8
0
100
AcDbCircle
 62
9
  6
CONTINUOUS
 10
11.3155953217
 20
7.6921949621
 40
0.0239745416
100
AcDbArc
 50
81.581665744
 51
87.4329517295
  0
ARC
  5
46F
100
AcDbEntity
  8
0
100
AcDbCircle
 62
9
  6
CONTINUOUS
 10
11.3046443653
 20
7.6982900589
 40
0.0178792766
100
AcDbArc
 50
85.5343528989
 51
87.0377472182
  0
ARC
  5
470
100
AcDbEntity
  8
0
100
AcDbCircle
 62
7
  6
CONTINUOUS
 10
11.3558607276
 20
7.2851695021
 40
0.01
100
AcDbArc
 50
24.2209431092
 51
90.0
  0
ARC
  5
471
100
AcDbEntity
  8
0
100
AcDbCircle
 62
7
  6
CONTINUOUS
 10
11.7076923427
 20
7.7551695021
 40
0.04
100
AcDbArc
 50
0.0
 51
90.0
  0
ARC
  5
472
100
AcDbEntity
  8
0
100
AcDbCircle
 62
7
  6
CONTINUOUS
 10
14.0526923427
 20
6.6251695021
 40
0.17
100
AcDbArc
 50
90.0
 51
180.0
  0
ARC
  5
473
100
AcDbEntity
  8
0
100
AcDbCircle
 62
9
  6
CONTINUOUS
 10
13.4024417624
 20
7.6499263368
 40
2.2509562985
100
AcDbArc
 50
180.0447184624
 51
180.7706533297
  0
ARC
  5
474
100
AcDbEntity
  8
0
100
AcDbCircle
 62
7
  6
CONTINUOUS
 10
14.0837042836
 20
7.1981456205
 40
0.333
100
AcDbArc
 50
270.6861994637
 51
322.4439028905
  0
ARC
  5
475
100
AcDbEntity
  8
0
100
AcDbCircle
 62
7
  6
CONTINUOUS
 10
16.0776923427
 20
6.9131695021
 40
2.75
100
AcDbArc
 50
79.04
 51
90.0
  0
ARC
  5
476
100
AcDbEntity
  8
0
100
AcDbCircle
 62
7
  6
CONTINUOUS
 10
15.7916804019
 20
7.1981456205
 40
0.333
100
AcDbArc
 50
217.5560971095
 51
269.3138005363
  0
ARC
  5
477
100
AcDbEntity
  8
0
100
AcDbCircle
 62
7
  6
CONTINUOUS
 10
15.8226923427
 20
6.6251695021
 40
0.17
100
AcDbArc
 50
0.0
 51
90.0
  0
ARC
  5
478
100
AcDbEntity
  8
0
100
AcDbCircle
 62
7
  6
CONTINUOUS
 10
15.5223182175
 20
7.1451695021
 40
0.112
100
AcDbArc
 50
315.8588345181
 51
44.1411654819
  0
ARC
  5
479
100
AcDbEntity
  8
0
100
AcDbCircle
 62
7
  6
CONTINUOUS
 10
14.3530664679
 20
7.1451695021
 40
0.112
100
AcDbArc
 50
135.8588345181
 51
224.1411654819
  0
ARC
  5
47A
100
AcDbEntity
  8
0
100
AcDbCircle
 62
7
  6
CONTINUOUS
 10
15.5276923427
 20
7.3251695021
 40
0.03
100
AcDbArc
 50
180.0
 51
270.0
  0
ARC
  5
47B
100
AcDbEntity
  8
0
100
AcDbCircle
 62
7
  6
CONTINUOUS
 10
14.3476923427
 20
7.3251695021
 40
0.03
100
AcDbArc
 50
270.0
 51
360.0
  0
ARC
  5
47C
100
AcDbEntity
  8
0
100
AcDbCircle
 62
7
  6
CONTINUOUS
 10
17.4480136653
 20
8.4621929239
 40
1.79
100
AcDbArc
 50
89.0179637958
 51
100.96
  0
ARC
  5
47D
100
AcDbEntity
  8
0
100
AcDbCircle
 62
7
  6
CONTINUOUS
 10
17.4938715671
 20
9.3770616769
 40
0.875
100
AcDbArc
 50
57.5324797721
 51
90.9939989935
  0
ARC
  5
47E
100
AcDbEntity
  8
0
100
AcDbCircle
 62
7
  6
CONTINUOUS
 10
15.4972508065
 20
9.2701691199
 40
0.255
100
AcDbArc
 50
187.3119416293
 51
265.921584294
  0
ARC
  5
47F
100
AcDbEntity
  8
0
100
AcDbCircle
 62
7
  6
CONTINUOUS
 10
14.378133879
 20
9.2701691199
 40
0.255
100
AcDbArc
 50
274.078415706
 51
352.6880583707
  0
ARC
  5
480
100
AcDbEntity
  8
0
100
AcDbCircle
 62
7
  6
CONTINUOUS
 10
15.3029912522
 20
9.3031013442
 40
0.0803888319
100
AcDbArc
 50
125.0658951172
 51
152.469652265
  0
ARC
  5
481
100
AcDbEntity
  8
0
100
AcDbCircle
 62
7
  6
CONTINUOUS
 10
15.1607114897
 20
9.3771623703
 40
0.080013614
100
AcDbArc
 50
271.195480694
 51
332.533734193
  0
ARC
  5
482
100
AcDbEntity
  8
0
100
AcDbCircle
 62
7
  6
CONTINUOUS
 10
14.7326923427
 20
9.3750403802
 40
0.08
100
AcDbArc
 50
180.0
 51
257.8468025309
  0
ARC
  5
483
100
AcDbEntity
  8
0
100
AcDbCircle
 62
7
  6
CONTINUOUS
 10
15.2244871235
 20
9.2351695021
 40
0.02
100
AcDbArc
 50
7.311941628
 51
90.0
  0
ARC
  5
484
100
AcDbEntity
  8
0
100
AcDbCircle
 62
7
  6
CONTINUOUS
 10
14.650897562
 20
9.2351695021
 40
0.02
100
AcDbArc
 50
90.0
 51
172.688058372
  0
ARC
  5
485
100
AcDbEntity
  8
0
100
AcDbCircle
 62
7
  6
CONTINUOUS
 10
14.3976923427
 20
8.9958655171
 40
0.02
100
AcDbArc
 50
94.0784157059
 51
180.0
  0
ARC
  5
486
100
AcDbEntity
  8
0
100
AcDbCircle
 62
7
  6
CONTINUOUS
 10
15.4776923427
 20
8.9958655171
 40
0.02
100
AcDbArc
 50
0.0
 51
85.9215842941
  0
ARC
  5
487
100
AcDbEntity
  8
0
100
AcDbCircle
 62
7
  6
CONTINUOUS
 10
15.1626923427
 20
9.2821695021
 40
0.015
100
AcDbArc
 50
91.189875848
 51
180.0
  0
ARC
  5
488
100
AcDbEntity
  8
0
100
AcDbCircle
 62
7
  6
CONTINUOUS
 10
14.7126923427
 20
9.2821695021
 40
0.015
100
AcDbArc
 50
0.0
 51
77.8468025314
  0
ARC
  5
489
100
AcDbEntity
  8
0
100
AcDbCircle
 62
7
  6
CONTINUOUS
 10
16.0776923427
 20
12.8211695021
 40
2.75
100
AcDbArc
 50
270.0
 51
280.96
  0
ARC
  5
48A
100
AcDbEntity
  8
0
100
AcDbCircle
 62
7
  6
CONTINUOUS
 10
17.4480136653
 20
11.2721460804
 40
1.79
100
AcDbArc
 50
259.04
 51
270.9820362042
  0
ARC
  5
48B
100
AcDbEntity
  8
0
100
AcDbCircle
 62
7
  6
CONTINUOUS
 10
17.4938715671
 20
10.3572773274
 40
0.875
100
AcDbArc
 50
269.0060010065
 51
302.4675202279
  0
ARC
  5
48C
100
AcDbEntity
  8
0
100
AcDbCircle
 62
7
  6
CONTINUOUS
 10
14.9376923427
 20
9.6461695021
 40
0.66
100
AcDbArc
 50
63.5028148323
 51
116.4971851677
  0
ARC
  5
48D
100
AcDbEntity
  8
0
100
AcDbCircle
 62
7
  6
CONTINUOUS
 10
17.5926923427
 20
9.8671695021
 40
0.495
100
AcDbArc
 50
336.80823049
 51
23.19176951
  0
ARC
  5
48E
100
AcDbEntity
  8
0
100
AcDbCircle
 62
7
  6
CONTINUOUS
 10
15.6976923427
 20
9.6751695021
 40
0.382
100
AcDbArc
 50
90.0
 51
124.9999999999
  0
ARC
  5
48F
100
AcDbEntity
  8
0
100
AcDbCircle
 62
7
  6
CONTINUOUS
 10
15.3026954738
 20
9.962590966
 40
0.0800037519
100
AcDbArc
 50
180.003994034
 51
304.9956502284
  0
ARC
  5
490
100
AcDbEntity
  8
0
100
AcDbCircle
 62
7
  6
CONTINUOUS
 10
14.6168495544
 20
10.1071082713
 40
0.07
100
AcDbArc
 50
121.0998839863
 51
238.9001160137
  0
ARC
  5
491
100
AcDbEntity
  8
0
100
AcDbCircle
 62
7
  6
CONTINUOUS
 10
15.2585351311
 20
10.1071082713
 40
0.07
100
AcDbArc
 50
301.0998839863
 51
58.9001160137
  0
ARC
  5
492
100
AcDbEntity
  8
0
100
AcDbCircle
 62
7
  6
CONTINUOUS
 10
11.7076923427
 20
11.9501695021
 40
0.04
100
AcDbArc
 50
0.0
 51
90.0
  0
ARC
  5
493
100
AcDbEntity
  8
0
100
AcDbCircle
 62
7
  6
CONTINUOUS
 10
11.9076923427
 20
11.8001695021
 40
0.04
100
AcDbArc
 50
0.0
 51
90.0
  0
ARC
  5
494
100
AcDbEntity
  8
0
100
AcDbCircle
 62
7
  6
CONTINUOUS
 10
11.9076923427
 20
11.3801695021
 40
0.04
100
AcDbArc
 50
270.0
 51
360.0
  0
ARC
  5
495
100
AcDbEntity
  8
0
100
AcDbCircle
 62
7
  6
CONTINUOUS
 10
18.0276923427
 20
9.6421695021
 40
0.02
100
AcDbArc
 50
270.0
 51
360.0
  0
ARC
  5
496
100
AcDbEntity
  8
0
100
AcDbCircle
 62
7
  6
CONTINUOUS
 10
18.0276923427
 20
10.0921695021
 40
0.02
100
AcDbArc
 50
0.0
 51
90.0
  0
ARC
  5
497
100
AcDbEntity
  8
0
100
AcDbCircle
 62
7
  6
CONTINUOUS
 10
17.974326739
 20
9.6021695021
 40
0.02
100
AcDbArc
 50
90.0
 51
122.4675202279
  0
ARC
  5
498
100
AcDbEntity
  8
0
100
AcDbCircle
 62
7
  6
CONTINUOUS
 10
17.974326739
 20
10.1321695021
 40
0.02
100
AcDbArc
 50
237.5324797721
 51
270.0
  0
ARC
  5
499
100
AcDbEntity
  8
0
100
AcDbCircle
 62
7
  6
CONTINUOUS
 10
15.7576923427
 20
10.0821695021
 40
0.02
100
AcDbArc
 50
0.0
 51
90.0
  0
ARC
  5
49A
100
AcDbEntity
  8
0
100
AcDbCircle
 62
7
  6
CONTINUOUS
 10
15.7576923427
 20
9.6521695021
 40
0.02
100
AcDbArc
 50
270.0
 51
360.0
  0
ARC
  5
49B
100
AcDbEntity
  8
0
100
AcDbCircle
 62
7
  6
CONTINUOUS
 10
15.7176923427
 20
10.0821695021
 40
0.02
100
AcDbArc
 50
90.0
 51
180.0
  0
ARC
  5
49C
100
AcDbEntity
  8
0
100
AcDbCircle
 62
7
  6
CONTINUOUS
 10
15.7176923427
 20
9.6521695021
 40
0.02
100
AcDbArc
 50
180.0
 51
270.0
  0
ARC
  5
49D
100
AcDbEntity
  8
0
100
AcDbCircle
 62
7
  6
CONTINUOUS
 10
14.5906923427
 20
9.9971695021
 40
0.01
100
AcDbArc
 50
180.0
 51
270.0
  0
ARC
  5
49E
100
AcDbEntity
  8
0
100
AcDbCircle
 62
7
  6
CONTINUOUS
 10
15.2846923427
 20
9.9971695021
 40
0.01
100
AcDbArc
 50
270.0
 51
360.0
  0
ARC
  5
49F
100
AcDbEntity
  8
0
100
AcDbCircle
 62
7
  6
CONTINUOUS
 10
15.2276923427
 20
10.227891085
 40
0.01
100
AcDbArc
 50
0.0
 51
63.5028148333
  0
ARC
  5
4A0
100
AcDbEntity
  8
0
100
AcDbCircle
 62
7
  6
CONTINUOUS
 10
14.6476923427
 20
10.227891085
 40
0.01
100
AcDbArc
 50
116.4971851667
 51
180.0
  0
ARC
  5
4A1
100
AcDbEntity
  8
0
100
AcDbCircle
 62
7
  6
CONTINUOUS
 10
14.5906923427
 20
10.2170470404
 40
0.01
100
AcDbArc
 50
90.0
 51
180.0
  0
ARC
  5
4A2
100
AcDbEntity
  8
0
100
AcDbCircle
 62
7
  6
CONTINUOUS
 10
15.2846923427
 20
10.2170470404
 40
0.01
100
AcDbArc
 50
0.0
 51
90.0
  0
ARC
  5
4A3
100
AcDbEntity
  8
0
100
AcDbCircle
 62
7
  6
CONTINUOUS
 10
15.6976923427
 20
9.6751695021
 40
0.002
100
AcDbArc
 50
90.0
 51
124.9999999999
  0
LINE
  5
4A4
100
AcDbEntity
  8
0
100
AcDbLine
 62
7
  6
CONTINUOUS
 10
10.5686208365
 20
7.6196507225
 11
10.5663995935
 21
7.6211291069
  0
LINE
  5
4A5
100
AcDbEntity
  8
0
100
AcDbLine
 62
7
  6
CONTINUOUS
 10
10.5901001373
 20
7.6196507225
 11
10.5893153495
 21
7.620333264
  0
LINE
  5
4A6
100
AcDbEntity
  8
0
100
AcDbLine
 62
7
  6
CONTINUOUS
 10
10.5893153495
 20
7.620333264
 11
10.5885634583
 21
7.6211291069
  0
LINE
  5
4A7
100
AcDbEntity
  8
0
100
AcDbLine
 62
7
  6
CONTINUOUS
 10
10.5885634583
 20
7.6211291069
 11
10.5878450915
 21
7.6220327534
  0
LINE
  5
4A8
100
AcDbEntity
  8
0
100
AcDbLine
 62
7
  6
CONTINUOUS
 10
10.618344925
 20
7.6196507225
 11
10.6171383552
 21
7.6220327534
  0
LINE
  5
4A9
100
AcDbEntity
  8
0
100
AcDbLine
 62
7
  6
CONTINUOUS
 10
10.652805447
 20
7.6196507225
 11
10.6526708376
 21
7.6220327534
  0
LINE
  5
4AA
100
AcDbEntity
  8
0
100
AcDbLine
 62
7
  6
CONTINUOUS
 10
11.2412194659
 20
7.6220327534
 11
11.2405472387
 21
7.6196507218
  0
LINE
  5
4AB
100
AcDbEntity
  8
0
100
AcDbLine
 62
7
  6
CONTINUOUS
 10
11.2737114879
 20
7.6220327534
 11
11.2725780059
 21
7.6203304308
  0
LINE
  5
4AC
100
AcDbEntity
  8
0
100
AcDbLine
 62
7
  6
CONTINUOUS
 10
11.2725780059
 20
7.6203304308
 11
11.2719764535
 21
7.6196507218
  0
SPLINE
  5
4AD
100
AcDbEntity
  8
0
100
AcDbSpline
 62
7
  6
CONTINUOUS
 70
0
 71
3
 72
9
 73
5
 74
0
 42
0.0000001
 43
0.0000001
 44
0.0000000001
 40
0.0
 40
0.0
 40
0.0
 40
0.0
 40
0.268303464
 40
1.0
 40
1.0
 40
1.0
 40
1.0
 10
11.2996632794
 20
7.6220327534
 30
0.0
 10
11.2994446712
 20
7.6217897172
 30
0.0
 10
11.2986036633
 20
7.6209083978
 30
0.0
 10
11.2976517238
 20
7.6201286666
 30
0.0
 10
11.2968992084
 20
7.6196507218
 30
0.0
  0
LINE
  5
4AE
100
AcDbEntity
  8
0
100
AcDbLine
 62
7
  6
CONTINUOUS
 10
11.3185697185
 20
7.6220327534
 11
11.3161268631
 21
7.620330431
  0
SPLINE
  5
4AF
100
AcDbEntity
  8
0
100
AcDbSpline
 62
7
  6
CONTINUOUS
 70
0
 71
3
 72
9
 73
5
 74
0
 42
0.0000001
 43
0.0000001
 44
0.0000000001
 40
0.0
 40
0.0
 40
0.0
 40
0.0
 40
0.5009978344
 40
1.0
 40
1.0
 40
1.0
 40
1.0
 10
10.620430871
 20
7.6219402366
 30
0.0
 10
10.6210378735
 20
7.6213827919
 30
0.0
 10
10.6223962986
 20
7.6204199375
 30
0.0
 10
10.6239564513
 20
7.6198350534
 30
0.0
 10
10.6247563377
 20
7.6196507218
 30
0.0
  0
SPLINE
  5
4B0
100
AcDbEntity
  8
0
100
AcDbSpline
 62
7
  6
CONTINUOUS
 70
0
 71
3
 72
9
 73
5
 74
0
 42
0.0000001
 43
0.0000001
 44
0.0000000001
 40
0.0
 40
0.0
 40
0.0
 40
0.0
 40
0.5021478664
 40
1.0
 40
1.0
 40
1.0
 40
1.0
 10
10.5923362032
 20
7.6209046256
 30
0.0
 10
10.5927775168
 20
7.6206138371
 30
0.0
 10
10.5937077502
 20
7.620109241
 30
0.0
 10
10.5947112716
 20
7.6197720457
 30
0.0
 10
10.5952210143
 20
7.6196507218
 30
0.0
  0
SPLINE
  5
4B1
100
AcDbEntity
  8
0
100
AcDbSpline
 62
7
  6
CONTINUOUS
 70
0
 71
3
 72
9
 73
5
 74
0
 42
0.0000001
 43
0.0000001
 44
0.0000000001
 40
0.0
 40
0.0
 40
0.0
 40
0.0
 40
0.5039820961
 40
1.0
 40
1.0
 40
1.0
 40
1.0
 10
11.2670532446
 20
7.7148824249
 30
0.0
 10
11.2663016414
 20
7.7152581839
 30
0.0
 10
11.2647288714
 20
7.7158511311
 30
0.0
 10
11.2630674622
 20
7.7161067333
 30
0.0
 10
11.2622413627
 20
7.7161457424
 30
0.0
  0
SPLINE
  5
4B2
100
AcDbEntity
  8
0
100
AcDbSpline
 62
7
  6
CONTINUOUS
 70
0
 71
3
 72
11
 73
7
 74
0
 42
0.0000001
 43
0.0000001
 44
0.0000000001
 40
0.0
 40
0.0
 40
0.0
 40
0.0
 40
0.2760283126
 40
0.5318396703
 40
0.7709720896
 40
1.0
 40
1.0
 40
1.0
 40
1.0
 10
11.2406222778
 20
7.7082732305
 30
0.0
 10
11.2402337535
 20
7.7094294143
 30
0.0
 10
11.239136836
 20
7.7115547936
 30
0.0
 10
11.2367518128
 20
7.7140492004
 30
0.0
 10
11.2339302644
 20
7.7156519444
 30
0.0
 10
11.2318691187
 20
7.71609291
 30
0.0
 10
11.2308584667
 20
7.7161457424
 30
0.0
  0
SPLINE
  5
4B3
100
AcDbEntity
  8
0
100
AcDbSpline
 62
7
  6
CONTINUOUS
 70
0
 71
3
 72
14
 73
10
 74
0
 42
0.0000001
 43
0.0000001
 44
0.0000000001
 40
0.0
 40
0.0
 40
0.0
 40
0.0
 40
0.2872314646
 40
0.4212955694
 40
0.5480594624
 40
0.6680111036
 40
0.7823407897
 40
0.8925373558
 40
1.0
 40
1.0
 40
1.0
 40
1.0
 10
10.6526897586
 20
7.7053776304
 30
0.0
 10
10.652778948
 20
7.7068830086
 30
0.0
 10
10.6533568262
 20
7.7090885666
 30
0.0
 10
10.6547829694
 20
7.7115964712
 30
0.0
 10
10.6560520887
 20
7.7131546308
 30
0.0
 10
10.6574892758
 20
7.7144049518
 30
0.0
 10
10.6590523557
 20
7.7153351324
 30
0.0
 10
10.6606993394
 20
7.7159355072
 30
0.0
 10
10.661836815
 20
7.7161143822
 30
0.0
 10
10.6624001414
 20
7.7161457424
 30
0.0
  0
SPLINE
  5
4B4
100
AcDbEntity
  8
0
100
AcDbSpline
 62
9
  6
CONTINUOUS
 70
0
 71
3
 72
16
 73
12
 74
0
 42
0.0000001
 43
0.0000001
 44
0.0000000001
 40
0.0
 40
0.0
 40
0.0
 40
0.0
 40
0.1298488041
 40
0.2591710047
 40
0.3233343675
 40
0.3870944561
 40
0.5131827969
 40
0.6374318299
 40
0.7597907846
 40
0.8805460494
 40
1.0
 40
1.0
 40
1.0
 40
1.0
 10
11.3474315935
 20
7.6481695021
 30
0.0
 10
11.3474311615
 20
7.6467248239
 30
0.0
 10
11.3472082322
 20
7.6438371796
 30
0.0
 10
11.3463956338
 20
7.6403183329
 30
0.0
 10
11.345438628
 20
7.6376184535
 30
0.0
 10
11.344300895
 20
7.635029112
 30
0.0
 10
11.3425484946
 20
7.6319904819
 30
0.0
 10
11.3399851585
 20
7.6287147844
 30
0.0
 10
11.3370443127
 20
7.625858492
 30
0.0
 10
11.3337988462
 20
7.6234449136
 30
0.0
 10
11.3314634277
 20
7.6221291359
 30
0.0
 10
11.3302679108
 20
7.6215485744
 30
0.0
  0
SPLINE
  5
4B5
100
AcDbEntity
  8
0
100
AcDbSpline
 62
9
  6
CONTINUOUS
 70
0
 71
3
 72
17
 73
13
 74
0
 42
0.0000001
 43
0.0000001
 44
0.0000000001
 40
0.0
 40
0.0
 40
0.0
 40
0.0
 40
0.1274084171
 40
0.1911595684
 40
0.2547181468
 40
0.3810874913
 40
0.5065498072
 40
0.5689844686
 40
0.6311841286
 40
0.7547768112
 40
0.8776702041
 40
1.0
 40
1.0
 40
1.0
 40
1.0
 10
11.3381518068
 20
7.6481695021
 30
0.0
 10
11.3381506939
 20
7.6466765464
 30
0.0
 10
11.3379600922
 20
7.6444312293
 30
0.0
 10
11.3373461546
 20
7.6415079095
 30
0.0
 10
11.3364960911
 20
7.6386561931
 30
0.0
 10
11.3350124438
 20
7.6352532189
 30
0.0
 10
11.3330282104
 20
7.6321334052
 30
0.0
 10
11.3311903377
 20
7.6298479175
 30
0.0
 10
11.3292090245
 20
7.6277154479
 30
0.0
 10
11.3264733521
 20
7.62533013
 30
0.0
 10
11.3228599414
 20
7.6229390855
 30
0.0
 10
11.320276116
 20
7.6216624705
 30
0.0
 10
11.3189553543
 20
7.6211053757
 30
0.0
  0
SPLINE
  5
4B6
100
AcDbEntity
  8
0
100
AcDbSpline
 62
9
  6
CONTINUOUS
 70
0
 71
3
 72
17
 73
13
 74
0
 42
0.0000001
 43
0.0000001
 44
0.0000000001
 40
0.0
 40
0.0
 40
0.0
 40
0.0
 40
0.1257391442
 40
0.188733913
 40
0.2516246513
 40
0.377032541
 40
0.5021249413
 40
0.5646156412
 40
0.6270180006
 40
0.7514827159
 40
0.8758121714
 40
1.0
 40
1.0
 40
1.0
 40
1.0
 10
11.3210775322
 20
7.6481695021
 30
0.0
 10
11.3210757245
 20
7.6466317935
 30
0.0
 10
11.3208657956
 20
7.6443175578
 30
0.0
 10
11.3201914568
 20
7.641312336
 30
0.0
 10
11.3192563512
 20
7.638381045
 30
0.0
 10
11.3176255065
 20
7.6348916398
 30
0.0
 10
11.3154559258
 20
7.6317181778
 30
0.0
 10
11.3134533572
 20
7.629405069
 30
0.0
 10
11.3112921697
 20
7.6272502502
 30
0.0
 10
11.3083148072
 20
7.6248583611
 30
0.0
 10
11.3044005259
 20
7.6224936992
 30
0.0
 10
11.3016151077
 20
7.6212558539
 30
0.0
 10
11.3001932201
 20
7.6207221862
 30
0.0
  0
SPLINE
  5
4B7
100
AcDbEntity
  8
0
100
AcDbSpline
 62
9
  6
CONTINUOUS
 70
0
 71
3
 72
17
 73
13
 74
0
 42
0.0000001
 43
0.0000001
 44
0.0000000001
 40
0.0
 40
0.0
 40
0.0
 40
0.0
 40
0.1249598697
 40
0.1876025392
 40
0.2501848229
 40
0.3751630544
 40
0.5001108077
 40
0.5626404577
 40
0.6251423145
 40
0.7500289662
 40
0.8750162381
 40
1.0
 40
1.0
 40
1.0
 40
1.0
 10
11.2965411009
 20
7.6481695021
 30
0.0
 10
11.2965385988
 20
7.6465895287
 30
0.0
 10
11.2963133261
 20
7.6442107293
 30
0.0
 10
11.2955907175
 20
7.6411279034
 30
0.0
 10
11.2945879349
 20
7.6381231809
 30
0.0
 10
11.2928411657
 20
7.6345554126
 30
0.0
 10
11.2905264901
 20
7.6313317979
 30
0.0
 10
11.2883961449
 20
7.6289934848
 30
0.0
 10
11.286097432
 20
7.626821517
 30
0.0
 10
11.2829377067
 20
7.6244280729
 30
0.0
 10
11.2787990017
 20
7.6220929393
 30
0.0
 10
11.2758646184
 20
7.6208939134
 30
0.0
 10
11.274368868
 20
7.6203840037
 30
0.0
  0
SPLINE
  5
4B8
100
AcDbEntity
  8
0
100
AcDbSpline
 62
7
  6
CONTINUOUS
 70
0
 71
3
 72
9
 73
5
 74
0
 42
0.0000001
 43
0.0000001
 44
0.0000000001
 40
0.0
 40
0.0
 40
0.0
 40
0.0
 40
0.498323926
 40
1.0
 40
1.0
 40
1.0
 40
1.0
 10
11.266196229
 20
7.6196507228
 30
0.0
 10
11.2669311245
 20
7.6198223923
 30
0.0
 10
11.2683675648
 20
7.6203540546
 30
0.0
 10
11.2696342825
 20
7.6212132572
 30
0.0
 10
11.2702082749
 20
7.621711015
 30
0.0
  0
SPLINE
  5
4B9
100
AcDbEntity
  8
0
100
AcDbSpline
 62
9
  6
CONTINUOUS
 70
0
 71
3
 72
16
 73
12
 74
0
 42
0.0000001
 43
0.0000001
 44
0.0000000001
 40
0.0
 40
0.0
 40
0.0
 40
0.0
 40
0.1251781965
 40
0.1879175678
 40
0.2505849455
 40
0.3756998413
 40
0.5007205545
 40
0.62564676
 40
0.750458633
 40
0.8752913061
 40
1.0
 40
1.0
 40
1.0
 40
1.0
 10
11.2650200868
 20
7.6481695021
 30
0.0
 10
11.2650169087
 20
7.6465488449
 30
0.0
 10
11.2647809254
 20
7.6441087075
 30
0.0
 10
11.2640238474
 20
7.6409505616
 30
0.0
 10
11.2629734681
 20
7.6378772959
 30
0.0
 10
11.2611464857
 20
7.6342374156
 30
0.0
 10
11.2582509857
 20
7.6303129261
 30
0.0
 10
11.254780334
 20
7.6268954332
 30
0.0
 10
11.2508493516
 20
7.6240275779
 30
0.0
 10
11.2465695059
 20
7.6217245184
 30
0.0
 10
11.2435434942
 20
7.6205651182
 30
0.0
 10
11.2420035969
 20
7.6200797415
 30
0.0
  0
SPLINE
  5
4BA
100
AcDbEntity
  8
0
100
AcDbSpline
 62
7
  6
CONTINUOUS
 70
0
 71
3
 72
9
 73
5
 74
0
 42
0.0000001
 43
0.0000001
 44
0.0000000001
 40
0.0
 40
0.0
 40
0.0
 40
0.0
 40
0.4997128501
 40
1.0
 40
1.0
 40
1.0
 40
1.0
 10
11.2335358746
 20
7.6196507225
 30
0.0
 10
11.2346132468
 20
7.61989688
 30
0.0
 10
11.2366975979
 20
7.620775488
 30
0.0
 10
11.2383623571
 20
7.6223026108
 30
0.0
 10
11.239042646
 20
7.623175159
 30
0.0
  0
SPLINE
  5
4BB
100
AcDbEntity
  8
0
100
AcDbSpline
 62
7
  6
CONTINUOUS
 70
0
 71
3
 72
9
 73
5
 74
0
 42
0.0000001
 43
0.0000001
 44
0.0000000001
 40
0.0
 40
0.0
 40
0.0
 40
0.0
 40
0.4995191973
 40
1.0
 40
1.0
 40
1.0
 40
1.0
 10
11.239042646
 20
7.623175159
 30
0.0
 10
11.239416578
 20
7.6236547695
 30
0.0
 10
11.2400779962
 20
7.6246858382
 30
0.0
 10
11.2405463417
 20
7.6258172787
 30
0.0
 10
11.2407292243
 20
7.6263985107
 30
0.0
  0
SPLINE
  5
4BC
100
AcDbEntity
  8
0
100
AcDbSpline
 62
9
  6
CONTINUOUS
 70
0
 71
3
 72
16
 73
12
 74
0
 42
0.0000001
 43
0.0000001
 44
0.0000000001
 40
0.0
 40
0.0
 40
0.0
 40
0.0
 40
0.1264910382
 40
0.189813272
 40
0.2529855276
 40
0.3788191743
 40
0.504102271
 40
0.6287887996
 40
0.7529536242
 40
0.8767389107
 40
1.0
 40
1.0
 40
1.0
 40
1.0
 10
11.2271280104
 20
7.6481695021
 30
0.0
 10
11.2271241375
 20
7.6464857034
 30
0.0
 10
11.226875902
 20
7.6439512609
 30
0.0
 10
11.2260778561
 20
7.6406757856
 30
0.0
 10
11.2249725448
 20
7.6374990326
 30
0.0
 10
11.2230559781
 20
7.6337526565
 30
0.0
 10
11.2200279871
 20
7.6297419517
 30
0.0
 10
11.2164126746
 20
7.6262869519
 30
0.0
 10
11.2123354193
 20
7.6234305234
 30
0.0
 10
11.207916516
 20
7.6211862756
 30
0.0
 10
11.2048030307
 20
7.6200943961
 30
0.0
 10
11.2032232998
 20
7.6196508888
 30
0.0
  0
SPLINE
  5
4BD
100
AcDbEntity
  8
0
100
AcDbSpline
 62
7
  6
CONTINUOUS
 70
0
 71
3
 72
15
 73
11
 74
0
 42
0.0000001
 43
0.0000001
 44
0.0000000001
 40
0.0
 40
0.0
 40
0.0
 40
0.0
 40
0.3353297388
 40
0.4922351536
 40
0.6358269691
 40
0.7619091037
 40
0.8667645801
 40
0.9469994177
 40
0.9770464392
 40
1.0
 40
1.0
 40
1.0
 40
1.0
 10
11.2028196337
 20
7.6295945058
 30
0.0
 10
11.2028196322
 20
7.6284812462
 30
0.0
 10
11.2028325391
 20
7.6268470193
 30
0.0
 10
11.2028787261
 20
7.6247366157
 30
0.0
 10
11.2029250822
 20
7.623321149
 30
0.0
 10
11.2029826642
 20
7.6220790093
 30
0.0
 10
11.2030497267
 20
7.6210481158
 30
0.0
 10
11.203115228
 20
7.6203366088
 30
0.0
 10
11.2031749919
 20
7.6198983055
 30
0.0
 10
11.2032062215
 20
7.6197249873
 30
0.0
 10
11.2032232979
 20
7.6196507218
 30
0.0
  0
SPLINE
  5
4BE
100
AcDbEntity
  8
0
100
AcDbSpline
 62
7
  6
CONTINUOUS
 70
0
 71
3
 72
11
 73
7
 74
0
 42
0.0000001
 43
0.0000001
 44
0.0000000001
 40
0.0
 40
0.0
 40
0.0
 40
0.0
 40
0.2497977352
 40
0.4996846343
 40
0.7497848532
 40
1.0
 40
1.0
 40
1.0
 40
1.0
 10
11.195117248
 20
7.6196507108
 30
0.0
 10
11.1962148367
 20
7.6199008755
 30
0.0
 10
11.19833837
 20
7.620801787
 30
0.0
 10
11.2008604629
 20
7.6231469896
 30
0.0
 10
11.2024576334
 20
7.6261956966
 30
0.0
 10
11.2028196618
 20
7.6284668879
 30
0.0
 10
11.2028196337
 20
7.6295945058
 30
0.0
  0
SPLINE
  5
4BF
100
AcDbEntity
  8
0
100
AcDbSpline
 62
9
  6
CONTINUOUS
 70
0
 71
3
 72
16
 73
12
 74
0
 42
0.0000001
 43
0.0000001
 44
0.0000000001
 40
0.0
 40
0.0
 40
0.0
 40
0.0
 40
0.1288748342
 40
0.1932624545
 40
0.2573598746
 40
0.3845077016
 40
0.5102535797
 40
0.6345174784
 40
0.7574320123
 40
0.8792560017
 40
1.0
 40
1.0
 40
1.0
 40
1.0
 10
11.183602398
 20
7.6481695021
 30
0.0
 10
11.1835980311
 20
7.6464863557
 30
0.0
 10
11.1833612301
 20
7.6439552231
 30
0.0
 10
11.1825977155
 20
7.6406783773
 30
0.0
 10
11.1815415711
 20
7.6375066614
 30
0.0
 10
11.1797123017
 20
7.6337671904
 30
0.0
 10
11.1768167432
 20
7.6297552622
 30
0.0
 10
11.1733581883
 20
7.6262975927
 30
0.0
 10
11.1694568351
 20
7.6234379383
 30
0.0
 10
11.1652286409
 20
7.621190729
 30
0.0
 10
11.1622441748
 20
7.6200952171
 30
0.0
 10
11.1607311062
 20
7.6196508888
 30
0.0
  0
SPLINE
  5
4C0
100
AcDbEntity
  8
0
100
AcDbSpline
 62
7
  6
CONTINUOUS
 70
0
 71
3
 72
11
 73
7
 74
0
 42
0.0000001
 43
0.0000001
 44
0.0000000001
 40
0.0
 40
0.0
 40
0.0
 40
0.0
 40
0.2629922773
 40
0.5153361615
 40
0.7601438137
 40
1.0
 40
1.0
 40
1.0
 40
1.0
 10
10.6196991693
 20
7.7117334175
 30
0.0
 10
10.6202312146
 20
7.7124016899
 30
0.0
 10
10.6214142718
 20
7.7136063844
 30
0.0
 10
10.6234880601
 20
7.7149784504
 30
0.0
 10
10.6257339308
 20
7.7158560071
 30
0.0
 10
10.6273024694
 20
7.7161072272
 30
0.0
 10
10.6280805721
 20
7.7161457424
 30
0.0
  0
SPLINE
  5
4C1
100
AcDbEntity
  8
0
100
AcDbSpline
 62
9
  6
CONTINUOUS
 70
0
 71
3
 72
19
 73
15
 74
0
 42
0.0000001
 43
0.0000001
 44
0.0000000001
 40
0.0
 40
0.0
 40
0.0
 40
0.0
 40
0.1318014171
 40
0.1974222078
 40
0.2625124035
 40
0.3270114512
 40
0.3908423343
 40
0.4540279554
 40
0.5165755872
 40
0.6397768707
 40
0.7609322216
 40
0.8210145467
 40
0.8808814105
 40
1.0
 40
1.0
 40
1.0
 40
1.0
 10
11.3474315935
 20
7.6861695021
 30
0.0
 10
11.3474319657
 20
7.6881463668
 30
0.0
 10
11.3471185784
 20
7.6911192627
 30
0.0
 10
11.3461063904
 20
7.6949291086
 30
0.0
 10
11.3450660366
 20
7.6976718287
 30
0.0
 10
11.3437699619
 20
7.7002724932
 30
0.0
 10
11.3422386073
 20
7.7027081695
 30
0.0
 10
11.3404984485
 20
7.7049622722
 30
0.0
 10
11.3379467584
 20
7.7076942795
 30
0.0
 10
11.3343545335
 20
7.7106146345
 30
0.0
 10
11.3303473122
 20
7.7128511521
 30
0.0
 10
11.3269911581
 20
7.7142076406
 30
0.0
 10
11.3235662038
 20
7.715278886
 30
0.0
 10
11.320913214
 20
7.7157742008
 30
0.0
 10
11.3191369563
 20
7.7159665067
 30
0.0
  0
SPLINE
  5
4C2
100
AcDbEntity
  8
0
100
AcDbSpline
 62
9
  6
CONTINUOUS
 70
0
 71
3
 72
16
 73
12
 74
0
 42
0.0000001
 43
0.0000001
 44
0.0000000001
 40
0.0
 40
0.0
 40
0.0
 40
0.0
 40
0.1277636867
 40
0.1916680681
 40
0.2553402908
 40
0.3818295034
 40
0.5072352105
 40
0.6316411057
 40
0.7551483112
 40
0.8778240279
 40
1.0
 40
1.0
 40
1.0
 40
1.0
 10
11.3381518068
 20
7.6861695021
 30
0.0
 10
11.338152589
 20
7.6878382285
 30
0.0
 10
11.3379144403
 20
7.6903493726
 30
0.0
 10
11.3371474816
 20
7.6935983383
 30
0.0
 10
11.3360899042
 20
7.6967481291
 30
0.0
 10
11.334259699
 20
7.7004666695
 30
0.0
 10
11.3313568769
 20
7.7044601036
 30
0.0
 10
11.3278813577
 20
7.707908294
 30
0.0
 10
11.3239560175
 20
7.71077001
 30
0.0
 10
11.3196934138
 20
7.7130325863
 30
0.0
 10
11.3166818886
 20
7.7141407195
 30
0.0
 10
11.3151519656
 20
7.7145943031
 30
0.0
  0
SPLINE
  5
4C3
100
AcDbEntity
  8
0
100
AcDbSpline
 62
9
  6
CONTINUOUS
 70
0
 71
3
 72
18
 73
14
 74
0
 42
0.0000001
 43
0.0000001
 44
0.0000000001
 40
0.0
 40
0.0
 40
0.0
 40
0.0
 40
0.1259418002
 40
0.1890051819
 40
0.2519405331
 40
0.3147634068
 40
0.3774550138
 40
0.5024233828
 40
0.5648459186
 40
0.6271993125
 40
0.7515212065
 40
0.875788867
 40
1.0
 40
1.0
 40
1.0
 40
1.0
 10
11.3210775321
 20
7.6861695021
 30
0.0
 10
11.3210790248
 20
7.6881859656
 30
0.0
 10
11.3207173211
 20
7.6912269595
 30
0.0
 10
11.3195612691
 20
7.695097512
 30
0.0
 10
11.3183736322
 20
7.6978849646
 30
0.0
 10
11.3168958593
 20
7.7005222581
 30
0.0
 10
11.3145760405
 20
7.703800816
 30
0.0
 10
11.3117800058
 20
7.7067080083
 30
0.0
 10
11.3086339853
 20
7.7091824701
 30
0.0
 10
11.30529197
 20
7.7113674207
 30
0.0
 10
11.300793016
 20
7.7135554943
 30
0.0
 10
11.2950626445
 20
7.7153005337
 30
0.0
 10
11.2911117104
 20
7.7158908636
 30
0.0
 10
11.2891288859
 20
7.7160443235
 30
0.0
  0
SPLINE
  5
4C4
100
AcDbEntity
  8
0
100
AcDbSpline
 62
9
  6
CONTINUOUS
 70
0
 71
3
 72
16
 73
12
 74
0
 42
0.0000001
 43
0.0000001
 44
0.0000000001
 40
0.0
 40
0.0
 40
0.0
 40
0.0
 40
0.1249803818
 40
0.1876504603
 40
0.2502596427
 40
0.375270596
 40
0.5002118515
 40
0.6251745453
 40
0.7501553293
 40
0.8750588156
 40
1.0
 40
1.0
 40
1.0
 40
1.0
 10
11.2965411009
 20
7.6861695021
 30
0.0
 10
11.2965427659
 20
7.6878390304
 30
0.0
 10
11.296290402
 20
7.6903543823
 30
0.0
 10
11.2954807241
 20
7.6936015301
 30
0.0
 10
11.2943624854
 20
7.6967574179
 30
0.0
 10
11.2924253042
 20
7.7004840374
 30
0.0
 10
11.2893620125
 20
7.7044753904
 30
0.0
 10
11.2856990936
 20
7.7079199372
 30
0.0
 10
11.2815662585
 20
7.7107778044
 30
0.0
 10
11.2770816445
 20
7.7130367778
 30
0.0
 10
11.2739211434
 20
7.7141413817
 30
0.0
 10
11.2723147682
 20
7.7145943036
 30
0.0
  0
SPLINE
  5
4C5
100
AcDbEntity
  8
0
100
AcDbSpline
 62
9
  6
CONTINUOUS
 70
0
 71
3
 72
9
 73
5
 74
0
 42
0.0000001
 43
0.0000001
 44
0.0000000001
 40
0.0
 40
0.0
 40
0.0
 40
0.0
 40
0.2503735563
 40
1.0
 40
1.0
 40
1.0
 40
1.0
 10
11.2723147682
 20
7.7145943036
 30
0.0
 10
11.2714949438
 20
7.7148254553
 30
0.0
 10
11.2681922432
 20
7.7156458788
 30
0.0
 10
11.2647902299
 20
7.716060832
 30
0.0
 10
11.2622413526
 20
7.7161454451
 30
0.0
  0
SPLINE
  5
4C6
100
AcDbEntity
  8
0
100
AcDbSpline
 62
9
  6
CONTINUOUS
 70
0
 71
3
 72
18
 73
14
 74
0
 42
0.0000001
 43
0.0000001
 44
0.0000000001
 40
0.0
 40
0.0
 40
0.0
 40
0.0
 40
0.1252179207
 40
0.1879758723
 40
0.2506672629
 40
0.3133102258
 40
0.3759023465
 40
0.4384825741
 40
0.5010266016
 40
0.6259199851
 40
0.750642519
 40
0.875394048
 40
1.0
 40
1.0
 40
1.0
 40
1.0
 10
11.2650200868
 20
7.6861695021
 30
0.0
 10
11.2650226723
 20
7.6882632751
 30
0.0
 10
11.2646260947
 20
7.6914234837
 30
0.0
 10
11.2633643657
 20
7.6954271317
 30
0.0
 10
11.262071747
 20
7.6983026757
 30
0.0
 10
11.2604668005
 20
7.701011497
 30
0.0
 10
11.258578393
 20
7.7035281352
 30
0.0
 10
11.2564428459
 20
7.7058359212
 30
0.0
 10
11.253311091
 20
7.7086136582
 30
0.0
 10
11.248934845
 20
7.7115144933
 30
0.0
 10
11.2431791341
 20
7.714044792
 30
0.0
 10
11.2371044391
 20
7.7156324317
 30
0.0
 10
11.2329408417
 20
7.7160759999
 30
0.0
 10
11.2308584575
 20
7.7161454451
 30
0.0
  0
SPLINE
  5
4C7
100
AcDbEntity
  8
0
100
AcDbSpline
 62
9
  6
CONTINUOUS
 70
0
 71
3
 72
18
 73
14
 74
0
 42
0.0000001
 43
0.0000001
 44
0.0000000001
 40
0.0
 40
0.0
 40
0.0
 40
0.0
 40
0.1268242633
 40
0.1902819246
 40
0.2535603162
 40
0.3166571749
 40
0.3795577413
 40
0.4422967311
 40
0.5048509225
 40
0.6293548624
 40
0.7532310994
 40
0.876778882
 40
1.0
 40
1.0
 40
1.0
 40
1.0
 10
11.2271280104
 20
7.6861695021
 30
0.0
 10
11.2271310421
 20
7.6882625703
 30
0.0
 10
11.2267439601
 20
7.6914194038
 30
0.0
 10
11.2255104744
 20
7.6954245303
 30
0.0
 10
11.2242476559
 20
7.6982997185
 30
0.0
 10
11.2226796932
 20
7.7010084721
 30
0.0
 10
11.2208347052
 20
7.7035252533
 30
0.0
 10
11.2187483466
 20
7.7058333094
 30
0.0
 10
11.2156923745
 20
7.7086085476
 30
0.0
 10
11.2114220307
 20
7.7115090517
 30
0.0
 10
11.2058001722
 20
7.7140418746
 30
0.0
 10
11.1998683534
 20
7.7156317645
 30
0.0
 10
11.1958018364
 20
7.7160759951
 30
0.0
 10
11.1937694175
 20
7.7161454451
 30
0.0
  0
SPLINE
  5
4C8
100
AcDbEntity
  8
0
100
AcDbSpline
 62
9
  6
CONTINUOUS
 70
0
 71
3
 72
18
 73
14
 74
0
 42
0.0000001
 43
0.0000001
 44
0.0000000001
 40
0.0
 40
0.0
 40
0.0
 40
0.0
 40
0.1298078401
 40
0.1945642661
 40
0.2589327436
 40
0.3228719684
 40
0.386342894
 40
0.4493725512
 40
0.5119405543
 40
0.6357077996
 40
0.7579991041
 40
0.8793282776
 40
1.0
 40
1.0
 40
1.0
 40
1.0
 10
11.183602398
 20
7.6861695021
 30
0.0
 10
11.1836058156
 20
7.6882613157
 30
0.0
 10
11.183236431
 20
7.6914120345
 30
0.0
 10
11.1820552026
 20
7.6954198588
 30
0.0
 10
11.1808471532
 20
7.6982943432
 30
0.0
 10
11.1793470838
 20
7.701002909
 30
0.0
 10
11.1775817286
 20
7.7035199224
 30
0.0
 10
11.1755853721
 20
7.7058284623
 30
0.0
 10
11.1726673551
 20
7.7085989833
 30
0.0
 10
11.1685892353
 20
7.71149875
 30
0.0
 10
11.1632088087
 20
7.7140366195
 30
0.0
 10
11.1575328363
 20
7.7156304678
 30
0.0
 10
11.1536394777
 20
7.7160759736
 30
0.0
 10
11.1516961286
 20
7.7161454451
 30
0.0
  0
SPLINE
  5
4C9
100
AcDbEntity
  8
0
100
AcDbSpline
 62
9
  6
CONTINUOUS
 70
0
 71
3
 72
18
 73
14
 74
0
 42
0.0000001
 43
0.0000001
 44
0.0000000001
 40
0.0
 40
0.0
 40
0.0
 40
0.0
 40
0.0672630058
 40
0.134453546
 40
0.2011535486
 40
0.2671612434
 40
0.3323754773
 40
0.3967178755
 40
0.522655596
 40
0.6453340898
 40
0.7652326283
 40
0.8832027052
 40
1.0
 40
1.0
 40
1.0
 40
1.0
 10
11.1352904261
 20
7.6861695021
 30
0.0
 10
11.1352922979
 20
7.6872166532
 30
0.0
 10
11.1351783055
 20
7.689311706
 30
0.0
 10
11.1346726348
 20
7.6924079183
 30
0.0
 10
11.1338439893
 20
7.6954138266
 30
0.0
 10
11.1327147031
 20
7.6982865958
 30
0.0
 10
11.1313118271
 20
7.7009950186
 30
0.0
 10
11.1291275918
 20
7.7043259404
 30
0.0
 10
11.1258602924
 20
7.7079857339
 30
0.0
 10
11.1212705599
 20
7.7114816954
 30
0.0
 10
11.1162343477
 20
7.7140284541
 30
0.0
 10
11.1109224004
 20
7.7156282487
 30
0.0
 10
11.1072744742
 20
7.7160759297
 30
0.0
 10
11.1054574993
 20
7.7161454451
 30
0.0
  0
SPLINE
  5
4CA
100
AcDbEntity
  8
0
100
AcDbSpline
 62
9
  6
CONTINUOUS
 70
0
 71
3
 72
17
 73
13
 74
0
 42
0.0000001
 43
0.0000001
 44
0.0000000001
 40
0.0
 40
0.0
 40
0.0
 40
0.0
 40
0.0703607824
 40
0.1405105236
 40
0.2780063326
 40
0.3450157172
 40
0.410612849
 40
0.5373583983
 40
0.6586450293
 40
0.775289973
 40
0.8886121813
 40
1.0
 40
1.0
 40
1.0
 40
1.0
 10
11.0831324323
 20
7.6861695021
 30
0.0
 10
11.0831344278
 20
7.6872163955
 30
0.0
 10
11.0830307006
 20
7.6893089105
 30
0.0
 10
11.0824210038
 20
7.6934048457
 30
0.0
 10
11.0812265505
 20
7.6973456641
 30
0.0
 10
11.0795086658
 20
7.7009844878
 30
0.0
 10
11.0775268251
 20
7.7043017141
 30
0.0
 10
11.0745675716
 20
7.7079499804
 30
0.0
 10
11.0703855659
 20
7.7114574812
 30
0.0
 10
11.0657919852
 20
7.7140155662
 30
0.0
 10
11.0609449881
 20
7.7156247467
 30
0.0
 10
11.0576093852
 20
7.7160758512
 30
0.0
 10
11.0559535121
 20
7.7161454451
 30
0.0
  0
SPLINE
  5
4CB
100
AcDbEntity
  8
0
100
AcDbSpline
 62
9
  6
CONTINUOUS
 70
0
 71
3
 72
18
 73
14
 74
0
 42
0.0000001
 43
0.0000001
 44
0.0000000001
 40
0.0
 40
0.0
 40
0.0
 40
0.0
 40
0.0743213118
 40
0.1482644048
 40
0.2921958505
 40
0.4287153842
 40
0.5566566226
 40
0.6762300579
 40
0.788603032
 40
0.8427457436
 40
0.8958240991
 40
0.948141907
 40
1.0
 40
1.0
 40
1.0
 40
1.0
 10
11.0281436125
 20
7.6861695021
 30
0.0
 10
11.0281456932
 20
7.6872161188
 30
0.0
 10
11.0280544244
 20
7.6893054938
 30
0.0
 10
11.0275165195
 20
7.6933888935
 30
0.0
 10
11.0262230981
 20
7.6982381397
 30
0.0
 10
11.0237736146
 20
7.7034749652
 30
0.0
 10
11.0206129766
 20
7.7079020758
 30
0.0
 10
11.0169244746
 20
7.7114221815
 30
0.0
 10
11.0134963763
 20
7.7135944996
 30
0.0
 10
11.0106569049
 20
7.7148308604
 30
0.0
 10
11.0085121585
 20
7.7155138325
 30
0.0
 10
11.0063400317
 20
7.7159640521
 30
0.0
 10
11.0048771619
 20
7.7161106858
 30
0.0
 10
11.0041477058
 20
7.7161454451
 30
0.0
  0
SPLINE
  5
4CC
100
AcDbEntity
  8
0
100
AcDbSpline
 62
9
  6
CONTINUOUS
 70
0
 71
3
 72
17
 73
13
 74
0
 42
0.0000001
 43
0.0000001
 44
0.0000000001
 40
0.0
 40
0.0
 40
0.0
 40
0.0
 40
0.0792425967
 40
0.1579158431
 40
0.3099767967
 40
0.4518437874
 40
0.5816390724
 40
0.6993680264
 40
0.8064629012
 40
0.9054897186
 40
0.9530910561
 40
1.0
 40
1.0
 40
1.0
 40
1.0
 10
10.9713942617
 20
7.6861695021
 30
0.0
 10
10.9713963866
 20
7.6872158446
 30
0.0
 10
10.9713192365
 20
7.6893021226
 30
0.0
 10
10.9708632921
 20
7.6933724401
 30
0.0
 10
10.9697755079
 20
7.6981916386
 30
0.0
 10
10.9677095218
 20
7.7034163751
 30
0.0
 10
10.9650418182
 20
7.707841803
 30
0.0
 10
10.9619223155
 20
7.7113722845
 30
0.0
 10
10.958482046
 20
7.7139638777
 30
0.0
 10
10.9553969194
 20
7.7153529415
 30
0.0
 10
10.9529098969
 20
7.7159631023
 30
0.0
 10
10.9516668437
 20
7.7161106436
 30
0.0
 10
10.9510484214
 20
7.7161454451
 30
0.0
  0
SPLINE
  5
4CD
100
AcDbEntity
  8
0
100
AcDbSpline
 62
9
  6
CONTINUOUS
 70
0
 71
3
 72
17
 73
13
 74
0
 42
0.0000001
 43
0.0000001
 44
0.0000000001
 40
0.0
 40
0.0
 40
0.0
 40
0.0
 40
0.0850878304
 40
0.169399314
 40
0.3312787113
 40
0.4798693322
 40
0.6123726268
 40
0.7283335188
 40
0.8291971265
 40
0.9180879746
 40
0.9595781298
 40
1.0
 40
1.0
 40
1.0
 40
1.0
 10
10.9139889414
 20
7.6861695021
 30
0.0
 10
10.9139910696
 20
7.6872155939
 30
0.0
 10
10.9139294479
 20
7.689298994
 30
0.0
 10
10.9135635538
 20
7.6933571061
 30
0.0
 10
10.9126979939
 20
7.6981464163
 30
0.0
 10
10.9110516107
 20
7.7033544688
 30
0.0
 10
10.9089275277
 20
7.7077703344
 30
0.0
 10
10.9064441463
 20
7.7113029573
 30
0.0
 10
10.9036996636
 20
7.7139119807
 30
0.0
 10
10.901198706
 20
7.7153404213
 30
0.0
 10
10.8991856279
 20
7.7159613701
 30
0.0
 10
10.8981849078
 20
7.7161105545
 30
0.0
 10
10.8976891762
 20
7.7161454451
 30
0.0
  0
SPLINE
  5
4CE
100
AcDbEntity
  8
0
100
AcDbSpline
 62
9
  6
CONTINUOUS
 70
0
 71
3
 72
20
 73
16
 74
0
 42
0.0000001
 43
0.0000001
 44
0.0000000001
 40
0.0
 40
0.0
 40
0.0
 40
0.0
 40
0.1822403311
 40
0.3553084587
 40
0.5118902713
 40
0.582721065
 40
0.6481821755
 40
0.7082303236
 40
0.7629439363
 40
0.8124846477
 40
0.8571990889
 40
0.897550159
 40
0.9341677076
 40
0.9679472173
 40
1.0
 40
1.0
 40
1.0
 40
1.0
 10
10.8570449808
 20
7.6861695021
 30
0.0
 10
10.8570491369
 20
7.6882494897
 30
0.0
 10
10.8568696543
 20
7.6923074188
 30
0.0
 10
10.8561007048
 20
7.6981061259
 30
0.0
 10
10.8550680426
 20
7.7025684536
 30
0.0
 10
10.85403589
 20
7.7057496423
 30
0.0
 10
10.8532140098
 20
7.7078361222
 30
0.0
 10
10.8523295357
 20
7.709695234
 30
0.0
 10
10.8513929782
 20
7.71132242
 30
0.0
 10
10.8504130565
 20
7.7127151927
 30
0.0
 10
10.8493988455
 20
7.713873633
 30
0.0
 10
10.8483582916
 20
7.7147997447
 30
0.0
 10
10.8472960135
 20
7.7154950122
 30
0.0
 10
10.8462148006
 20
7.7159572253
 30
0.0
 10
10.8454726908
 20
7.7161103294
 30
0.0
 10
10.845108547
 20
7.7161454451
 30
0.0
  0
SPLINE
  5
4CF
100
AcDbEntity
  8
0
100
AcDbSpline
 62
9
  6
CONTINUOUS
 70
0
 71
3
 72
20
 73
16
 74
0
 42
0.0000001
 43
0.0000001
 44
0.0000000001
 40
0.0
 40
0.0
 40
0.0
 40
0.0
 40
0.1955318166
 40
0.3803088179
 40
0.5456546438
 40
0.6194077446
 40
0.6866736255
 40
0.7473005882
 40
0.8012559437
 40
0.8485792746
 40
0.8894891174
 40
0.9243233825
 40
0.9536232086
 40
0.9783408029
 40
1.0
 40
1.0
 40
1.0
 40
1.0
 10
10.8016707294
 20
7.6861695021
 30
0.0
 10
10.8016747271
 20
7.6882482674
 30
0.0
 10
10.8015621026
 20
7.6922925361
 30
0.0
 10
10.8010854248
 20
7.6980766179
 30
0.0
 10
10.8004460097
 20
7.702541238
 30
0.0
 10
10.7998044107
 20
7.7057352355
 30
0.0
 10
10.7992975015
 20
7.7078189064
 30
0.0
 10
10.7987534966
 20
7.7096749229
 30
0.0
 10
10.7981790846
 20
7.7112986354
 30
0.0
 10
10.7975798543
 20
7.7126879616
 30
0.0
 10
10.7969622905
 20
7.7138435853
 30
0.0
 10
10.7963321944
 20
7.7147689016
 30
0.0
 10
10.7956906993
 20
7.7154685041
 30
0.0
 10
10.7950322053
 20
7.715943433
 30
0.0
 10
10.7945574019
 20
7.7161095116
 30
0.0
 10
10.7943299562
 20
7.7161454451
 30
0.0
  0
SPLINE
  5
4D0
100
AcDbEntity
  8
0
100
AcDbSpline
 62
9
  6
CONTINUOUS
 70
0
 71
3
 72
21
 73
17
 74
0
 42
0.0000001
 43
0.0000001
 44
0.0000000001
 40
0.0
 40
0.0
 40
0.0
 40
0.0
 40
0.2059631251
 40
0.4000703668
 40
0.5727005447
 40
0.7181886199
 40
0.7797956431
 40
0.8337651479
 40
0.8800079151
 40
0.9185749799
 40
0.9495624921
 40
0.9731219987
 40
0.9822150121
 40
0.9896089851
 40
0.9954444583
 40
1.0
 40
1.0
 40
1.0
 40
1.0
 10
10.7489439839
 20
7.6861695021
 30
0.0
 10
10.7489477467
 20
7.6882476036
 30
0.0
 10
10.7489032255
 20
7.6922843491
 30
0.0
 10
10.7487250572
 20
7.6980603546
 30
0.0
 10
10.7484509966
 20
7.7032217317
 30
0.0
 10
10.7481490193
 20
7.7070417716
 30
0.0
 10
10.7478728318
 20
7.70966145
 30
0.0
 10
10.7476681453
 20
7.7112814369
 30
0.0
 10
10.7474564777
 20
7.7126657448
 30
0.0
 10
10.7472418947
 20
7.7138146205
 30
0.0
 10
10.7470281017
 20
7.7147296107
 30
0.0
 10
10.7468417931
 20
7.7153454302
 30
0.0
 10
10.7466850427
 20
7.7157182665
 30
0.0
 10
10.7465770915
 20
7.7159166486
 30
0.0
 10
10.7464681184
 20
7.7160601944
 30
0.0
 10
10.7463834831
 20
7.7161261804
 30
0.0
 10
10.7463417511
 20
7.7161454451
 30
0.0
  0
SPLINE
  5
4D1
100
AcDbEntity
  8
0
100
AcDbSpline
 62
9
  6
CONTINUOUS
 70
0
 71
3
 72
21
 73
17
 74
0
 42
0.0000001
 43
0.0000001
 44
0.0000000001
 40
0.0
 40
0.0
 40
0.0
 40
0.0
 40
0.2062425768
 40
0.4005670795
 40
0.573314477
 40
0.718800961
 40
0.7803657709
 40
0.8342645136
 40
0.8804091385
 40
0.9188680244
 40
0.9497734324
 40
0.9733084055
 40
0.9824000446
 40
0.9897830804
 40
0.9955724323
 40
1.0
 40
1.0
 40
1.0
 40
1.0
 10
10.6998910106
 20
7.6861695021
 30
0.0
 10
10.6998944663
 20
7.6882475502
 30
0.0
 10
10.6999186786
 20
7.6922836101
 30
0.0
 10
10.700040664
 20
7.6980591736
 30
0.0
 10
10.7002372011
 20
7.7032200816
 30
0.0
 10
10.7004630207
 20
7.7070406913
 30
0.0
 10
10.7006824136
 20
7.7096609151
 30
0.0
 10
10.700849143
 20
7.7112808148
 30
0.0
 10
10.7010254915
 20
7.7126652869
 30
0.0
 10
10.7012111974
 20
7.7138146282
 30
0.0
 10
10.7014068625
 20
7.7147303038
 30
0.0
 10
10.7015884654
 20
7.7153456939
 30
0.0
 10
10.7017437392
 20
7.7157181329
 30
0.0
 10
10.7018504191
 20
7.715916178
 30
0.0
 10
10.701956536
 20
7.7160590103
 30
0.0
 10
10.702037913
 20
7.7161258039
 30
0.0
 10
10.7020779676
 20
7.7161454451
 30
0.0
  0
SPLINE
  5
4D2
100
AcDbEntity
  8
0
100
AcDbSpline
 62
9
  6
CONTINUOUS
 70
0
 71
3
 72
20
 73
16
 74
0
 42
0.0000001
 43
0.0000001
 44
0.0000000001
 40
0.0
 40
0.0
 40
0.0
 40
0.0
 40
0.1961609445
 40
0.3814047775
 40
0.5469604307
 40
0.6207023088
 40
0.6878896215
 40
0.7483742188
 40
0.8021228875
 40
0.8491832501
 40
0.8898251365
 40
0.9244803339
 40
0.9537554451
 40
0.9784940032
 40
1.0
 40
1.0
 40
1.0
 40
1.0
 10
10.6554665697
 20
7.6861695021
 30
0.0
 10
10.6554696521
 20
7.6882481115
 30
0.0
 10
10.6555622614
 20
7.6922903727
 30
0.0
 10
10.6559834004
 20
7.6980732615
 30
0.0
 10
10.6565571637
 20
7.7025384018
 30
0.0
 10
10.6571393204
 20
7.7057341364
 30
0.0
 10
10.6576045382
 20
7.7078177515
 30
0.0
 10
10.6581088574
 20
7.7096736432
 30
0.0
 10
10.6586458555
 20
7.7112972857
 30
0.0
 10
10.6592104609
 20
7.7126872496
 30
0.0
 10
10.6598001402
 20
7.7138442426
 30
0.0
 10
10.6604135856
 20
7.7147708021
 30
0.0
 10
10.6610496644
 20
7.7154690861
 30
0.0
 10
10.6617041801
 20
7.7159418497
 30
0.0
 10
10.6621751654
 20
7.7161091875
 30
0.0
 10
10.66240015
 20
7.7161454451
 30
0.0
  0
SPLINE
  5
4D3
100
AcDbEntity
  8
0
100
AcDbSpline
 62
9
  6
CONTINUOUS
 70
0
 71
3
 72
11
 73
7
 74
0
 42
0.0000001
 43
0.0000001
 44
0.0000000001
 40
0.0
 40
0.0
 40
0.0
 40
0.0
 40
0.2760003002
 40
0.5405242568
 40
0.7837732139
 40
1.0
 40
1.0
 40
1.0
 40
1.0
 10
10.6165353324
 20
7.6861695021
 30
0.0
 10
10.61653772
 20
7.6880436073
 30
0.0
 10
10.6166692519
 20
7.6917152202
 30
0.0
 10
10.6172544961
 20
7.6970102876
 30
0.0
 10
10.6181881761
 20
7.701842423
 30
0.0
 10
10.6190583404
 20
7.704845276
 30
0.0
 10
10.6195499299
 20
7.7062287645
 30
0.0
  0
SPLINE
  5
4D4
100
AcDbEntity
  8
0
100
AcDbSpline
 62
9
  6
CONTINUOUS
 70
0
 71
3
 72
15
 73
11
 74
0
 42
0.0000001
 43
0.0000001
 44
0.0000000001
 40
0.0
 40
0.0
 40
0.0
 40
0.0
 40
0.1748466343
 40
0.3332483952
 40
0.4755500444
 40
0.602694875
 40
0.7163853414
 40
0.8187992795
 40
0.9123729717
 40
1.0
 40
1.0
 40
1.0
 40
1.0
 10
10.6195499299
 20
7.7062287645
 30
0.0
 10
10.6198176846
 20
7.706982311
 30
0.0
 10
10.6203754201
 20
7.7084025044
 30
0.0
 10
10.6213274844
 20
7.7103608459
 30
0.0
 10
10.6223412776
 20
7.7120383931
 30
0.0
 10
10.6234084585
 20
7.7134336189
 30
0.0
 10
10.6245232089
 20
7.7145469908
 30
0.0
 10
10.6256794167
 20
7.7153778289
 30
0.0
 10
10.6268640912
 20
7.7159265857
 30
0.0
 10
10.6276816922
 20
7.71610653
 30
0.0
 10
10.6280805817
 20
7.7161454451
 30
0.0
  0
SPLINE
  5
4D5
100
AcDbEntity
  8
0
100
AcDbSpline
 62
9
  6
CONTINUOUS
 70
0
 71
3
 72
15
 73
11
 74
0
 42
0.0000001
 43
0.0000001
 44
0.0000000001
 40
0.0
 40
0.0
 40
0.0
 40
0.0
 40
0.1573404697
 40
0.3102057283
 40
0.4544097246
 40
0.5874141337
 40
0.708089694
 40
0.8163620649
 40
0.9130436444
 40
1.0
 40
1.0
 40
1.0
 40
1.0
 10
10.5838550511
 20
7.6861695021
 30
0.0
 10
10.5838567812
 20
7.6878326787
 30
0.0
 10
10.58400377
 20
7.6911135294
 30
0.0
 10
10.5846513121
 20
7.6958797836
 30
0.0
 10
10.5856950324
 20
7.7003122379
 30
0.0
 10
10.5870780453
 20
7.7042929282
 30
0.0
 10
10.5887455646
 20
7.7077471576
 30
0.0
 10
10.5906444949
 20
7.7106321529
 30
0.0
 10
10.5927223646
 20
7.7129310707
 30
0.0
 10
10.5942760892
 20
7.7141198262
 30
0.0
 10
10.5950633368
 20
7.7145943036
 30
0.0
  0
SPLINE
  5
4D6
100
AcDbEntity
  8
0
100
AcDbSpline
 62
9
  6
CONTINUOUS
 70
0
 71
3
 72
9
 73
5
 74
0
 42
0.0000001
 43
0.0000001
 44
0.0000000001
 40
0.0
 40
0.0
 40
0.0
 40
0.0
 40
0.5149656771
 40
1.0
 40
1.0
 40
1.0
 40
1.0
 10
10.5950633368
 20
7.7145943036
 30
0.0
 10
10.595799473
 20
7.7150379758
 30
0.0
 10
10.5973246624
 20
7.7157542959
 30
0.0
 10
10.5989797398
 20
7.7160881576
 30
0.0
 10
10.5997872542
 20
7.7161454451
 30
0.0
  0
SPLINE
  5
4D7
100
AcDbEntity
  8
0
100
AcDbSpline
 62
9
  6
CONTINUOUS
 70
0
 71
3
 72
16
 73
12
 74
0
 42
0.0000001
 43
0.0000001
 44
0.0000000001
 40
0.0
 40
0.0
 40
0.0
 40
0.0
 40
0.1499309866
 40
0.223865855
 40
0.2963696523
 40
0.4358418238
 40
0.566520031
 40
0.6877311359
 40
0.7996699959
 40
0.9032014014
 40
1.0
 40
1.0
 40
1.0
 40
1.0
 10
10.5580618101
 20
7.6861695021
 30
0.0
 10
10.5580631186
 20
7.6878336815
 30
0.0
 10
10.558204829
 20
7.6903214201
 30
0.0
 10
10.558670583
 20
7.6935792798
 30
0.0
 10
10.5593055799
 20
7.696690222
 30
0.0
 10
10.5603919566
 20
7.700345535
 30
0.0
 10
10.5621428675
 20
7.7043339738
 30
0.0
 10
10.5642522232
 20
7.7077930686
 30
0.0
 10
10.5666506856
 20
7.710677882
 30
0.0
 10
10.5692704525
 20
7.7129702435
 30
0.0
 10
10.5711853591
 20
7.7141287026
 30
0.0
 10
10.5721536641
 20
7.7145943036
 30
0.0
  0
SPLINE
  5
4D8
100
AcDbEntity
  8
0
100
AcDbSpline
 62
9
  6
CONTINUOUS
 70
0
 71
3
 72
9
 73
5
 74
0
 42
0.0000001
 43
0.0000001
 44
0.0000000001
 40
0.0
 40
0.0
 40
0.0
 40
0.0
 40
0.5084750488
 40
1.0
 40
1.0
 40
1.0
 40
1.0
 10
10.5721536641
 20
7.7145943036
 30
0.0
 10
10.5730925743
 20
7.7150457703
 30
0.0
 10
10.5750268085
 20
7.7157638548
 30
0.0
 10
10.5770653902
 20
7.7160885326
 30
0.0
 10
10.5780708649
 20
7.7161454451
 30
0.0
  0
SPLINE
  5
4D9
100
AcDbEntity
  8
0
100
AcDbSpline
 62
9
  6
CONTINUOUS
 70
0
 71
3
 72
14
 73
10
 74
0
 42
0.0000001
 43
0.0000001
 44
0.0000000001
 40
0.0
 40
0.0
 40
0.0
 40
0.0
 40
0.1375687472
 40
0.273763029
 40
0.4067023154
 40
0.535392452
 40
0.6591445236
 40
0.7778052768
 40
1.0
 40
1.0
 40
1.0
 40
1.0
 10
10.5396576456
 20
7.6861695021
 30
0.0
 10
10.5396583132
 20
7.6874606531
 30
0.0
 10
10.5397944679
 20
7.690031869
 30
0.0
 10
10.5403882628
 20
7.6938093008
 30
0.0
 10
10.5413613319
 20
7.6974216293
 30
0.0
 10
10.5426719245
 20
7.7008001772
 30
0.0
 10
10.5442855197
 20
7.7038959227
 30
0.0
 10
10.5467246322
 20
7.7075173124
 30
0.0
 10
10.5489654036
 20
7.7098558392
 30
0.0
 10
10.5505872908
 20
7.7111667201
 30
0.0
  0
SPLINE
  5
4DA
100
AcDbEntity
  8
0
100
AcDbSpline
 62
9
  6
CONTINUOUS
 70
0
 71
3
 72
9
 73
5
 74
0
 42
0.0000001
 43
0.0000001
 44
0.0000000001
 40
0.0
 40
0.0
 40
0.0
 40
0.0
 40
0.2541872864
 40
1.0
 40
1.0
 40
1.0
 40
1.0
 10
10.5525875953
 20
7.7126203896
 30
0.0
 10
10.5528896911
 20
7.7128166678
 30
0.0
 10
10.554095878
 20
7.713561192
 30
0.0
 10
10.5553720625
 20
7.7141927138
 30
0.0
 10
10.5563511206
 20
7.7145911855
 30
0.0
  0
SPLINE
  5
4DB
100
AcDbEntity
  8
0
100
AcDbSpline
 62
7
  6
CONTINUOUS
 70
0
 71
3
 72
16
 73
12
 74
0
 42
0.0000001
 43
0.0000001
 44
0.0000000001
 40
0.0
 40
0.0
 40
0.0
 40
0.0
 40
0.3292932266
 40
0.4837759795
 40
0.6256850866
 40
0.751153517
 40
0.8568910568
 40
0.9014880497
 40
0.9402459475
 40
0.9730631057
 40
1.0
 40
1.0
 40
1.0
 40
1.0
 10
11.1592594004
 20
7.6295945058
 30
0.0
 10
11.1592593949
 20
7.6284807589
 30
0.0
 10
11.1593066133
 20
7.6268437246
 30
0.0
 10
11.159475138
 20
7.6247339054
 30
0.0
 10
11.1596443282
 20
7.6233166175
 30
0.0
 10
11.1598555458
 20
7.6220719689
 30
0.0
 10
11.1600702894
 20
7.6211629074
 30
0.0
 10
11.1602658257
 20
7.620553642
 30
0.0
 10
11.1604103917
 20
7.6201878301
 30
0.0
 10
11.1605596653
 20
7.6198894867
 30
0.0
 10
11.1606725688
 20
7.6197205407
 30
0.0
 10
11.160731099
 20
7.6196507218
 30
0.0
  0
SPLINE
  5
4DC
100
AcDbEntity
  8
0
100
AcDbSpline
 62
7
  6
CONTINUOUS
 70
0
 71
3
 72
11
 73
7
 74
0
 42
0.0000001
 43
0.0000001
 44
0.0000000001
 40
0.0
 40
0.0
 40
0.0
 40
0.0
 40
0.247908221
 40
0.4972373466
 40
0.7481518938
 40
1.0
 40
1.0
 40
1.0
 40
1.0
 10
11.1516881674
 20
7.6196507225
 30
0.0
 10
11.1527689945
 20
7.6199013341
 30
0.0
 10
11.1548625117
 20
7.6208068811
 30
0.0
 10
11.1573392212
 20
7.6231548331
 30
0.0
 10
11.15890497
 20
7.6262013203
 30
0.0
 10
11.1592594287
 20
7.6284673717
 30
0.0
 10
11.1592594004
 20
7.6295945058
 30
0.0
  0
SPLINE
  5
4DD
100
AcDbEntity
  8
0
100
AcDbSpline
 62
9
  6
CONTINUOUS
 70
0
 71
3
 72
16
 73
12
 74
0
 42
0.0000001
 43
0.0000001
 44
0.0000000001
 40
0.0
 40
0.0
 40
0.0
 40
0.0
 40
0.1291447131
 40
0.1936669237
 40
0.2578727242
 40
0.3851121273
 40
0.5107704918
 40
0.6349154951
 40
0.7576898397
 40
0.8792426282
 40
1.0
 40
1.0
 40
1.0
 40
1.0
 10
10.531603774
 20
7.6861695021
 30
0.0
 10
10.5316035073
 20
7.6878390853
 30
0.0
 10
10.5318353589
 20
7.6903501478
 30
0.0
 10
10.5325828809
 20
7.6936022526
 30
0.0
 10
10.5336130349
 20
7.6967512175
 30
0.0
 10
10.5353949338
 20
7.7004676963
 30
0.0
 10
10.5382243449
 20
7.7044633594
 30
0.0
 10
10.5416133999
 20
7.7079137343
 30
0.0
 10
10.5454424328
 20
7.7107768818
 30
0.0
 10
10.5496012545
 20
7.7130399742
 30
0.0
 10
10.5525429636
 20
7.714148766
 30
0.0
 10
10.5540368868
 20
7.7146019629
 30
0.0
  0
SPLINE
  5
4DE
100
AcDbEntity
  8
0
100
AcDbSpline
 62
9
  6
CONTINUOUS
 70
0
 71
3
 72
9
 73
5
 74
0
 42
0.0000001
 43
0.0000001
 44
0.0000000001
 40
0.0
 40
0.0
 40
0.0
 40
0.0
 40
0.2510080995
 40
1.0
 40
1.0
 40
1.0
 40
1.0
 10
10.5359569065
 20
7.6861695018
 30
0.0
 10
10.5359570566
 20
7.6866008394
 30
0.0
 10
10.5360215489
 20
7.6883187557
 30
0.0
 10
10.5363354245
 20
7.6900264184
 30
0.0
 10
10.5366996325
 20
7.6912608966
 30
0.0
  0
SPLINE
  5
4DF
100
AcDbEntity
  8
0
100
AcDbSpline
 62
9
  6
CONTINUOUS
 70
0
 71
3
 72
11
 73
7
 74
0
 42
0.0000001
 43
0.0000001
 44
0.0000000001
 40
0.0
 40
0.0
 40
0.0
 40
0.0
 40
0.255033258
 40
0.5069509081
 40
0.7554119337
 40
1.0
 40
1.0
 40
1.0
 40
1.0
 10
10.5366996325
 20
7.6912608966
 30
0.0
 10
10.5369526947
 20
7.6921186478
 30
0.0
 10
10.5375839765
 20
7.6937886825
 30
0.0
 10
10.5388708838
 20
7.6961132802
 30
0.0
 10
10.5404329312
 20
7.6982160887
 30
0.0
 10
10.5416362105
 20
7.6994648595
 30
0.0
 10
10.5422677584
 20
7.7000451653
 30
0.0
  0
SPLINE
  5
4E0
100
AcDbEntity
  8
0
100
AcDbSpline
 62
9
  6
CONTINUOUS
 70
0
 71
3
 72
11
 73
7
 74
0
 42
0.0000001
 43
0.0000001
 44
0.0000000001
 40
0.0
 40
0.0
 40
0.0
 40
0.0
 40
0.2445882465
 40
0.4930551107
 40
0.7449703309
 40
1.0
 40
1.0
 40
1.0
 40
1.0
 10
10.5422516533
 20
7.6343085412
 30
0.0
 10
10.5416202144
 20
7.6348899825
 30
0.0
 10
10.5404173684
 20
7.6361411457
 30
0.0
 10
10.5388566794
 20
7.6382476091
 30
0.0
 10
10.5375719651
 20
7.6405758819
 30
0.0
 10
10.5369428762
 20
7.6422482691
 30
0.0
 10
10.5366910259
 20
7.6431071114
 30
0.0
  0
SPLINE
  5
4E1
100
AcDbEntity
  8
0
100
AcDbSpline
 62
9
  6
CONTINUOUS
 70
0
 71
3
 72
9
 73
5
 74
0
 42
0.0000001
 43
0.0000001
 44
0.0000000001
 40
0.0
 40
0.0
 40
0.0
 40
0.0
 40
0.2493581502
 40
1.0
 40
1.0
 40
1.0
 40
1.0
 10
10.5366910259
 20
7.6431071114
 30
0.0
 10
10.5365711567
 20
7.6435158811
 30
0.0
 10
10.5361478063
 20
7.6451713431
 30
0.0
 10
10.5359572541
 20
7.6468871683
 30
0.0
 10
10.5359568295
 20
7.6481695024
 30
0.0
  0
SPLINE
  5
4E2
100
AcDbEntity
  8
0
100
AcDbSpline
 62
9
  6
CONTINUOUS
 70
0
 71
3
 72
16
 73
12
 74
0
 42
0.0000001
 43
0.0000001
 44
0.0000000001
 40
0.0
 40
0.0
 40
0.0
 40
0.0
 40
0.1323760874
 40
0.1983344301
 40
0.2638002453
 40
0.3929070258
 40
0.5193676159
 40
0.6430348229
 40
0.7641105319
 40
0.8830188015
 40
1.0
 40
1.0
 40
1.0
 40
1.0
 10
11.1352904261
 20
7.6481695021
 30
0.0
 10
11.1352856513
 20
7.6464872489
 30
0.0
 10
11.1350650447
 20
7.6439606015
 30
0.0
 10
11.134350955
 20
7.6406819764
 30
0.0
 10
11.1333650782
 20
7.6375173468
 30
0.0
 10
11.1316605056
 20
7.6337880314
 30
0.0
 10
11.1289550477
 20
7.629774994
 30
0.0
 10
11.1257215162
 20
7.6263138758
 30
0.0
 10
11.1220722461
 20
7.6234495816
 30
0.0
 10
11.1181166225
 20
7.6211978638
 30
0.0
 10
11.1153159654
 20
7.6200965421
 30
0.0
 10
11.1138977168
 20
7.6196508888
 30
0.0
  0
SPLINE
  5
4E3
100
AcDbEntity
  8
0
100
AcDbSpline
 62
7
  6
CONTINUOUS
 70
0
 71
3
 72
15
 73
11
 74
0
 42
0.0000001
 43
0.0000001
 44
0.0000000001
 40
0.0
 40
0.0
 40
0.0
 40
0.0
 40
0.1610039336
 40
0.3188096641
 40
0.4691197249
 40
0.6082446777
 40
0.732914086
 40
0.840563799
 40
0.9295269536
 40
1.0
 40
1.0
 40
1.0
 40
1.0
 10
11.1113866163
 20
7.6295945058
 30
0.0
 10
11.1113866116
 20
7.6290313378
 30
0.0
 10
11.1114155527
 20
7.6279159798
 30
0.0
 10
11.1115436953
 20
7.6262792923
 30
0.0
 10
11.1117556365
 20
7.6247283713
 30
0.0
 10
11.1120455384
 20
7.623307856
 30
0.0
 10
11.1124078382
 20
7.6220585145
 30
0.0
 10
11.1128321398
 20
7.6210143356
 30
0.0
 10
11.1133073143
 20
7.6202064963
 30
0.0
 10
11.1136956765
 20
7.6197919629
 30
0.0
 10
11.1138977045
 20
7.6196507218
 30
0.0
  0
SPLINE
  5
4E4
100
AcDbEntity
  8
0
100
AcDbSpline
 62
9
  6
CONTINUOUS
 70
0
 71
3
 72
11
 73
7
 74
0
 42
0.0000001
 43
0.0000001
 44
0.0000000001
 40
0.0
 40
0.0
 40
0.0
 40
0.0
 40
0.2523741498
 40
0.5034446659
 40
0.752554396
 40
1.0
 40
1.0
 40
1.0
 40
1.0
 10
10.5448129816
 20
7.6861695021
 30
0.0
 10
10.5448122148
 20
7.688777832
 30
0.0
 10
10.5456028698
 20
7.6940130351
 30
0.0
 10
10.5489673048
 20
7.7011344674
 30
0.0
 10
10.554048515
 20
7.7070638719
 30
0.0
 10
10.5582648989
 20
7.7100793919
 30
0.0
 10
10.560493544
 20
7.7113337435
 30
0.0
  0
SPLINE
  5
4E5
100
AcDbEntity
  8
0
100
AcDbSpline
 62
9
  6
CONTINUOUS
 70
0
 71
3
 72
10
 73
6
 74
0
 42
0.0000001
 43
0.0000001
 44
0.0000000001
 40
0.0
 40
0.0
 40
0.0
 40
0.0
 40
0.2506150662
 40
0.5008427761
 40
1.0
 40
1.0
 40
1.0
 40
1.0
 10
10.560493544
 20
7.7113337435
 30
0.0
 10
10.5617259783
 20
7.7120273963
 30
0.0
 10
10.5642754414
 20
7.7132664369
 30
0.0
 10
10.5696075523
 20
7.715137613
 30
0.0
 10
10.5738148953
 20
7.715873764
 30
0.0
 10
10.5766248016
 20
7.7160701958
 30
0.0
  0
SPLINE
  5
4E6
100
AcDbEntity
  8
0
100
AcDbSpline
 62
9
  6
CONTINUOUS
 70
0
 71
3
 72
13
 73
9
 74
0
 42
0.0000001
 43
0.0000001
 44
0.0000000001
 40
0.0
 40
0.0
 40
0.0
 40
0.0
 40
0.2519075764
 40
0.3777621246
 40
0.5031982422
 40
0.6281679533
 40
0.7524093906
 40
1.0
 40
1.0
 40
1.0
 40
1.0
 10
10.5500512135
 20
7.6861695018
 30
0.0
 10
10.5500518663
 20
7.6879053233
 30
0.0
 10
10.5504781807
 20
7.6905295764
 30
0.0
 10
10.551794439
 20
7.6937463422
 30
0.0
 10
10.5531181107
 20
7.6959863874
 30
0.0
 10
10.5547182337
 20
7.6980213879
 30
0.0
 10
10.5571565301
 20
7.7004335958
 30
0.0
 10
10.5592842658
 20
7.7019077489
 30
0.0
 10
10.5607761663
 20
7.7027353501
 30
0.0
  0
SPLINE
  5
4E7
100
AcDbEntity
  8
0
100
AcDbSpline
 62
9
  6
CONTINUOUS
 70
0
 71
3
 72
13
 73
9
 74
0
 42
0.0000001
 43
0.0000001
 44
0.0000000001
 40
0.0
 40
0.0
 40
0.0
 40
0.0
 40
0.247607899
 40
0.371843243
 40
0.4968060468
 40
0.62224251
 40
0.7480957992
 40
1.0
 40
1.0
 40
1.0
 40
1.0
 10
10.5608556466
 20
7.631559531
 30
0.0
 10
10.5593541852
 20
7.6323855241
 30
0.0
 10
10.5572120672
 20
7.6338591415
 30
0.0
 10
10.554755991
 20
7.6362748086
 30
0.0
 10
10.5531436815
 20
7.6383145813
 30
0.0
 10
10.5518093647
 20
7.6405615654
 30
0.0
 10
10.550481827
 20
7.6437901909
 30
0.0
 10
10.5500517541
 20
7.6464261023
 30
0.0
 10
10.5500511304
 20
7.6481695024
 30
0.0
  0
SPLINE
  5
4E8
100
AcDbEntity
  8
0
100
AcDbSpline
 62
7
  6
CONTINUOUS
 70
0
 71
3
 72
11
 73
7
 74
0
 42
0.0000001
 43
0.0000001
 44
0.0000000001
 40
0.0
 40
0.0
 40
0.0
 40
0.0
 40
0.2438048063
 40
0.4919508527
 40
0.7446385228
 40
1.0
 40
1.0
 40
1.0
 40
1.0
 10
11.1040937634
 20
7.619650653
 30
0.0
 10
11.105139089
 20
7.6199022862
 30
0.0
 10
11.1071687819
 20
7.6208180898
 30
0.0
 10
11.109548544
 20
7.623171643
 30
0.0
 10
11.111047966
 20
7.6262129617
 30
0.0
 10
11.1113866324
 20
7.6284683546
 30
0.0
 10
11.1113866163
 20
7.6295945058
 30
0.0
  0
SPLINE
  5
4E9
100
AcDbEntity
  8
0
100
AcDbSpline
 62
9
  6
CONTINUOUS
 70
0
 71
3
 72
16
 73
12
 74
0
 42
0.0000001
 43
0.0000001
 44
0.0000000001
 40
0.0
 40
0.0
 40
0.0
 40
0.0
 40
0.137011805
 40
0.2050601165
 40
0.2723563564
 40
0.404118025
 40
0.5316025941
 40
0.6545386261
 40
0.7731832661
 40
0.8881568469
 40
1.0
 40
1.0
 40
1.0
 40
1.0
 10
11.0831324323
 20
7.6481695021
 30
0.0
 10
11.0831273434
 20
7.646488314
 30
0.0
 10
11.0829272335
 20
7.6439670007
 30
0.0
 10
11.0822764949
 20
7.6406863504
 30
0.0
 10
11.0813802221
 20
7.6375305001
 30
0.0
 10
11.0798343531
 20
7.6338145997
 30
0.0
 10
11.0773728934
 20
7.6298013762
 30
0.0
 10
11.0744287196
 20
7.626336737
 30
0.0
 10
11.0711035213
 20
7.6234666824
 30
0.0
 10
11.0674976547
 20
7.6212087504
 30
0.0
 10
11.0649319716
 20
7.6200986023
 30
0.0
 10
11.0636346902
 20
7.6196508888
 30
0.0
  0
SPLINE
  5
4EA
100
AcDbEntity
  8
0
100
AcDbSpline
 62
7
  6
CONTINUOUS
 70
0
 71
3
 72
15
 73
11
 74
0
 42
0.0000001
 43
0.0000001
 44
0.0000000001
 40
0.0
 40
0.0
 40
0.0
 40
0.0
 40
0.154481971
 40
0.3062953959
 40
0.4517490236
 40
0.5877832297
 40
0.7118387531
 40
0.8221293356
 40
0.9178809566
 40
1.0
 40
1.0
 40
1.0
 40
1.0
 10
11.0601330708
 20
7.6295945058
 30
0.0
 10
11.0601330642
 20
7.629031157
 30
0.0
 10
11.060173539
 20
7.6279137835
 30
0.0
 10
11.060352749
 20
7.6262746492
 30
0.0
 10
11.0606493636
 20
7.6247207414
 30
0.0
 10
11.0610556804
 20
7.6232962923
 30
0.0
 10
11.0615647573
 20
7.6220419767
 30
0.0
 10
11.0621632435
 20
7.6209919254
 30
0.0
 10
11.0628383757
 20
7.6201788124
 30
0.0
 10
11.0633669701
 20
7.6197849358
 30
0.0
 10
11.063634673
 20
7.6196507218
 30
0.0
  0
SPLINE
  5
4EB
100
AcDbEntity
  8
0
100
AcDbSpline
 62
9
  6
CONTINUOUS
 70
0
 71
3
 72
17
 73
13
 74
0
 42
0.0000001
 43
0.0000001
 44
0.0000000001
 40
0.0
 40
0.0
 40
0.0
 40
0.0
 40
0.1252969505
 40
0.1880851846
 40
0.2507914853
 40
0.3134448847
 40
0.3760282395
 40
0.5009654184
 40
0.6258120111
 40
0.750508929
 40
0.8752365795
 40
1.0
 40
1.0
 40
1.0
 40
1.0
 10
10.5656691391
 20
7.6861695021
 30
0.0
 10
10.5656682981
 20
7.6881603621
 30
0.0
 10
10.5660246549
 20
7.6911632831
 30
0.0
 10
10.5671632416
 20
7.6949878489
 30
0.0
 10
10.5683347561
 20
7.6977454048
 30
0.0
 10
10.5697931213
 20
7.7003577613
 30
0.0
 10
10.5720852321
 20
7.7036127643
 30
0.0
 10
10.5755367987
 20
7.7072254548
 30
0.0
 10
10.5803822399
 20
7.7107283931
 30
0.0
 10
10.5857337306
 20
7.7133805015
 30
0.0
 10
10.5914241117
 20
7.7151750778
 30
0.0
 10
10.5953526133
 20
7.7158118646
 30
0.0
 10
10.5973267767
 20
7.7159921991
 30
0.0
  0
SPLINE
  5
4EC
100
AcDbEntity
  8
0
100
AcDbSpline
 62
9
  6
CONTINUOUS
 70
0
 71
3
 72
15
 73
11
 74
0
 42
0.0000001
 43
0.0000001
 44
0.0000000001
 40
0.0
 40
0.0
 40
0.0
 40
0.0
 40
0.1237967688
 40
0.1858494542
 40
0.2479657424
 40
0.3722589331
 40
0.4970459618
 40
0.622067235
 40
0.7474329394
 40
1.0
 40
1.0
 40
1.0
 40
1.0
 10
10.5716905142
 20
7.6861695018
 30
0.0
 10
10.5716909026
 20
7.6871484309
 30
0.0
 10
10.5718340047
 20
7.6886224255
 30
0.0
 10
10.5722879816
 20
7.6905317222
 30
0.0
 10
10.5729111907
 20
7.6923976327
 30
0.0
 10
10.574001867
 20
7.6946182249
 30
0.0
 10
10.5757235703
 20
7.6970374251
 30
0.0
 10
10.5777831843
 20
7.6991867485
 30
0.0
 10
10.5809004056
 20
7.7016704856
 30
0.0
 10
10.583563818
 20
7.7030960397
 30
0.0
 10
10.5854097803
 20
7.7038583901
 30
0.0
  0
SPLINE
  5
4ED
100
AcDbEntity
  8
0
100
AcDbSpline
 62
9
  6
CONTINUOUS
 70
0
 71
3
 72
15
 73
11
 74
0
 42
0.0000001
 43
0.0000001
 44
0.0000000001
 40
0.0
 40
0.0
 40
0.0
 40
0.0
 40
0.2525705765
 40
0.3779355992
 40
0.5029585911
 40
0.6277456176
 40
0.7520382178
 40
0.8141538455
 40
0.876205545
 40
1.0
 40
1.0
 40
1.0
 40
1.0
 10
10.5853895532
 20
7.6304888013
 30
0.0
 10
10.5835457888
 20
7.6312517648
 30
0.0
 10
10.5808858133
 20
7.6326779301
 30
0.0
 10
10.577773104
 20
7.6351615287
 30
0.0
 10
10.5757166664
 20
7.6373101193
 30
0.0
 10
10.5739977167
 20
7.6397279414
 30
0.0
 10
10.5729089099
 20
7.6419469014
 30
0.0
 10
10.5722867916
 20
7.6438112576
 30
0.0
 10
10.5718336234
 20
7.6457188685
 30
0.0
 10
10.5716907957
 20
7.647191486
 30
0.0
 10
10.5716904265
 20
7.6481695024
 30
0.0
  0
SPLINE
  5
4EE
100
AcDbEntity
  8
0
100
AcDbSpline
 62
7
  6
CONTINUOUS
 70
0
 71
3
 72
14
 73
10
 74
0
 42
0.0000001
 43
0.0000001
 44
0.0000000001
 40
0.0
 40
0.0
 40
0.0
 40
0.0
 40
0.1177847923
 40
0.2377806794
 40
0.3599270099
 40
0.4843877616
 40
0.6111386825
 40
0.7399333013
 40
1.0
 40
1.0
 40
1.0
 40
1.0
 10
11.0532607897
 20
7.6196507225
 30
0.0
 10
11.0537543223
 20
7.6197767967
 30
0.0
 10
11.0547272507
 20
7.6201323987
 30
0.0
 10
11.0560714141
 20
7.620933849
 30
0.0
 10
11.0572698641
 20
7.6219846576
 30
0.0
 10
11.058289495
 20
7.6232462151
 30
0.0
 10
11.0591027872
 20
7.6246828111
 30
0.0
 10
11.0598935808
 20
7.6267741653
 30
0.0
 10
11.0601330964
 20
7.6284698014
 30
0.0
 10
11.0601330708
 20
7.6295945058
 30
0.0
  0
SPLINE
  5
4EF
100
AcDbEntity
  8
0
100
AcDbSpline
 62
9
  6
CONTINUOUS
 70
0
 71
3
 72
17
 73
13
 74
0
 42
0.0000001
 43
0.0000001
 44
0.0000000001
 40
0.0
 40
0.0
 40
0.0
 40
0.0
 40
0.1427522464
 40
0.2134033189
 40
0.2829939604
 40
0.4181376948
 40
0.4834407255
 40
0.5470992715
 40
0.6692265315
 40
0.7848641093
 40
0.8948242817
 40
1.0
 40
1.0
 40
1.0
 40
1.0
 10
11.0281436125
 20
7.6481695021
 30
0.0
 10
11.0281383092
 20
7.6464894689
 30
0.0
 10
11.0279624609
 20
7.6439739592
 30
0.0
 10
11.0273877338
 20
7.6406911666
 30
0.0
 10
11.0265982784
 20
7.6375454645
 30
0.0
 10
11.0254990385
 20
7.6345498061
 30
0.0
 10
11.0241150472
 20
7.6317641469
 30
0.0
 10
11.022610695
 20
7.6292181408
 30
0.0
 10
11.0204759918
 20
7.6263670218
 30
0.0
 10
11.0175416642
 20
7.6234910811
 30
0.0
 10
11.0143569905
 20
7.6212252063
 30
0.0
 10
11.012073084
 20
7.6201018245
 30
0.0
 10
11.0109203391
 20
7.6196508888
 30
0.0
  0
SPLINE
  5
4F0
100
AcDbEntity
  8
0
100
AcDbSpline
 62
9
  6
CONTINUOUS
 70
0
 71
3
 72
16
 73
12
 74
0
 42
0.0000001
 43
0.0000001
 44
0.0000000001
 40
0.0
 40
0.0
 40
0.0
 40
0.0
 40
0.1249577166
 40
0.1876189246
 40
0.2502211489
 40
0.3752281448
 40
0.5001754307
 40
0.625149768
 40
0.7501437321
 40
0.8750602697
 40
1.0
 40
1.0
 40
1.0
 40
1.0
 10
10.5937663051
 20
7.6861695021
 30
0.0
 10
10.5937653984
 20
7.6878402837
 30
0.0
 10
10.5940182706
 20
7.6903574611
 30
0.0
 10
10.5948291726
 20
7.6936070193
 30
0.0
 10
10.59594987
 20
7.6967650967
 30
0.0
 10
10.5978917942
 20
7.7004936476
 30
0.0
 10
10.6009611854
 20
7.704486443
 30
0.0
 10
10.6046306583
 20
7.7079314856
 30
0.0
 10
10.6087701797
 20
7.7107887996
 30
0.0
 10
10.6132610612
 20
7.7130464345
 30
0.0
 10
10.6164254578
 20
7.7141497948
 30
0.0
 10
10.6180336407
 20
7.7146019629
 30
0.0
  0
SPLINE
  5
4F1
100
AcDbEntity
  8
0
100
AcDbSpline
 62
9
  6
CONTINUOUS
 70
0
 71
3
 72
9
 73
5
 74
0
 42
0.0000001
 43
0.0000001
 44
0.0000000001
 40
0.0
 40
0.0
 40
0.0
 40
0.0
 40
0.2503788121
 40
1.0
 40
1.0
 40
1.0
 40
1.0
 10
10.6180336407
 20
7.7146019629
 30
0.0
 10
10.6188514448
 20
7.7148319025
 30
0.0
 10
10.6221457542
 20
7.7156481006
 30
0.0
 10
10.6255385778
 20
7.7160610711
 30
0.0
 10
10.6280805817
 20
7.7161454451
 30
0.0
  0
SPLINE
  5
4F2
100
AcDbEntity
  8
0
100
AcDbSpline
 62
9
  6
CONTINUOUS
 70
0
 71
3
 72
15
 73
11
 74
0
 42
0.0000001
 43
0.0000001
 44
0.0000000001
 40
0.0
 40
0.0
 40
0.0
 40
0.0
 40
0.1218959993
 40
0.2443643203
 40
0.3676658661
 40
0.4921134942
 40
0.6173584532
 40
0.7437411144
 40
0.8714269088
 40
1.0
 40
1.0
 40
1.0
 40
1.0
 10
10.6004536242
 20
7.6861695018
 30
0.0
 10
10.6004540554
 20
7.6872217179
 30
0.0
 10
10.6006822349
 20
7.6893366421
 30
0.0
 10
10.6016510591
 20
7.6923796701
 30
0.0
 10
10.6031997458
 20
7.6951961651
 30
0.0
 10
10.6052181688
 20
7.6977223625
 30
0.0
 10
10.6076160082
 20
7.6999276604
 30
0.0
 10
10.610315276
 20
7.7017972837
 30
0.0
 10
10.6132460747
 20
7.7033358
 30
0.0
 10
10.6153103017
 20
7.7041441003
 30
0.0
 10
10.616362877
 20
7.7044960372
 30
0.0
  0
SPLINE
  5
4F3
100
AcDbEntity
  8
0
100
AcDbSpline
 62
9
  6
CONTINUOUS
 70
0
 71
3
 72
15
 73
11
 74
0
 42
0.0000001
 43
0.0000001
 44
0.0000000001
 40
0.0
 40
0.0
 40
0.0
 40
0.0
 40
0.1285820496
 40
0.2562775085
 40
0.3826666507
 40
0.5079112757
 40
0.6323574618
 40
0.7556550876
 40
0.8781150405
 40
1.0
 40
1.0
 40
1.0
 40
1.0
 10
10.6164064596
 20
7.6298283378
 30
0.0
 10
10.6153514315
 20
7.6301793916
 30
0.0
 10
10.6132822593
 20
7.6309863204
 30
0.0
 10
10.6103440796
 20
7.6325239035
 30
0.0
 10
10.6076376668
 20
7.6343937047
 30
0.0
 10
10.6052331008
 20
7.6366003149
 30
0.0
 10
10.6032086737
 20
7.6391290243
 30
0.0
 10
10.6016549816
 20
7.6419491899
 30
0.0
 10
10.6006828861
 20
7.6449969809
 30
0.0
 10
10.6004539445
 20
7.6471155142
 30
0.0
 10
10.6004535335
 20
7.6481695024
 30
0.0
  0
SPLINE
  5
4F4
100
AcDbEntity
  8
0
100
AcDbSpline
 62
7
  6
CONTINUOUS
 70
0
 71
3
 72
15
 73
11
 74
0
 42
0.0000001
 43
0.0000001
 44
0.0000000001
 40
0.0
 40
0.0
 40
0.0
 40
0.0
 40
0.1478975913
 40
0.2937085042
 40
0.4343951526
 40
0.567556823
 40
0.6913318747
 40
0.8045977614
 40
0.9071547256
 40
1.0
 40
1.0
 40
1.0
 40
1.0
 10
11.0064963557
 20
7.6295945058
 30
0.0
 10
11.0064963474
 20
7.6290309352
 30
0.0
 10
11.0065476663
 20
7.6279110955
 30
0.0
 10
11.0067748758
 20
7.6262690649
 30
0.0
 10
11.0071511714
 20
7.6247118654
 30
0.0
 10
11.0076673018
 20
7.6232835378
 30
0.0
 10
11.0083149756
 20
7.622025349
 30
0.0
 10
11.0090777445
 20
7.6209721967
 30
0.0
 10
11.0099388832
 20
7.620159849
 30
0.0
 10
11.0105914717
 20
7.6197812163
 30
0.0
 10
11.0109203173
 20
7.6196507218
 30
0.0
  0
SPLINE
  5
4F5
100
AcDbEntity
  8
0
100
AcDbSpline
 62
7
  6
CONTINUOUS
 70
0
 71
3
 72
14
 73
10
 74
0
 42
0.0000001
 43
0.0000001
 44
0.0000000001
 40
0.0
 40
0.0
 40
0.0
 40
0.0
 40
0.1127008691
 40
0.2290009564
 40
0.3491411764
 40
0.4733176763
 40
0.732004316
 40
0.8656420662
 40
1.0
 40
1.0
 40
1.0
 40
1.0
 10
11.0001783414
 20
7.6196508897
 30
0.0
 10
11.0006343141
 20
7.6197775877
 30
0.0
 10
11.0015349376
 20
7.6201369624
 30
0.0
 10
11.002770793
 20
7.6209412044
 30
0.0
 10
11.0038713225
 20
7.621993563
 30
0.0
 10
11.0051340676
 20
7.6236967426
 30
0.0
 10
11.0059908533
 20
7.6257303675
 30
0.0
 10
11.0064221298
 20
7.6279032048
 30
0.0
 10
11.0064963562
 20
7.6290303168
 30
0.0
 10
11.0064963557
 20
7.6295945058
 30
0.0
  0
SPLINE
  5
4F6
100
AcDbEntity
  8
0
100
AcDbSpline
 62
9
  6
CONTINUOUS
 70
0
 71
3
 72
16
 73
12
 74
0
 42
0.0000001
 43
0.0000001
 44
0.0000000001
 40
0.0
 40
0.0
 40
0.0
 40
0.0
 40
0.1495310911
 40
0.2232769018
 40
0.2956183048
 40
0.4349039143
 40
0.5656364911
 40
0.6870127317
 40
0.7991895164
 40
0.9031033563
 40
1.0
 40
1.0
 40
1.0
 40
1.0
 10
10.9713942617
 20
7.6481695021
 30
0.0
 10
10.9713888474
 20
7.646490624
 30
0.0
 10
10.9712404107
 20
7.6439808866
 30
0.0
 10
10.9707529064
 20
7.64069616
 30
0.0
 10
10.9700847617
 20
7.6375607009
 30
0.0
 10
10.9689401006
 20
7.633879836
 30
0.0
 10
10.9671061334
 20
7.6298727646
 30
0.0
 10
10.9649105791
 20
7.6264059174
 30
0.0
 10
10.9624265902
 20
7.6235249278
 30
0.0
 10
10.9597282271
 20
7.6212503159
 30
0.0
 10
10.9577683741
 20
7.6201070203
 30
0.0
 10
10.9567806883
 20
7.6196508888
 30
0.0
  0
SPLINE
  5
4F7
100
AcDbEntity
  8
0
100
AcDbSpline
 62
9
  6
CONTINUOUS
 70
0
 71
3
 72
18
 73
14
 74
0
 42
0.0000001
 43
0.0000001
 44
0.0000000001
 40
0.0
 40
0.0
 40
0.0
 40
0.0
 40
0.1258593856
 40
0.1888957032
 40
0.2518211888
 40
0.3146473059
 40
0.3773626829
 40
0.4400055653
 40
0.5025539474
 40
0.6272936183
 40
0.7516802732
 40
0.8759486667
 40
1.0
 40
1.0
 40
1.0
 40
1.0
 10
10.6285576002
 20
7.6861695021
 30
0.0
 10
10.6285562343
 20
7.6882630991
 30
0.0
 10
10.6289481479
 20
7.6914219302
 30
0.0
 10
10.6301981169
 20
7.6954266241
 30
0.0
 10
10.6314793548
 20
7.6983019773
 30
0.0
 10
10.6330699671
 20
7.7010107002
 30
0.0
 10
10.6349412575
 20
7.7035274073
 30
0.0
 10
10.6370573337
 20
7.70583528
 30
0.0
 10
10.6401590355
 20
7.7086119733
 30
0.0
 10
10.6444933425
 20
7.7115123891
 30
0.0
 10
10.6501956088
 20
7.7140436714
 30
0.0
 10
10.6562131259
 20
7.7156322082
 30
0.0
 10
10.6603377974
 20
7.7160759985
 30
0.0
 10
10.66240015
 20
7.7161454451
 30
0.0
  0
SPLINE
  5
4F8
100
AcDbEntity
  8
0
100
AcDbSpline
 62
9
  6
CONTINUOUS
 70
0
 71
3
 72
15
 73
11
 74
0
 42
0.0000001
 43
0.0000001
 44
0.0000000001
 40
0.0
 40
0.0
 40
0.0
 40
0.0
 40
0.1211096269
 40
0.2429413355
 40
0.3658744202
 40
0.4902168609
 40
0.6156169843
 40
0.7424665262
 40
0.8707884109
 40
1.0
 40
1.0
 40
1.0
 40
1.0
 10
10.6357807022
 20
7.6861695018
 30
0.0
 10
10.6357811521
 20
7.6872539255
 30
0.0
 10
10.6360267066
 20
7.6894354487
 30
0.0
 10
10.6370680091
 20
7.6925648958
 30
0.0
 10
10.6387272675
 20
7.6954464917
 30
0.0
 10
10.6408801167
 20
7.698015533
 30
0.0
 10
10.643430336
 20
7.7002403092
 30
0.0
 10
10.6462918627
 20
7.7021085097
 30
0.0
 10
10.649389145
 20
7.7036263413
 30
0.0
 10
10.651563664
 20
7.7044087238
 30
0.0
 10
10.6526707733
 20
7.7047447104
 30
0.0
  0
SPLINE
  5
4F9
100
AcDbEntity
  8
0
100
AcDbSpline
 62
9
  6
CONTINUOUS
 70
0
 71
3
 72
15
 73
11
 74
0
 42
0.0000001
 43
0.0000001
 44
0.0000000001
 40
0.0
 40
0.0
 40
0.0
 40
0.0
 40
0.1292217525
 40
0.257547015
 40
0.3843966024
 40
0.5097957878
 40
0.6341369538
 40
0.7570676642
 40
0.878895512
 40
1.0
 40
1.0
 40
1.0
 40
1.0
 10
10.6526707612
 20
7.6295942538
 30
0.0
 10
10.6515635394
 20
7.6299301989
 30
0.0
 10
10.6493888654
 20
7.6307125524
 30
0.0
 10
10.6462914773
 20
7.6322304873
 30
0.0
 10
10.6434299971
 20
7.6340988299
 30
0.0
 10
10.6408798849
 20
7.636323715
 30
0.0
 10
10.6387270956
 20
7.6388927631
 30
0.0
 10
10.6370678577
 20
7.6417743058
 30
0.0
 10
10.6360265687
 20
7.644903664
 30
0.0
 10
10.6357810384
 20
7.6470851205
 30
0.0
 10
10.6357806104
 20
7.6481695024
 30
0.0
  0
SPLINE
  5
4FA
100
AcDbEntity
  8
0
100
AcDbSpline
 62
7
  6
CONTINUOUS
 70
0
 71
3
 72
15
 73
11
 74
0
 42
0.0000001
 43
0.0000001
 44
0.0000000001
 40
0.0
 40
0.0
 40
0.0
 40
0.0
 40
0.1418201239
 40
0.2821341105
 40
0.4185428119
 40
0.5492651165
 40
0.6730474288
 40
0.7892580827
 40
0.8979852091
 40
1.0
 40
1.0
 40
1.0
 40
1.0
 10
10.9515204488
 20
7.6295945058
 30
0.0
 10
10.9515204389
 20
7.6290306895
 30
0.0
 10
10.9515816997
 20
7.6279081275
 30
0.0
 10
10.9518528799
 20
7.6262630244
 30
0.0
 10
10.9523021942
 20
7.6247026111
 30
0.0
 10
10.9529190024
 20
7.623271012
 30
0.0
 10
10.9536934203
 20
7.6220104348
 30
0.0
 10
10.9546055484
 20
7.6209566685
 30
0.0
 10
10.9556333799
 20
7.620147483
 30
0.0
 10
10.9563959544
 20
7.6197791142
 30
0.0
 10
10.9567806624
 20
7.6196507218
 30
0.0
  0
SPLINE
  5
4FB
100
AcDbEntity
  8
0
100
AcDbSpline
 62
7
  6
CONTINUOUS
 70
0
 71
3
 72
15
 73
11
 74
0
 42
0.0000001
 43
0.0000001
 44
0.0000000001
 40
0.0
 40
0.0
 40
0.0
 40
0.0
 40
0.105971211
 40
0.2174560726
 40
0.3350432586
 40
0.4588923503
 40
0.5885635364
 40
0.7230727848
 40
0.860922824
 40
1.0
 40
1.0
 40
1.0
 40
1.0
 10
10.9458795606
 20
7.6196507225
 30
0.0
 10
10.9462898659
 20
7.6197784167
 30
0.0
 10
10.9471022147
 20
7.6201431698
 30
0.0
 10
10.9482053233
 20
7.6209506067
 30
0.0
 10
10.9491853388
 20
7.6220040463
 30
0.0
 10
10.9500175432
 20
7.6232652287
 30
0.0
 10
10.9506804613
 20
7.6246980273
 30
0.0
 10
10.9511632145
 20
7.626259896
 30
0.0
 10
10.95145459
 20
7.6279065429
 30
0.0
 10
10.9515204594
 20
7.6290305437
 30
0.0
 10
10.9515204488
 20
7.6295945058
 30
0.0
  0
SPLINE
  5
4FC
100
AcDbEntity
  8
0
100
AcDbSpline
 62
9
  6
CONTINUOUS
 70
0
 71
3
 72
14
 73
10
 74
0
 42
0.0000001
 43
0.0000001
 44
0.0000000001
 40
0.0
 40
0.0
 40
0.0
 40
0.0
 40
0.3095953477
 40
0.4537887338
 40
0.586968741
 40
0.7078907614
 40
0.7637051299
 40
0.8165251202
 40
1.0
 40
1.0
 40
1.0
 40
1.0
 10
10.9139889414
 20
7.6481695021
 30
0.0
 10
10.9139782673
 20
7.6448652831
 30
0.0
 10
10.913545706
 20
7.6400013057
 30
0.0
 10
10.9120264025
 20
7.6339144511
 30
0.0
 10
10.9105613084
 20
7.6299144844
 30
0.0
 10
10.9090635311
 20
7.6269551664
 30
0.0
 10
10.9077353421
 20
7.6248927595
 30
0.0
 10
10.9058658622
 20
7.6224022696
 30
0.0
 10
10.9039653822
 20
7.6206299086
 30
0.0
 10
10.9022695046
 20
7.6196508888
 30
0.0
  0
SPLINE
  5
4FD
100
AcDbEntity
  8
0
100
AcDbSpline
 62
9
  6
CONTINUOUS
 70
0
 71
3
 72
18
 73
14
 74
0
 42
0.0000001
 43
0.0000001
 44
0.0000000001
 40
0.0
 40
0.0
 40
0.0
 40
0.0
 40
0.1281452606
 40
0.1921757677
 40
0.2559351026
 40
0.3194050173
 40
0.3825557003
 40
0.4454199298
 40
0.5079783178
 40
0.632155433
 40
0.7553324733
 40
0.8779012182
 40
1.0
 40
1.0
 40
1.0
 40
1.0
 10
10.6693658514
 20
7.6861695021
 30
0.0
 10
10.6693642832
 20
7.6882621112
 30
0.0
 10
10.6697423677
 20
7.6914161383
 30
0.0
 10
10.6709519023
 20
7.6954229741
 30
0.0
 10
10.6721907664
 20
7.6982977964
 30
0.0
 10
10.6737288327
 20
7.701006394
 30
0.0
 10
10.6755384363
 20
7.7035233053
 30
0.0
 10
10.6775847382
 20
7.7058315726
 30
0.0
 10
10.6805793014
 20
7.7086046973
 30
0.0
 10
10.6847642397
 20
7.7115046153
 30
0.0
 10
10.6902784445
 20
7.7140396568
 30
0.0
 10
10.6960961173
 20
7.7156312456
 30
0.0
 10
10.7000853071
 20
7.7160759855
 30
0.0
 10
10.7020779676
 20
7.7161454451
 30
0.0
  0
SPLINE
  5
4FE
100
AcDbEntity
  8
0
100
AcDbSpline
 62
9
  6
CONTINUOUS
 70
0
 71
3
 72
15
 73
11
 74
0
 42
0.0000001
 43
0.0000001
 44
0.0000000001
 40
0.0
 40
0.0
 40
0.0
 40
0.0
 40
0.1215168714
 40
0.2436810929
 40
0.3668182585
 40
0.4912177414
 40
0.6165323573
 40
0.7431710527
 40
0.8711796515
 40
1.0
 40
1.0
 40
1.0
 40
1.0
 10
10.6769841468
 20
7.6861695018
 30
0.0
 10
10.6769845934
 20
7.687253831
 30
0.0
 10
10.6772281711
 20
7.6894343921
 30
0.0
 10
10.6782613344
 20
7.6925632493
 30
0.0
 10
10.6799080374
 20
7.6954448373
 30
0.0
 10
10.6820449712
 20
7.6980141631
 30
0.0
 10
10.6845765846
 20
7.7002393111
 30
0.0
 10
10.6874173862
 20
7.7021078588
 30
0.0
 10
10.6904922762
 20
7.7036259526
 30
0.0
 10
10.6926515978
 20
7.7044086463
 30
0.0
 10
10.6937508756
 20
7.7047447104
 30
0.0
  0
SPLINE
  5
4FF
100
AcDbEntity
  8
0
100
AcDbSpline
 62
9
  6
CONTINUOUS
 70
0
 71
3
 72
15
 73
11
 74
0
 42
0.0000001
 43
0.0000001
 44
0.0000000001
 40
0.0
 40
0.0
 40
0.0
 40
0.0
 40
0.1288304596
 40
0.2568424359
 40
0.3834812092
 40
0.5087949237
 40
0.6331931466
 40
0.7563279341
 40
0.8784882831
 40
1.0
 40
1.0
 40
1.0
 40
1.0
 10
10.6937508636
 20
7.6295942538
 30
0.0
 10
10.6926514739
 20
7.6299302764
 30
0.0
 10
10.6904919983
 20
7.6307129412
 30
0.0
 10
10.6874170034
 20
7.6322311384
 30
0.0
 10
10.6845762482
 20
7.6340998281
 30
0.0
 10
10.6820447413
 20
7.6363250847
 30
0.0
 10
10.6799078669
 20
7.6388944173
 30
0.0
 10
10.6782611842
 20
7.6417759523
 30
0.0
 10
10.6772280343
 20
7.6449047206
 30
0.0
 10
10.6769844806
 20
7.647085215
 30
0.0
 10
10.6769840557
 20
7.6481695024
 30
0.0
  0
SPLINE
  5
500
100
AcDbEntity
  8
0
100
AcDbSpline
 62
9
  6
CONTINUOUS
 70
0
 71
3
 72
15
 73
11
 74
0
 42
0.0000001
 43
0.0000001
 44
0.0000000001
 40
0.0
 40
0.0
 40
0.0
 40
0.0
 40
0.066375875
 40
0.1500411232
 40
0.2514757683
 40
0.3710547105
 40
0.5086016398
 40
0.6619051571
 40
0.8276344564
 40
1.0
 40
1.0
 40
1.0
 40
1.0
 10
10.6937509472
 20
7.7047447094
 30
0.0
 10
10.6939056635
 20
7.7043594919
 30
0.0
 10
10.6941960132
 20
7.7034651159
 30
0.0
 10
10.694564894
 20
7.7019354167
 30
0.0
 10
10.6949057911
 20
7.7000597379
 30
0.0
 10
10.6952089663
 20
7.6978372806
 30
0.0
 10
10.6954641067
 20
7.6952826153
 30
0.0
 10
10.6956595508
 20
7.6924333563
 30
0.0
 10
10.6957811552
 20
7.689362104
 30
0.0
 10
10.6958095884
 20
7.6872475053
 30
0.0
 10
10.6958096427
 20
7.6861695018
 30
0.0
  0
SPLINE
  5
501
100
AcDbEntity
  8
0
100
AcDbSpline
 62
9
  6
CONTINUOUS
 70
0
 71
3
 72
15
 73
11
 74
0
 42
0.0000001
 43
0.0000001
 44
0.0000000001
 40
0.0
 40
0.0
 40
0.0
 40
0.0
 40
0.1723592791
 40
0.3380848096
 40
0.4913855443
 40
0.6289323297
 40
0.7485152008
 40
0.8499554285
 40
0.9336246634
 40
1.0
 40
1.0
 40
1.0
 40
1.0
 10
10.6958096539
 20
7.6481695024
 30
0.0
 10
10.6958096019
 20
7.6470915354
 30
0.0
 10
10.6957811706
 20
7.6449769939
 30
0.0
 10
10.6956595681
 20
7.6419058139
 30
0.0
 10
10.6954641249
 20
7.6390565895
 30
0.0
 10
10.6952089868
 20
7.6365019111
 30
0.0
 10
10.6949058258
 20
7.6342793873
 30
0.0
 10
10.6945649434
 20
7.6324036147
 30
0.0
 10
10.6941960661
 20
7.6308738528
 30
0.0
 10
10.6939056938
 20
7.629979456
 30
0.0
 10
10.6937509488
 20
7.6295942526
 30
0.0
  0
SPLINE
  5
502
100
AcDbEntity
  8
0
100
AcDbSpline
 62
7
  6
CONTINUOUS
 70
0
 71
3
 72
15
 73
11
 74
0
 42
0.0000001
 43
0.0000001
 44
0.0000000001
 40
0.0
 40
0.0
 40
0.0
 40
0.0
 40
0.1560936189
 40
0.3055239994
 40
0.4446469183
 40
0.5729884444
 40
0.6909665041
 40
0.7999769857
 40
0.9021754953
 40
1.0
 40
1.0
 40
1.0
 40
1.0
 10
10.6937509394
 20
7.7047444984
 30
0.0
 10
10.6937509245
 20
7.7055449042
 30
0.0
 10
10.6939034599
 20
7.7071142638
 30
0.0
 10
10.6944967856
 20
7.7093252019
 30
0.0
 10
10.695377003
 20
7.7112833913
 30
0.0
 10
10.6964686491
 20
7.7129415752
 30
0.0
 10
10.6977220731
 20
7.7142774313
 30
0.0
 10
10.699098139
 20
7.7152747361
 30
0.0
 10
10.7005585684
 20
7.7159203994
 30
0.0
 10
10.7015774005
 20
7.7161131837
 30
0.0
 10
10.7020779603
 20
7.7161457424
 30
0.0
  0
SPLINE
  5
503
100
AcDbEntity
  8
0
100
AcDbSpline
 62
9
  6
CONTINUOUS
 70
0
 71
3
 72
19
 73
15
 74
0
 42
0.0000001
 43
0.0000001
 44
0.0000000001
 40
0.0
 40
0.0
 40
0.0
 40
0.0
 40
0.0660223846
 40
0.1320285139
 40
0.1976607489
 40
0.2627654465
 40
0.3272751828
 40
0.3911284724
 40
0.4543476596
 40
0.5169163083
 40
0.6401578591
 40
0.7613333314
 40
0.8811102872
 40
1.0
 40
1.0
 40
1.0
 40
1.0
 10
10.7153967726
 20
7.6861695021
 30
0.0
 10
10.7153959014
 20
7.6872168143
 30
0.0
 10
10.7155148008
 20
7.6893130505
 30
0.0
 10
10.7160381395
 20
7.6924107085
 30
0.0
 10
10.716897034
 20
7.6954178355
 30
0.0
 10
10.7180689286
 20
7.6982911527
 30
0.0
 10
10.719524181
 20
7.7009996147
 30
0.0
 10
10.7212365553
 20
7.7035167178
 30
0.0
 10
10.7231730205
 20
7.705825555
 30
0.0
 10
10.7259995385
 20
7.7085926993
 30
0.0
 10
10.7299502557
 20
7.7114914804
 30
0.0
 10
10.7351707045
 20
7.7140329843
 30
0.0
 10
10.7406777799
 20
7.7156295541
 30
0.0
 10
10.7444570853
 20
7.7160759535
 30
0.0
 10
10.7463417511
 20
7.7161454451
 30
0.0
  0
SPLINE
  5
504
100
AcDbEntity
  8
0
100
AcDbSpline
 62
9
  6
CONTINUOUS
 70
0
 71
3
 72
15
 73
11
 74
0
 42
0.0000001
 43
0.0000001
 44
0.0000000001
 40
0.0
 40
0.0
 40
0.0
 40
0.0
 40
0.1230173786
 40
0.2464095327
 40
0.3703042966
 40
0.4949200319
 40
0.6199231717
 40
0.7457840858
 40
0.8726322417
 40
1.0
 40
1.0
 40
1.0
 40
1.0
 10
10.72326198
 20
7.6861695018
 30
0.0
 10
10.7232624144
 20
7.6872534921
 30
0.0
 10
10.7234988198
 20
7.6894305986
 30
0.0
 10
10.7245023845
 20
7.692557284
 30
0.0
 10
10.7261033304
 20
7.6954387732
 30
0.0
 10
10.7281822031
 20
7.6980090835
 30
0.0
 10
10.7306459302
 20
7.7002355721
 30
0.0
 10
10.7334111296
 20
7.7021054
 30
0.0
 10
10.7364043584
 20
7.7036244751
 30
0.0
 10
10.7385082855
 20
7.7044083508
 30
0.0
 10
10.7395790211
 20
7.7047447104
 30
0.0
  0
SPLINE
  5
505
100
AcDbEntity
  8
0
100
AcDbSpline
 62
9
  6
CONTINUOUS
 70
0
 71
3
 72
15
 73
11
 74
0
 42
0.0000001
 43
0.0000001
 44
0.0000000001
 40
0.0
 40
0.0
 40
0.0
 40
0.0
 40
0.1273776738
 40
0.2542292068
 40
0.3800903199
 40
0.5050926941
 40
0.6297072234
 40
0.7535995948
 40
0.8769878332
 40
1.0
 40
1.0
 40
1.0
 40
1.0
 10
10.7395790093
 20
7.6295942538
 30
0.0
 10
10.7385081645
 20
7.6299305719
 30
0.0
 10
10.7364040863
 20
7.6307144195
 30
0.0
 10
10.7334107559
 20
7.632233598
 30
0.0
 10
10.7306456029
 20
7.6341035675
 30
0.0
 10
10.7281819804
 20
7.6363301636
 30
0.0
 10
10.7261031649
 20
7.6389004807
 30
0.0
 10
10.7245022383
 20
7.6417819174
 30
0.0
 10
10.7234986867
 20
7.6449085142
 30
0.0
 10
10.7232623047
 20
7.6470855537
 30
0.0
 10
10.7232618913
 20
7.6481695024
 30
0.0
  0
SPLINE
  5
506
100
AcDbEntity
  8
0
100
AcDbSpline
 62
9
  6
CONTINUOUS
 70
0
 71
3
 72
15
 73
11
 74
0
 42
0.0000001
 43
0.0000001
 44
0.0000000001
 40
0.0
 40
0.0
 40
0.0
 40
0.0
 40
0.0748884781
 40
0.1636998252
 40
0.2674716249
 40
0.387015377
 40
0.5225309912
 40
0.6721860253
 40
0.8330827632
 40
1.0
 40
1.0
 40
1.0
 40
1.0
 10
10.7395790998
 20
7.7047447094
 30
0.0
 10
10.7398930693
 20
7.7043766179
 30
0.0
 10
10.7405016294
 20
7.7035052854
 30
0.0
 10
10.741294368
 20
7.7019660516
 30
0.0
 10
10.7420242124
 20
7.7000828547
 30
0.0
 10
10.742671415
 20
7.6978543846
 30
0.0
 10
10.7432153088
 20
7.6952949097
 30
0.0
 10
10.7436316166
 20
7.6924414631
 30
0.0
 10
10.7438905733
 20
7.6893660736
 30
0.0
 10
10.7439511224
 20
7.687247846
 30
0.0
 10
10.7439512378
 20
7.6861695018
 30
0.0
  0
SPLINE
  5
507
100
AcDbEntity
  8
0
100
AcDbSpline
 62
9
  6
CONTINUOUS
 70
0
 71
3
 72
15
 73
11
 74
0
 42
0.0000001
 43
0.0000001
 44
0.0000000001
 40
0.0
 40
0.0
 40
0.0
 40
0.0
 40
0.1669110541
 40
0.3278040319
 40
0.4774562557
 40
0.6129715093
 40
0.7325185662
 40
0.8362951554
 40
0.9251102689
 40
1.0
 40
1.0
 40
1.0
 40
1.0
 10
10.7439512616
 20
7.6481695024
 30
0.0
 10
10.7439511511
 20
7.6470911947
 30
0.0
 10
10.743890606
 20
7.6449730242
 30
0.0
 10
10.7436316535
 20
7.6418977072
 30
0.0
 10
10.7432153476
 20
7.6390442961
 30
0.0
 10
10.7426714597
 20
7.6364848112
 30
0.0
 10
10.7420242879
 20
7.6342562735
 30
0.0
 10
10.7412944721
 20
7.6323729761
 30
0.0
 10
10.7405017331
 20
7.630833664
 30
0.0
 10
10.7398931193
 20
7.6299623169
 30
0.0
 10
10.7395791031
 20
7.6295942526
 30
0.0
  0
SPLINE
  5
508
100
AcDbEntity
  8
0
100
AcDbSpline
 62
7
  6
CONTINUOUS
 70
0
 71
3
 72
15
 73
11
 74
0
 42
0.0000001
 43
0.0000001
 44
0.0000000001
 40
0.0
 40
0.0
 40
0.0
 40
0.0
 40
0.1674943557
 40
0.3262179534
 40
0.4713431797
 40
0.6018729854
 40
0.7179776362
 40
0.8210959697
 40
0.9138920208
 40
1.0
 40
1.0
 40
1.0
 40
1.0
 10
10.7395790832
 20
7.7047444984
 30
0.0
 10
10.7395790711
 20
7.7055437331
 30
0.0
 10
10.7397014403
 20
7.707102192
 30
0.0
 10
10.7401795232
 20
7.7093062652
 30
0.0
 10
10.7408897853
 20
7.7112604735
 30
0.0
 10
10.7417708552
 20
7.7129168469
 30
0.0
 10
10.7427830869
 20
7.7142540648
 30
0.0
 10
10.7438977033
 20
7.7152576103
 30
0.0
 10
10.7450879337
 20
7.7159134954
 30
0.0
 10
10.7459321743
 20
7.7161129395
 30
0.0
 10
10.7463417452
 20
7.7161457424
 30
0.0
  0
SPLINE
  5
509
100
AcDbEntity
  8
0
100
AcDbSpline
 62
9
  6
CONTINUOUS
 70
0
 71
3
 72
18
 73
14
 74
0
 42
0.0000001
 43
0.0000001
 44
0.0000000001
 40
0.0
 40
0.0
 40
0.0
 40
0.0
 40
0.0687030255
 40
0.1372666706
 40
0.2052052879
 40
0.2722643032
 40
0.3383053288
 40
0.4032185964
 40
0.5295035122
 40
0.6515139066
 40
0.7698902489
 40
0.8857030536
 40
1.0
 40
1.0
 40
1.0
 40
1.0
 10
10.7657544242
 20
7.6861695021
 30
0.0
 10
10.7657535358
 20
7.687216574
 30
0.0
 10
10.7658632389
 20
7.6893102064
 30
0.0
 10
10.7663464657
 20
7.6924053559
 30
0.0
 10
10.7671394016
 20
7.6954104908
 30
0.0
 10
10.7682212876
 20
7.6982825677
 30
0.0
 10
10.7695652287
 20
7.7009905627
 30
0.0
 10
10.7716533857
 20
7.7043149036
 30
0.0
 10
10.7747746344
 20
7.7079696615
 30
0.0
 10
10.7791716603
 20
7.7114707809
 30
0.0
 10
10.7839981942
 20
7.7140227956
 30
0.0
 10
10.7890897358
 20
7.7156267483
 30
0.0
 10
10.7925893963
 20
7.7160758944
 30
0.0
 10
10.7943299562
 20
7.7161454451
 30
0.0
  0
SPLINE
  5
50A
100
AcDbEntity
  8
0
100
AcDbSpline
 62
9
  6
CONTINUOUS
 70
0
 71
3
 72
15
 73
11
 74
0
 42
0.0000001
 43
0.0000001
 44
0.0000000001
 40
0.0
 40
0.0
 40
0.0
 40
0.0
 40
0.1256273659
 40
0.2511691083
 40
0.3764070552
 40
0.501424756
 40
0.6259004196
 40
0.7504036485
 40
0.8752065521
 40
1.0
 40
1.0
 40
1.0
 40
1.0
 10
10.7737134193
 20
7.6861695019
 30
0.0
 10
10.773713797
 20
7.6872528769
 30
0.0
 10
10.7739380748
 20
7.6894242143
 30
0.0
 10
10.7748914337
 20
7.6925470505
 30
0.0
 10
10.7764143623
 20
7.6954281368
 30
0.0
 10
10.778394023
 20
7.6979999942
 30
0.0
 10
10.7807417402
 20
7.7002287564
 30
0.0
 10
10.7833778113
 20
7.7021008483
 30
0.0
 10
10.78623165
 20
7.7036217092
 30
0.0
 10
10.7882411312
 20
7.7044077958
 30
0.0
 10
10.7892632159
 20
7.7047447143
 30
0.0
  0
SPLINE
  5
50B
100
AcDbEntity
  8
0
100
AcDbSpline
 62
9
  6
CONTINUOUS
 70
0
 71
3
 72
15
 73
11
 74
0
 42
0.0000001
 43
0.0000001
 44
0.0000000001
 40
0.0
 40
0.0
 40
0.0
 40
0.0
 40
0.1246818825
 40
0.2493748147
 40
0.3737953937
 40
0.4982432441
 40
0.62330297
 40
0.7486270536
 40
0.8742757881
 40
1.0
 40
1.0
 40
1.0
 40
1.0
 10
10.7892632759
 20
7.6295945048
 30
0.0
 10
10.7882420705
 20
7.6299310057
 30
0.0
 10
10.7862342273
 20
7.6307159706
 30
0.0
 10
10.7833823367
 20
7.6322348729
 30
0.0
 10
10.780747399
 20
7.634105258
 30
0.0
 10
10.7783996336
 20
7.6363330712
 30
0.0
 10
10.7764184802
 20
7.6389048287
 30
0.0
 10
10.7748934356
 20
7.6417871282
 30
0.0
 10
10.7739388528
 20
7.6449122452
 30
0.0
 10
10.7737140679
 20
7.6470852962
 30
0.0
 10
10.7737135296
 20
7.6481695026
 30
0.0
  0
SPLINE
  5
50C
100
AcDbEntity
  8
0
100
AcDbSpline
 62
9
  6
CONTINUOUS
 70
0
 71
3
 72
15
 73
11
 74
0
 42
0.0000001
 43
0.0000001
 44
0.0000000001
 40
0.0
 40
0.0
 40
0.0
 40
0.0
 40
0.0855984619
 40
0.1813932327
 40
0.2886351728
 40
0.4084566451
 40
0.541447031
 40
0.6862491984
 40
0.8405663796
 40
1.0
 40
1.0
 40
1.0
 40
1.0
 10
10.7892633012
 20
7.7047447094
 30
0.0
 10
10.7897208017
 20
7.7043894234
 30
0.0
 10
10.7906208815
 20
7.7035449585
 30
0.0
 10
10.7918287821
 20
7.702002345
 30
0.0
 10
10.7929391416
 20
7.7001140092
 30
0.0
 10
10.7939224794
 20
7.6978794408
 30
0.0
 10
10.7947478212
 20
7.695313956
 30
0.0
 10
10.795379157
 20
7.6924544787
 30
0.0
 10
10.7957717894
 20
7.6893725774
 30
0.0
 10
10.7958636088
 20
7.6872484057
 30
0.0
 10
10.7958637831
 20
7.6861695018
 30
0.0
  0
SPLINE
  5
50D
100
AcDbEntity
  8
0
100
AcDbSpline
 62
9
  6
CONTINUOUS
 70
0
 71
3
 72
15
 73
11
 74
0
 42
0.0000001
 43
0.0000001
 44
0.0000000001
 40
0.0
 40
0.0
 40
0.0
 40
0.0
 40
0.1594276269
 40
0.3137411336
 40
0.458540518
 40
0.5915302945
 40
0.7113542579
 40
0.8185999881
 40
0.9143983049
 40
1.0
 40
1.0
 40
1.0
 40
1.0
 10
10.7958638191
 20
7.6481695024
 30
0.0
 10
10.7958636521
 20
7.6470906351
 30
0.0
 10
10.7957718388
 20
7.6449665204
 30
0.0
 10
10.7953792127
 20
7.6418846917
 30
0.0
 10
10.7947478801
 20
7.6390252517
 30
0.0
 10
10.7939225494
 20
7.6364597608
 30
0.0
 10
10.7929392588
 20
7.634225122
 30
0.0
 10
10.7918289378
 20
7.6323366765
 30
0.0
 10
10.7906210219
 20
7.6307939712
 30
0.0
 10
10.789720864
 20
7.629949504
 30
0.0
 10
10.7892633062
 20
7.6295942526
 30
0.0
  0
SPLINE
  5
50E
100
AcDbEntity
  8
0
100
AcDbSpline
 62
7
  6
CONTINUOUS
 70
0
 71
3
 72
16
 73
12
 74
0
 42
0.0000001
 43
0.0000001
 44
0.0000000001
 40
0.0
 40
0.0
 40
0.0
 40
0.0
 40
0.1805204232
 40
0.3500807624
 40
0.5025570195
 40
0.6362653526
 40
0.7508586388
 40
0.8474259855
 40
0.9287455828
 40
0.9652477989
 40
1.0
 40
1.0
 40
1.0
 40
1.0
 10
10.7892632762
 20
7.7047444984
 30
0.0
 10
10.7892632673
 20
7.7055427368
 30
0.0
 10
10.7893539586
 20
7.7070918071
 30
0.0
 10
10.7897095461
 20
7.7092890373
 30
0.0
 10
10.7902381113
 20
7.7112378154
 30
0.0
 10
10.7908926686
 20
7.7128892741
 30
0.0
 10
10.7916438269
 20
7.7142233572
 30
0.0
 10
10.7924693225
 20
7.7152292083
 30
0.0
 10
10.7932397653
 20
7.7158062892
 30
0.0
 10
10.7938665313
 20
7.7160643236
 30
0.0
 10
10.7941771525
 20
7.7161294083
 30
0.0
 10
10.7943299517
 20
7.7161457424
 30
0.0
  0
SPLINE
  5
50F
100
AcDbEntity
  8
0
100
AcDbSpline
 62
9
  6
CONTINUOUS
 70
0
 71
3
 72
16
 73
12
 74
0
 42
0.0000001
 43
0.0000001
 44
0.0000000001
 40
0.0
 40
0.0
 40
0.0
 40
0.0
 40
0.07224521
 40
0.1441977798
 40
0.284745349
 40
0.4191190681
 40
0.5464222728
 40
0.6669072398
 40
0.781566067
 40
0.8920013519
 40
1.0
 40
1.0
 40
1.0
 40
1.0
 10
10.8194586517
 20
7.6861695021
 30
0.0
 10
10.8194576607
 20
7.6872163029
 30
0.0
 10
10.819555983
 20
7.6893071762
 30
0.0
 10
10.8201294516
 20
7.693397467
 30
0.0
 10
10.8215178357
 20
7.6982611869
 30
0.0
 10
10.8241428015
 20
7.703501954
 30
0.0
 10
10.8275259975
 20
7.7079277412
 30
0.0
 10
10.8314721406
 20
7.7114416511
 30
0.0
 10
10.8358096018
 20
7.7140067688
 30
0.0
 10
10.840388738
 20
7.7156222684
 30
0.0
 10
10.8435452452
 20
7.7160757898
 30
0.0
 10
10.845108547
 20
7.7161454451
 30
0.0
  0
SPLINE
  5
510
100
AcDbEntity
  8
0
100
AcDbSpline
 62
9
  6
CONTINUOUS
 70
0
 71
3
 72
14
 73
10
 74
0
 42
0.0000001
 43
0.0000001
 44
0.0000000001
 40
0.0
 40
0.0
 40
0.0
 40
0.0
 40
0.1294583279
 40
0.2581785481
 40
0.3854511206
 40
0.5111523581
 40
0.6349547961
 40
0.7575519488
 40
1.0
 40
1.0
 40
1.0
 40
1.0
 10
10.827356595
 20
7.6861695018
 30
0.0
 10
10.8273569801
 20
7.6872522025
 30
0.0
 10
10.8275646214
 20
7.689416075
 30
0.0
 10
10.8284485006
 20
7.6925336364
 30
0.0
 10
10.8298629792
 20
7.6954136227
 30
0.0
 10
10.8317039906
 20
7.6979869158
 30
0.0
 10
10.833890086
 20
7.7002187801
 30
0.0
 10
10.8371468422
 20
7.7027066914
 30
0.0
 10
10.8399249786
 20
7.7040680667
 30
0.0
 10
10.841836417
 20
7.7047447104
 30
0.0
  0
SPLINE
  5
511
100
AcDbEntity
  8
0
100
AcDbSpline
 62
9
  6
CONTINUOUS
 70
0
 71
3
 72
14
 73
10
 74
0
 42
0.0000001
 43
0.0000001
 44
0.0000000001
 40
0.0
 40
0.0
 40
0.0
 40
0.0
 40
0.2424601691
 40
0.365058112
 40
0.4888604292
 40
0.6145607415
 40
0.7418309089
 40
0.8705470795
 40
1.0
 40
1.0
 40
1.0
 40
1.0
 10
10.8418364066
 20
7.6295942538
 30
0.0
 10
10.8399248179
 20
7.6302707983
 30
0.0
 10
10.8371465366
 20
7.6316322275
 30
0.0
 10
10.8338897966
 20
7.6341203611
 30
0.0
 10
10.8317037968
 20
7.6363523281
 30
0.0
 10
10.8298628341
 20
7.6389256283
 30
0.0
 10
10.8284483709
 20
7.6418055643
 30
0.0
 10
10.8275645033
 20
7.6449230381
 30
0.0
 10
10.8273568827
 20
7.647086843
 30
0.0
 10
10.8273565163
 20
7.6481695024
 30
0.0
  0
SPLINE
  5
512
100
AcDbEntity
  8
0
100
AcDbSpline
 62
9
  6
CONTINUOUS
 70
0
 71
3
 72
14
 73
10
 74
0
 42
0.0000001
 43
0.0000001
 44
0.0000000001
 40
0.0
 40
0.0
 40
0.0
 40
0.0
 40
0.0960983791
 40
0.1992160387
 40
0.4304620144
 40
0.5611425694
 40
0.7010367
 40
0.8484802641
 40
1.0
 40
1.0
 40
1.0
 40
1.0
 10
10.8418365051
 20
7.7047447094
 30
0.0
 10
10.8424264698
 20
7.7043971322
 30
0.0
 10
10.8435913701
 20
7.7035737935
 30
0.0
 10
10.8458075008
 20
7.7014399171
 30
0.0
 10
10.8476566815
 20
7.6986324433
 30
0.0
 10
10.8490574574
 20
7.6953375897
 30
0.0
 10
10.8498946358
 20
7.6924708409
 30
0.0
 10
10.8504148457
 20
7.6893811382
 30
0.0
 10
10.8505366301
 20
7.6872491407
 30
0.0
 10
10.85053686
 20
7.6861695018
 30
0.0
  0
SPLINE
  5
513
100
AcDbEntity
  8
0
100
AcDbSpline
 62
9
  6
CONTINUOUS
 70
0
 71
3
 72
14
 73
10
 74
0
 42
0.0000001
 43
0.0000001
 44
0.0000000001
 40
0.0
 40
0.0
 40
0.0
 40
0.0
 40
0.1515139851
 40
0.2989540062
 40
0.4388454175
 40
0.5695251196
 40
0.8007756169
 40
0.9038966601
 40
1.0
 40
1.0
 40
1.0
 40
1.0
 10
10.8505369075
 20
7.6481695024
 30
0.0
 10
10.8505366872
 20
7.6470899002
 30
0.0
 10
10.8504149109
 20
7.6449579595
 30
0.0
 10
10.8498947091
 20
7.6418683299
 30
0.0
 10
10.8490575359
 20
7.6390016196
 30
0.0
 10
10.8476567713
 20
7.6357067439
 30
0.0
 10
10.8458077011
 20
7.632899125
 30
0.0
 10
10.843591539
 20
7.6307651217
 30
0.0
 10
10.8424265431
 20
7.6299417916
 30
0.0
 10
10.8418365117
 20
7.6295942526
 30
0.0
  0
SPLINE
  5
514
100
AcDbEntity
  8
0
100
AcDbSpline
 62
7
  6
CONTINUOUS
 70
0
 71
3
 72
18
 73
14
 74
0
 42
0.0000001
 43
0.0000001
 44
0.0000000001
 40
0.0
 40
0.0
 40
0.0
 40
0.0
 40
0.1941782716
 40
0.3753428975
 40
0.5361102242
 40
0.6740489112
 40
0.7880819114
 40
0.8361857686
 40
0.8785405648
 40
0.9154423733
 40
0.9473836784
 40
0.9751578366
 40
1.0
 40
1.0
 40
1.0
 40
1.0
 10
10.8418364722
 20
7.7047444984
 30
0.0
 10
10.8418364664
 20
7.7055419932
 30
0.0
 10
10.8418944907
 20
7.7070839954
 30
0.0
 10
10.8421228539
 20
7.7092754288
 30
0.0
 10
10.8424621276
 20
7.7112187127
 30
0.0
 10
10.8428813661
 20
7.712862877
 30
0.0
 10
10.8433000197
 20
7.7140255458
 30
0.0
 10
10.8436696197
 20
7.7147806271
 30
0.0
 10
10.8439405254
 20
7.7152290755
 30
0.0
 10
10.8442196153
 20
7.7155920873
 30
0.0
 10
10.8445061273
 20
7.7158693349
 30
0.0
 10
10.8447996082
 20
7.7160598918
 30
0.0
 10
10.8450078865
 20
7.7161290805
 30
0.0
 10
10.8451085442
 20
7.7161457424
 30
0.0
  0
SPLINE
  5
515
100
AcDbEntity
  8
0
100
AcDbSpline
 62
9
  6
CONTINUOUS
 70
0
 71
3
 72
16
 73
12
 74
0
 42
0.0000001
 43
0.0000001
 44
0.0000000001
 40
0.0
 40
0.0
 40
0.0
 40
0.0
 40
0.0766830047
 40
0.1528939123
 40
0.300712152
 40
0.4397723749
 40
0.5685713254
 40
0.6872631332
 40
0.7971513822
 40
0.9004737942
 40
1.0
 40
1.0
 40
1.0
 40
1.0
 10
10.8754641637
 20
7.6861695021
 30
0.0
 10
10.8754630761
 20
7.6872160232
 30
0.0
 10
10.8755480229
 20
7.6893038024
 30
0.0
 10
10.876044139
 20
7.6933809698
 30
0.0
 10
10.8772378733
 20
7.6982153868
 30
0.0
 10
10.8795007372
 20
7.703446659
 30
0.0
 10
10.8824215378
 20
7.7078742527
 30
0.0
 10
10.8858357632
 20
7.7113992694
 30
0.0
 10
10.8895966589
 20
7.7139815092
 30
0.0
 10
10.8935748756
 20
7.7156144972
 30
0.0
 10
10.8963327025
 20
7.7160755871
 30
0.0
 10
10.8976891762
 20
7.7161454451
 30
0.0
  0
SPLINE
  5
516
100
AcDbEntity
  8
0
100
AcDbSpline
 62
9
  6
CONTINUOUS
 70
0
 71
3
 72
15
 73
11
 74
0
 42
0.0000001
 43
0.0000001
 44
0.0000000001
 40
0.0
 40
0.0
 40
0.0
 40
0.0
 40
0.1344325957
 40
0.2673201575
 40
0.397286649
 40
0.5238848838
 40
0.6467136527
 40
0.7666040503
 40
0.8842856895
 40
1.0
 40
1.0
 40
1.0
 40
1.0
 10
10.8831474241
 20
7.6861695016
 30
0.0
 10
10.8831478923
 20
7.6872521179
 30
0.0
 10
10.8833352199
 20
7.6894087288
 30
0.0
 10
10.8841332694
 20
7.6925215698
 30
0.0
 10
10.8854128156
 20
7.695400503
 30
0.0
 10
10.8870800376
 20
7.6979749752
 30
0.0
 10
10.8890600411
 20
7.7002088452
 30
0.0
 10
10.8912859427
 20
7.7020865003
 30
0.0
 10
10.8936970743
 20
7.7036118381
 30
0.0
 10
10.8954072902
 20
7.7044056995
 30
0.0
 10
10.8962753931
 20
7.7047445005
 30
0.0
  0
SPLINE
  5
517
100
AcDbEntity
  8
0
100
AcDbSpline
 62
9
  6
CONTINUOUS
 70
0
 71
3
 72
15
 73
11
 74
0
 42
0.0000001
 43
0.0000001
 44
0.0000000001
 40
0.0
 40
0.0
 40
0.0
 40
0.0
 40
0.1157325176
 40
0.2334322353
 40
0.3533370044
 40
0.4761731448
 40
0.6027697329
 40
0.732724439
 40
0.8655888543
 40
1.0
 40
1.0
 40
1.0
 40
1.0
 10
10.8962753925
 20
7.6295945013
 30
0.0
 10
10.8954071564
 20
7.6299333759
 30
0.0
 10
10.8936966877
 20
7.6307274101
 30
0.0
 10
10.8912852378
 20
7.6322530336
 30
0.0
 10
10.8890591273
 20
7.6341309613
 30
0.0
 10
10.8870790949
 20
7.6363650484
 30
0.0
 10
10.8854121066
 20
7.6389396342
 30
0.0
 10
10.8841328472
 20
7.6418183736
 30
0.0
 10
10.8833348742
 20
7.6449307739
 30
0.0
 10
10.8831476616
 20
7.647087054
 30
0.0
 10
10.8831472773
 20
7.6481695025
 30
0.0
  0
SPLINE
  5
518
100
AcDbEntity
  8
0
100
AcDbSpline
 62
9
  6
CONTINUOUS
 70
0
 71
3
 72
15
 73
11
 74
0
 42
0.0000001
 43
0.0000001
 44
0.0000000001
 40
0.0
 40
0.0
 40
0.0
 40
0.0
 40
0.1051699712
 40
0.2148854791
 40
0.3299032854
 40
0.4512820582
 40
0.5799353023
 40
0.7152431637
 40
0.8561160988
 40
1.0
 40
1.0
 40
1.0
 40
1.0
 10
10.8962754339
 20
7.7047447094
 30
0.0
 10
10.8969868296
 20
7.7044017016
 30
0.0
 10
10.8983909157
 20
7.7035932606
 30
0.0
 10
10.9003460507
 20
7.7020587535
 30
0.0
 10
10.9021477391
 20
7.7001730362
 30
0.0
 10
10.9037463396
 20
7.6979348855
 30
0.0
 10
10.9050888799
 20
7.6953611963
 30
0.0
 10
10.9061165456
 20
7.6924894598
 30
0.0
 10
10.906756261
 20
7.6893909097
 30
0.0
 10
10.9069060381
 20
7.6872499939
 30
0.0
 10
10.9069063192
 20
7.6861695018
 30
0.0
  0
SPLINE
  5
519
100
AcDbEntity
  8
0
100
AcDbSpline
 62
9
  6
CONTINUOUS
 70
0
 71
3
 72
15
 73
11
 74
0
 42
0.0000001
 43
0.0000001
 44
0.0000000001
 40
0.0
 40
0.0
 40
0.0
 40
0.0
 40
0.1438784208
 40
0.2847479747
 40
0.4200532095
 40
0.5487053934
 40
0.6700850763
 40
0.7851048801
 40
0.8948236746
 40
1.0
 40
1.0
 40
1.0
 40
1.0
 10
10.9069063773
 20
7.6481695024
 30
0.0
 10
10.9069061079
 20
7.6470890472
 30
0.0
 10
10.9067563406
 20
7.644948188
 30
0.0
 10
10.9061166352
 20
7.641849711
 30
0.0
 10
10.9050889761
 20
7.6389780159
 30
0.0
 10
10.903746461
 20
7.6364043279
 30
0.0
 10
10.9021479351
 20
7.6341660974
 30
0.0
 10
10.9003462932
 20
7.6322802548
 30
0.0
 10
10.8983911082
 20
7.6307456458
 30
0.0
 10
10.8969869133
 20
7.6299372205
 30
0.0
 10
10.8962754419
 20
7.6295942526
 30
0.0
  0
SPLINE
  5
51A
100
AcDbEntity
  8
0
100
AcDbSpline
 62
7
  6
CONTINUOUS
 70
0
 71
3
 72
18
 73
14
 74
0
 42
0.0000001
 43
0.0000001
 44
0.0000000001
 40
0.0
 40
0.0
 40
0.0
 40
0.0
 40
0.20589015
 40
0.3972153531
 40
0.5656382623
 40
0.7081390362
 40
0.8229525291
 40
0.8697098087
 40
0.9093411648
 40
0.9418862959
 40
0.9674886522
 40
0.9865193624
 40
1.0
 40
1.0
 40
1.0
 40
1.0
 10
10.8962753936
 20
7.7047444984
 30
0.0
 10
10.8962753804
 20
7.7055415549
 30
0.0
 10
10.8963001942
 20
7.7070793718
 30
0.0
 10
10.8963983611
 20
7.7092671844
 30
0.0
 10
10.8965444043
 20
7.7112064071
 30
0.0
 10
10.8967249399
 20
7.712844924
 30
0.0
 10
10.8969045832
 20
7.7140090256
 30
0.0
 10
10.8970649253
 20
7.7147714388
 30
0.0
 10
10.8971806951
 20
7.7152173418
 30
0.0
 10
10.897299089
 20
7.7155771322
 30
0.0
 10
10.8974201074
 20
7.715851446
 30
0.0
 10
10.8975406373
 20
7.7160418398
 30
0.0
 10
10.8976404555
 20
7.7161270362
 30
0.0
 10
10.8976891749
 20
7.7161457424
 30
0.0
  0
SPLINE
  5
51B
100
AcDbEntity
  8
0
100
AcDbSpline
 62
9
  6
CONTINUOUS
 70
0
 71
3
 72
17
 73
13
 74
0
 42
0.0000001
 43
0.0000001
 44
0.0000000001
 40
0.0
 40
0.0
 40
0.0
 40
0.0
 40
0.0820571713
 40
0.1634424834
 40
0.3202069382
 40
0.4652592642
 40
0.5962800508
 40
0.7130884841
 40
0.8171648469
 40
0.9113877387
 40
0.9561226444
 40
1.0
 40
1.0
 40
1.0
 40
1.0
 10
10.9326808762
 20
7.6861695021
 30
0.0
 10
10.9326798422
 20
7.6872157547
 30
0.0
 10
10.9327500196
 20
7.6893005299
 30
0.0
 10
10.9331599184
 20
7.693364864
 30
0.0
 10
10.9341384117
 20
7.6981691129
 30
0.0
 10
10.9359988415
 20
7.7033857716
 30
0.0
 10
10.9383998286
 20
7.7078076673
 30
0.0
 10
10.9412088866
 20
7.7113402375
 30
0.0
 10
10.9443102802
 20
7.713941297
 30
0.0
 10
10.9471108697
 20
7.7153477999
 30
0.0
 10
10.9493657295
 20
7.7159623952
 30
0.0
 10
10.950490058
 20
7.7161106066
 30
0.0
 10
10.9510484214
 20
7.7161454451
 30
0.0
  0
SPLINE
  5
51C
100
AcDbEntity
  8
0
100
AcDbSpline
 62
9
  6
CONTINUOUS
 70
0
 71
3
 72
15
 73
11
 74
0
 42
0.0000001
 43
0.0000001
 44
0.0000000001
 40
0.0
 40
0.0
 40
0.0
 40
0.0
 40
0.1404321573
 40
0.2783659998
 40
0.4116771509
 40
0.5395254624
 40
0.6613985596
 40
0.7781985768
 40
0.8908752912
 40
1.0
 40
1.0
 40
1.0
 40
1.0
 10
10.9399996495
 20
7.6861695018
 30
0.0
 10
10.9399999554
 20
7.6872504465
 30
0.0
 10
10.9401628586
 20
7.689396083
 30
0.0
 10
10.9408582585
 20
7.6924988931
 30
0.0
 10
10.9419747197
 20
7.6953730233
 30
0.0
 10
10.9434324007
 20
7.6979474243
 30
0.0
 10
10.9451670609
 20
7.7001847677
 30
0.0
 10
10.947120612
 20
7.7020683877
 30
0.0
 10
10.9492391964
 20
7.7036002521
 30
0.0
 10
10.9507529729
 20
7.7044032644
 30
0.0
 10
10.951520405
 20
7.7047447104
 30
0.0
  0
SPLINE
  5
51D
100
AcDbEntity
  8
0
100
AcDbSpline
 62
9
  6
CONTINUOUS
 70
0
 71
3
 72
15
 73
11
 74
0
 42
0.0000001
 43
0.0000001
 44
0.0000000001
 40
0.0
 40
0.0
 40
0.0
 40
0.0
 40
0.1091320348
 40
0.2218121713
 40
0.3386139747
 40
0.4604879897
 40
0.5883357243
 40
0.7216443052
 40
0.8595737273
 40
1.0
 40
1.0
 40
1.0
 40
1.0
 10
10.9515203967
 20
7.6295942538
 30
0.0
 10
10.9507528814
 20
7.6299356598
 30
0.0
 10
10.9492389853
 20
7.6307386535
 30
0.0
 10
10.9471203379
 20
7.6322706221
 30
0.0
 10
10.9451668321
 20
7.6341543755
 30
0.0
 10
10.9434322527
 20
7.6363918129
 30
0.0
 10
10.9419746063
 20
7.6389662228
 30
0.0
 10
10.9408581553
 20
7.6418403067
 30
0.0
 10
10.9401627646
 20
7.6449430305
 30
0.0
 10
10.9399998779
 20
7.6470885987
 30
0.0
 10
10.9399995869
 20
7.6481695024
 30
0.0
  0
SPLINE
  5
51E
100
AcDbEntity
  8
0
100
AcDbSpline
 62
9
  6
CONTINUOUS
 70
0
 71
3
 72
15
 73
11
 74
0
 42
0.0000001
 43
0.0000001
 44
0.0000000001
 40
0.0
 40
0.0
 40
0.0
 40
0.0
 40
0.1126703989
 40
0.2280381172
 40
0.3464928893
 40
0.468863839
 40
0.5960185294
 40
0.7275226625
 40
0.8627565127
 40
1.0
 40
1.0
 40
1.0
 40
1.0
 10
10.9515204956
 20
7.7047447094
 30
0.0
 10
10.9523404961
 20
7.7044044961
 30
0.0
 10
10.9539568966
 20
7.7036059158
 30
0.0
 10
10.9562282004
 20
7.7020765168
 30
0.0
 10
10.9583236534
 20
7.7001951081
 30
0.0
 10
10.9601856357
 20
7.6979589527
 30
0.0
 10
10.961751329
 20
7.6953843074
 30
0.0
 10
10.9629513561
 20
7.6925081698
 30
0.0
 10
10.9636993413
 20
7.6894012725
 30
0.0
 10
10.9638746664
 20
7.6872508989
 30
0.0
 10
10.9638749934
 20
7.6861695018
 30
0.0
  0
SPLINE
  5
51F
100
AcDbEntity
  8
0
100
AcDbSpline
 62
9
  6
CONTINUOUS
 70
0
 71
3
 72
15
 73
11
 74
0
 42
0.0000001
 43
0.0000001
 44
0.0000000001
 40
0.0
 40
0.0
 40
0.0
 40
0.0
 40
0.1372382434
 40
0.2724688552
 40
0.4039704418
 40
0.531123887
 40
0.6534951123
 40
0.7719512189
 40
0.8873221663
 40
1.0
 40
1.0
 40
1.0
 40
1.0
 10
10.9638750609
 20
7.6481695024
 30
0.0
 10
10.9638747476
 20
7.6470881424
 30
0.0
 10
10.9636994338
 20
7.644937825
 30
0.0
 10
10.9629514603
 20
7.6418310012
 30
0.0
 10
10.9617514418
 20
7.6389549072
 30
0.0
 10
10.9601857809
 20
7.6363802652
 30
0.0
 10
10.9583238831
 20
7.634144025
 30
0.0
 10
10.9562284778
 20
7.6322624865
 30
0.0
 10
10.9539571098
 20
7.6307329847
 30
0.0
 10
10.9523405897
 20
7.629934425
 30
0.0
 10
10.951520505
 20
7.6295942526
 30
0.0
  0
SPLINE
  5
520
100
AcDbEntity
  8
0
100
AcDbSpline
 62
7
  6
CONTINUOUS
 70
0
 71
3
 72
21
 73
17
 74
0
 42
0.0000001
 43
0.0000001
 44
0.0000000001
 40
0.0
 40
0.0
 40
0.0
 40
0.0
 40
0.2092155463
 40
0.4034761768
 40
0.5741897726
 40
0.7181864061
 40
0.7795404795
 40
0.8335550805
 40
0.8801460949
 40
0.919237383
 40
0.9507626953
 40
0.974688357
 40
0.9838034494
 40
0.9910311032
 40
0.9964009125
 40
1.0
 40
1.0
 40
1.0
 40
1.0
 10
10.9515204488
 20
7.7047444984
 30
0.0
 10
10.9515204497
 20
7.7055414737
 30
0.0
 10
10.9515118252
 20
7.7070784633
 30
0.0
 10
10.9514791552
 20
7.7092655404
 30
0.0
 10
10.951430843
 20
7.711203819
 30
0.0
 10
10.9513784806
 20
7.7126354739
 30
0.0
 10
10.9513302727
 20
7.7136223213
 30
0.0
 10
10.9512942529
 20
7.7142382438
 30
0.0
 10
10.9512567531
 20
7.714769086
 30
0.0
 10
10.9512182018
 20
7.7152139454
 30
0.0
 10
10.9511788665
 20
7.7155719376
 30
0.0
 10
10.9511437299
 20
7.715815534
 30
0.0
 10
10.9511137587
 20
7.7159659653
 30
0.0
 10
10.9510934541
 20
7.7160463016
 30
0.0
 10
10.9510733973
 20
7.716104521
 30
0.0
 10
10.9510574296
 20
7.7161354066
 30
0.0
 10
10.9510484218
 20
7.7161457424
 30
0.0
  0
SPLINE
  5
521
100
AcDbEntity
  8
0
100
AcDbSpline
 62
9
  6
CONTINUOUS
 70
0
 71
3
 72
20
 73
16
 74
0
 42
0.0000001
 43
0.0000001
 44
0.0000000001
 40
0.0
 40
0.0
 40
0.0
 40
0.0
 40
0.0882829179
 40
0.1756844096
 40
0.3429915915
 40
0.4954090238
 40
0.5649378602
 40
0.629690676
 40
0.6896696131
 40
0.7449939371
 40
0.8424796406
 40
0.8856161916
 40
0.9257072722
 40
0.9635330735
 40
1.0
 40
1.0
 40
1.0
 40
1.0
 10
10.9899951314
 20
7.6861695021
 30
0.0
 10
10.9899940168
 20
7.6872155198
 30
0.0
 10
10.9900479381
 20
7.6892976256
 30
0.0
 10
10.9903643539
 20
7.693350613
 30
0.0
 10
10.9911148479
 20
7.6981255125
 30
0.0
 10
10.992338287
 20
7.702585002
 30
0.0
 10
10.9935567418
 20
7.7057584768
 30
0.0
 10
10.9945309579
 20
7.7078459725
 30
0.0
 10
10.9955808243
 20
7.7097064324
 30
0.0
 10
10.9970039522
 20
7.7117890889
 30
0.0
 10
10.9985803881
 20
7.7135242699
 30
0.0
 10
11.0003001405
 20
7.7148093601
 30
0.0
 10
11.0015626677
 20
7.7155014372
 30
0.0
 10
11.0028443305
 20
7.715959745
 30
0.0
 10
11.0037170472
 20
7.7161104562
 30
0.0
 10
11.0041477058
 20
7.7161454451
 30
0.0
  0
SPLINE
  5
522
100
AcDbEntity
  8
0
100
AcDbSpline
 62
9
  6
CONTINUOUS
 70
0
 71
3
 72
15
 73
11
 74
0
 42
0.0000001
 43
0.0000001
 44
0.0000000001
 40
0.0
 40
0.0
 40
0.0
 40
0.0
 40
0.1476282408
 40
0.2917209123
 40
0.4292586911
 40
0.5588608476
 40
0.6797537046
 40
0.7928380621
 40
0.8992712604
 40
1.0
 40
1.0
 40
1.0
 40
1.0
 10
10.9968071502
 20
7.6861695017
 30
0.0
 10
10.996807456
 20
7.6872499855
 30
0.0
 10
10.9969436159
 20
7.6893871874
 30
0.0
 10
10.9975252742
 20
7.6924826474
 30
0.0
 10
10.998460274
 20
7.6953524872
 30
0.0
 10
10.9996819144
 20
7.6979251373
 30
0.0
 10
11.001136621
 20
7.7001631456
 30
0.0
 10
11.002776852
 20
7.7020496993
 30
0.0
 10
11.0045576767
 20
7.7035856473
 30
0.0
 10
11.0058446305
 20
7.7043998981
 30
0.0
 10
11.0064963516
 20
7.7047445221
 30
0.0
  0
SPLINE
  5
523
100
AcDbEntity
  8
0
100
AcDbSpline
 62
9
  6
CONTINUOUS
 70
0
 71
3
 72
15
 73
11
 74
0
 42
0.0000001
 43
0.0000001
 44
0.0000000001
 40
0.0
 40
0.0
 40
0.0
 40
0.0
 40
0.1007148391
 40
0.2071463276
 40
0.3202336816
 40
0.4411263045
 40
0.5707213658
 40
0.7082591557
 40
0.8523692376
 40
1.0
 40
1.0
 40
1.0
 40
1.0
 10
11.0064963541
 20
7.6295944965
 30
0.0
 10
11.0058447413
 20
7.6299390945
 30
0.0
 10
11.004557948
 20
7.6307533623
 30
0.0
 10
11.0027772747
 20
7.6322893059
 30
0.0
 10
11.0011370349
 20
7.6341758263
 30
0.0
 10
10.9996822272
 20
7.6364136989
 30
0.0
 10
10.9984604347
 20
7.6389861945
 30
0.0
 10
10.9975254083
 20
7.641856091
 30
0.0
 10
10.9969439017
 20
7.6449517001
 30
0.0
 10
10.9968076316
 20
7.6470890096
 30
0.0
 10
10.9968072169
 20
7.6481695028
 30
0.0
  0
SPLINE
  5
524
100
AcDbEntity
  8
0
100
AcDbSpline
 62
9
  6
CONTINUOUS
 70
0
 71
3
 72
13
 73
9
 74
0
 42
0.0000001
 43
0.0000001
 44
0.0000000001
 40
0.0
 40
0.0
 40
0.0
 40
0.0
 40
0.2383896046
 40
0.3598997561
 40
0.4833999521
 40
0.6096484862
 40
0.7382986347
 40
1.0
 40
1.0
 40
1.0
 40
1.0
 10
11.0064964081
 20
7.7047447094
 30
0.0
 10
11.008330464
 20
7.7040653297
 30
0.0
 10
11.0109932429
 20
7.702696051
 30
0.0
 10
11.0140975459
 20
7.7002120636
 30
0.0
 10
11.0161860227
 20
7.6979789863
 30
0.0
 10
11.0179441406
 20
7.6954035845
 30
0.0
 10
11.0197499704
 20
7.6915547553
 30
0.0
 10
11.0203333249
 20
7.6883166024
 30
0.0
 10
11.020334052
 20
7.6861695018
 30
0.0
  0
SPLINE
  5
525
100
AcDbEntity
  8
0
100
AcDbSpline
 62
9
  6
CONTINUOUS
 70
0
 71
3
 72
13
 73
9
 74
0
 42
0.0000001
 43
0.0000001
 44
0.0000000001
 40
0.0
 40
0.0
 40
0.0
 40
0.0
 40
0.2616932602
 40
0.3903409863
 40
0.5165881789
 40
0.6400881996
 40
0.7615992339
 40
1.0
 40
1.0
 40
1.0
 40
1.0
 10
11.0203341276
 20
7.6481695024
 30
0.0
 10
11.0203334309
 20
7.6460224608
 30
0.0
 10
11.0197500726
 20
7.6427843791
 30
0.0
 10
11.0179442681
 20
7.6389356324
 30
0.0
 10
11.0161861892
 20
7.6363602351
 30
0.0
 10
11.0140978039
 20
7.6341270688
 30
0.0
 10
11.0109935266
 20
7.6316428717
 30
0.0
 10
11.008330616
 20
7.6302735335
 30
0.0
 10
11.0064964187
 20
7.6295942526
 30
0.0
  0
SPLINE
  5
526
100
AcDbEntity
  8
0
100
AcDbSpline
 62
7
  6
CONTINUOUS
 70
0
 71
3
 72
18
 73
14
 74
0
 42
0.0000001
 43
0.0000001
 44
0.0000000001
 40
0.0
 40
0.0
 40
0.0
 40
0.0
 40
0.2006525654
 40
0.3874115091
 40
0.5523514218
 40
0.6927160112
 40
0.7532075485
 40
0.8070892303
 40
0.8543840109
 40
0.8951691561
 40
0.9296142777
 40
0.9580769088
 40
1.0
 40
1.0
 40
1.0
 40
1.0
 10
11.0064963557
 20
7.7047444984
 30
0.0
 10
11.0064963475
 20
7.7055417331
 30
0.0
 10
11.0064543505
 20
7.7070812157
 30
0.0
 10
11.00629077
 20
7.70927053
 30
0.0
 10
11.0060481938
 20
7.7112112942
 30
0.0
 10
11.0057876295
 20
7.7126423118
 30
0.0
 10
11.0055487309
 20
7.7136261355
 30
0.0
 10
11.0053692435
 20
7.714243116
 30
0.0
 10
11.0051818569
 20
7.7147756482
 30
0.0
 10
11.0049886815
 20
7.7152225773
 30
0.0
 10
11.0047889467
 20
7.7155853704
 30
0.0
 10
11.0045454097
 20
7.7159193832
 30
0.0
 10
11.0043100276
 20
7.7161083578
 30
0.0
 10
11.0041477079
 20
7.7161457424
 30
0.0
  0
SPLINE
  5
527
100
AcDbEntity
  8
0
100
AcDbSpline
 62
9
  6
CONTINUOUS
 70
0
 71
3
 72
20
 73
16
 74
0
 42
0.0000001
 43
0.0000001
 44
0.0000000001
 40
0.0
 40
0.0
 40
0.0
 40
0.0
 40
0.1889890051
 40
0.3679748574
 40
0.5289343297
 40
0.6011907674
 40
0.6674983382
 40
0.7277584186
 40
0.7819994993
 40
0.830329521
 40
0.8730442535
 40
0.9105696431
 40
0.9435306408
 40
0.9728975562
 40
1.0
 40
1.0
 40
1.0
 40
1.0
 10
11.0462913722
 20
7.6861695021
 30
0.0
 10
11.0462893897
 20
7.6882489089
 30
0.0
 10
11.0464334422
 20
7.6922993819
 30
0.0
 10
11.0470571668
 20
7.6980903684
 30
0.0
 10
11.0478953261
 20
7.7025540664
 30
0.0
 10
11.048734352
 20
7.7057423155
 30
0.0
 10
11.0494001193
 20
7.7078273414
 30
0.0
 10
11.0501159217
 20
7.7096849015
 30
0.0
 10
11.0508729943
 20
7.7113104825
 30
0.0
 10
11.0516641057
 20
7.7127019504
 30
0.0
 10
11.0524817007
 20
7.7138597401
 30
0.0
 10
11.0533192919
 20
7.7147864881
 30
0.0
 10
11.0541744686
 20
7.7154848112
 30
0.0
 10
11.0550483225
 20
7.7159525825
 30
0.0
 10
11.0556574156
 20
7.7161100658
 30
0.0
 10
11.0559535121
 20
7.7161454451
 30
0.0
  0
SPLINE
  5
528
100
AcDbEntity
  8
0
100
AcDbSpline
 62
9
  6
CONTINUOUS
 70
0
 71
3
 72
14
 73
10
 74
0
 42
0.0000001
 43
0.0000001
 44
0.0000000001
 40
0.0
 40
0.0
 40
0.0
 40
0.0
 40
0.1555164302
 40
0.3064262973
 40
0.4487864507
 40
0.580618988
 40
0.7007926139
 40
0.8100424492
 40
1.0
 40
1.0
 40
1.0
 40
1.0
 10
11.0524639417
 20
7.6861695018
 30
0.0
 10
11.052464145
 20
7.6872487568
 30
0.0
 10
11.0525711366
 20
7.6893766352
 30
0.0
 10
11.053028507
 20
7.6924624017
 30
0.0
 10
11.0537640553
 20
7.6953252388
 30
0.0
 10
11.0547253097
 20
7.6978931914
 30
0.0
 10
11.0558722206
 20
7.7001308295
 30
0.0
 10
11.0575176213
 20
7.7025352513
 30
0.0
 10
11.0590370383
 20
7.704012172
 30
0.0
 10
11.0601330416
 20
7.7047447104
 30
0.0
  0
SPLINE
  5
529
100
AcDbEntity
  8
0
100
AcDbSpline
 62
9
  6
CONTINUOUS
 70
0
 71
3
 72
14
 73
10
 74
0
 42
0.0000001
 43
0.0000001
 44
0.0000000001
 40
0.0
 40
0.0
 40
0.0
 40
0.0
 40
0.1899651478
 40
0.2992185118
 40
0.4193947176
 40
0.5512273013
 40
0.6935848184
 40
0.844489932
 40
1.0
 40
1.0
 40
1.0
 40
1.0
 10
11.060133036
 20
7.6295942538
 30
0.0
 10
11.0590369091
 20
7.6303267098
 30
0.0
 10
11.0575174221
 20
7.6318037358
 30
0.0
 10
11.0558720731
 20
7.6342083124
 30
0.0
 10
11.054725217
 20
7.6364460353
 30
0.0
 10
11.0537639814
 20
7.6390140017
 30
0.0
 10
11.0530284383
 20
7.6418767973
 30
0.0
 10
11.0525710741
 20
7.6449624786
 30
0.0
 10
11.0524640934
 20
7.6470902881
 30
0.0
 10
11.0524639
 20
7.6481695024
 30
0.0
  0
SPLINE
  5
52A
100
AcDbEntity
  8
0
100
AcDbSpline
 62
9
  6
CONTINUOUS
 70
0
 71
3
 72
14
 73
10
 74
0
 42
0.0000001
 43
0.0000001
 44
0.0000000001
 40
0.0
 40
0.0
 40
0.0
 40
0.0
 40
0.246145818
 40
0.3697981508
 40
0.4939861678
 40
0.6193397419
 40
0.7455381464
 40
0.872572761
 40
1.0
 40
1.0
 40
1.0
 40
1.0
 10
11.0601331278
 20
7.7047447094
 30
0.0
 10
11.0621135816
 20
7.7040702615
 30
0.0
 10
11.0649941668
 20
7.7027154787
 30
0.0
 10
11.068386552
 20
7.7002243737
 30
0.0
 10
11.0706593248
 20
7.6979940132
 30
0.0
 10
11.0725743733
 20
7.6954214839
 30
0.0
 10
11.0740467868
 20
7.6925408376
 30
0.0
 10
11.0749676861
 20
7.6894204161
 30
0.0
 10
11.0751841849
 20
7.6872525852
 30
0.0
 10
11.0751845838
 20
7.6861695018
 30
0.0
  0
SPLINE
  5
52B
100
AcDbEntity
  8
0
100
AcDbSpline
 62
9
  6
CONTINUOUS
 70
0
 71
3
 72
14
 73
10
 74
0
 42
0.0000001
 43
0.0000001
 44
0.0000000001
 40
0.0
 40
0.0
 40
0.0
 40
0.0
 40
0.1274223971
 40
0.2544540363
 40
0.3806500617
 40
0.5060021637
 40
0.6301896075
 40
0.7538424359
 40
1.0
 40
1.0
 40
1.0
 40
1.0
 10
11.0751846661
 20
7.6481695024
 30
0.0
 10
11.0751842838
 20
7.6470864563
 30
0.0
 10
11.0749677988
 20
7.6449186812
 30
0.0
 10
11.0740469137
 20
7.6417983339
 30
0.0
 10
11.0725745126
 20
7.6389177344
 30
0.0
 10
11.0706595089
 20
7.6363452108
 30
0.0
 10
11.0683868334
 20
7.6341147579
 30
0.0
 10
11.0649944656
 20
7.6316234359
 30
0.0
 10
11.0621137404
 20
7.6302686005
 30
0.0
 10
11.0601331392
 20
7.6295942526
 30
0.0
  0
SPLINE
  5
52C
100
AcDbEntity
  8
0
100
AcDbSpline
 62
7
  6
CONTINUOUS
 70
0
 71
3
 72
17
 73
13
 74
0
 42
0.0000001
 43
0.0000001
 44
0.0000000001
 40
0.0
 40
0.0
 40
0.0
 40
0.0
 40
0.1873721196
 40
0.3627192943
 40
0.5192661852
 40
0.654967846
 40
0.7691290732
 40
0.8624610364
 40
0.9020947421
 40
0.9376664897
 40
0.969949678
 40
1.0
 40
1.0
 40
1.0
 40
1.0
 10
11.0601330708
 20
7.7047444984
 30
0.0
 10
11.0601330783
 20
7.7055423345
 30
0.0
 10
11.0600581342
 20
7.707087505
 30
0.0
 10
11.0597659084
 20
7.709281636
 30
0.0
 10
11.0593320235
 20
7.7112275435
 30
0.0
 10
11.0587942303
 20
7.7128759465
 30
0.0
 10
11.0581789962
 20
7.7142053821
 30
0.0
 10
11.0575873147
 20
7.7150852496
 30
0.0
 10
11.0570822283
 20
7.7155979245
 30
0.0
 10
11.056714898
 20
7.7158743962
 30
0.0
 10
11.0563401734
 20
7.7160627647
 30
0.0
 10
11.0560804099
 20
7.7161292983
 30
0.0
 10
11.0559535158
 20
7.7161457424
 30
0.0
  0
SPLINE
  5
52D
100
AcDbEntity
  8
0
100
AcDbSpline
 62
9
  6
CONTINUOUS
 70
0
 71
3
 72
21
 73
17
 74
0
 42
0.0000001
 43
0.0000001
 44
0.0000000001
 40
0.0
 40
0.0
 40
0.0
 40
0.0
 40
0.2014409136
 40
0.391480782
 40
0.5609012202
 40
0.6360992994
 40
0.7043531494
 40
0.7654599854
 40
0.8193336124
 40
0.8659428215
 40
0.9054137373
 40
0.9379592297
 40
0.9639420977
 40
0.9746985809
 40
0.9841465475
 40
1.0
 40
1.0
 40
1.0
 40
1.0
 10
11.1004738564
 20
7.6861695021
 30
0.0
 10
11.1004714829
 20
7.6882479458
 30
0.0
 10
11.1005479876
 20
7.6922877241
 30
0.0
 10
11.1008769852
 20
7.6980669543
 30
0.0
 10
11.1013158667
 20
7.7025319619
 30
0.0
 10
11.1017549279
 20
7.7057304941
 30
0.0
 10
11.1021007595
 20
7.7078129143
 30
0.0
 10
11.1024712903
 20
7.7096672342
 30
0.0
 10
11.1028616337
 20
7.7112887123
 30
0.0
 10
11.1032676642
 20
7.7126751642
 30
0.0
 10
11.1036838677
 20
7.7138274105
 30
0.0
 10
11.1041051338
 20
7.7147478864
 30
0.0
 10
11.1044778128
 20
7.71536171
 30
0.0
 10
11.104786199
 20
7.7157269374
 30
0.0
 10
11.1050604025
 20
7.7159782315
 30
0.0
 10
11.1052982725
 20
7.7161079839
 30
0.0
 10
11.1054574993
 20
7.7161454451
 30
0.0
  0
SPLINE
  5
52E
100
AcDbEntity
  8
0
100
AcDbSpline
 62
9
  6
CONTINUOUS
 70
0
 71
3
 72
15
 73
11
 74
0
 42
0.0000001
 43
0.0000001
 44
0.0000000001
 40
0.0
 40
0.0
 40
0.0
 40
0.0
 40
0.1633295906
 40
0.3210752566
 40
0.468378746
 40
0.6026364172
 40
0.7222616996
 40
0.8276620926
 40
0.9198406
 40
1.0
 40
1.0
 40
1.0
 40
1.0
 10
11.1058869419
 20
7.6861695016
 30
0.0
 10
11.1058871362
 20
7.6872481464
 30
0.0
 10
11.1059635044
 20
7.6893692405
 30
0.0
 10
11.1062898442
 20
7.6924478191
 30
0.0
 10
11.1068146794
 20
7.6953042048
 30
0.0
 10
11.1075006015
 20
7.6978665538
 30
0.0
 10
11.1083172489
 20
7.7000981405
 30
0.0
 10
11.1092389842
 20
7.7019843631
 30
0.0
 10
11.1102414241
 20
7.7035262029
 30
0.0
 10
11.1109992948
 20
7.704383625
 30
0.0
 10
11.1113866169
 20
7.7047444926
 30
0.0
  0
SPLINE
  5
52F
100
AcDbEntity
  8
0
100
AcDbSpline
 62
9
  6
CONTINUOUS
 70
0
 71
3
 72
15
 73
11
 74
0
 42
0.0000001
 43
0.0000001
 44
0.0000000001
 40
0.0
 40
0.0
 40
0.0
 40
0.0
 40
0.0801629204
 40
0.1723488702
 40
0.2777577142
 40
0.3973910196
 40
0.5316546702
 40
0.6789550289
 40
0.8366840038
 40
1.0
 40
1.0
 40
1.0
 40
1.0
 10
11.1113866016
 20
7.6295943568
 30
0.0
 10
11.1109993075
 20
7.6299552937
 30
0.0
 10
11.1102414511
 20
7.6308128256
 30
0.0
 10
11.1092389368
 20
7.632354781
 30
0.0
 10
11.108317084
 20
7.6342411373
 30
0.0
 10
11.1075003653
 20
7.6364728756
 30
0.0
 10
11.1068145041
 20
7.6390353345
 30
0.0
 10
11.1062897341
 20
7.6418916554
 30
0.0
 10
11.1059633725
 20
7.6449700291
 30
0.0
 10
11.1058870379
 20
7.6470909404
 30
0.0
 10
11.1058868795
 20
7.6481695025
 30
0.0
  0
SPLINE
  5
530
100
AcDbEntity
  8
0
100
AcDbSpline
 62
9
  6
CONTINUOUS
 70
0
 71
3
 72
15
 73
11
 74
0
 42
0.0000001
 43
0.0000001
 44
0.0000000001
 40
0.0
 40
0.0
 40
0.0
 40
0.0
 40
0.1262261761
 40
0.252165291
 40
0.3774204806
 40
0.502185508
 40
0.6269763117
 40
0.7514663702
 40
0.8758159391
 40
1.0
 40
1.0
 40
1.0
 40
1.0
 10
11.1113866768
 20
7.7047447094
 30
0.0
 10
11.1124355452
 20
7.7044081083
 30
0.0
 10
11.114497024
 20
7.7036232734
 30
0.0
 10
11.1174276289
 20
7.7021034184
 30
0.0
 10
11.1201348259
 20
7.7002325924
 30
0.0
 10
11.1225464547
 20
7.6980050889
 30
0.0
 10
11.1245807778
 20
7.6954340754
 30
0.0
 10
11.1261466666
 20
7.6925527381
 30
0.0
 10
11.1271276231
 20
7.6894277449
 30
0.0
 10
11.1273585619
 20
7.6872532363
 30
0.0
 10
11.1273589855
 20
7.6861695018
 30
0.0
  0
SPLINE
  5
531
100
AcDbEntity
  8
0
100
AcDbSpline
 62
9
  6
CONTINUOUS
 70
0
 71
3
 72
15
 73
11
 74
0
 42
0.0000001
 43
0.0000001
 44
0.0000000001
 40
0.0
 40
0.0
 40
0.0
 40
0.0
 40
0.1241792853
 40
0.2485259
 40
0.3730135687
 40
0.4978027633
 40
0.6225668922
 40
0.7478222657
 40
0.873764553
 40
1.0
 40
1.0
 40
1.0
 40
1.0
 10
11.1273590728
 20
7.6481695024
 30
0.0
 10
11.1273586669
 20
7.6470858054
 30
0.0
 10
11.1271277427
 20
7.6449113523
 30
0.0
 10
11.1261468012
 20
7.6417864336
 30
0.0
 10
11.1245809264
 20
7.6389051442
 30
0.0
 10
11.122546652
 20
7.6363341368
 30
0.0
 10
11.1201351256
 20
7.6341065385
 30
0.0
 10
11.1174279776
 20
7.6322355766
 30
0.0
 10
11.1144972812
 20
7.6307156193
 30
0.0
 10
11.1124356603
 20
7.6299308117
 30
0.0
 10
11.111386689
 20
7.6295942526
 30
0.0
  0
SPLINE
  5
532
100
AcDbEntity
  8
0
100
AcDbSpline
 62
7
  6
CONTINUOUS
 70
0
 71
3
 72
15
 73
11
 74
0
 42
0.0000001
 43
0.0000001
 44
0.0000000001
 40
0.0
 40
0.0
 40
0.0
 40
0.0
 40
0.1738649925
 40
0.3378587953
 40
0.4865077212
 40
0.6185016205
 40
0.7338054063
 40
0.8337309938
 40
0.9210194981
 40
1.0
 40
1.0
 40
1.0
 40
1.0
 10
11.1113866163
 20
7.7047444984
 30
0.0
 10
11.1113866103
 20
7.7055432138
 30
0.0
 10
11.1112794477
 20
7.7070967061
 30
0.0
 10
11.1108618768
 20
7.7092971965
 30
0.0
 10
11.1102420161
 20
7.7112489205
 30
0.0
 10
11.1094731813
 20
7.7129035617
 30
0.0
 10
11.1085889949
 20
7.7142397833
 30
0.0
 10
11.1076145655
 20
7.7152448178
 30
0.0
 10
11.1065708085
 20
7.7159075522
 30
0.0
 10
11.1058188258
 20
7.7161127205
 30
0.0
 10
11.1054575045
 20
7.7161457424
 30
0.0
  0
LINE
  5
533
100
AcDbEntity
  8
0
100
AcDbLine
 62
9
  6
CONTINUOUS
 10
11.1514879836
 20
7.6861695021
 11
11.1516961286
 21
7.7161454451
  0
SPLINE
  5
534
100
AcDbEntity
  8
0
100
AcDbSpline
 62
9
  6
CONTINUOUS
 70
0
 71
3
 72
15
 73
11
 74
0
 42
0.0000001
 43
0.0000001
 44
0.0000000001
 40
0.0
 40
0.0
 40
0.0
 40
0.0
 40
0.1700102976
 40
0.33364656
 40
0.4853605377
 40
0.6220080697
 40
0.7415448025
 40
0.8439661849
 40
0.929859008
 40
1.0
 40
1.0
 40
1.0
 40
1.0
 10
11.1560361197
 20
7.6861695018
 30
0.0
 10
11.156036205
 20
7.6872476483
 30
0.0
 10
11.1560807732
 20
7.689363755
 30
0.0
 10
11.1562713822
 20
7.6924367407
 30
0.0
 10
11.1565777677
 20
7.6952877817
 30
0.0
 10
11.1569778887
 20
7.6978445518
 30
0.0
 10
11.1574536376
 20
7.7000697406
 30
0.0
 10
11.1579894114
 20
7.701949114
 30
0.0
 10
11.1585702566
 20
7.7034838609
 30
0.0
 10
11.159022603
 20
7.704368162
 30
0.0
 10
11.1592593881
 20
7.7047447104
 30
0.0
  0
SPLINE
  5
535
100
AcDbEntity
  8
0
100
AcDbSpline
 62
9
  6
CONTINUOUS
 70
0
 71
3
 72
15
 73
11
 74
0
 42
0.0000001
 43
0.0000001
 44
0.0000000001
 40
0.0
 40
0.0
 40
0.0
 40
0.0
 40
0.07014142
 40
0.1560382117
 40
0.2584650483
 40
0.3780059932
 40
0.5146541209
 40
0.6663653702
 40
0.8299965414
 40
1.0
 40
1.0
 40
1.0
 40
1.0
 10
11.1592593858
 20
7.6295942538
 30
0.0
 10
11.1590225604
 20
7.6299707815
 30
0.0
 10
11.1585701737
 20
7.6308551023
 30
0.0
 10
11.1579893301
 20
7.6323899216
 30
0.0
 10
11.1574535781
 20
7.6342693972
 30
0.0
 10
11.1569778523
 20
7.6364946633
 30
0.0
 10
11.156577737
 20
7.6390514546
 30
0.0
 10
11.1562713533
 20
7.6419024577
 30
0.0
 10
11.1560807469
 20
7.6449753591
 30
0.0
 10
11.1560361834
 20
7.6470913963
 30
0.0
 10
11.1560361022
 20
7.6481695024
 30
0.0
  0
SPLINE
  5
536
100
AcDbEntity
  8
0
100
AcDbSpline
 62
9
  6
CONTINUOUS
 70
0
 71
3
 72
15
 73
11
 74
0
 42
0.0000001
 43
0.0000001
 44
0.0000000001
 40
0.0
 40
0.0
 40
0.0
 40
0.0
 40
0.1282297955
 40
0.2557659877
 40
0.3820874223
 40
0.5072743316
 40
0.6317611629
 40
0.7552064978
 40
0.8778709052
 40
1.0
 40
1.0
 40
1.0
 40
1.0
 10
11.1592594632
 20
7.7047447094
 30
0.0
 10
11.1603470342
 20
7.7044085265
 30
0.0
 10
11.1624836355
 20
7.7036253575
 30
0.0
 10
11.1655250386
 20
7.7021068654
 30
0.0
 10
11.1683348395
 20
7.7002377925
 30
0.0
 10
11.1708386171
 20
7.6980120851
 30
0.0
 10
11.1729517388
 20
7.6954423383
 30
0.0
 10
11.1745796675
 20
7.6925607795
 30
0.0
 10
11.175600677
 20
7.6894328167
 30
0.0
 10
11.1758413018
 20
7.6872536886
 30
0.0
 10
11.1758417418
 20
7.6861695018
 30
0.0
  0
SPLINE
  5
537
100
AcDbEntity
  8
0
100
AcDbSpline
 62
9
  6
CONTINUOUS
 70
0
 71
3
 72
15
 73
11
 74
0
 42
0.0000001
 43
0.0000001
 44
0.0000000001
 40
0.0
 40
0.0
 40
0.0
 40
0.0
 40
0.1221243924
 40
0.2447858898
 40
0.3682288585
 40
0.4927140232
 40
0.6178998585
 40
0.7442213127
 40
0.8717606732
 40
1.0
 40
1.0
 40
1.0
 40
1.0
 10
11.1758418324
 20
7.6481695024
 30
0.0
 10
11.1758414108
 20
7.6470853531
 30
0.0
 10
11.1756008012
 20
7.6449062805
 30
0.0
 10
11.1745798072
 20
7.6417783923
 30
0.0
 10
11.1729518937
 20
7.6388968822
 30
0.0
 10
11.1708388235
 20
7.6363271417
 30
0.0
 10
11.1683351509
 20
7.634101338
 30
0.0
 10
11.1655253991
 20
7.6322321284
 30
0.0
 10
11.1624839003
 20
7.6307135343
 30
0.0
 10
11.1603471531
 20
7.6299303935
 30
0.0
 10
11.1592594758
 20
7.6295942526
 30
0.0
  0
SPLINE
  5
538
100
AcDbEntity
  8
0
100
AcDbSpline
 62
7
  6
CONTINUOUS
 70
0
 71
3
 72
15
 73
11
 74
0
 42
0.0000001
 43
0.0000001
 44
0.0000000001
 40
0.0
 40
0.0
 40
0.0
 40
0.0
 40
0.1615586654
 40
0.315416285
 40
0.4573521824
 40
0.5866741626
 40
0.7037088998
 40
0.8098965887
 40
0.9076519558
 40
1.0
 40
1.0
 40
1.0
 40
1.0
 10
11.1592594004
 20
7.7047444984
 30
0.0
 10
11.159259414
 20
7.7055443106
 30
0.0
 10
11.1591212978
 20
7.7071080514
 30
0.0
 10
11.1585847445
 20
7.7093155521
 30
0.0
 10
11.1577883054
 20
7.7112721513
 30
0.0
 10
11.1567995115
 20
7.7129298054
 30
0.0
 10
11.1556633978
 20
7.7142666814
 30
0.0
 10
11.1544143126
 20
7.7152671585
 30
0.0
 10
11.1530853843
 20
7.7159175299
 30
0.0
 10
11.1521521456
 20
7.7161130862
 30
0.0
 10
11.1516961352
 20
7.7161457424
 30
0.0
  0
SPLINE
  5
539
100
AcDbEntity
  8
0
100
AcDbSpline
 62
9
  6
CONTINUOUS
 70
0
 71
3
 72
20
 73
16
 74
0
 42
0.0000001
 43
0.0000001
 44
0.0000000001
 40
0.0
 40
0.0
 40
0.0
 40
0.0
 40
0.2019272318
 40
0.3923415542
 40
0.5619410178
 40
0.7053400078
 40
0.7663529637
 40
0.8200823007
 40
0.866500732
 40
0.9057680258
 40
0.938164731
 40
0.9641097416
 40
0.9748701037
 40
0.9843120297
 40
1.0
 40
1.0
 40
1.0
 40
1.0
 10
11.1983408219
 20
7.6861695021
 30
0.0
 10
11.1983392145
 20
7.688247844
 30
0.0
 10
11.1982788454
 20
7.6922862939
 30
0.0
 10
11.1980070258
 20
7.6980648436
 30
0.0
 10
11.1975758821
 20
7.7032294182
 30
0.0
 10
11.1970862387
 20
7.7070498113
 30
0.0
 10
11.196620641
 20
7.7096661283
 30
0.0
 10
11.1962684449
 20
7.7112875656
 30
0.0
 10
11.195897851
 20
7.7126744814
 30
0.0
 10
11.1955104708
 20
7.7138277298
 30
0.0
 10
11.1951069656
 20
7.7147494135
 30
0.0
 10
11.1947391539
 20
7.715362277
 30
0.0
 10
11.1944324986
 20
7.7157269287
 30
0.0
 10
11.1941607953
 20
7.715976922
 30
0.0
 10
11.1939263585
 20
7.7161074746
 30
0.0
 10
11.1937694175
 20
7.7161454451
 30
0.0
  0
SPLINE
  5
53A
100
AcDbEntity
  8
0
100
AcDbSpline
 62
9
  6
CONTINUOUS
 70
0
 71
3
 72
14
 73
10
 74
0
 42
0.0000001
 43
0.0000001
 44
0.0000000001
 40
0.0
 40
0.0
 40
0.0
 40
0.0
 40
0.3407366197
 40
0.4949934632
 40
0.6330893589
 40
0.7527132206
 40
0.8535811781
 40
0.9359251209
 40
1.0
 40
1.0
 40
1.0
 40
1.0
 10
11.2019355381
 20
7.6861695018
 30
0.0
 10
11.2019355847
 20
7.6882832118
 30
0.0
 10
11.2019684532
 20
7.6913540358
 30
0.0
 10
11.2020837904
 20
7.6952796989
 30
0.0
 10
11.2021932956
 20
7.6978330845
 30
0.0
 10
11.2023233106
 20
7.700053826
 30
0.0
 10
11.2024693312
 20
7.7019269186
 30
0.0
 10
11.2026271605
 20
7.7034529194
 30
0.0
 10
11.2027520721
 20
7.7043529977
 30
0.0
 10
11.2028196306
 20
7.7047446934
 30
0.0
  0
SPLINE
  5
53B
100
AcDbEntity
  8
0
100
AcDbSpline
 62
9
  6
CONTINUOUS
 70
0
 71
3
 72
14
 73
10
 74
0
 42
0.0000001
 43
0.0000001
 44
0.0000000001
 40
0.0
 40
0.0
 40
0.0
 40
0.0
 40
0.064073546
 40
0.1464217505
 40
0.2472961147
 40
0.3669250158
 40
0.5050218271
 40
0.6592758261
 40
1.0
 40
1.0
 40
1.0
 40
1.0
 10
11.2028196298
 20
7.6295942603
 30
0.0
 10
11.2027520581
 20
7.6299859465
 30
0.0
 10
11.2026271381
 20
7.6308860451
 30
0.0
 10
11.2024693102
 20
7.6324121084
 30
0.0
 10
11.202323295
 20
7.6342853045
 30
0.0
 10
11.2021932852
 20
7.6365061292
 30
0.0
 10
11.2020837815
 20
7.6390595412
 30
0.0
 10
11.201968446
 20
7.6429851261
 30
0.0
 10
11.2019355771
 20
7.6460558637
 30
0.0
 10
11.2019355331
 20
7.6481695024
 30
0.0
  0
SPLINE
  5
53C
100
AcDbEntity
  8
0
100
AcDbSpline
 62
9
  6
CONTINUOUS
 70
0
 71
3
 72
15
 73
11
 74
0
 42
0.0000001
 43
0.0000001
 44
0.0000000001
 40
0.0
 40
0.0
 40
0.0
 40
0.0
 40
0.1291467946
 40
0.2574166648
 40
0.3842311533
 40
0.509617126
 40
0.6339692471
 40
0.7569362702
 40
0.8788228175
 40
1.0
 40
1.0
 40
1.0
 40
1.0
 10
11.2028196976
 20
7.7047447094
 30
0.0
 10
11.2039255027
 20
7.7044087098
 30
0.0
 10
11.2060974899
 20
7.7036262761
 30
0.0
 10
11.2091910406
 20
7.7021084004
 30
0.0
 10
11.2120491113
 20
7.7002401393
 30
0.0
 10
11.2145962263
 20
7.6980152946
 30
0.0
 10
11.2167464168
 20
7.6954461983
 30
0.0
 10
11.2184035781
 20
7.6925646051
 30
0.0
 10
11.2194435233
 20
7.6894352637
 30
0.0
 10
11.2196887432
 20
7.6872539074
 30
0.0
 10
11.2196891909
 20
7.6861695018
 30
0.0
  0
SPLINE
  5
53D
100
AcDbEntity
  8
0
100
AcDbSpline
 62
9
  6
CONTINUOUS
 70
0
 71
3
 72
15
 73
11
 74
0
 42
0.0000001
 43
0.0000001
 44
0.0000000001
 40
0.0
 40
0.0
 40
0.0
 40
0.0
 40
0.1211725137
 40
0.2430561716
 40
0.3660208393
 40
0.4903712671
 40
0.6157560855
 40
0.7425705189
 40
0.8708435559
 40
1.0
 40
1.0
 40
1.0
 40
1.0
 10
11.219689283
 20
7.6481695024
 30
0.0
 10
11.2196888541
 20
7.6470851344
 30
0.0
 10
11.2194436497
 20
7.6449038335
 30
0.0
 10
11.2184037202
 20
7.6417745668
 30
0.0
 10
11.2167465746
 20
7.6388930226
 30
0.0
 10
11.2145964369
 20
7.6363239326
 30
0.0
 10
11.212049428
 20
7.6340989909
 30
0.0
 10
11.2091914067
 20
7.632230593
 30
0.0
 10
11.2060977582
 20
7.6307126153
 30
0.0
 10
11.2039256233
 20
7.6299302101
 30
0.0
 10
11.2028197104
 20
7.6295942526
 30
0.0
  0
SPLINE
  5
53E
100
AcDbEntity
  8
0
100
AcDbSpline
 62
7
  6
CONTINUOUS
 70
0
 71
3
 72
15
 73
11
 74
0
 42
0.0000001
 43
0.0000001
 44
0.0000000001
 40
0.0
 40
0.0
 40
0.0
 40
0.0
 40
0.1511235156
 40
0.29656113
 40
0.4331884657
 40
0.5607443271
 40
0.6796894613
 40
0.7912996546
 40
0.8974201053
 40
1.0
 40
1.0
 40
1.0
 40
1.0
 10
11.2028196337
 20
7.7047444984
 30
0.0
 10
11.2028196487
 20
7.7055455361
 30
0.0
 10
11.2026524055
 20
7.7071205948
 30
0.0
 10
11.2020052388
 20
7.7093346462
 30
0.0
 10
11.2010463591
 20
7.7112942925
 30
0.0
 10
11.1998571517
 20
7.7129523821
 30
0.0
 10
11.1984924622
 20
7.7142865046
 30
0.0
 10
11.1969965938
 20
7.7152804833
 30
0.0
 10
11.1954123457
 20
7.7159224924
 30
0.0
 10
11.194312184
 20
7.7161132576
 30
0.0
 10
11.1937694255
 20
7.7161457424
 30
0.0
  0
SPLINE
  5
53F
100
AcDbEntity
  8
0
100
AcDbSpline
 62
9
  6
CONTINUOUS
 70
0
 71
3
 72
11
 73
7
 74
0
 42
0.0000001
 43
0.0000001
 44
0.0000000001
 40
0.0
 40
0.0
 40
0.0
 40
0.0
 40
0.2776497474
 40
0.5431297429
 40
0.7859985559
 40
1.0
 40
1.0
 40
1.0
 40
1.0
 10
11.240120434
 20
7.6861695021
 30
0.0
 10
11.2401191736
 20
7.68804998
 30
0.0
 10
11.2400131604
 20
7.6917293816
 30
0.0
 10
11.2395437326
 20
7.6970355231
 30
0.0
 10
11.2387954112
 20
7.7018738629
 30
0.0
 10
11.2380941304
 20
7.7048922113
 30
0.0
 10
11.2376957941
 20
7.7062857979
 30
0.0
  0
SPLINE
  5
540
100
AcDbEntity
  8
0
100
AcDbSpline
 62
9
  6
CONTINUOUS
 70
0
 71
3
 72
15
 73
11
 74
0
 42
0.0000001
 43
0.0000001
 44
0.0000000001
 40
0.0
 40
0.0
 40
0.0
 40
0.0
 40
0.1853082888
 40
0.3513507003
 40
0.4983132182
 40
0.6269874062
 40
0.7389673081
 40
0.8364621178
 40
0.9222393321
 40
1.0
 40
1.0
 40
1.0
 40
1.0
 10
11.2376957941
 20
7.7062857979
 30
0.0
 10
11.237482577
 20
7.7070317418
 30
0.0
 10
11.2370395544
 20
7.7084355638
 30
0.0
 10
11.2362798487
 20
7.7103804603
 30
0.0
 10
11.2354712764
 20
7.7120461112
 30
0.0
 10
11.2346202323
 20
7.7134317337
 30
0.0
 10
11.233730492
 20
7.7145390341
 30
0.0
 10
11.2328046398
 20
7.7153685863
 30
0.0
 10
11.231851351
 20
7.715921074
 30
0.0
 10
11.2311816466
 20
7.7161062631
 30
0.0
 10
11.2308584575
 20
7.7161454451
 30
0.0
  0
SPLINE
  5
541
100
AcDbEntity
  8
0
100
AcDbSpline
 62
7
  6
CONTINUOUS
 70
0
 71
3
 72
14
 73
10
 74
0
 42
0.0000001
 43
0.0000001
 44
0.0000000001
 40
0.0
 40
0.0
 40
0.0
 40
0.0
 40
0.1366364962
 40
0.272305502
 40
0.5333856973
 40
0.657440342
 40
0.7763950006
 40
0.8904355213
 40
1.0
 40
1.0
 40
1.0
 40
1.0
 10
10.8962753936
 20
7.6295945058
 30
0.0
 10
10.8962753823
 20
7.629030439
 30
0.0
 10
10.8963455595
 20
7.6279046697
 30
0.0
 10
10.8967533489
 20
7.6257377092
 30
0.0
 10
10.8975612021
 20
7.6237075717
 30
0.0
 10
10.8987615203
 20
7.6219981868
 30
0.0
 10
10.8998045186
 20
7.6209450893
 30
0.0
 10
10.9009770039
 20
7.6201394423
 30
0.0
 10
10.9018354018
 20
7.6197778529
 30
0.0
 10
10.9022694751
 20
7.6196507218
 30
0.0
  0
SPLINE
  5
542
100
AcDbEntity
  8
0
100
AcDbSpline
 62
7
  6
CONTINUOUS
 70
0
 71
3
 72
15
 73
11
 74
0
 42
0.0000001
 43
0.0000001
 44
0.0000000001
 40
0.0
 40
0.0
 40
0.0
 40
0.0
 40
0.0976501242
 40
0.2034158559
 40
0.3181735359
 40
0.4419042261
 40
0.5737702366
 40
0.7122377181
 40
0.8552232695
 40
1.0
 40
1.0
 40
1.0
 40
1.0
 10
10.8914215345
 20
7.6196509125
 30
0.0
 10
10.8917790699
 20
7.6197802258
 30
0.0
 10
10.892488345
 20
7.6201534829
 30
0.0
 10
10.8934353238
 20
7.6209645644
 30
0.0
 10
10.8942749429
 20
7.6220181623
 30
0.0
 10
10.8949876489
 20
7.6232775289
 30
0.0
 10
10.8955554012
 20
7.6247073764
 30
0.0
 10
10.895969109
 20
7.6262661098
 30
0.0
 10
10.8962189193
 20
7.6279096298
 30
0.0
 10
10.8962753938
 20
7.6290308158
 30
0.0
 10
10.8962753936
 20
7.6295945058
 30
0.0
  0
SPLINE
  5
543
100
AcDbEntity
  8
0
100
AcDbSpline
 62
9
  6
CONTINUOUS
 70
0
 71
3
 72
15
 73
11
 74
0
 42
0.0000001
 43
0.0000001
 44
0.0000000001
 40
0.0
 40
0.0
 40
0.0
 40
0.0
 40
0.1290164979
 40
0.257182016
 40
0.3839262536
 40
0.5092837116
 40
0.6336548016
 40
0.7566897909
 40
0.8786871179
 40
1.0
 40
1.0
 40
1.0
 40
1.0
 10
11.2412195297
 20
7.7047447094
 30
0.0
 10
11.2423227231
 20
7.704408684
 30
0.0
 10
11.2444896423
 20
7.7036261469
 30
0.0
 10
11.247575726
 20
7.7021081839
 30
0.0
 10
11.2504268858
 20
7.7002398071
 30
0.0
 10
11.2529677967
 20
7.6980148383
 30
0.0
 10
11.2551126802
 20
7.6954456468
 30
0.0
 10
11.2567656545
 20
7.6925640558
 30
0.0
 10
11.2578028851
 20
7.6894349109
 30
0.0
 10
11.2580474455
 20
7.6872538758
 30
0.0
 10
11.2580478921
 20
7.6861695018
 30
0.0
  0
SPLINE
  5
544
100
AcDbEntity
  8
0
100
AcDbSpline
 62
9
  6
CONTINUOUS
 70
0
 71
3
 72
15
 73
11
 74
0
 42
0.0000001
 43
0.0000001
 44
0.0000000001
 40
0.0
 40
0.0
 40
0.0
 40
0.0
 40
0.1213082086
 40
0.2433026431
 40
0.3663352756
 40
0.490704676
 40
0.6160609911
 40
0.7428051843
 40
0.8709738694
 40
1.0
 40
1.0
 40
1.0
 40
1.0
 10
11.258047984
 20
7.6481695024
 30
0.0
 10
11.2580475561
 20
7.6470851659
 30
0.0
 10
11.2578030111
 20
7.6449041862
 30
0.0
 10
11.2567657962
 20
7.6417751161
 30
0.0
 10
11.2551128376
 20
7.638893574
 30
0.0
 10
11.2529680067
 20
7.6363243889
 30
0.0
 10
11.2504272018
 20
7.6340993231
 30
0.0
 10
11.2475760913
 20
7.6322308095
 30
0.0
 10
11.2444899101
 20
7.6307127445
 30
0.0
 10
11.2423228435
 20
7.6299302359
 30
0.0
 10
11.2412195424
 20
7.6295942526
 30
0.0
  0
SPLINE
  5
545
100
AcDbEntity
  8
0
100
AcDbSpline
 62
9
  6
CONTINUOUS
 70
0
 71
3
 72
14
 73
10
 74
0
 42
0.0000001
 43
0.0000001
 44
0.0000000001
 40
0.0
 40
0.0
 40
0.0
 40
0.0
 40
0.3239023036
 40
0.4730001139
 40
0.608704965
 40
0.7292527007
 40
0.8341206142
 40
0.9239065296
 40
1.0
 40
1.0
 40
1.0
 40
1.0
 10
10.8570449808
 20
7.6481695021
 30
0.0
 10
10.8570345182
 20
7.6448721866
 30
0.0
 10
10.8567253679
 20
7.6400452029
 30
0.0
 10
10.8556064893
 20
7.6339451697
 30
0.0
 10
10.8545349916
 20
7.6299547886
 30
0.0
 10
10.8532563271
 20
7.6265017347
 30
0.0
 10
10.8518132689
 20
7.6236264454
 30
0.0
 10
10.8502492148
 20
7.6213457597
 30
0.0
 10
10.8490555433
 20
7.6201311883
 30
0.0
 10
10.8484477861
 20
7.6196508888
 30
0.0
  0
SPLINE
  5
546
100
AcDbEntity
  8
0
100
AcDbSpline
 62
7
  6
CONTINUOUS
 70
0
 71
3
 72
14
 73
10
 74
0
 42
0.0000001
 43
0.0000001
 44
0.0000000001
 40
0.0
 40
0.0
 40
0.0
 40
0.0
 40
0.1323134372
 40
0.2641288457
 40
0.520750904
 40
0.6450902663
 40
0.7663034132
 40
0.8845707403
 40
1.0
 40
1.0
 40
1.0
 40
1.0
 10
10.8418364722
 20
7.6295945058
 30
0.0
 10
10.8418364597
 20
7.6290302032
 30
0.0
 10
10.8419142192
 20
7.6279018396
 30
0.0
 10
10.8423668496
 20
7.6257232552
 30
0.0
 10
10.8432684604
 20
7.623686436
 30
0.0
 10
10.8445874228
 20
7.621988574
 30
0.0
 10
10.8457398693
 20
7.6209367813
 30
0.0
 10
10.8470330927
 20
7.6201341764
 30
0.0
 10
10.8479719489
 20
7.6197770658
 30
0.0
 10
10.8484477535
 20
7.6196507218
 30
0.0
  0
SPLINE
  5
547
100
AcDbEntity
  8
0
100
AcDbSpline
 62
9
  6
CONTINUOUS
 70
0
 71
3
 72
15
 73
11
 74
0
 42
0.0000001
 43
0.0000001
 44
0.0000000001
 40
0.0
 40
0.0
 40
0.0
 40
0.0
 40
0.1484554409
 40
0.2942974909
 40
0.4344160045
 40
0.5668495892
 40
0.6901265727
 40
0.8035281785
 40
0.9067376278
 40
1.0
 40
1.0
 40
1.0
 40
1.0
 10
11.2760136274
 20
7.6861695021
 30
0.0
 10
11.2760128929
 20
7.6874737777
 30
0.0
 10
11.2759332971
 20
7.6900599697
 30
0.0
 10
11.2755867935
 20
7.6938631947
 30
0.0
 10
11.2750182157
 20
7.6974975042
 30
0.0
 10
11.2742520895
 20
7.7008925444
 30
0.0
 10
11.2733091273
 20
7.7039985416
 30
0.0
 10
11.2722143848
 20
7.7067807688
 30
0.0
 10
11.2709894113
 20
7.7092164133
 30
0.0
 10
11.2700557675
 20
7.7106734745
 30
0.0
 10
11.2695705889
 20
7.7113337532
 30
0.0
  0
SPLINE
  5
548
100
AcDbEntity
  8
0
100
AcDbSpline
 62
9
  6
CONTINUOUS
 70
0
 71
3
 72
11
 73
7
 74
0
 42
0.0000001
 43
0.0000001
 44
0.0000000001
 40
0.0
 40
0.0
 40
0.0
 40
0.0
 40
0.2919298161
 40
0.5502970987
 40
0.7833610493
 40
1.0
 40
1.0
 40
1.0
 40
1.0
 10
11.2695705889
 20
7.7113337532
 30
0.0
 10
11.2690505298
 20
7.7120415009
 30
0.0
 10
11.2679763808
 20
7.713312248
 30
0.0
 10
11.2661445426
 20
7.7148194258
 30
0.0
 10
11.2642291669
 20
7.7157935385
 30
0.0
 10
11.2628909371
 20
7.7160922147
 30
0.0
 10
11.2622413526
 20
7.7161454451
 30
0.0
  0
SPLINE
  5
549
100
AcDbEntity
  8
0
100
AcDbSpline
 62
7
  6
CONTINUOUS
 70
0
 71
3
 72
15
 73
11
 74
0
 42
0.0000001
 43
0.0000001
 44
0.0000000001
 40
0.0
 40
0.0
 40
0.0
 40
0.0
 40
0.0876616773
 40
0.1868767546
 40
0.2986359244
 40
0.4224977756
 40
0.5570357645
 40
0.7000587548
 40
0.8488402945
 40
1.0
 40
1.0
 40
1.0
 40
1.0
 10
10.8378640137
 20
7.6196507225
 30
0.0
 10
10.8381629027
 20
7.6197828101
 30
0.0
 10
10.8387553203
 20
7.6201684789
 30
0.0
 10
10.8395256802
 20
7.6209817332
 30
0.0
 10
10.8402078983
 20
7.6220336802
 30
0.0
 10
10.8407874516
 20
7.6232900246
 30
0.0
 10
10.8412496421
 20
7.6247163436
 30
0.0
 10
10.8415867859
 20
7.626271851
 30
0.0
 10
10.8417904536
 20
7.6279124214
 30
0.0
 10
10.8418364796
 20
7.6290310306
 30
0.0
 10
10.8418364722
 20
7.6295945058
 30
0.0
  0
SPLINE
  5
54A
100
AcDbEntity
  8
0
100
AcDbSpline
 62
9
  6
CONTINUOUS
 70
0
 71
3
 72
15
 73
11
 74
0
 42
0.0000001
 43
0.0000001
 44
0.0000000001
 40
0.0
 40
0.0
 40
0.0
 40
0.0
 40
0.127837987
 40
0.2548542355
 40
0.3807776505
 40
0.5058898553
 40
0.6304612565
 40
0.7541654742
 40
0.8772962247
 40
1.0
 40
1.0
 40
1.0
 40
1.0
 10
11.2751378228
 20
7.7042637713
 30
0.0
 10
11.2761405657
 20
7.7038991052
 30
0.0
 10
11.2781045891
 20
7.7030702965
 30
0.0
 10
11.2808849558
 20
7.7015167722
 30
0.0
 10
11.2834388152
 20
7.6996485663
 30
0.0
 10
11.285701055
 20
7.6974627357
 30
0.0
 10
11.2876005583
 20
7.6949758256
 30
0.0
 10
11.2890520115
 20
7.6922175247
 30
0.0
 10
11.2899577705
 20
7.689250492
 30
0.0
 10
11.2901708244
 20
7.6871936426
 30
0.0
 10
11.2901712369
 20
7.6861695018
 30
0.0
  0
SPLINE
  5
54B
100
AcDbEntity
  8
0
100
AcDbSpline
 62
9
  6
CONTINUOUS
 70
0
 71
3
 72
15
 73
11
 74
0
 42
0.0000001
 43
0.0000001
 44
0.0000000001
 40
0.0
 40
0.0
 40
0.0
 40
0.0
 40
0.1227044605
 40
0.2458367372
 40
0.3695410351
 40
0.4941119134
 40
0.6192247775
 40
0.7451439317
 40
0.8721565874
 40
1.0
 40
1.0
 40
1.0
 40
1.0
 10
11.2901713268
 20
7.6481695024
 30
0.0
 10
11.2901709322
 20
7.6471470369
 30
0.0
 10
11.2899585749
 20
7.6450935566
 30
0.0
 10
11.289055675
 20
7.6421310125
 30
0.0
 10
11.2876086302
 20
7.6393762087
 30
0.0
 10
11.2857144841
 20
7.6368917039
 30
0.0
 10
11.2834583617
 20
7.6347070592
 30
0.0
 10
11.2809109713
 20
7.632838928
 30
0.0
 10
11.2781371129
 20
7.6312845269
 30
0.0
 10
11.2761773427
 20
7.6304546067
 30
0.0
 10
11.2751766653
 20
7.6300892551
 30
0.0
  0
SPLINE
  5
54C
100
AcDbEntity
  8
0
100
AcDbSpline
 62
9
  6
CONTINUOUS
 70
0
 71
3
 72
18
 73
14
 74
0
 42
0.0000001
 43
0.0000001
 44
0.0000000001
 40
0.0
 40
0.0
 40
0.0
 40
0.0
 40
0.1714015711
 40
0.2552615787
 40
0.3367360834
 40
0.4903498557
 40
0.6285787535
 40
0.7491615943
 40
0.8510797652
 40
0.8950498259
 40
0.9344328113
 40
0.9693559675
 40
1.0
 40
1.0
 40
1.0
 40
1.0
 10
10.8016707294
 20
7.6481695021
 30
0.0
 10
10.8016656102
 20
7.6464932359
 30
0.0
 10
10.8016123551
 20
7.6439965186
 30
0.0
 10
10.8014354191
 20
7.6407078099
 30
0.0
 10
10.8011920731
 20
7.6375978064
 30
0.0
 10
10.800778485
 20
7.633968778
 30
0.0
 10
10.8001166018
 20
7.6299879015
 30
0.0
 10
10.7993302164
 20
7.6265464878
 30
0.0
 10
10.7985623196
 20
7.6240522034
 30
0.0
 10
10.7978963147
 20
7.6223662261
 30
0.0
 10
10.7974075858
 20
7.6213168748
 30
0.0
 10
10.7969079916
 20
7.6204191932
 30
0.0
 10
10.7965465308
 20
7.6198878973
 30
0.0
 10
10.7963631114
 20
7.6196508888
 30
0.0
  0
SPLINE
  5
54D
100
AcDbEntity
  8
0
100
AcDbSpline
 62
7
  6
CONTINUOUS
 70
0
 71
3
 72
11
 73
7
 74
0
 42
0.0000001
 43
0.0000001
 44
0.0000000001
 40
0.0
 40
0.0
 40
0.0
 40
0.0
 40
0.2578185021
 40
0.5117869731
 40
0.7591311771
 40
1.0
 40
1.0
 40
1.0
 40
1.0
 10
10.7892632762
 20
7.6295945058
 30
0.0
 10
10.7892632495
 20
7.6284690861
 30
0.0
 10
10.7895910346
 20
7.6262208892
 30
0.0
 10
10.7910449021
 20
7.6231834759
 30
0.0
 10
10.7933571816
 20
7.6208265103
 30
0.0
 10
10.7953423848
 20
7.6199031047
 30
0.0
 10
10.7963630764
 20
7.6196507218
 30
0.0
  0
SPLINE
  5
54E
100
AcDbEntity
  8
0
100
AcDbSpline
 62
9
  6
CONTINUOUS
 70
0
 71
3
 72
15
 73
11
 74
0
 42
0.0000001
 43
0.0000001
 44
0.0000000001
 40
0.0
 40
0.0
 40
0.0
 40
0.0
 40
0.1536220588
 40
0.3032258307
 40
0.4450221303
 40
0.5768150683
 40
0.697714959
 40
0.8078037159
 40
0.9079649134
 40
1.0
 40
1.0
 40
1.0
 40
1.0
 10
11.3053217817
 20
7.6861695021
 30
0.0
 10
11.3053210424
 20
7.6878343677
 30
0.0
 10
11.3051531886
 20
7.6911229594
 30
0.0
 10
11.3044156974
 20
7.6958976828
 30
0.0
 10
11.3032294558
 20
7.7003378035
 30
0.0
 10
11.3016569797
 20
7.7043242904
 30
0.0
 10
11.2997618808
 20
7.7077821185
 30
0.0
 10
11.2976054688
 20
7.7106675367
 30
0.0
 10
11.2952476895
 20
7.7129625883
 30
0.0
 10
11.2935069255
 20
7.7141333654
 30
0.0
 10
11.2926264327
 20
7.7146019629
 30
0.0
  0
SPLINE
  5
54F
100
AcDbEntity
  8
0
100
AcDbSpline
 62
9
  6
CONTINUOUS
 70
0
 71
3
 72
9
 73
5
 74
0
 42
0.0000001
 43
0.0000001
 44
0.0000000001
 40
0.0
 40
0.0
 40
0.0
 40
0.0
 40
0.5111160452
 40
1.0
 40
1.0
 40
1.0
 40
1.0
 10
11.2926264327
 20
7.7146019629
 30
0.0
 10
11.2917886516
 20
7.7150478294
 30
0.0
 10
11.2900582839
 20
7.7157616863
 30
0.0
 10
11.288213243
 20
7.7160885394
 30
0.0
 10
11.2873072703
 20
7.7161454451
 30
0.0
  0
SPLINE
  5
550
100
AcDbEntity
  8
0
100
AcDbSpline
 62
7
  6
CONTINUOUS
 70
0
 71
3
 72
15
 73
11
 74
0
 42
0.0000001
 43
0.0000001
 44
0.0000000001
 40
0.0
 40
0.0
 40
0.0
 40
0.0
 40
0.0763523469
 40
0.1686720001
 40
0.2775700349
 40
0.4018725592
 40
0.5394295413
 40
0.6873319497
 40
0.8421951412
 40
1.0
 40
1.0
 40
1.0
 40
1.0
 10
10.7862496206
 20
7.6196509095
 30
0.0
 10
10.7864851027
 20
7.6197880847
 30
0.0
 10
10.7869458104
 20
7.6201920166
 30
0.0
 10
10.7875220928
 20
7.6210036185
 30
0.0
 10
10.7880344299
 20
7.6220509599
 30
0.0
 10
10.7884708772
 20
7.6233026772
 30
0.0
 10
10.7888196488
 20
7.6247249115
 30
0.0
 10
10.7890744251
 20
7.6262771529
 30
0.0
 10
10.789228459
 20
7.627914954
 30
0.0
 10
10.7892632762
 20
7.6290312556
 30
0.0
 10
10.7892632762
 20
7.6295945058
 30
0.0
  0
SPLINE
  5
551
100
AcDbEntity
  8
0
100
AcDbSpline
 62
9
  6
CONTINUOUS
 70
0
 71
3
 72
16
 73
12
 74
0
 42
0.0000001
 43
0.0000001
 44
0.0000000001
 40
0.0
 40
0.0
 40
0.0
 40
0.0
 40
0.175630406
 40
0.3447489153
 40
0.5012957805
 40
0.6412577906
 40
0.7620556471
 40
0.86231513
 40
0.9416252665
 40
0.9734174969
 40
1.0
 40
1.0
 40
1.0
 40
1.0
 10
10.7489439839
 20
7.6481695021
 30
0.0
 10
10.7489391651
 20
7.6464935956
 30
0.0
 10
10.7489145361
 20
7.643203897
 30
0.0
 10
10.7488012338
 20
7.6384214654
 30
0.0
 10
10.7486106978
 20
7.6339821422
 30
0.0
 10
10.7483670834
 20
7.6300073146
 30
0.0
 10
10.7480816104
 20
7.6265738261
 30
0.0
 10
10.7477657594
 20
7.6237247815
 30
0.0
 10
10.7474722681
 20
7.6217284706
 30
0.0
 10
10.7472221234
 20
7.6204384799
 30
0.0
 10
10.7470947645
 20
7.6198959396
 30
0.0
 10
10.7470292494
 20
7.6196508888
 30
0.0
  0
SPLINE
  5
552
100
AcDbEntity
  8
0
100
AcDbSpline
 62
9
  6
CONTINUOUS
 70
0
 71
3
 72
15
 73
11
 74
0
 42
0.0000001
 43
0.0000001
 44
0.0000000001
 40
0.0
 40
0.0
 40
0.0
 40
0.0
 40
0.250158071
 40
0.3748947336
 40
0.4998167965
 40
0.6248477009
 40
0.6873722843
 40
0.7499243968
 40
0.874991046
 40
1.0
 40
1.0
 40
1.0
 40
1.0
 10
11.3030960609
 20
7.7033864351
 30
0.0
 10
11.3047807053
 20
7.7025911591
 30
0.0
 10
11.3071994931
 20
7.7011382854
 30
0.0
 10
11.3100040471
 20
7.698679309
 30
0.0
 10
11.3118511956
 20
7.6965764525
 30
0.0
 10
11.3131322522
 20
7.6946228835
 30
0.0
 10
11.3139681643
 20
7.6929564434
 30
0.0
 10
11.3146656313
 20
7.6912271184
 30
0.0
 10
11.3152656219
 20
7.6889661498
 30
0.0
 10
11.3154336217
 20
7.6871004425
 30
0.0
 10
11.315433981
 20
7.6861695018
 30
0.0
  0
SPLINE
  5
553
100
AcDbEntity
  8
0
100
AcDbSpline
 62
9
  6
CONTINUOUS
 70
0
 71
3
 72
15
 73
11
 74
0
 42
0.0000001
 43
0.0000001
 44
0.0000000001
 40
0.0
 40
0.0
 40
0.0
 40
0.0
 40
0.1250028455
 40
0.2500650128
 40
0.3126147812
 40
0.3751380572
 40
0.5001671386
 40
0.6250813301
 40
0.7498190912
 40
1.0
 40
1.0
 40
1.0
 40
1.0
 10
11.3154340672
 20
7.6481695024
 30
0.0
 10
11.3154337216
 20
7.6472349884
 30
0.0
 10
11.31526443
 20
7.6453620815
 30
0.0
 10
11.3146599063
 20
7.6430929208
 30
0.0
 10
11.3139572189
 20
7.6413579385
 30
0.0
 10
11.3131152324
 20
7.6396864753
 30
0.0
 10
11.3118253028
 20
7.6377279122
 30
0.0
 10
11.3099660386
 20
7.635621258
 30
0.0
 10
11.3071439779
 20
7.6331600454
 30
0.0
 10
11.3047112547
 20
7.6317085358
 30
0.0
 10
11.3030174162
 20
7.6309153929
 30
0.0
  0
SPLINE
  5
554
100
AcDbEntity
  8
0
100
AcDbSpline
 62
7
  6
CONTINUOUS
 70
0
 71
3
 72
11
 73
7
 74
0
 42
0.0000001
 43
0.0000001
 44
0.0000000001
 40
0.0
 40
0.0
 40
0.0
 40
0.0
 40
0.2533563716
 40
0.5050519455
 40
0.7538822162
 40
1.0
 40
1.0
 40
1.0
 40
1.0
 10
10.7395790832
 20
7.6295945058
 30
0.0
 10
10.7395790552
 20
7.6284678597
 30
0.0
 10
10.7399265072
 20
7.6262064435
 30
0.0
 10
10.7414634786
 20
7.6231620835
 30
0.0
 10
10.7438981288
 20
7.6208115623
 30
0.0
 10
10.7459639316
 20
7.6199017439
 30
0.0
 10
10.7470292127
 20
7.6196507218
 30
0.0
  0
SPLINE
  5
555
100
AcDbEntity
  8
0
100
AcDbSpline
 62
7
  6
CONTINUOUS
 70
0
 71
3
 72
16
 73
12
 74
0
 42
0.0000001
 43
0.0000001
 44
0.0000000001
 40
0.0
 40
0.0
 40
0.0
 40
0.0
 40
0.0299256529
 40
0.0649531924
 40
0.1052874807
 40
0.1509334589
 40
0.2574973835
 40
0.3825348903
 40
0.523104017
 40
0.6756259558
 40
1.0
 40
1.0
 40
1.0
 40
1.0
 10
10.7375828271
 20
7.6196507225
 30
0.0
 10
10.7376600195
 20
7.6197186068
 30
0.0
 10
10.7378114692
 20
7.6198842988
 30
0.0
 10
10.7380154401
 20
7.6201838242
 30
0.0
 10
10.7382124285
 20
7.6205505638
 30
0.0
 10
10.7384769671
 20
7.6211573452
 30
0.0
 10
10.7387689898
 20
7.6220660489
 30
0.0
 10
10.7390562067
 20
7.6233127148
 30
0.0
 10
10.7392861449
 20
7.6247314154
 30
0.0
 10
10.7395147781
 20
7.6268406766
 30
0.0
 10
10.7395790906
 20
7.6284802694
 30
0.0
 10
10.7395790832
 20
7.6295945058
 30
0.0
  0
SPLINE
  5
556
100
AcDbEntity
  8
0
100
AcDbSpline
 62
9
  6
CONTINUOUS
 70
0
 71
3
 72
14
 73
10
 74
0
 42
0.0000001
 43
0.0000001
 44
0.0000000001
 40
0.0
 40
0.0
 40
0.0
 40
0.0
 40
0.1408652774
 40
0.2798893536
 40
0.4147908527
 40
0.5443146662
 40
0.6676674443
 40
0.7846466941
 40
1.0
 40
1.0
 40
1.0
 40
1.0
 10
11.3274744472
 20
7.6861695021
 30
0.0
 10
11.3274740174
 20
7.6875271364
 30
0.0
 10
11.3273355007
 20
7.6902265034
 30
0.0
 10
11.3267306389
 20
7.6941849176
 30
0.0
 10
11.3257426399
 20
7.6979533022
 30
0.0
 10
11.3244158675
 20
7.7014546511
 30
0.0
 10
11.3227879292
 20
7.7046354925
 30
0.0
 10
11.3203491898
 20
7.7082945177
 30
0.0
 10
11.3180999071
 20
7.7106374226
 30
0.0
 10
11.3164684282
 20
7.7119204381
 30
0.0
  0
SPLINE
  5
557
100
AcDbEntity
  8
0
100
AcDbSpline
 62
9
  6
CONTINUOUS
 70
0
 71
3
 72
11
 73
7
 74
0
 42
0.0000001
 43
0.0000001
 44
0.0000000001
 40
0.0
 40
0.0
 40
0.0
 40
0.0
 40
0.2626953623
 40
0.5150615036
 40
0.7601029381
 40
1.0
 40
1.0
 40
1.0
 40
1.0
 10
11.3164684282
 20
7.7119204381
 30
0.0
 10
11.3156838243
 20
7.7125374604
 30
0.0
 10
11.314061095
 20
7.7136451699
 30
0.0
 10
11.3114560825
 20
7.7149156821
 30
0.0
 10
11.3087741075
 20
7.7157595711
 30
0.0
 10
11.3069452354
 20
7.7160440915
 30
0.0
 10
11.3060364701
 20
7.7161150575
 30
0.0
  0
SPLINE
  5
558
100
AcDbEntity
  8
0
100
AcDbSpline
 62
9
  6
CONTINUOUS
 70
0
 71
3
 72
16
 73
12
 74
0
 42
0.0000001
 43
0.0000001
 44
0.0000000001
 40
0.0
 40
0.0
 40
0.0
 40
0.0
 40
0.1758310052
 40
0.3451236371
 40
0.5017782709
 40
0.6417771469
 40
0.7625365005
 40
0.862684003
 40
0.9418267222
 40
0.9735208345
 40
1.0
 40
1.0
 40
1.0
 40
1.0
 10
10.6998910106
 20
7.6481695021
 30
0.0
 10
10.699886585
 20
7.6464936348
 30
0.0
 10
10.6999071541
 20
7.6432041261
 30
0.0
 10
10.6999926896
 20
7.6384222974
 30
0.0
 10
10.7001214545
 20
7.6339830167
 30
0.0
 10
10.7002989852
 20
7.630008378
 30
0.0
 10
10.7005159892
 20
7.6265750803
 30
0.0
 10
10.7007666897
 20
7.6237260178
 30
0.0
 10
10.7010124783
 20
7.6217292667
 30
0.0
 10
10.7012318791
 20
7.6204388082
 30
0.0
 10
10.7013465122
 20
7.6198960507
 30
0.0
 10
10.7014064277
 20
7.6196508888
 30
0.0
  0
SPLINE
  5
559
100
AcDbEntity
  8
0
100
AcDbSpline
 62
9
  6
CONTINUOUS
 70
0
 71
3
 72
13
 73
9
 74
0
 42
0.0000001
 43
0.0000001
 44
0.0000000001
 40
0.0
 40
0.0
 40
0.0
 40
0.0
 40
0.2447146643
 40
0.3685292254
 40
0.4934458924
 40
0.6191892384
 40
0.7457968119
 40
1.0
 40
1.0
 40
1.0
 40
1.0
 10
11.3245769049
 20
7.7017424991
 30
0.0
 10
11.3258277025
 20
7.7008875454
 30
0.0
 10
11.3275938278
 20
7.6994092903
 30
0.0
 10
11.3295874081
 20
7.6970878734
 30
0.0
 10
11.3308894564
 20
7.6951629501
 30
0.0
 10
11.3319560779
 20
7.6930772114
 30
0.0
 10
11.3330067817
 20
7.6901159411
 30
0.0
 10
11.3333438435
 20
7.6877433179
 30
0.0
 10
11.3333444133
 20
7.6861695018
 30
0.0
  0
SPLINE
  5
55A
100
AcDbEntity
  8
0
100
AcDbSpline
 62
9
  6
CONTINUOUS
 70
0
 71
3
 72
13
 73
9
 74
0
 42
0.0000001
 43
0.0000001
 44
0.0000000001
 40
0.0
 40
0.0
 40
0.0
 40
0.0
 40
0.2542272552
 40
0.3808408658
 40
0.5065866348
 40
0.6314976033
 40
0.7552916825
 40
1.0
 40
1.0
 40
1.0
 40
1.0
 10
11.3333444934
 20
7.6481695024
 30
0.0
 10
11.3333439432
 20
7.6465859224
 30
0.0
 10
11.3330026954
 20
7.644198418
 30
0.0
 10
11.3319391488
 20
7.6412210538
 30
0.0
 10
11.330860093
 20
7.6391255185
 30
0.0
 10
11.3295436942
 20
7.637193299
 30
0.0
 10
11.3275290033
 20
7.6348656061
 30
0.0
 10
11.3257453712
 20
7.6333864037
 30
0.0
 10
11.3244828216
 20
7.6325323437
 30
0.0
  0
SPLINE
  5
55B
100
AcDbEntity
  8
0
100
AcDbSpline
 62
7
  6
CONTINUOUS
 70
0
 71
3
 72
11
 73
7
 74
0
 42
0.0000001
 43
0.0000001
 44
0.0000000001
 40
0.0
 40
0.0
 40
0.0
 40
0.0
 40
0.2507859267
 40
0.5011932704
 40
0.7508966824
 40
1.0
 40
1.0
 40
1.0
 40
1.0
 10
10.6937509394
 20
7.6295945058
 30
0.0
 10
10.6937509106
 20
7.6284671142
 30
0.0
 10
10.6941101342
 20
7.6261977234
 30
0.0
 10
10.6956961948
 20
7.6231497505
 30
0.0
 10
10.6982020676
 20
7.6208034524
 30
0.0
 10
10.7003148942
 20
7.619901023
 30
0.0
 10
10.70140639
 20
7.6196507218
 30
0.0
  0
SPLINE
  5
55C
100
AcDbEntity
  8
0
100
AcDbSpline
 62
7
  6
CONTINUOUS
 70
0
 71
3
 72
15
 73
11
 74
0
 42
0.0000001
 43
0.0000001
 44
0.0000000001
 40
0.0
 40
0.0
 40
0.0
 40
0.0
 40
0.0244964772
 40
0.0555958655
 40
0.1369769768
 40
0.242142584
 40
0.3679719296
 40
0.5109135982
 40
0.6669073866
 40
1.0
 40
1.0
 40
1.0
 40
1.0
 10
10.6928109683
 20
7.6196507225
 30
0.0
 10
10.6928496218
 20
7.6197229139
 30
0.0
 10
10.6929222574
 20
7.619894681
 30
0.0
 10
10.6930610605
 20
7.6203312737
 30
0.0
 10
10.6932145475
 20
7.6210438439
 30
0.0
 10
10.6933709506
 20
7.6220764383
 30
0.0
 10
10.6935052718
 20
7.6233195921
 30
0.0
 10
10.6936132712
 20
7.6247355644
 30
0.0
 10
10.6937208353
 20
7.626845763
 30
0.0
 10
10.6937509429
 20
7.628481024
 30
0.0
 10
10.6937509394
 20
7.6295945058
 30
0.0
  0
SPLINE
  5
55D
100
AcDbEntity
  8
0
100
AcDbSpline
 62
9
  6
CONTINUOUS
 70
0
 71
3
 72
9
 73
5
 74
0
 42
0.0000001
 43
0.0000001
 44
0.0000000001
 40
0.0
 40
0.0
 40
0.0
 40
0.0
 40
0.2548176122
 40
1.0
 40
1.0
 40
1.0
 40
1.0
 10
11.3384015415
 20
7.7014625378
 30
0.0
 10
11.3382057545
 20
7.7018421274
 30
0.0
 10
11.3374067163
 20
7.7033157127
 30
0.0
 10
11.3364860223
 20
7.7047235897
 30
0.0
 10
11.3357362834
 20
7.7057225639
 30
0.0
  0
SPLINE
  5
55E
100
AcDbEntity
  8
0
100
AcDbSpline
 62
9
  6
CONTINUOUS
 70
0
 71
3
 72
17
 73
13
 74
0
 42
0.0000001
 43
0.0000001
 44
0.0000000001
 40
0.0
 40
0.0
 40
0.0
 40
0.0
 40
0.1719295151
 40
0.3377072143
 40
0.4915923534
 40
0.629899767
 40
0.7503608767
 40
0.8519711727
 40
0.895737283
 40
0.9348960846
 40
0.9695852005
 40
1.0
 40
1.0
 40
1.0
 40
1.0
 10
10.6554665697
 20
7.6481695021
 30
0.0
 10
10.6554626226
 20
7.6464933503
 30
0.0
 10
10.6555281042
 20
7.643200522
 30
0.0
 10
10.6558111781
 20
7.6384151694
 30
0.0
 10
10.6562576494
 20
7.6339712813
 30
0.0
 10
10.6568542386
 20
7.6299907993
 30
0.0
 10
10.6575730621
 20
7.6265496984
 30
0.0
 10
10.6582851741
 20
7.6240539176
 30
0.0
 10
10.6589123676
 20
7.622366822
 30
0.0
 10
10.6593765255
 20
7.6213173727
 30
0.0
 10
10.6598551365
 20
7.6204195295
 30
0.0
 10
10.6602045234
 20
7.6198879451
 30
0.0
 10
10.6603826426
 20
7.6196508888
 30
0.0
  0
SPLINE
  5
55F
100
AcDbEntity
  8
0
100
AcDbSpline
 62
9
  6
CONTINUOUS
 70
0
 71
3
 72
9
 73
5
 74
0
 42
0.0000001
 43
0.0000001
 44
0.0000000001
 40
0.0
 40
0.0
 40
0.0
 40
0.0
 40
0.4953580299
 40
1.0
 40
1.0
 40
1.0
 40
1.0
 10
11.3405709388
 20
7.6963399863
 30
0.0
 10
11.3410672895
 20
7.6955576638
 30
0.0
 10
11.341960544
 20
7.6939063463
 30
0.0
 10
11.3426011033
 20
7.692140474
 30
0.0
 10
11.3428549249
 20
7.6912313841
 30
0.0
  0
SPLINE
  5
560
100
AcDbEntity
  8
0
100
AcDbSpline
 62
9
  6
CONTINUOUS
 70
0
 71
3
 72
9
 73
5
 74
0
 42
0.0000001
 43
0.0000001
 44
0.0000000001
 40
0.0
 40
0.0
 40
0.0
 40
0.0
 40
0.2489230736
 40
1.0
 40
1.0
 40
1.0
 40
1.0
 10
11.3428549249
 20
7.6912313841
 30
0.0
 10
11.3429691393
 20
7.6908223127
 30
0.0
 10
11.3433727508
 20
7.6891641101
 30
0.0
 10
11.343553506
 20
7.687451002
 30
0.0
 10
11.3435539291
 20
7.6861695018
 30
0.0
  0
SPLINE
  5
561
100
AcDbEntity
  8
0
100
AcDbSpline
 62
9
  6
CONTINUOUS
 70
0
 71
3
 72
9
 73
5
 74
0
 42
0.0000001
 43
0.0000001
 44
0.0000000001
 40
0.0
 40
0.0
 40
0.0
 40
0.0
 40
0.5047875698
 40
1.0
 40
1.0
 40
1.0
 40
1.0
 10
11.3428465345
 20
7.6430774152
 30
0.0
 10
11.3425840133
 20
7.6421431721
 30
0.0
 10
11.3419183963
 20
7.6403302526
 30
0.0
 10
11.3409870631
 20
7.6386397352
 30
0.0
 10
11.3404694575
 20
7.6378407207
 30
0.0
  0
SPLINE
  5
562
100
AcDbEntity
  8
0
100
AcDbSpline
 62
9
  6
CONTINUOUS
 70
0
 71
3
 72
11
 73
7
 74
0
 42
0.0000001
 43
0.0000001
 44
0.0000000001
 40
0.0
 40
0.0
 40
0.0
 40
0.0
 40
0.2705744765
 40
0.532390795
 40
0.7772207534
 40
1.0
 40
1.0
 40
1.0
 40
1.0
 10
10.6165353324
 20
7.6481695021
 30
0.0
 10
10.6165319697
 20
7.6465073259
 30
0.0
 10
10.6166395132
 20
7.6432356083
 30
0.0
 10
10.6171081162
 20
7.638480689
 30
0.0
 10
10.6178537808
 20
7.6340584369
 30
0.0
 10
10.6185517042
 20
7.6312677325
 30
0.0
 10
10.6189459955
 20
7.6299571951
 30
0.0
  0
SPLINE
  5
563
100
AcDbEntity
  8
0
100
AcDbSpline
 62
9
  6
CONTINUOUS
 70
0
 71
3
 72
11
 73
7
 74
0
 42
0.0000001
 43
0.0000001
 44
0.0000000001
 40
0.0
 40
0.0
 40
0.0
 40
0.0
 40
0.3030301462
 40
0.5691626875
 40
0.800316601
 40
1.0
 40
1.0
 40
1.0
 40
1.0
 10
10.6195598851
 20
7.6280826333
 30
0.0
 10
10.6198991844
 20
7.6271297294
 30
0.0
 10
10.6206106374
 20
7.6253645953
 30
0.0
 10
10.621865875
 20
7.6229995366
 30
0.0
 10
10.6232169827
 20
7.6210968123
 30
0.0
 10
10.6242369171
 20
7.6200685463
 30
0.0
 10
10.6247563753
 20
7.6196508888
 30
0.0
  0
SPLINE
  5
564
100
AcDbEntity
  8
0
100
AcDbSpline
 62
9
  6
CONTINUOUS
 70
0
 71
3
 72
11
 73
7
 74
0
 42
0.0000001
 43
0.0000001
 44
0.0000000001
 40
0.0
 40
0.0
 40
0.0
 40
0.0
 40
0.2712546832
 40
0.5331236462
 40
0.777504662
 40
1.0
 40
1.0
 40
1.0
 40
1.0
 10
10.5838550511
 20
7.6481695021
 30
0.0
 10
10.5838520412
 20
7.6463474348
 30
0.0
 10
10.5840306094
 20
7.6427636357
 30
0.0
 10
10.5848066259
 20
7.6375901867
 30
0.0
 10
10.5860399488
 20
7.6328432948
 30
0.0
 10
10.5871810572
 20
7.6299116817
 30
0.0
 10
10.5878188143
 20
7.6285600429
 30
0.0
  0
SPLINE
  5
565
100
AcDbEntity
  8
0
100
AcDbSpline
 62
9
  6
CONTINUOUS
 70
0
 71
3
 72
9
 73
5
 74
0
 42
0.0000001
 43
0.0000001
 44
0.0000000001
 40
0.0
 40
0.0
 40
0.0
 40
0.0
 40
0.2650902372
 40
1.0
 40
1.0
 40
1.0
 40
1.0
 10
10.5880490347
 20
7.6280826333
 30
0.0
 10
10.5882470161
 20
7.6276809073
 30
0.0
 10
10.5890269374
 20
7.6261823334
 30
0.0
 10
10.5899429495
 20
7.6247520791
 30
0.0
 10
10.590701031
 20
7.6237687666
 30
0.0
  0
SPLINE
  5
566
100
AcDbEntity
  8
0
100
AcDbSpline
 62
9
  6
CONTINUOUS
 70
0
 71
3
 72
9
 73
5
 74
0
 42
0.0000001
 43
0.0000001
 44
0.0000000001
 40
0.0
 40
0.0
 40
0.0
 40
0.0
 40
0.2699574605
 40
1.0
 40
1.0
 40
1.0
 40
1.0
 10
10.5911351194
 20
7.6232248531
 30
0.0
 10
10.5914471939
 20
7.6228472793
 30
0.0
 10
10.5926532288
 20
7.621492411
 30
0.0
 10
10.5940772138
 20
7.6203190581
 30
0.0
 10
10.5952210506
 20
7.6196508888
 30
0.0
  0
SPLINE
  5
567
100
AcDbEntity
  8
0
100
AcDbSpline
 62
9
  6
CONTINUOUS
 70
0
 71
3
 72
15
 73
11
 74
0
 42
0.0000001
 43
0.0000001
 44
0.0000000001
 40
0.0
 40
0.0
 40
0.0
 40
0.0
 40
0.1285576749
 40
0.2567556821
 40
0.3838179005
 40
0.5095797398
 40
0.6340037408
 40
0.7570374594
 40
0.8789637616
 40
1.0
 40
1.0
 40
1.0
 40
1.0
 10
10.531603774
 20
7.6481695021
 30
0.0
 10
10.5316043072
 20
7.6467002127
 30
0.0
 10
10.5318425194
 20
7.6437607405
 30
0.0
 10
10.5328822328
 20
7.639481239
 30
0.0
 10
10.5345662067
 20
7.6354462288
 30
0.0
 10
10.5368131805
 20
7.6317482195
 30
0.0
 10
10.5395387086
 20
7.6284485615
 30
0.0
 10
10.5426596449
 20
7.6255863508
 30
0.0
 10
10.5460970518
 20
7.6231832728
 30
0.0
 10
10.548562128
 20
7.6218871368
 30
0.0
 10
10.5498230934
 20
7.6213183141
 30
0.0
  0
SPLINE
  5
568
100
AcDbEntity
  8
0
100
AcDbSpline
 62
7
  6
CONTINUOUS
 70
0
 71
3
 72
9
 73
5
 74
0
 42
0.0000001
 43
0.0000001
 44
0.0000000001
 40
0.0
 40
0.0
 40
0.0
 40
0.0
 40
0.2516196598
 40
1.0
 40
1.0
 40
1.0
 40
1.0
 10
10.5501243237
 20
7.6220327534
 30
0.0
 10
10.5505695988
 20
7.6218212241
 30
0.0
 10
10.552355967
 20
7.6210160945
 30
0.0
 10
10.5542049087
 20
7.6203509691
 30
0.0
 10
10.5556096886
 20
7.6199310372
 30
0.0
  0
SPLINE
  5
569
100
AcDbEntity
  8
0
100
AcDbSpline
 62
9
  6
CONTINUOUS
 70
0
 71
3
 72
17
 73
13
 74
0
 42
0.0000001
 43
0.0000001
 44
0.0000000001
 40
0.0
 40
0.0
 40
0.0
 40
0.0
 40
0.1264653445
 40
0.1897883902
 40
0.2529686703
 40
0.378792593
 40
0.5040410905
 40
0.5665056484
 40
0.6288187211
 40
0.7529006241
 40
0.876608108
 40
1.0
 40
1.0
 40
1.0
 40
1.0
 10
10.5448129816
 20
7.6481695021
 30
0.0
 10
10.5448139936
 20
7.6466538411
 30
0.0
 10
10.545014679
 20
7.6443734463
 30
0.0
 10
10.5456605599
 20
7.6414086662
 30
0.0
 10
10.5465553551
 20
7.6385164204
 30
0.0
 10
10.5481159255
 20
7.6350690155
 30
0.0
 10
10.5501975336
 20
7.6319217111
 30
0.0
 10
10.5521221142
 20
7.6296219837
 30
0.0
 10
10.5541983376
 20
7.627477597
 30
0.0
 10
10.5570618666
 20
7.6250882559
 30
0.0
 10
10.560834798
 20
7.6227099136
 30
0.0
 10
10.563525703
 20
7.6214526705
 30
0.0
 10
10.5649002788
 20
7.6209072629
 30
0.0
  0
SPLINE
  5
56A
100
AcDbEntity
  8
0
100
AcDbSpline
 62
9
  6
CONTINUOUS
 70
0
 71
3
 72
17
 73
13
 74
0
 42
0.0000001
 43
0.0000001
 44
0.0000000001
 40
0.0
 40
0.0
 40
0.0
 40
0.0
 40
0.1252274951
 40
0.1879916438
 40
0.2506805572
 40
0.3758054191
 40
0.5007994536
 40
0.5633146575
 40
0.6257822098
 40
0.7505197277
 40
0.8752799295
 40
1.0
 40
1.0
 40
1.0
 40
1.0
 10
10.5656691391
 20
7.6481695021
 30
0.0
 10
10.565670635
 20
7.6466104585
 30
0.0
 10
10.5658887885
 20
7.6442634375
 30
0.0
 10
10.5665894209
 20
7.641219218
 30
0.0
 10
10.5675609771
 20
7.6382506498
 30
0.0
 10
10.5692536883
 20
7.6347210151
 30
0.0
 10
10.5715011754
 20
7.6315221356
 30
0.0
 10
10.5735725442
 20
7.6291961743
 30
0.0
 10
10.5758081902
 20
7.6270321643
 30
0.0
 10
10.5788846238
 20
7.6246388987
 30
0.0
 10
10.5829211856
 20
7.6222885658
 30
0.0
 10
10.5857880013
 20
7.6210700397
 30
0.0
 10
10.5872504071
 20
7.6205481864
 30
0.0
  0
SPLINE
  5
56B
100
AcDbEntity
  8
0
100
AcDbSpline
 62
9
  6
CONTINUOUS
 70
0
 71
3
 72
17
 73
13
 74
0
 42
0.0000001
 43
0.0000001
 44
0.0000000001
 40
0.0
 40
0.0
 40
0.0
 40
0.0
 40
0.1249300056
 40
0.1875597753
 40
0.2501313949
 40
0.3751007689
 40
0.5000554229
 40
0.5625931429
 40
0.6250997395
 40
0.7500119686
 40
0.8750227827
 40
1.0
 40
1.0
 40
1.0
 40
1.0
 10
10.5937663051
 20
7.6481695021
 30
0.0
 10
10.5937682778
 20
7.6465690948
 30
0.0
 10
10.5939995965
 20
7.6441592207
 30
0.0
 10
10.5947419666
 20
7.6410388215
 30
0.0
 10
10.5957714873
 20
7.6379994002
 30
0.0
 10
10.5975625747
 20
7.6343947873
 30
0.0
 10
10.5999332616
 20
7.6311466265
 30
0.0
 10
10.6021124586
 20
7.6287962125
 30
0.0
 10
10.6044625173
 20
7.6266173413
 30
0.0
 10
10.6076892198
 20
7.6242246939
 30
0.0
 10
10.611909165
 20
7.6219053166
 30
0.0
 10
10.6148968043
 20
7.6207258922
 30
0.0
 10
10.6164184777
 20
7.6202281436
 30
0.0
  0
SPLINE
  5
56C
100
AcDbEntity
  8
0
100
AcDbSpline
 62
7
  6
CONTINUOUS
 70
0
 71
3
 72
9
 73
5
 74
0
 42
0.0000001
 43
0.0000001
 44
0.0000000001
 40
0.0
 40
0.0
 40
0.0
 40
0.0
 40
0.250174713
 40
1.0
 40
1.0
 40
1.0
 40
1.0
 10
10.6178410564
 20
7.6217557793
 30
0.0
 10
10.6184038678
 20
7.6215390762
 30
0.0
 10
10.620669775
 20
7.6207153961
 30
0.0
 10
10.6229949199
 20
7.6200566357
 30
0.0
 10
10.6247563377
 20
7.6196507218
 30
0.0
  0
SPLINE
  5
56D
100
AcDbEntity
  8
0
100
AcDbSpline
 62
9
  6
CONTINUOUS
 70
0
 71
3
 72
16
 73
12
 74
0
 42
0.0000001
 43
0.0000001
 44
0.0000000001
 40
0.0
 40
0.0
 40
0.0
 40
0.0
 40
0.1256748119
 40
0.1886371828
 40
0.25149871
 40
0.3768917656
 40
0.5020190219
 40
0.6268614231
 40
0.7514254343
 40
0.875850786
 40
1.0
 40
1.0
 40
1.0
 40
1.0
 10
10.6285576002
 20
7.6481695021
 30
0.0
 10
10.6285600312
 20
7.6465288995
 30
0.0
 10
10.628799623
 20
7.6440588799
 30
0.0
 10
10.6295691892
 20
7.6408636927
 30
0.0
 10
10.6306354209
 20
7.6377577197
 30
0.0
 10
10.6324872077
 20
7.6340837248
 30
0.0
 10
10.6354200485
 20
7.630131173
 30
0.0
 10
10.6389310174
 20
7.626700786
 30
0.0
 10
10.6429021322
 20
7.6238353324
 30
0.0
 10
10.6472192411
 20
7.6215494545
 30
0.0
 10
10.6502684828
 20
7.6204103304
 30
0.0
 10
10.6518187284
 20
7.6199377096
 30
0.0
  0
SPLINE
  5
56E
100
AcDbEntity
  8
0
100
AcDbSpline
 62
7
  6
CONTINUOUS
 70
0
 71
3
 72
9
 73
5
 74
0
 42
0.0000001
 43
0.0000001
 44
0.0000000001
 40
0.0
 40
0.0
 40
0.0
 40
0.0
 40
0.5002707418
 40
1.0
 40
1.0
 40
1.0
 40
1.0
 10
10.6526917807
 20
7.6289296071
 30
0.0
 10
10.6527574948
 20
7.627885889
 30
0.0
 10
10.6531972756
 20
7.6258068723
 30
0.0
 10
10.6542408778
 20
7.6239517631
 30
0.0
 10
10.6548891432
 20
7.6231325857
 30
0.0
  0
SPLINE
  5
56F
100
AcDbEntity
  8
0
100
AcDbSpline
 62
7
  6
CONTINUOUS
 70
0
 71
3
 72
9
 73
5
 74
0
 42
0.0000001
 43
0.0000001
 44
0.0000000001
 40
0.0
 40
0.0
 40
0.0
 40
0.0
 40
0.5000526348
 40
1.0
 40
1.0
 40
1.0
 40
1.0
 10
10.6548891432
 20
7.6231325857
 30
0.0
 10
10.6555716413
 20
7.6222701502
 30
0.0
 10
10.6572359981
 20
7.6207621038
 30
0.0
 10
10.6593104483
 20
7.6198947925
 30
0.0
 10
10.6603826046
 20
7.6196507218
 30
0.0
  0
SPLINE
  5
570
100
AcDbEntity
  8
0
100
AcDbSpline
 62
7
  6
CONTINUOUS
 70
0
 71
3
 72
9
 73
5
 74
0
 42
0.0000001
 43
0.0000001
 44
0.0000000001
 40
0.0
 40
0.0
 40
0.0
 40
0.0
 40
0.2500886228
 40
1.0
 40
1.0
 40
1.0
 40
1.0
 10
10.6526708376
 20
7.6220327534
 30
0.0
 10
10.6532962481
 20
7.6217835437
 30
0.0
 10
10.6558177579
 20
7.6208395924
 30
0.0
 10
10.6584142163
 20
7.6200988151
 30
0.0
 10
10.6603826046
 20
7.6196507218
 30
0.0
  0
SPLINE
  5
571
100
AcDbEntity
  8
0
100
AcDbSpline
 62
9
  6
CONTINUOUS
 70
0
 71
3
 72
16
 73
12
 74
0
 42
0.0000001
 43
0.0000001
 44
0.0000000001
 40
0.0
 40
0.0
 40
0.0
 40
0.0
 40
0.1275397306
 40
0.1913326505
 40
0.2549136891
 40
0.3813250607
 40
0.5068128635
 40
0.6313147359
 40
0.7549286292
 40
0.877847014
 40
1.0
 40
1.0
 40
1.0
 40
1.0
 10
10.6693658514
 20
7.6481695021
 30
0.0
 10
10.6693687168
 20
7.646486057
 30
0.0
 10
10.6696121097
 20
7.6439529871
 30
0.0
 10
10.6703958361
 20
7.6406772289
 30
0.0
 10
10.6714794979
 20
7.6375028262
 30
0.0
 10
10.6733567596
 20
7.6337592454
 30
0.0
 10
10.6763260447
 20
7.6297479266
 30
0.0
 10
10.679871834
 20
7.6262917295
 30
0.0
 10
10.6838708907
 20
7.6234338244
 30
0.0
 10
10.6882048579
 20
7.6211881152
 30
0.0
 10
10.6912608962
 20
7.6200946788
 30
0.0
 10
10.6928109637
 20
7.6196508889
 30
0.0
  0
LINE
  5
572
100
AcDbEntity
  8
0
100
AcDbLine
 62
7
  6
CONTINUOUS
 10
10.6928109683
 20
7.6196507225
 11
10.6937509394
 21
7.6220327534
  0
SPLINE
  5
573
100
AcDbEntity
  8
0
100
AcDbSpline
 62
7
  6
CONTINUOUS
 70
0
 71
3
 72
9
 73
5
 74
0
 42
0.0000001
 43
0.0000001
 44
0.0000000001
 40
0.0
 40
0.0
 40
0.0
 40
0.0
 40
0.2501532845
 40
1.0
 40
1.0
 40
1.0
 40
1.0
 10
10.6937509394
 20
7.6220327534
 30
0.0
 10
10.6943717191
 20
7.6217835693
 30
0.0
 10
10.6968741701
 20
7.620839847
 30
0.0
 10
10.6994519859
 20
7.6200989046
 30
0.0
 10
10.70140639
 20
7.6196507218
 30
0.0
  0
SPLINE
  5
574
100
AcDbEntity
  8
0
100
AcDbSpline
 62
9
  6
CONTINUOUS
 70
0
 71
3
 72
16
 73
12
 74
0
 42
0.0000001
 43
0.0000001
 44
0.0000000001
 40
0.0
 40
0.0
 40
0.0
 40
0.0
 40
0.1304790411
 40
0.1955881767
 40
0.260313618
 40
0.3883552834
 40
0.5144257417
 40
0.6384146564
 40
0.7604852138
 40
0.8809718967
 40
1.0
 40
1.0
 40
1.0
 40
1.0
 10
10.7153967726
 20
7.6481695021
 30
0.0
 10
10.7153999516
 20
7.6464868375
 30
0.0
 10
10.715629518
 20
7.6439576912
 30
0.0
 10
10.7163712786
 20
7.6406803508
 30
0.0
 10
10.71739506
 20
7.6375120487
 30
0.0
 10
10.7191659148
 20
7.6337769784
 30
0.0
 10
10.7219735517
 20
7.6297644051
 30
0.0
 10
10.7253280566
 20
7.626305095
 30
0.0
 10
10.7291126589
 20
7.6234432437
 30
0.0
 10
10.7332144541
 20
7.6211937938
 30
0.0
 10
10.73611369
 20
7.6200957215
 30
0.0
 10
10.7375828173
 20
7.6196508889
 30
0.0
  0
SPLINE
  5
575
100
AcDbEntity
  8
0
100
AcDbSpline
 62
7
  6
CONTINUOUS
 70
0
 71
3
 72
9
 73
5
 74
0
 42
0.0000001
 43
0.0000001
 44
0.0000000001
 40
0.0
 40
0.0
 40
0.0
 40
0.0
 40
0.4657583224
 40
1.0
 40
1.0
 40
1.0
 40
1.0
 10
10.7375828271
 20
7.6196507225
 30
0.0
 10
10.7379459932
 20
7.6199700973
 30
0.0
 10
10.7386658089
 20
7.6207247995
 30
0.0
 10
10.7392768836
 20
7.6215675625
 30
0.0
 10
10.7395790832
 20
7.6220327534
 30
0.0
  0
SPLINE
  5
576
100
AcDbEntity
  8
0
100
AcDbSpline
 62
7
  6
CONTINUOUS
 70
0
 71
3
 72
9
 73
5
 74
0
 42
0.0000001
 43
0.0000001
 44
0.0000000001
 40
0.0
 40
0.0
 40
0.0
 40
0.0
 40
0.2503999246
 40
1.0
 40
1.0
 40
1.0
 40
1.0
 10
10.7395790832
 20
7.6220327534
 30
0.0
 10
10.7401829777
 20
7.6217836665
 30
0.0
 10
10.7426159193
 20
7.6208408177
 30
0.0
 10
10.7451257734
 20
7.6200992469
 30
0.0
 10
10.7470292127
 20
7.6196507218
 30
0.0
  0
SPLINE
  5
577
100
AcDbEntity
  8
0
100
AcDbSpline
 62
9
  6
CONTINUOUS
 70
0
 71
3
 72
16
 73
12
 74
0
 42
0.0000001
 43
0.0000001
 44
0.0000000001
 40
0.0
 40
0.0
 40
0.0
 40
0.0
 40
0.134546998
 40
0.2014858862
 40
0.2678093505
 40
0.3981530166
 40
0.5250821721
 40
0.648399778
 40
0.7683394636
 40
0.8854110809
 40
1.0
 40
1.0
 40
1.0
 40
1.0
 10
10.7657544242
 20
7.6481695021
 30
0.0
 10
10.7657577656
 20
7.6464878224
 30
0.0
 10
10.7659689271
 20
7.6439636074
 30
0.0
 10
10.7666543825
 20
7.6406843504
 30
0.0
 10
10.7675982559
 20
7.6375240742
 30
0.0
 10
10.7692270721
 20
7.6338009417
 30
0.0
 10
10.7718164655
 20
7.6297872481
 30
0.0
 10
10.7749132265
 20
7.6263242645
 30
0.0
 10
10.7784096267
 20
7.6234576307
 30
0.0
 10
10.7821995952
 20
7.6212029092
 30
0.0
 10
10.7848887895
 20
7.6200974828
 30
0.0
 10
10.7862496201
 20
7.6196509151
 30
0.0
  0
SPLINE
  5
578
100
AcDbEntity
  8
0
100
AcDbSpline
 62
7
  6
CONTINUOUS
 70
0
 71
3
 72
9
 73
5
 74
0
 42
0.0000001
 43
0.0000001
 44
0.0000000001
 40
0.0
 40
0.0
 40
0.0
 40
0.0
 40
0.2355634954
 40
1.0
 40
1.0
 40
1.0
 40
1.0
 10
10.7862496206
 20
7.6196509095
 30
0.0
 10
10.7865106903
 20
7.6198029902
 30
0.0
 10
10.7875950533
 20
7.6204894443
 30
0.0
 10
10.7885767589
 20
7.6213327389
 30
0.0
 10
10.7892632762
 20
7.6220327534
 30
0.0
  0
SPLINE
  5
579
100
AcDbEntity
  8
0
100
AcDbSpline
 62
7
  6
CONTINUOUS
 70
0
 71
3
 72
9
 73
5
 74
0
 42
0.0000001
 43
0.0000001
 44
0.0000000001
 40
0.0
 40
0.0
 40
0.0
 40
0.0
 40
0.2508640262
 40
1.0
 40
1.0
 40
1.0
 40
1.0
 10
10.7892632762
 20
7.6220327534
 30
0.0
 10
10.7898383537
 20
7.6217838483
 30
0.0
 10
10.7921526053
 20
7.6208426416
 30
0.0
 10
10.7945465218
 20
7.6200998951
 30
0.0
 10
10.7963630764
 20
7.6196507218
 30
0.0
  0
SPLINE
  5
57A
100
AcDbEntity
  8
0
100
AcDbSpline
 62
9
  6
CONTINUOUS
 70
0
 71
3
 72
16
 73
12
 74
0
 42
0.0000001
 43
0.0000001
 44
0.0000000001
 40
0.0
 40
0.0
 40
0.0
 40
0.0
 40
0.1397465935
 40
0.2090357237
 40
0.2774242656
 40
0.4107870832
 40
0.5389232687
 40
0.6614669332
 40
0.7786811355
 40
0.8912834494
 40
1.0
 40
1.0
 40
1.0
 40
1.0
 10
10.8194586517
 20
7.6481695021
 30
0.0
 10
10.8194622656
 20
7.6464889445
 30
0.0
 10
10.8196510263
 20
7.643970379
 30
0.0
 10
10.8202665656
 20
7.6406890192
 30
0.0
 10
10.8211117354
 20
7.6375381451
 30
0.0
 10
10.8225661983
 20
7.6338298524
 30
0.0
 10
10.8248871333
 20
7.6298171384
 30
0.0
 10
10.8276642908
 20
7.6263510888
 30
0.0
 10
10.830802071
 20
7.6234779198
 30
0.0
 10
10.8342057184
 20
7.621215986
 30
0.0
 10
10.8366361237
 20
7.6200999231
 30
0.0
 10
10.8378639942
 20
7.6196508889
 30
0.0
  0
SPLINE
  5
57B
100
AcDbEntity
  8
0
100
AcDbSpline
 62
7
  6
CONTINUOUS
 70
0
 71
3
 72
9
 73
5
 74
0
 42
0.0000001
 43
0.0000001
 44
0.0000000001
 40
0.0
 40
0.0
 40
0.0
 40
0.0
 40
0.4878540418
 40
1.0
 40
1.0
 40
1.0
 40
1.0
 10
10.8378640137
 20
7.6196507225
 30
0.0
 10
10.8385542331
 20
7.6199557502
 30
0.0
 10
10.8399306065
 20
7.6206711714
 30
0.0
 10
10.8412098763
 20
7.6215480437
 30
0.0
 10
10.8418364722
 20
7.6220327534
 30
0.0
  0
SPLINE
  5
57C
100
AcDbEntity
  8
0
100
AcDbSpline
 62
7
  6
CONTINUOUS
 70
0
 71
3
 72
9
 73
5
 74
0
 42
0.0000001
 43
0.0000001
 44
0.0000000001
 40
0.0
 40
0.0
 40
0.0
 40
0.0
 40
0.251618144
 40
1.0
 40
1.0
 40
1.0
 40
1.0
 10
10.8418364722
 20
7.6220327534
 30
0.0
 10
10.8423713516
 20
7.6217841404
 30
0.0
 10
10.8445198975
 20
7.6208455979
 30
0.0
 10
10.8467521829
 20
7.6201009594
 30
0.0
 10
10.8484477535
 20
7.6196507218
 30
0.0
  0
SPLINE
  5
57D
100
AcDbEntity
  8
0
100
AcDbSpline
 62
9
  6
CONTINUOUS
 70
0
 71
3
 72
15
 73
11
 74
0
 42
0.0000001
 43
0.0000001
 44
0.0000000001
 40
0.0
 40
0.0
 40
0.0
 40
0.0
 40
0.2885814318
 40
0.358073026
 40
0.4258745693
 40
0.5557067402
 40
0.6775296975
 40
0.7915655946
 40
0.8986962998
 40
1.0
 40
1.0
 40
1.0
 40
1.0
 10
10.8754641636
 20
7.6481695021
 30
0.0
 10
10.8754711437
 20
7.6448526845
 30
0.0
 10
10.8759898461
 20
7.6407038855
 30
0.0
 10
10.8774163448
 20
7.6360202994
 30
0.0
 10
10.8785062828
 20
7.6331476779
 30
0.0
 10
10.8801547513
 20
7.6298527087
 30
0.0
 10
10.8825565571
 20
7.626385601
 30
0.0
 10
10.8852732274
 20
7.6235069144
 30
0.0
 10
10.8882222537
 20
7.6212366069
 30
0.0
 10
10.8903490217
 20
7.6201041302
 30
0.0
 10
10.8914215339
 20
7.6196509162
 30
0.0
  0
SPLINE
  5
57E
100
AcDbEntity
  8
0
100
AcDbSpline
 62
7
  6
CONTINUOUS
 70
0
 71
3
 72
9
 73
5
 74
0
 42
0.0000001
 43
0.0000001
 44
0.0000000001
 40
0.0
 40
0.0
 40
0.0
 40
0.0
 40
0.2527954457
 40
1.0
 40
1.0
 40
1.0
 40
1.0
 10
10.8962753936
 20
7.6220327534
 30
0.0
 10
10.8967594647
 20
7.6217845886
 30
0.0
 10
10.898698314
 20
7.6208501944
 30
0.0
 10
10.9007264252
 20
7.6201026494
 30
0.0
 10
10.9022694751
 20
7.6196507218
 30
0.0
  0
SPLINE
  5
57F
100
AcDbEntity
  8
0
100
AcDbSpline
 62
9
  6
CONTINUOUS
 70
0
 71
3
 72
14
 73
10
 74
0
 42
0.0000001
 43
0.0000001
 44
0.0000000001
 40
0.0
 40
0.0
 40
0.0
 40
0.0
 40
0.3021558294
 40
0.4438238438
 40
0.5757218918
 40
0.6968383082
 40
0.8072185224
 40
0.9078038081
 40
1.0
 40
1.0
 40
1.0
 40
1.0
 10
10.9326808762
 20
7.6481695021
 30
0.0
 10
10.9326883025
 20
7.6448613757
 30
0.0
 10
10.9331863502
 20
7.6399766409
 30
0.0
 10
10.9348936589
 20
7.6338979177
 30
0.0
 10
10.9365469953
 20
7.6298933528
 30
0.0
 10
10.9385259906
 20
7.6264283725
 30
0.0
 10
10.9407649334
 20
7.623546259
 30
0.0
 10
10.9431977788
 20
7.6212673451
 30
0.0
 10
10.9449809235
 20
7.6201106697
 30
0.0
 10
10.9458795329
 20
7.6196508889
 30
0.0
  0
SPLINE
  5
580
100
AcDbEntity
  8
0
100
AcDbSpline
 62
9
  6
CONTINUOUS
 70
0
 71
3
 72
14
 73
10
 74
0
 42
0.0000001
 43
0.0000001
 44
0.0000000001
 40
0.0
 40
0.0
 40
0.0
 40
0.0
 40
0.3166936342
 40
0.4632916826
 40
0.597664898
 40
0.7183138237
 40
0.8249517837
 40
0.918349546
 40
1.0
 40
1.0
 40
1.0
 40
1.0
 10
10.9899951314
 20
7.6481695021
 30
0.0
 10
10.990002466
 20
7.6448690315
 30
0.0
 10
10.99037799
 20
7.6400245955
 30
0.0
 10
10.9916997789
 20
7.6339308786
 30
0.0
 10
10.9929690067
 20
7.6299348732
 30
0.0
 10
10.9944875863
 20
7.626476418
 30
0.0
 10
10.99620557
 20
7.6235975769
 30
0.0
 10
10.998069704
 20
7.6213149262
 30
0.0
 10
10.9994699511
 20
7.620122377
 30
0.0
 10
11.0001783372
 20
7.6196509123
 30
0.0
  0
SPLINE
  5
581
100
AcDbEntity
  8
0
100
AcDbSpline
 62
7
  6
CONTINUOUS
 70
0
 71
3
 72
9
 73
5
 74
0
 42
0.0000001
 43
0.0000001
 44
0.0000000001
 40
0.0
 40
0.0
 40
0.0
 40
0.0
 40
0.2482969218
 40
1.0
 40
1.0
 40
1.0
 40
1.0
 10
11.0001783414
 20
7.6196508897
 30
0.0
 10
11.0007171904
 20
7.6198006159
 30
0.0
 10
11.0028740366
 20
7.6204502925
 30
0.0
 10
11.0049737601
 20
7.6212922047
 30
0.0
 10
11.0064963557
 20
7.6220327534
 30
0.0
  0
SPLINE
  5
582
100
AcDbEntity
  8
0
100
AcDbSpline
 62
7
  6
CONTINUOUS
 70
0
 71
3
 72
9
 73
5
 74
0
 42
0.0000001
 43
0.0000001
 44
0.0000000001
 40
0.0
 40
0.0
 40
0.0
 40
0.0
 40
0.5094289542
 40
1.0
 40
1.0
 40
1.0
 40
1.0
 10
11.0064963557
 20
7.6220327534
 30
0.0
 10
11.0071982536
 20
7.6215452067
 30
0.0
 10
11.0086310339
 20
7.6206646658
 30
0.0
 10
11.0101553684
 20
7.6199542735
 30
0.0
 10
11.0109203173
 20
7.6196507218
 30
0.0
  0
SPLINE
  5
583
100
AcDbEntity
  8
0
100
AcDbSpline
 62
9
  6
CONTINUOUS
 70
0
 71
3
 72
16
 73
12
 74
0
 42
0.0000001
 43
0.0000001
 44
0.0000000001
 40
0.0
 40
0.0
 40
0.0
 40
0.0
 40
0.3306343047
 40
0.4821064121
 40
0.6191183491
 40
0.7396439987
 40
0.8429088953
 40
0.888172168
 40
0.9293133197
 40
0.9665103284
 40
1.0
 40
1.0
 40
1.0
 40
1.0
 10
11.0462913722
 20
7.6481695021
 30
0.0
 10
11.0462985061
 20
7.6448750506
 30
0.0
 10
11.0465500279
 20
7.6400633825
 30
0.0
 10
11.0474586823
 20
7.6339583348
 30
0.0
 10
11.0483269388
 20
7.6299727299
 30
0.0
 10
11.0493613137
 20
7.6265257354
 30
0.0
 10
11.0503707889
 20
7.6240357736
 30
0.0
 10
11.0512434564
 20
7.6223580075
 30
0.0
 10
11.0518885941
 20
7.6213074522
 30
0.0
 10
11.0525494539
 20
7.6204086209
 30
0.0
 10
11.0530221358
 20
7.6198841515
 30
0.0
 10
11.0532607559
 20
7.6196508889
 30
0.0
  0
SPLINE
  5
584
100
AcDbEntity
  8
0
100
AcDbSpline
 62
7
  6
CONTINUOUS
 70
0
 71
3
 72
9
 73
5
 74
0
 42
0.0000001
 43
0.0000001
 44
0.0000000001
 40
0.0
 40
0.0
 40
0.0
 40
0.0
 40
0.2491255157
 40
1.0
 40
1.0
 40
1.0
 40
1.0
 10
11.0532607897
 20
7.6196507225
 30
0.0
 10
11.0538463823
 20
7.6198003137
 30
0.0
 10
11.0561845399
 20
7.6204479972
 30
0.0
 10
11.0584700734
 20
7.6212891451
 30
0.0
 10
11.0601330708
 20
7.6220327534
 30
0.0
  0
SPLINE
  5
585
100
AcDbEntity
  8
0
100
AcDbSpline
 62
7
  6
CONTINUOUS
 70
0
 71
3
 72
9
 73
5
 74
0
 42
0.0000001
 43
0.0000001
 44
0.0000000001
 40
0.0
 40
0.0
 40
0.0
 40
0.0
 40
0.2625027493
 40
1.0
 40
1.0
 40
1.0
 40
1.0
 10
11.0601330708
 20
7.6220327534
 30
0.0
 10
11.0604120192
 20
7.6217879538
 30
0.0
 10
11.0615018665
 20
7.6208871676
 30
0.0
 10
11.0627025682
 20
7.6201180365
 30
0.0
 10
11.063634673
 20
7.6196507218
 30
0.0
  0
SPLINE
  5
586
100
AcDbEntity
  8
0
100
AcDbSpline
 62
9
  6
CONTINUOUS
 70
0
 71
3
 72
17
 73
13
 74
0
 42
0.0000001
 43
0.0000001
 44
0.0000000001
 40
0.0
 40
0.0
 40
0.0
 40
0.0
 40
0.1739373675
 40
0.3415319767
 40
0.4969050017
 40
0.6361718817
 40
0.756874573
 40
0.8577823149
 40
0.9007338614
 40
0.9387016242
 40
0.9717549589
 40
1.0
 40
1.0
 40
1.0
 40
1.0
 10
11.1004738564
 20
7.6481695021
 30
0.0
 10
11.1004773377
 20
7.6464934891
 30
0.0
 10
11.1005249173
 20
7.6432024329
 30
0.0
 10
11.1007388894
 20
7.6384183296
 30
0.0
 10
11.1010878928
 20
7.6339771933
 30
0.0
 10
11.1015409209
 20
7.6299997835
 30
0.0
 10
11.1020775366
 20
7.6265630523
 30
0.0
 10
11.1026005461
 20
7.6240661361
 30
0.0
 10
11.1030542189
 20
7.6223734216
 30
0.0
 10
11.1033845068
 20
7.6213255753
 30
0.0
 10
11.1037211925
 20
7.6204297619
 30
0.0
 10
11.1039676064
 20
7.619892037
 30
0.0
 10
11.1040937194
 20
7.6196508572
 30
0.0
  0
SPLINE
  5
587
100
AcDbEntity
  8
0
100
AcDbSpline
 62
7
  6
CONTINUOUS
 70
0
 71
3
 72
9
 73
5
 74
0
 42
0.0000001
 43
0.0000001
 44
0.0000000001
 40
0.0
 40
0.0
 40
0.0
 40
0.0
 40
0.2496472044
 40
1.0
 40
1.0
 40
1.0
 40
1.0
 10
11.1040937634
 20
7.619650653
 30
0.0
 10
11.104714841
 20
7.6198001603
 30
0.0
 10
11.1071908608
 20
7.6204465129
 30
0.0
 10
11.1096172143
 20
7.6212871807
 30
0.0
 10
11.1113866163
 20
7.6220327534
 30
0.0
  0
SPLINE
  5
588
100
AcDbEntity
  8
0
100
AcDbSpline
 62
7
  6
CONTINUOUS
 70
0
 71
3
 72
9
 73
5
 74
0
 42
0.0000001
 43
0.0000001
 44
0.0000000001
 40
0.0
 40
0.0
 40
0.0
 40
0.0
 40
0.2707860188
 40
1.0
 40
1.0
 40
1.0
 40
1.0
 10
11.1113866163
 20
7.6220327534
 30
0.0
 10
11.1115846399
 20
7.6217904226
 30
0.0
 10
11.1123413904
 20
7.6209172676
 30
0.0
 10
11.1132070029
 20
7.6201336027
 30
0.0
 10
11.1138977045
 20
7.6196507218
 30
0.0
  0
SPLINE
  5
589
100
AcDbEntity
  8
0
100
AcDbSpline
 62
7
  6
CONTINUOUS
 70
0
 71
3
 72
9
 73
5
 74
0
 42
0.0000001
 43
0.0000001
 44
0.0000000001
 40
0.0
 40
0.0
 40
0.0
 40
0.0
 40
0.2499514133
 40
1.0
 40
1.0
 40
1.0
 40
1.0
 10
11.1516881674
 20
7.6196507225
 30
0.0
 10
11.152332739
 20
7.6198001794
 30
0.0
 10
11.1549001381
 20
7.6204456493
 30
0.0
 10
11.1574196291
 20
7.6212860454
 30
0.0
 10
11.1592594004
 20
7.6220327534
 30
0.0
  0
LINE
  5
58A
100
AcDbEntity
  8
0
100
AcDbLine
 62
7
  6
CONTINUOUS
 10
11.1592594004
 20
7.6220327534
 11
11.160731099
 21
7.6196507218
  0
SPLINE
  5
58B
100
AcDbEntity
  8
0
100
AcDbSpline
 62
9
  6
CONTINUOUS
 70
0
 71
3
 72
17
 73
13
 74
0
 42
0.0000001
 43
0.0000001
 44
0.0000000001
 40
0.0
 40
0.0
 40
0.0
 40
0.0
 40
0.1743185905
 40
0.3422412154
 40
0.4978179727
 40
0.6371481864
 40
0.7577693218
 40
0.8584612681
 40
0.9012678615
 40
0.9390726005
 40
0.9719470057
 40
1.0
 40
1.0
 40
1.0
 40
1.0
 10
11.1983408219
 20
7.6481695021
 30
0.0
 10
11.1983437392
 20
7.6464935678
 30
0.0
 10
11.1983011778
 20
7.6432029738
 30
0.0
 10
11.1981178462
 20
7.6384198832
 30
0.0
 10
11.1978290286
 20
7.6339788975
 30
0.0
 10
11.1974415516
 20
7.630001883
 30
0.0
 10
11.1969732151
 20
7.6265654748
 30
0.0
 10
11.1965068659
 20
7.6240675431
 30
0.0
 10
11.1960923594
 20
7.6223740188
 30
0.0
 10
11.1957865739
 20
7.6213261871
 30
0.0
 10
11.1954711101
 20
7.6204303822
 30
0.0
 10
11.1952375202
 20
7.6198922712
 30
0.0
 10
11.1951172084
 20
7.6196508851
 30
0.0
  0
SPLINE
  5
58C
100
AcDbEntity
  8
0
100
AcDbSpline
 62
7
  6
CONTINUOUS
 70
0
 71
3
 72
9
 73
5
 74
0
 42
0.0000001
 43
0.0000001
 44
0.0000000001
 40
0.0
 40
0.0
 40
0.0
 40
0.0
 40
0.2500846272
 40
1.0
 40
1.0
 40
1.0
 40
1.0
 10
11.195117248
 20
7.6196507108
 30
0.0
 10
11.195772891
 20
7.6198001463
 30
0.0
 10
11.1983833617
 20
7.6204452754
 30
0.0
 10
11.2009467253
 20
7.6212855382
 30
0.0
 10
11.2028196337
 20
7.6220327534
 30
0.0
  0
LINE
  5
58D
100
AcDbEntity
  8
0
100
AcDbLine
 62
7
  6
CONTINUOUS
 10
11.2028196337
 20
7.6220327534
 11
11.2032232979
 21
7.6196507218
  0
SPLINE
  5
58E
100
AcDbEntity
  8
0
100
AcDbSpline
 62
9
  6
CONTINUOUS
 70
0
 71
3
 72
11
 73
7
 74
0
 42
0.0000001
 43
0.0000001
 44
0.0000000001
 40
0.0
 40
0.0
 40
0.0
 40
0.0
 40
0.2774900848
 40
0.5428471826
 40
0.7857374665
 40
1.0
 40
1.0
 40
1.0
 40
1.0
 10
11.240120434
 20
7.6481695021
 30
0.0
 10
11.2401232887
 20
7.6462944123
 30
0.0
 10
11.24001452
 20
7.6426252162
 30
0.0
 10
11.2395457661
 20
7.6373332611
 30
0.0
 10
11.2388030198
 20
7.6325043008
 30
0.0
 10
11.2381047036
 20
7.6294906326
 30
0.0
 10
11.2377085544
 20
7.62809804
 30
0.0
  0
SPLINE
  5
58F
100
AcDbEntity
  8
0
100
AcDbSpline
 62
9
  6
CONTINUOUS
 70
0
 71
3
 72
11
 73
7
 74
0
 42
0.0000001
 43
0.0000001
 44
0.0000000001
 40
0.0
 40
0.0
 40
0.0
 40
0.0
 40
0.311488037
 40
0.5807865659
 40
0.8092777796
 40
1.0
 40
1.0
 40
1.0
 40
1.0
 10
11.2377085544
 20
7.62809804
 30
0.0
 10
11.2374384972
 20
7.627148702
 30
0.0
 10
11.2368743166
 20
7.6253946759
 30
0.0
 10
11.235871726
 20
7.6230295113
 30
0.0
 10
11.2347926371
 20
7.6211274446
 30
0.0
 10
11.2339630422
 20
7.620078343
 30
0.0
 10
11.2335358368
 20
7.6196508889
 30
0.0
  0
SPLINE
  5
590
100
AcDbEntity
  8
0
100
AcDbSpline
 62
7
  6
CONTINUOUS
 70
0
 71
3
 72
9
 73
5
 74
0
 42
0.0000001
 43
0.0000001
 44
0.0000000001
 40
0.0
 40
0.0
 40
0.0
 40
0.0
 40
0.7498793447
 40
1.0
 40
1.0
 40
1.0
 40
1.0
 10
11.2335358746
 20
7.6196507225
 30
0.0
 10
11.2354972665
 20
7.6200988604
 30
0.0
 10
11.2380843978
 20
7.6208397194
 30
0.0
 10
11.2405963726
 20
7.6217835566
 30
0.0
 10
11.2412194659
 20
7.6220327534
 30
0.0
  0
SPLINE
  5
591
100
AcDbEntity
  8
0
100
AcDbSpline
 62
9
  6
CONTINUOUS
 70
0
 71
3
 72
11
 73
7
 74
0
 42
0.0000001
 43
0.0000001
 44
0.0000000001
 40
0.0
 40
0.0
 40
0.0
 40
0.0
 40
0.2743476237
 40
0.5378719942
 40
0.7814497683
 40
1.0
 40
1.0
 40
1.0
 40
1.0
 10
11.2760136274
 20
7.6481695021
 30
0.0
 10
11.2760160249
 20
7.6462933996
 30
0.0
 10
11.2758535695
 20
7.6426130408
 30
0.0
 10
11.2751478533
 20
7.6373087246
 30
0.0
 10
11.2740277316
 20
7.6324665358
 30
0.0
 10
11.2729865076
 20
7.6294735813
 30
0.0
 10
11.2724021141
 20
7.6280980347
 30
0.0
  0
SPLINE
  5
592
100
AcDbEntity
  8
0
100
AcDbSpline
 62
9
  6
CONTINUOUS
 70
0
 71
3
 72
9
 73
5
 74
0
 42
0.0000001
 43
0.0000001
 44
0.0000000001
 40
0.0
 40
0.0
 40
0.0
 40
0.0
 40
0.5221045515
 40
1.0
 40
1.0
 40
1.0
 40
1.0
 10
11.2724021141
 20
7.6280980347
 30
0.0
 10
11.2720769825
 20
7.6273327392
 30
0.0
 10
11.2713984979
 20
7.6258897102
 30
0.0
 10
11.2705941037
 20
7.624511938
 30
0.0
 10
11.2701759709
 20
7.6238759949
 30
0.0
  0
SPLINE
  5
593
100
AcDbEntity
  8
0
100
AcDbSpline
 62
9
  6
CONTINUOUS
 70
0
 71
3
 72
9
 73
5
 74
0
 42
0.0000001
 43
0.0000001
 44
0.0000000001
 40
0.0
 40
0.0
 40
0.0
 40
0.0
 40
0.2697776216
 40
1.0
 40
1.0
 40
1.0
 40
1.0
 10
11.269088132
 20
7.6223783461
 30
0.0
 10
11.2688634349
 20
7.6220993967
 30
0.0
 10
11.2679992598
 20
7.621091946
 30
0.0
 10
11.2669997024
 20
7.6201934536
 30
0.0
 10
11.2661961921
 20
7.619650889
 30
0.0
  0
SPLINE
  5
594
100
AcDbEntity
  8
0
100
AcDbSpline
 62
9
  6
CONTINUOUS
 70
0
 71
3
 72
11
 73
7
 74
0
 42
0.0000001
 43
0.0000001
 44
0.0000000001
 40
0.0
 40
0.0
 40
0.0
 40
0.0
 40
0.2704634951
 40
0.5317543723
 40
0.7762291811
 40
1.0
 40
1.0
 40
1.0
 40
1.0
 10
11.3053217817
 20
7.6481695021
 30
0.0
 10
11.3053236754
 20
7.6462920755
 30
0.0
 10
11.3051098584
 20
7.6425972266
 30
0.0
 10
11.3041776388
 20
7.6372778202
 30
0.0
 10
11.3026966589
 20
7.6324215551
 30
0.0
 10
11.3013367334
 20
7.6294550724
 30
0.0
 10
11.3005809334
 20
7.62809804
 30
0.0
  0
LINE
  5
595
100
AcDbEntity
  8
0
100
AcDbLine
 62
9
  6
CONTINUOUS
 10
11.2997295908
 20
7.62666921
 11
11.2974168284
 21
7.6235928667
  0
SPLINE
  5
596
100
AcDbEntity
  8
0
100
AcDbSpline
 62
9
  6
CONTINUOUS
 70
0
 71
3
 72
9
 73
5
 74
0
 42
0.0000001
 43
0.0000001
 44
0.0000000001
 40
0.0
 40
0.0
 40
0.0
 40
0.0
 40
0.520140806
 40
1.0
 40
1.0
 40
1.0
 40
1.0
 10
11.2970804338
 20
7.6232243124
 30
0.0
 10
11.2963865572
 20
7.6224820722
 30
0.0
 10
11.2949449118
 20
7.621150182
 30
0.0
 10
11.2932952159
 20
7.6200814845
 30
0.0
 10
11.292462593
 20
7.6196508889
 30
0.0
  0
SPLINE
  5
597
100
AcDbEntity
  8
0
100
AcDbSpline
 62
9
  6
CONTINUOUS
 70
0
 71
3
 72
12
 73
8
 74
0
 42
0.0000001
 43
0.0000001
 44
0.0000000001
 40
0.0
 40
0.0
 40
0.0
 40
0.0
 40
0.1343414164
 40
0.2679153705
 40
0.5274531895
 40
0.7723923347
 40
1.0
 40
1.0
 40
1.0
 40
1.0
 10
11.3274744472
 20
7.6481695021
 30
0.0
 10
11.3274751611
 20
7.6471778309
 30
0.0
 10
11.3274010465
 20
7.6451992131
 30
0.0
 10
11.3269684966
 20
7.6413272183
 30
0.0
 10
11.3259256621
 20
7.6367135968
 30
0.0
 10
11.3239306321
 20
7.6316689581
 30
0.0
 10
11.322127627
 20
7.6286595868
 30
0.0
 10
11.3211367986
 20
7.6273027077
 30
0.0
  0
LINE
  5
598
100
AcDbEntity
  8
0
100
AcDbLine
 62
9
  6
CONTINUOUS
 10
11.3211367986
 20
7.6273027077
 11
11.3186379001
 21
7.6243583599
  0
SPLINE
  5
599
100
AcDbEntity
  8
0
100
AcDbSpline
 62
9
  6
CONTINUOUS
 70
0
 71
3
 72
9
 73
5
 74
0
 42
0.0000001
 43
0.0000001
 44
0.0000000001
 40
0.0
 40
0.0
 40
0.0
 40
0.0
 40
0.5127223516
 40
1.0
 40
1.0
 40
1.0
 40
1.0
 10
11.317436335
 20
7.6232243139
 30
0.0
 10
11.3165797281
 20
7.6224709385
 30
0.0
 10
11.3147969667
 20
7.6211230607
 30
0.0
 10
11.3128213017
 20
7.6200755913
 30
0.0
 10
11.3118237951
 20
7.619650889
 30
0.0
  0
SPLINE
  5
59A
100
AcDbEntity
  8
0
100
AcDbSpline
 62
9
  6
CONTINUOUS
 70
0
 71
3
 72
9
 73
5
 74
0
 42
0.0000001
 43
0.0000001
 44
0.0000000001
 40
0.0
 40
0.0
 40
0.0
 40
0.0
 40
0.2553531257
 40
1.0
 40
1.0
 40
1.0
 40
1.0
 10
11.3384525962
 20
7.6329762964
 30
0.0
 10
11.3382371419
 20
7.6325550039
 30
0.0
 10
11.3373558177
 20
7.6309246983
 30
0.0
 10
11.3363259084
 20
7.6293743218
 30
0.0
 10
11.3354818853
 20
7.6282826639
 30
0.0
  0
SPLINE
  5
59B
100
AcDbEntity
  8
0
100
AcDbSpline
 62
9
  6
CONTINUOUS
 70
0
 71
3
 72
9
 73
5
 74
0
 42
0.0000001
 43
0.0000001
 44
0.0000000001
 40
0.0
 40
0.0
 40
0.0
 40
0.0
 40
0.5124636337
 40
1.0
 40
1.0
 40
1.0
 40
1.0
 10
11.3334393022
 20
7.6259222743
 30
0.0
 10
11.3321436807
 20
7.6245843431
 30
0.0
 10
11.3293402471
 20
7.6222238389
 30
0.0
 10
11.3260988144
 20
7.6205120637
 30
0.0
 10
11.3244512374
 20
7.6198601869
 30
0.0
  0
SPLINE
  5
59C
100
AcDbEntity
  8
0
100
AcDbSpline
 62
9
  6
CONTINUOUS
 70
0
 71
3
 72
15
 73
11
 74
0
 42
0.0000001
 43
0.0000001
 44
0.0000000001
 40
0.0
 40
0.0
 40
0.0
 40
0.0
 40
0.1313644372
 40
0.2619215698
 40
0.3906140752
 40
0.5170745758
 40
0.6411556849
 40
0.7627975002
 40
0.8822870463
 40
1.0
 40
1.0
 40
1.0
 40
1.0
 10
10.5263004321
 20
7.6478462432
 30
0.0
 10
10.5263161181
 20
7.6464409016
 30
0.0
 10
10.5265489965
 20
7.6436371961
 30
0.0
 10
10.5274791117
 20
7.6395493147
 30
0.0
 10
10.5289584511
 20
7.6356822689
 30
0.0
 10
10.5309222603
 20
7.6321174827
 30
0.0
 10
10.5333036476
 20
7.6289114119
 30
0.0
 10
10.5360334888
 20
7.6261002527
 30
0.0
 10
10.539047808
 20
7.6237066665
 30
0.0
 10
10.5412233052
 20
7.6223853234
 30
0.0
 10
10.5423376462
 20
7.6217985765
 30
0.0
  0
SPLINE
  5
59D
100
AcDbEntity
  8
0
100
AcDbSpline
 62
9
  6
CONTINUOUS
 70
0
 71
3
 72
10
 73
6
 74
0
 42
0.0000001
 43
0.0000001
 44
0.0000000001
 40
0.0
 40
0.0
 40
0.0
 40
0.0
 40
0.26889932
 40
0.5294225776
 40
1.0
 40
1.0
 40
1.0
 40
1.0
 10
10.5580618101
 20
7.6481695021
 30
0.0
 10
10.5580594522
 20
7.6462810396
 30
0.0
 10
10.5583016706
 20
7.6425562344
 30
0.0
 10
10.5596551031
 20
7.6356571471
 30
0.0
 10
10.5616375681
 20
7.6308164829
 30
0.0
 10
10.5633870849
 20
7.6280127101
 30
0.0
  0
LINE
  5
59E
100
AcDbEntity
  8
0
100
AcDbLine
 62
9
  6
CONTINUOUS
 10
10.5633870849
 20
7.6280127101
 11
10.5652751692
 21
7.6253548087
  0
LINE
  5
59F
100
AcDbEntity
  8
0
100
AcDbLine
 62
9
  6
CONTINUOUS
 10
10.5652751692
 20
7.6253548087
 11
10.5670690942
 21
7.623374842
  0
SPLINE
  5
5A0
100
AcDbEntity
  8
0
100
AcDbSpline
 62
9
  6
CONTINUOUS
 70
0
 71
3
 72
9
 73
5
 74
0
 42
0.0000001
 43
0.0000001
 44
0.0000000001
 40
0.0
 40
0.0
 40
0.0
 40
0.0
 40
0.5159986159
 40
1.0
 40
1.0
 40
1.0
 40
1.0
 10
10.5672233068
 20
7.6232248531
 30
0.0
 10
10.5680003464
 20
7.6224764939
 30
0.0
 10
10.569616866
 20
7.6211352591
 30
0.0
 10
10.5714342658
 20
7.6200781776
 30
0.0
 10
10.5723515401
 20
7.6196508888
 30
0.0
  0
SPLINE
  5
5A1
100
AcDbEntity
  8
0
100
AcDbSpline
 62
9
  6
CONTINUOUS
 70
0
 71
3
 72
16
 73
12
 74
0
 42
0.0000001
 43
0.0000001
 44
0.0000000001
 40
0.0
 40
0.0
 40
0.0
 40
0.0
 40
0.0674777183
 40
0.134817868
 40
0.2674760037
 40
0.3967976025
 40
0.5225262506
 40
0.6449729597
 40
0.7647204555
 40
0.8828779893
 40
1.0
 40
1.0
 40
1.0
 40
1.0
 10
10.5263004554
 20
7.6864968444
 30
0.0
 10
10.5263120284
 20
7.6875266894
 30
0.0
 10
10.5264443256
 20
7.6895847596
 30
0.0
 10
10.5271237815
 20
7.6936160571
 30
0.0
 10
10.5287304743
 20
7.6984200743
 30
0.0
 10
10.5317180003
 20
7.7035726131
 30
0.0
 10
10.5355500976
 20
7.707923599
 30
0.0
 10
10.5400135033
 20
7.7113838105
 30
0.0
 10
10.5449233134
 20
7.7139274272
 30
0.0
 10
10.5501204414
 20
7.7155490476
 30
0.0
 10
10.5536983218
 20
7.7160328089
 30
0.0
 10
10.555483542
 20
7.7161255819
 30
0.0
  0
SPLINE
  5
5A2
100
AcDbEntity
  8
0
100
AcDbSpline
 62
9
  6
CONTINUOUS
 70
0
 71
3
 72
12
 73
8
 74
0
 42
0.0000001
 43
0.0000001
 44
0.0000000001
 40
0.0
 40
0.0
 40
0.0
 40
0.0
 40
0.1337565393
 40
0.2667933643
 40
0.5255271543
 40
0.7706396614
 40
1.0
 40
1.0
 40
1.0
 40
1.0
 10
10.5396576456
 20
7.6481695021
 30
0.0
 10
10.5396567958
 20
7.6471344142
 30
0.0
 10
10.5397443422
 20
7.6450685657
 30
0.0
 10
10.540254481
 20
7.6410303708
 30
0.0
 10
10.541484982
 20
7.6362304583
 30
0.0
 10
10.543827625
 20
7.6310330732
 30
0.0
 10
10.5459233776
 20
7.6279880843
 30
0.0
 10
10.5470672059
 20
7.6266308719
 30
0.0
  0
LINE
  5
5A3
100
AcDbEntity
  8
0
100
AcDbLine
 62
9
  6
CONTINUOUS
 10
10.5470672059
 20
7.6266308719
 11
10.5500968552
 21
7.6235787418
  0
SPLINE
  5
5A4
100
AcDbEntity
  8
0
100
AcDbSpline
 62
9
  6
CONTINUOUS
 70
0
 71
3
 72
9
 73
5
 74
0
 42
0.0000001
 43
0.0000001
 44
0.0000000001
 40
0.0
 40
0.0
 40
0.0
 40
0.0
 40
0.5095945527
 40
1.0
 40
1.0
 40
1.0
 40
1.0
 10
10.5507335219
 20
7.6230550114
 30
0.0
 10
10.5516371274
 20
7.6223368063
 30
0.0
 10
10.5535132317
 20
7.6210515043
 30
0.0
 10
10.5555594049
 20
7.6200578401
 30
0.0
 10
10.5565929728
 20
7.6196508888
 30
0.0
  0
SPLINE
  5
5A5
100
AcDbEntity
  8
0
100
AcDbSpline
 62
9
  6
CONTINUOUS
 70
0
 71
3
 72
15
 73
11
 74
0
 42
0.0000001
 43
0.0000001
 44
0.0000000001
 40
0.0
 40
0.0
 40
0.0
 40
0.0
 40
0.127725367
 40
0.2598556486
 40
0.3937837736
 40
0.5263501302
 40
0.6548144232
 40
0.7772724612
 40
0.8923472146
 40
1.0
 40
1.0
 40
1.0
 40
1.0
 10
15.1731135986
 20
9.3750403802
 30
0.0
 10
15.1731135619
 20
9.3707483196
 30
0.0
 10
15.1725250378
 20
9.3620062741
 30
0.0
 10
15.1698602912
 20
9.3490005492
 30
0.0
 10
15.1652427765
 20
9.3363727864
 30
0.0
 10
15.1588306775
 20
9.3246860471
 30
0.0
 10
15.1507655075
 20
9.3145545073
 30
0.0
 10
15.1415237835
 20
9.3063372736
 30
0.0
 10
15.1315123098
 20
9.3003497607
 30
0.0
 10
15.1244404563
 20
9.2977460215
 30
0.0
 10
15.1209399165
 20
9.2968334133
 30
0.0
  0
SPLINE
  5
5A6
100
AcDbEntity
  8
0
100
AcDbSpline
 62
9
  6
CONTINUOUS
 70
0
 71
3
 72
53
 73
49
 74
0
 42
0.0000001
 43
0.0000001
 44
0.0000000001
 40
0.0
 40
0.0
 40
0.0
 40
0.0
 40
0.0303124528
 40
0.0622650957
 40
0.0955338508
 40
0.1298196139
 40
0.1648466297
 40
0.2003777057
 40
0.2721954507
 40
0.3442931496
 40
0.4161555768
 40
0.4519147687
 40
0.4875211772
 40
0.5229544216
 40
0.5581894865
 40
0.6279460399
 40
0.6623979153
 40
0.6965013124
 40
0.7301948927
 40
0.7633954851
 40
0.7959972025
 40
0.8278561056
 40
0.8587725376
 40
0.8884702089
 40
0.9027424681
 40
0.9165454538
 40
0.9297973925
 40
0.9424017591
 40
0.9542337464
 40
0.9651487806
 40
0.9749658211
 40
0.9793999976
 40
0.9834802565
 40
0.9871778665
 40
0.9904630124
 40
0.9933052976
 40
0.9956755076
 40
0.9966759776
 40
0.9975495798
 40
0.9982934809
 40
0.9989050139
 40
0.99938259
 40
0.9995707822
 40
0.9997250511
 40
0.9998452519
 40
0.9999312401
 40
0.999982871
 40
1.0
 40
1.0
 40
1.0
 40
1.0
 10
15.1731124019
 20
9.3750403802
 30
0.0
 10
15.1701333877
 20
9.3804006204
 30
0.0
 10
15.1642732766
 20
9.3915579187
 30
0.0
 10
15.1561997358
 20
9.4091288069
 30
0.0
 10
15.148874548
 20
9.427893303
 30
0.0
 10
15.1425489407
 20
9.4476735978
 30
0.0
 10
15.1374053674
 20
9.4682669454
 30
0.0
 10
15.1322290902
 20
9.4966191675
 30
0.0
 10
15.1290264532
 20
9.5328688368
 30
0.0
 10
15.1296432591
 20
9.5765732323
 30
0.0
 10
15.1330183826
 20
9.6128049081
 30
0.0
 10
15.1369872586
 20
9.641510087
 30
0.0
 10
15.1404907207
 20
9.6628326812
 30
0.0
 10
15.1444498179
 20
9.6839666752
 30
0.0
 10
15.1502119459
 20
9.7117865268
 30
0.0
 10
15.1566207653
 20
9.7392642969
 30
0.0
 10
15.1634913656
 20
9.7663894798
 30
0.0
 10
15.1687946444
 20
9.7863842628
 30
0.0
 10
15.1742250342
 20
9.8060822482
 30
0.0
 10
15.1797423987
 20
9.8254402985
 30
0.0
 10
15.1853022728
 20
9.8443996277
 30
0.0
 10
15.1908568109
 20
9.8628784642
 30
0.0
 10
15.1963485909
 20
9.8807623064
 30
0.0
 10
15.2008717104
 20
9.8952214766
 30
0.0
 10
15.2044001112
 20
9.9063640593
 30
0.0
 10
15.2069411541
 20
9.9143293607
 30
0.0
 10
15.2093947269
 20
9.9219683673
 30
0.0
 10
15.2117395558
 20
9.9292234766
 30
0.0
 10
15.2139501785
 20
9.9360250982
 30
0.0
 10
15.2159958202
 20
9.9422874002
 30
0.0
 10
15.2175833193
 20
9.9471248956
 30
0.0
 10
15.2187429286
 20
9.9506475305
 30
0.0
 10
15.2195166318
 20
9.9529938421
 30
0.0
 10
15.2202184257
 20
9.9551190965
 30
0.0
 10
15.2208424013
 20
9.9570062936
 30
0.0
 10
15.2213826788
 20
9.9586383271
 30
0.0
 10
15.2217781249
 20
9.9598314217
 30
0.0
 10
15.2220484861
 20
9.9606464073
 30
0.0
 10
15.2222153107
 20
9.9611490566
 30
0.0
 10
15.2223574563
 20
9.9615770958
 30
0.0
 10
15.2224742485
 20
9.9619288382
 30
0.0
 10
15.2225559653
 20
9.9621744843
 30
0.0
 10
15.2226079098
 20
9.9623312772
 30
0.0
 10
15.2226381971
 20
9.9624214551
 30
0.0
 10
15.2226591845
 20
9.9624871591
 30
0.0
 10
15.2226801602
 20
9.962544594
 30
0.0
 10
15.2226820519
 20
9.9625603888
 30
0.0
 10
15.2226946441
 20
9.9625879754
 30
0.0
 10
15.2226923427
 20
9.9625853846
 30
0.0
  0
SPLINE
  5
5A7
100
AcDbEntity
  8
0
100
AcDbSpline
 62
9
  6
CONTINUOUS
 70
0
 71
3
 72
24
 73
20
 74
0
 42
0.0000001
 43
0.0000001
 44
0.0000000001
 40
0.0
 40
0.0
 40
0.0
 40
0.0
 40
0.0014840172
 40
0.0033209159
 40
0.005878096
 40
0.0131243638
 40
0.0231649482
 40
0.0359419769
 40
0.0513975775
 40
0.0694738778
 40
0.0901130054
 40
0.1387284991
 40
0.1961822022
 40
0.2612924599
 40
0.3328776381
 40
0.4906849449
 40
0.6598473329
 40
0.8314283233
 40
1.0
 40
1.0
 40
1.0
 40
1.0
 10
15.2317050927
 20
9.3402565235
 30
0.0
 10
15.2316747132
 20
9.3402711288
 30
0.0
 10
15.2316113032
 20
9.3403124641
 30
0.0
 10
15.2314947863
 20
9.3403775271
 30
0.0
 10
15.2312664989
 20
9.3405110077
 30
0.0
 10
15.2308759956
 20
9.3407360489
 30
0.0
 10
15.2302851599
 20
9.3410784675
 30
0.0
 10
15.229532648
 20
9.3415137469
 30
0.0
 10
15.2286222217
 20
9.342040574
 30
0.0
 10
15.2275571462
 20
9.3426566959
 30
0.0
 10
15.2258400444
 20
9.343649869
 30
0.0
 10
15.2233485565
 20
9.3450906071
 30
0.0
 10
15.2199830911
 20
9.3470378111
 30
0.0
 10
15.2161670296
 20
9.3492480251
 30
0.0
 10
15.2103805332
 20
9.3526042036
 30
0.0
 10
15.2025555249
 20
9.357156427
 30
0.0
 10
15.1927988201
 20
9.3629048887
 30
0.0
 10
15.1828878148
 20
9.3688723054
 30
0.0
 10
15.176334042
 20
9.3729654183
 30
0.0
 10
15.1731123661
 20
9.3750346339
 30
0.0
  0
LINE
  5
5A8
100
AcDbEntity
  8
0
100
AcDbLine
 62
9
  6
CONTINUOUS
 10
15.1209438333
 20
9.296833325
 11
15.1623705415
 21
9.2971662329
  0
SPLINE
  5
5A9
100
AcDbEntity
  8
0
100
AcDbSpline
 62
9
  6
CONTINUOUS
 70
0
 71
3
 72
57
 73
53
 74
0
 42
0.0000001
 43
0.0000001
 44
0.0000000001
 40
0.0
 40
0.0
 40
0.0
 40
0.0
 40
0.0000101019
 40
0.0000400446
 40
0.0000897908
 40
0.0001593031
 40
0.0003574764
 40
0.0006342659
 40
0.0009893735
 40
0.0014225014
 40
0.0019333527
 40
0.0025216307
 40
0.0039292833
 40
0.0056430983
 40
0.0076607236
 40
0.009979816
 40
0.0125973816
 40
0.0155078144
 40
0.0221824986
 40
0.0299551641
 40
0.0387784922
 40
0.0486033992
 40
0.0593700827
 40
0.0710198511
 40
0.083499349
 40
0.1107250165
 40
0.1406143555
 40
0.17285907
 40
0.2071278113
 40
0.2432761204
 40
0.281079238
 40
0.32024711
 40
0.3605376993
 40
0.4016021357
 40
0.4432257081
 40
0.5273172315
 40
0.6115768858
 40
0.6949420851
 40
0.7762019024
 40
0.8155149898
 40
0.8535010178
 40
0.8896847359
 40
0.9232857229
 40
0.9532334564
 40
0.9662494203
 40
0.9776038238
 40
0.9870082844
 40
0.9940898655
 40
0.9966409868
 40
0.9984909766
 40
0.9996179445
 40
1.0
 40
1.0
 40
1.0
 40
1.0
 10
15.2568061282
 20
9.3688993031
 30
0.0
 10
15.2568042242
 20
9.3688999062
 30
0.0
 10
15.256798798
 20
9.3689063135
 30
0.0
 10
15.2567841411
 20
9.3689159141
 30
0.0
 10
15.2567614865
 20
9.3689350949
 30
0.0
 10
15.2567121683
 20
9.3689737397
 30
0.0
 10
15.2566283086
 20
9.3690413585
 30
0.0
 10
15.2565002423
 20
9.3691439189
 30
0.0
 10
15.2563362883
 20
9.3692760616
 30
0.0
 10
15.2561364958
 20
9.3694374479
 30
0.0
 10
15.2559011569
 20
9.3696282023
 30
0.0
 10
15.2555166145
 20
9.3699408548
 30
0.0
 10
15.25494867
 20
9.370404939
 30
0.0
 10
15.2541638728
 20
9.3710502386
 30
0.0
 10
15.253242248
 20
9.371812846
 30
0.0
 10
15.2521856905
 20
9.3726926474
 30
0.0
 10
15.2509966587
 20
9.3736891962
 30
0.0
 10
15.2491547984
 20
9.3752473854
 30
0.0
 10
15.2465545471
 20
9.3774870725
 30
0.0
 10
15.2431116134
 20
9.3805390875
 30
0.0
 10
15.239259361
 20
9.3840673134
 30
0.0
 10
15.2350418946
 20
9.3880720268
 30
0.0
 10
15.2305208386
 20
9.3925664773
 30
0.0
 10
15.2257600246
 20
9.3975612004
 30
0.0
 10
15.2189809209
 20
9.4051212347
 30
0.0
 10
15.2103340625
 20
9.4158434157
 30
0.0
 10
15.2005347086
 20
9.4305811387
 30
0.0
 10
15.1918159736
 20
9.4475812194
 30
0.0
 10
15.1849368837
 20
9.4667490335
 30
0.0
 10
15.1807247193
 20
9.4877996352
 30
0.0
 10
15.1792546615
 20
9.5101772556
 30
0.0
 10
15.1806321768
 20
9.5333701046
 30
0.0
 10
15.1843957291
 20
9.5569293037
 30
0.0
 10
15.1901178329
 20
9.5805808592
 30
0.0
 10
15.1998682889
 20
9.6120960545
 30
0.0
 10
15.2149710969
 20
9.6508155935
 30
0.0
 10
15.2358042472
 20
9.6960275638
 30
0.0
 10
15.258151341
 20
9.7398767119
 30
0.0
 10
15.2774272688
 20
9.7752941019
 30
0.0
 10
15.2928114143
 20
9.8026079327
 30
0.0
 10
15.3039815168
 20
9.8220661917
 30
0.0
 10
15.3147157287
 20
9.8404718158
 30
0.0
 10
15.3247464813
 20
9.8574475388
 30
0.0
 10
15.3325090315
 20
9.8704429963
 30
0.0
 10
15.3380421174
 20
9.8796468763
 30
0.0
 10
15.3414914979
 20
9.8853644475
 30
0.0
 10
15.3443413061
 20
9.890073486
 30
0.0
 10
15.3462928438
 20
9.8932917813
 30
0.0
 10
15.3474717553
 20
9.8952318688
 30
0.0
 10
15.3480383035
 20
9.8961665059
 30
0.0
 10
15.3483850541
 20
9.8967328761
 30
0.0
 10
15.348538251
 20
9.8969889074
 30
0.0
 10
15.3485782893
 20
9.8970529575
 30
0.0
  0
LINE
  5
5AA
100
AcDbEntity
  8
0
100
AcDbLine
 62
9
  6
CONTINUOUS
 10
6.7130038291
 20
9.2971662677
 11
6.7544409278
 21
9.296833325
  0
SPLINE
  5
5AB
100
AcDbEntity
  8
0
100
AcDbSpline
 62
9
  6
CONTINUOUS
 70
0
 71
3
 72
15
 73
11
 74
0
 42
0.0000001
 43
0.0000001
 44
0.0000000001
 40
0.0
 40
0.0
 40
0.0
 40
0.0
 40
0.1277243786
 40
0.2598539238
 40
0.3937816073
 40
0.5263478749
 40
0.6548123917
 40
0.7772709299
 40
0.8923463822
 40
1.0
 40
1.0
 40
1.0
 40
1.0
 10
6.7022699411
 20
9.3750403802
 30
0.0
 10
6.70226998
 20
9.3707483392
 30
0.0
 10
6.7028585087
 20
9.3620063246
 30
0.0
 10
6.7055232508
 20
9.3490006306
 30
0.0
 10
6.7101407672
 20
9.3363728685
 30
0.0
 10
6.716552882
 20
9.3246861015
 30
0.0
 10
6.7246180918
 20
9.3145545132
 30
0.0
 10
6.7338598859
 20
9.3063372266
 30
0.0
 10
6.7438714562
 20
9.3003496684
 30
0.0
 10
6.7509433865
 20
9.2977459169
 30
0.0
 10
6.7544439664
 20
9.2968333065
 30
0.0
  0
SPLINE
  5
5AC
100
AcDbEntity
  8
0
100
AcDbSpline
 62
9
  6
CONTINUOUS
 70
0
 71
3
 72
53
 73
49
 74
0
 42
0.0000001
 43
0.0000001
 44
0.0000000001
 40
0.0
 40
0.0
 40
0.0
 40
0.0
 40
0.000017115
 40
0.0000687367
 40
0.0001547198
 40
0.000274919
 40
0.000429189
 40
0.0006173846
 40
0.0010949711
 40
0.0017065151
 40
0.0024504242
 40
0.0033240314
 40
0.0043245042
 40
0.0066947159
 40
0.0095370018
 40
0.0128221493
 40
0.0165197627
 40
0.0206000261
 40
0.0250342043
 40
0.0348512254
 40
0.0457662307
 40
0.0575982262
 40
0.070202624
 40
0.0834545834
 40
0.0972575711
 40
0.1115298292
 40
0.141227501
 40
0.1721439362
 40
0.204002842
 40
0.2366045657
 40
0.2698051638
 40
0.3034987483
 40
0.3376021328
 40
0.3720539866
 40
0.4418104993
 40
0.4770455678
 40
0.5124788276
 40
0.5480852687
 40
0.5838444837
 40
0.655706925
 40
0.7278046584
 40
0.799622423
 40
0.835153551
 40
0.8701805781
 40
0.9044663028
 40
0.9377350319
 40
0.9696876575
 40
1.0
 40
1.0
 40
1.0
 40
1.0
 10
6.6526923427
 20
9.9625853846
 30
0.0
 10
6.6526901057
 20
9.9625880274
 30
0.0
 10
6.6527025382
 20
9.9625603184
 30
0.0
 10
6.6527045777
 20
9.9625446568
 30
0.0
 10
6.6527254677
 20
9.9624871507
 30
0.0
 10
6.6527464921
 20
9.9624214808
 30
0.0
 10
6.6527767657
 20
9.9623312896
 30
0.0
 10
6.6528287187
 20
9.9621745002
 30
0.0
 10
6.6529104335
 20
9.9619288456
 30
0.0
 10
6.6530272301
 20
9.9615770995
 30
0.0
 10
6.6531693764
 20
9.961149055
 30
0.0
 10
6.6533362015
 20
9.9606464025
 30
0.0
 10
6.6536065619
 20
9.9598314145
 30
0.0
 10
6.6540020066
 20
9.9586383181
 30
0.0
 10
6.6545422842
 20
9.9570062836
 30
0.0
 10
6.6551662606
 20
9.9551190852
 30
0.0
 10
6.655868055
 20
9.9529938287
 30
0.0
 10
6.6566417577
 20
9.9506475146
 30
0.0
 10
6.6578013657
 20
9.9471248816
 30
0.0
 10
6.6593888692
 20
9.9422873969
 30
0.0
 10
6.661434522
 20
9.9360251062
 30
0.0
 10
6.6636451421
 20
9.9292234806
 30
0.0
 10
6.6659899631
 20
9.921968355
 30
0.0
 10
6.6684435341
 20
9.9143293353
 30
0.0
 10
6.6709845787
 20
9.9063640288
 30
0.0
 10
6.6745129818
 20
9.895221445
 30
0.0
 10
6.6790361033
 20
9.8807622729
 30
0.0
 10
6.6845278853
 20
9.8628784275
 30
0.0
 10
6.6900824241
 20
9.8443995862
 30
0.0
 10
6.6956422974
 20
9.8254402511
 30
0.0
 10
6.7011596568
 20
9.8060821934
 30
0.0
 10
6.7065900452
 20
9.7863842055
 30
0.0
 10
6.7118933392
 20
9.7663894302
 30
0.0
 10
6.7187639841
 20
9.7392642708
 30
0.0
 10
6.7251728734
 20
9.7117865254
 30
0.0
 10
6.730935006
 20
9.683966675
 30
0.0
 10
6.7348940133
 20
9.6628326504
 30
0.0
 10
6.7383973997
 20
9.6415100272
 30
0.0
 10
6.7423663179
 20
9.6128048371
 30
0.0
 10
6.7457414398
 20
9.5765731381
 30
0.0
 10
6.7463581696
 20
9.5328687285
 30
0.0
 10
6.7431556598
 20
9.4966190193
 30
0.0
 10
6.7379792924
 20
9.4682667907
 30
0.0
 10
6.7328356803
 20
9.4476734462
 30
0.0
 10
6.7265100692
 20
9.4278931615
 30
0.0
 10
6.719184896
 20
9.4091286755
 30
0.0
 10
6.7111113666
 20
9.391557811
 30
0.0
 10
6.7052511671
 20
9.3804005859
 30
0.0
 10
6.702272135
 20
9.3750403802
 30
0.0
  0
SPLINE
  5
5AD
100
AcDbEntity
  8
0
100
AcDbSpline
 62
9
  6
CONTINUOUS
 70
0
 71
3
 72
22
 73
18
 74
0
 42
0.0000001
 43
0.0000001
 44
0.0000000001
 40
0.0
 40
0.0
 40
0.0
 40
0.0
 40
0.1685689284
 40
0.3401470181
 40
0.5093102965
 40
0.6671201522
 40
0.7387061972
 40
0.8038170346
 40
0.8612712432
 40
0.9098873807
 40
0.9486036154
 40
0.9640595456
 40
0.9768367737
 40
0.9868773664
 40
0.9941233905
 40
0.9985169128
 40
1.0
 40
1.0
 40
1.0
 40
1.0
 10
6.7022712015
 20
9.3750365982
 30
0.0
 10
6.6990494663
 20
9.3729676033
 30
0.0
 10
6.6924956549
 20
9.3688748251
 30
0.0
 10
6.6825846923
 20
9.3629075905
 30
0.0
 10
6.6728280782
 20
9.3571589926
 30
0.0
 10
6.6650030868
 20
9.3526065785
 30
0.0
 10
6.6592165306
 20
9.3492503466
 30
0.0
 10
6.6554004174
 20
9.3470401498
 30
0.0
 10
6.6520349022
 20
9.3450929668
 30
0.0
 10
6.6491878838
 20
9.3434467787
 30
0.0
 10
6.647166925
 20
9.3422777036
 30
0.0
 10
6.6458505646
 20
9.3415163383
 30
0.0
 10
6.6450983075
 20
9.3410805609
 30
0.0
 10
6.6445067525
 20
9.3407394851
 30
0.0
 10
6.6440817535
 20
9.3404905761
 30
0.0
 10
6.6438216509
 20
9.3403452052
 30
0.0
 10
6.6437083585
 20
9.3402742054
 30
0.0
 10
6.6436782716
 20
9.3402590535
 30
0.0
  0
SPLINE
  5
5AE
100
AcDbEntity
  8
0
100
AcDbSpline
 62
9
  6
CONTINUOUS
 70
0
 71
3
 72
57
 73
53
 74
0
 42
0.0000001
 43
0.0000001
 44
0.0000000001
 40
0.0
 40
0.0
 40
0.0
 40
0.0
 40
0.000382103
 40
0.0015090589
 40
0.0033590065
 40
0.0059100849
 40
0.0129916444
 40
0.022396131
 40
0.0337505554
 40
0.046766522
 40
0.0767141908
 40
0.1103150234
 40
0.1464985993
 40
0.184484594
 40
0.2237977419
 40
0.3050579221
 40
0.3884238447
 40
0.4726836732
 40
0.5567745983
 40
0.5983980579
 40
0.6394625053
 40
0.6797531063
 40
0.7189209548
 40
0.7567240147
 40
0.7928722726
 40
0.8271409922
 40
0.8593856987
 40
0.8892750434
 40
0.916500716
 40
0.9289802062
 40
0.9406299619
 40
0.9513966333
 40
0.9612215349
 40
0.9700448684
 40
0.9778175442
 40
0.9844922342
 40
0.9874026652
 40
0.9900202244
 40
0.992339305
 40
0.9943569152
 40
0.9960707144
 40
0.997478353
 40
0.9980666256
 40
0.9985774729
 40
0.9990105986
 40
0.9993657061
 40
0.9996424981
 40
0.9998406766
 40
0.9999101927
 40
0.9999599435
 40
0.9999898917
 40
1.0
 40
1.0
 40
1.0
 40
1.0
 10
6.5268064237
 20
9.8970529159
 30
0.0
 10
6.5268464724
 20
9.8969888612
 30
0.0
 10
6.5269996607
 20
9.8967328163
 30
0.0
 10
6.527346422
 20
9.8961664544
 30
0.0
 10
6.5279129534
 20
9.8952318296
 30
0.0
 10
6.5290918571
 20
9.8932917625
 30
0.0
 10
6.5310433878
 20
9.8900734724
 30
0.0
 10
6.5338931999
 20
9.8853644311
 30
0.0
 10
6.5373425847
 20
9.8796468521
 30
0.0
 10
6.5428756662
 20
9.8704429805
 30
0.0
 10
6.5506381938
 20
9.8574475614
 30
0.0
 10
6.5606689093
 20
9.8404719024
 30
0.0
 10
6.5714030866
 20
9.8220663367
 30
0.0
 10
6.5825731756
 20
9.8026080994
 30
0.0
 10
6.5979573573
 20
9.7752942049
 30
0.0
 10
6.6172333917
 20
9.7398766204
 30
0.0
 10
6.6395805942
 20
9.696027255
 30
0.0
 10
6.6604137667
 20
9.6508152356
 30
0.0
 10
6.675516482
 20
9.6120957797
 30
0.0
 10
6.6852668681
 20
9.5805807125
 30
0.0
 10
6.690988964
 20
9.5569291769
 30
0.0
 10
6.6947525134
 20
9.5333699803
 30
0.0
 10
6.6961300181
 20
9.5101771468
 30
0.0
 10
6.6946599334
 20
9.4877995565
 30
0.0
 10
6.6904477515
 20
9.466748989
 30
0.0
 10
6.6835686895
 20
9.4475811865
 30
0.0
 10
6.6748499801
 20
9.4305810991
 30
0.0
 10
6.6650506065
 20
9.4158433896
 30
0.0
 10
6.656403732
 20
9.4051212239
 30
0.0
 10
6.6496246359
 20
9.3975611888
 30
0.0
 10
6.6448638343
 20
9.3925664639
 30
0.0
 10
6.6403427904
 20
9.3880720109
 30
0.0
 10
6.63612533
 20
9.3840672956
 30
0.0
 10
6.6322730733
 20
9.3805390723
 30
0.0
 10
6.6288301306
 20
9.3774870619
 30
0.0
 10
6.6262298725
 20
9.375247379
 30
0.0
 10
6.6243880111
 20
9.3736891923
 30
0.0
 10
6.6231989827
 20
9.3726926458
 30
0.0
 10
6.6221424325
 20
9.3718128463
 30
0.0
 10
6.6212208176
 20
9.3710502404
 30
0.0
 10
6.620436031
 20
9.3704049421
 30
0.0
 10
6.619868095
 20
9.3699408585
 30
0.0
 10
6.6194835582
 20
9.3696282067
 30
0.0
 10
6.6192482222
 20
9.3694374522
 30
0.0
 10
6.6190484312
 20
9.3692760665
 30
0.0
 10
6.6188844778
 20
9.369143922
 30
0.0
 10
6.618756409
 20
9.3690413651
 30
0.0
 10
6.6186725489
 20
9.3689737377
 30
0.0
 10
6.6186232244
 20
9.3689351037
 30
0.0
 10
6.6186005717
 20
9.3689159042
 30
0.0
 10
6.6185859024
 20
9.3689063352
 30
0.0
 10
6.6185804828
 20
9.3688998935
 30
0.0
 10
6.6185785729
 20
9.3688993052
 30
0.0
  0
ENDSEC
  0
SECTION
  2
OBJECTS
  0
DICTIONARY
  5
C
100
AcDbDictionary
280
0
281
1
  3
ACAD_GROUP
350
D
  3
ACAD_MLINESTYLE
350
17
  3
ACAD_LAYOUT
350
1A
  3
ACAD_PLOTSETTINGS
350
19
  3
ACAD_PLOTSTYLENAME
350
E
  0
DICTIONARY
  5
D
102
{ACAD_REACTORS
330
C
102
}
100
AcDbDictionary
280
0
281
1
  0
ACDBDICTIONARYWDFLT
  5
E
102
{ACAD_REACTORS
330
C
102
}
100
AcDbDictionary
281
1
  3
Normal
350
F
100
AcDbDictionaryWithDefault
340
F
  0
DICTIONARY
  5
17
102
{ACAD_REACTORS
330
C
102
}
100
AcDbDictionary
280
0
281
1
  3
Standard
350
18
  0
DICTIONARY
  5
19
102
{ACAD_REACTORS
330
C
102
}
100
AcDbDictionary
281
1
  0
DICTIONARY
  5
1A
102
{ACAD_REACTORS
330
C
102
}
100
AcDbDictionary
281
1
  3
Model
350
5AF
  3
Layout1
350
5B0
  0
ACDBPLACEHOLDER
  5
F
102
{ACAD_REACTORS
330
E
102
}
  0
MLINESTYLE
  5
18
102
{ACAD_REACTORS
330
17
102
}
100
AcDbMlineStyle
  2
STANDARD
 70
0
  3

 62
256
 51
90.0
 52
90.0
 71
2
 49
0.5
 62
256
  6
BYLAYER
 49
-0.5
 62
256
  6
BYLAYER
  0
LAYOUT
  5
5AF
102
{ACAD_REACTORS
330
1A
102
}
100
AcDbPlotSettings
  1

  2
none_device
  4
ANSI_C_(22.00_x_17.00_Inches)
  6

 40
0.0
 41
0.0
 42
0.0
 43
0.0
 44
558.8
 45
431.8
 46
0.0
 47
0.0
 48
0.0
 49
0.0
140
0.0
141
0.0
142
1.0
143
1.0
 70
1024
 72
0
 73
0
 74
0
  7

 75
0
147
1.0
148
0.0
149
0.0
100
AcDbLayout
  1
Model
 70
0
 71
0
 10
0.0
 20
0.0
 11
22.0
 21
17.0
 12
0.0
 22
0.0
 32
0.0
 14
0.0
 24
0.0
 34
0.0
 15
0.0
 25
0.0
 35
0.0
146
0.0
 13
0.0
 23
0.0
 33
0.0
 16
1.0
 26
0.0
 36
0.0
 17
0.0
 27
1.0
 37
0.0
 76
0
330
202
345
0
346
0
  0
LAYOUT
  5
5B0
102
{ACAD_REACTORS
330
1A
102
}
100
AcDbPlotSettings
  1

  2
none_device
  4
ANSI_C_(22.00_x_17.00_Inches)
  6

 40
0.0
 41
0.0
 42
0.0
 43
0.0
 44
558.8
 45
431.8
 46
0.0
 47
0.0
 48
0.0
 49
0.0
140
0.0
141
0.0
142
1.0
143
1.0
 70
0
 72
0
 73
0
 74
0
  7

 75
0
147
1.0
148
0.0
149
0.0
100
AcDbLayout
  1
Layout1
 70
0
 71
1
 10
0.0
 20
0.0
 11
22.0
 21
17.0
 12
0.0
 22
0.0
 32
0.0
 14
0.0
 24
0.0
 34
0.0
 15
0.0
 25
0.0
 35
0.0
146
0.0
 13
0.0
 23
0.0
 33
0.0
 16
1.0
 26
0.0
 36
0.0
 17
0.0
 27
1.0
 37
0.0
 76
0
330
203
345
0
346
0
  0
ENDSEC
  0
EOF
