  0
SECTION
  2
HEADER
  9
$ACADVER
  1
AC1021
  9
$DWGCODEPAGE
  3
ANSI_1252
  9
$EXTMAX
 10
23.3858267717
 20
16.5354330709
 30
0.0
  9
$EXTMIN
 10
0.0
 20
0.0
 30
0.0
  9
$LIMMIN
 10
0.0
 20
0.0
  9
$LIMMAX
 10
23.3858267717
 20
16.5354330709
  9
$VIEWCTR
 10
11.6929133858
 20
8.2677165354
  9
$VIEWSIZE
 40
16.5354330709
  9
$CLAYER
  8
0
  9
$LTSCALE
 40
1.2862204724
  9
$CELTYPE
  6
BYLAYER
  9
$DIMSCALE
 40
1.0
  9
$DIMASZ
 40
0.1
  9
$DIMEXO
 40
0.1461614173
  9
$DIMDLI
 40
0.8886614173
  9
$DIMEXE
 40
0.4209448819
  9
$DIMCEN
 40
0.2104724409
  9
$DIMLFAC
 40
1.0
  9
$DIMBLK
  1
_FILLED
  9
$DIMTXT
 40
0.08
  9
$DIMTOL
 70
1
  9
$DIMLIM
 70
0
  9
$DIMTFAC
 40
1.0
  9
$DIMTP
 40
0.001
  9
$DIMTM
 40
0.001
  9
$PDMODE
 70
3
  9
$PDSIZE
 40
0.06
  9
$HANDSEED
  5
2F9
  9
$TILEMODE
 70
1
  9
$MEASUREMENT
 70
0
  9
$INSUNITS
 70
1
  0
ENDSEC
  0
SECTION
  2
CLASSES
  0
CLASS
  1
ACDBDICTIONARYWDFLT
  2
AcDbDictionaryWithDefault
  3
AutoCAD 2000
 90
0
 91
1
280
0
281
0
  0
CLASS
  1
ACDBPLACEHOLDER
  2
AcDbPlaceHolder
  3
AutoCAD 2000
 90
0
 91
1
280
0
281
0
  0
CLASS
  1
LAYOUT
  2
AcDbLayout
  3
AutoCAD 2000
 90
0
 91
0
280
0
281
0
  0
ENDSEC
  0
SECTION
  2
TABLES
  0
TABLE
  2
VPORT
  5
8
100
AcDbSymbolTable
 70
2
  0
VPORT
  5
1F4
100
AcDbSymbolTableRecord
100
AcDbViewportTableRecord
  2
*ACTIVE
 70
0
 10
0.0
 20
0.0
 11
1.0
 21
1.0
 12
11.6929133858
 22
8.2677165354
 13
0.0
 23
0.0
 14
1.0
 24
1.0
 15
0.0
 25
0.0
 16
0.0
 26
0.0
 36
1.0
 17
0.0
 27
0.0
 37
0.0
 40
16.5354330709
 41
1.4142857143
 42
50.0
 43
0.0
 44
0.0
 50
0.0
 51
0.0
 71
0
 72
100
 73
1
 74
1
 75
0
 76
0
 77
0
 78
0
  0
ENDTAB
  0
TABLE
  2
LTYPE
  5
5
100
AcDbSymbolTable
 70
6
  0
LTYPE
  5
14
100
AcDbSymbolTableRecord
100
AcDbLinetypeTableRecord
  2
BYBLOCK
 70
0
  3

 72
65
 73
0
 40
0.0
  0
LTYPE
  5
15
100
AcDbSymbolTableRecord
100
AcDbLinetypeTableRecord
  2
BYLAYER
 70
0
  3

 72
65
 73
0
 40
0.0
  0
LTYPE
  5
16
100
AcDbSymbolTableRecord
100
AcDbLinetypeTableRecord
  2
CONTINUOUS
 70
64
  3
Solid line
 72
65
 73
0
 40
0.0
  0
LTYPE
  5
1F5
100
AcDbSymbolTableRecord
100
AcDbLinetypeTableRecord
  2
CENTER
 70
64
  3
____ _ ____ _ ____ _ ____ _ ____ _ ____ _ ____
 72
65
 73
4
 40
0.6
 49
0.375
 74
0
 49
-0.075
 74
0
 49
0.075
 74
0
 49
-0.075
 74
0
  0
LTYPE
  5
1F6
100
AcDbSymbolTableRecord
100
AcDbLinetypeTableRecord
  2
HIDDEN
 70
64
  3
- - - - - - - - - - - - - - - - - - - -
 72
65
 73
2
 40
0.2
 49
0.1
 74
0
 49
-0.1
 74
0
  0
LTYPE
  5
1F7
100
AcDbSymbolTableRecord
100
AcDbLinetypeTableRecord
  2
PHANTOM
 70
64
  3
_____ _ _ _____ _ _ _____ _ _ _____
 72
65
 73
6
 40
0.8
 49
0.45
 74
0
 49
-0.05
 74
0
 49
0.1
 74
0
 49
-0.05
 74
0
 49
0.1
 74
0
 49
-0.05
 74
0
  0
LTYPE
  5
1F8
100
AcDbSymbolTableRecord
100
AcDbLinetypeTableRecord
  2
DOT
 70
64
  3
. . . . . . . . . . . . . . . . . . . .
 72
65
 73
2
 40
0.2
 49
0.1
 74
0
 49
-0.1
 74
0
  0
LTYPE
  5
1F9
100
AcDbSymbolTableRecord
100
AcDbLinetypeTableRecord
  2
DASHED
 70
64
  3
- - - - - - - - - - - - - - - - - - - -
 72
65
 73
2
 40
0.2
 49
0.1
 74
0
 49
-0.1
 74
0
  0
ENDTAB
  0
TABLE
  2
LAYER
  5
2
100
AcDbSymbolTable
 70
36
  0
LAYER
  5
10
100
AcDbSymbolTableRecord
100
AcDbLayerTableRecord
  2
0
 70
0
 62
7
  6
CONTINUOUS
370
-3
390
F
  0
LAYER
  5
1FA
100
AcDbSymbolTableRecord
100
AcDbLayerTableRecord
  2
DEFAULT_1
 70
0
 62
7
  6
CENTER
370
-3
390
F
  0
LAYER
  5
1FB
100
AcDbSymbolTableRecord
100
AcDbLayerTableRecord
  2
DEFAULT_2
 70
0
 62
7
  6
HIDDEN
370
-3
390
F
  0
LAYER
  5
1FC
100
AcDbSymbolTableRecord
100
AcDbLayerTableRecord
  2
DEFAULT_3
 70
0
 62
7
  6
PHANTOM
370
-3
390
F
  0
LAYER
  5
1FD
100
AcDbSymbolTableRecord
100
AcDbLayerTableRecord
  2
280_ASSY_DATUMS
 70
0
 62
7
  6
CONTINUOUS
370
-3
390
F
  0
LAYER
  5
1FE
100
AcDbSymbolTableRecord
100
AcDbLayerTableRecord
  2
ALL_ASSEMBLY_MEMBERS
 70
0
 62
7
  6
CONTINUOUS
370
-3
390
F
  0
LAYER
  5
1FF
100
AcDbSymbolTableRecord
100
AcDbLayerTableRecord
  2
ALL_FEATURES
 70
0
 62
7
  6
CONTINUOUS
370
-3
390
F
  0
LAYER
  5
200
100
AcDbSymbolTableRecord
100
AcDbLayerTableRecord
  2
AXES_FEATURES
 70
0
 62
7
  6
CONTINUOUS
370
-3
390
F
  0
LAYER
  5
201
100
AcDbSymbolTableRecord
100
AcDbLayerTableRecord
  2
CHAMFER_FEATURES
 70
0
 62
7
  6
CONTINUOUS
370
-3
390
F
  0
LAYER
  5
202
100
AcDbSymbolTableRecord
100
AcDbLayerTableRecord
  2
COORDINATE_SYSTEMS
 70
0
 62
7
  6
CONTINUOUS
370
-3
390
F
  0
LAYER
  5
203
100
AcDbSymbolTableRecord
100
AcDbLayerTableRecord
  2
COSMETIC_SKETCHES
 70
0
 62
7
  6
CONTINUOUS
370
-3
390
F
  0
LAYER
  5
204
100
AcDbSymbolTableRecord
100
AcDbLayerTableRecord
  2
CUT_FEATURES
 70
0
 62
7
  6
CONTINUOUS
370
-3
390
F
  0
LAYER
  5
205
100
AcDbSymbolTableRecord
100
AcDbLayerTableRecord
  2
DATUM_CURVES
 70
0
 62
7
  6
CONTINUOUS
370
-3
390
F
  0
LAYER
  5
206
100
AcDbSymbolTableRecord
100
AcDbLayerTableRecord
  2
DATUM_PLANES
 70
0
 62
7
  6
CONTINUOUS
370
-3
390
F
  0
LAYER
  5
207
100
AcDbSymbolTableRecord
100
AcDbLayerTableRecord
  2
DATUM_POINTS
 70
0
 62
7
  6
CONTINUOUS
370
-3
390
F
  0
LAYER
  5
208
100
AcDbSymbolTableRecord
100
AcDbLayerTableRecord
  2
DEFAULT_COORDINATE_SYSTEM
 70
0
 62
7
  6
CONTINUOUS
370
-3
390
F
  0
LAYER
  5
209
100
AcDbSymbolTableRecord
100
AcDbLayerTableRecord
  2
DEFAULT_DATUM_AXES
 70
0
 62
7
  6
CONTINUOUS
370
-3
390
F
  0
LAYER
  5
20A
100
AcDbSymbolTableRecord
100
AcDbLayerTableRecord
  2
DEFAULT_DATUM_CURVES
 70
0
 62
7
  6
CONTINUOUS
370
-3
390
F
  0
LAYER
  5
20B
100
AcDbSymbolTableRecord
100
AcDbLayerTableRecord
  2
DEFAULT_DATUM_PLANES
 70
0
 62
7
  6
CONTINUOUS
370
-3
390
F
  0
LAYER
  5
20C
100
AcDbSymbolTableRecord
100
AcDbLayerTableRecord
  2
DEFAULT_SURFACES
 70
0
 62
7
  6
CONTINUOUS
370
-3
390
F
  0
LAYER
  5
20D
100
AcDbSymbolTableRecord
100
AcDbLayerTableRecord
  2
DIMENSIONS
 70
0
 62
7
  6
CONTINUOUS
370
-3
390
F
  0
LAYER
  5
20E
100
AcDbSymbolTableRecord
100
AcDbLayerTableRecord
  2
HOLE_FEATURES
 70
0
 62
7
  6
CONTINUOUS
370
-3
390
F
  0
LAYER
  5
20F
100
AcDbSymbolTableRecord
100
AcDbLayerTableRecord
  2
PART_REFERENCE_DIMENSIONS
 70
0
 62
7
  6
CONTINUOUS
370
-3
390
F
  0
LAYER
  5
210
100
AcDbSymbolTableRecord
100
AcDbLayerTableRecord
  2
PLATED_AREA
 70
0
 62
7
  6
CONTINUOUS
370
-3
390
F
  0
LAYER
  5
211
100
AcDbSymbolTableRecord
100
AcDbLayerTableRecord
  2
PLATED_SURFACE_AREA
 70
0
 62
7
  6
CONTINUOUS
370
-3
390
F
  0
LAYER
  5
212
100
AcDbSymbolTableRecord
100
AcDbLayerTableRecord
  2
PLATING_AREA
 70
0
 62
7
  6
CONTINUOUS
370
-3
390
F
  0
LAYER
  5
213
100
AcDbSymbolTableRecord
100
AcDbLayerTableRecord
  2
PLATTED_SURFACE_AREA
 70
0
 62
7
  6
CONTINUOUS
370
-3
390
F
  0
LAYER
  5
214
100
AcDbSymbolTableRecord
100
AcDbLayerTableRecord
  2
POINTS
 70
0
 62
7
  6
CONTINUOUS
370
-3
390
F
  0
LAYER
  5
215
100
AcDbSymbolTableRecord
100
AcDbLayerTableRecord
  2
PROTRUSION_FEATURES
 70
0
 62
7
  6
CONTINUOUS
370
-3
390
F
  0
LAYER
  5
216
100
AcDbSymbolTableRecord
100
AcDbLayerTableRecord
  2
QUILTS
 70
0
 62
7
  6
CONTINUOUS
370
-3
390
F
  0
LAYER
  5
217
100
AcDbSymbolTableRecord
100
AcDbLayerTableRecord
  2
REFERENCE_DIMENSIONS
 70
0
 62
7
  6
CONTINUOUS
370
-3
390
F
  0
LAYER
  5
218
100
AcDbSymbolTableRecord
100
AcDbLayerTableRecord
  2
ROUND_FEATURES
 70
0
 62
7
  6
CONTINUOUS
370
-3
390
F
  0
LAYER
  5
219
100
AcDbSymbolTableRecord
100
AcDbLayerTableRecord
  2
SHELL_FEATURES
 70
0
 62
7
  6
CONTINUOUS
370
-3
390
F
  0
LAYER
  5
21A
100
AcDbSymbolTableRecord
100
AcDbLayerTableRecord
  2
SURFACE_FEATURES
 70
0
 62
7
  6
CONTINUOUS
370
-3
390
F
  0
LAYER
  5
21B
100
AcDbSymbolTableRecord
100
AcDbLayerTableRecord
  2
WETTED_SURFACES
 70
0
 62
7
  6
CONTINUOUS
370
-3
390
F
  0
LAYER
  5
21C
100
AcDbSymbolTableRecord
100
AcDbLayerTableRecord
  2
XSEC_DATUMS
 70
0
 62
7
  6
CONTINUOUS
370
-3
390
F
  0
ENDTAB
  0
TABLE
  2
STYLE
  5
3
100
AcDbSymbolTable
 70
1
  0
STYLE
  5
11
100
AcDbSymbolTableRecord
100
AcDbTextStyleTableRecord
  2
STANDARD
 70
0
 40
0.0
 41
0.8
 50
0.0
 71
0
 42
0.2
  3
txt
  4

  0
STYLE
  5
21D
100
AcDbSymbolTableRecord
100
AcDbTextStyleTableRecord
  2
TEXTSTYLE_1
 70
0
 40
0.0
 41
0.8
 50
0.0
 71
0
 42
0.2
  3
gdt
  4

  0
ENDTAB
  0
TABLE
  2
VIEW
  5
6
100
AcDbSymbolTable
 70
0
  0
ENDTAB
  0
TABLE
  2
UCS
  5
7
100
AcDbSymbolTable
 70
0
  0
ENDTAB
  0
TABLE
  2
APPID
  5
9
100
AcDbSymbolTable
 70
1
  0
APPID
  5
21E
100
AcDbSymbolTableRecord
100
AcDbRegAppTableRecord
  2
ACAD
 70
0
  0
ENDTAB
  0
TABLE
  2
BLOCK_RECORD
  5
1
100
AcDbSymbolTable
 70
0
  0
BLOCK_RECORD
  5
21F
100
AcDbSymbolTableRecord
100
AcDbBlockTableRecord
  2
*Model_Space
  0
BLOCK_RECORD
  5
220
100
AcDbSymbolTableRecord
100
AcDbBlockTableRecord
  2
*Paper_Space
  0
ENDTAB
  0
TABLE
  2
DIMSTYLE
  5
A
100
AcDbSymbolTable
 70
1
100
AcDbDimStyleTable
 71
0
  0
DIMSTYLE
105
221
100
AcDbSymbolTableRecord
100
AcDbDimStyleTableRecord
  2
STANDARD
 70
0
  3

  4

 40
1.0
 41
0.1
 42
0.0625
 43
0.38
 44
0.18
 45
0.0
 46
0.0
 47
0.001
 48
0.001
140
0.08
141
0.09
142
0.0
143
25.4
144
1.0
145
0.0
146
1.0
147
0.09
 71
1.0
 72
0.0
 73
1
 74
1
 75
0
 76
0
 77
0
 78
4
170
0
171
2
172
0
173
0
174
0
175
0
176
0
177
0
178
0
270
2
271
3
272
3
273
2
274
2
275
0
280
0
281
0
282
0
283
1
284
4
285
0
286
0
287
3
288
0
340
11
  0
ENDTAB
  0
ENDSEC
  0
SECTION
  2
BLOCKS
  0
BLOCK
  5
20
100
AcDbEntity
  8
0
100
AcDbBlockBegin
  2
*Model_Space
 70
0
 10
0.0
 20
0.0
 30
0.0
  3
*Model_Space
  1

  0
ENDBLK
  5
21
100
AcDbEntity
  8
0
100
AcDbBlockEnd
  0
BLOCK
  5
1C
100
AcDbEntity
  8
0
100
AcDbBlockBegin
  2
*Paper_Space
 70
0
 10
0.0
 20
0.0
 30
0.0
  3
*Paper_Space
  1

  0
ENDBLK
  5
1D
100
AcDbEntity
  8
0
100
AcDbBlockEnd
  0
ENDSEC
  0
SECTION
  2
ENTITIES
  0
LINE
  5
222
100
AcDbEntity
  8
ALL_ASSEMBLY_MEMBERS
100
AcDbLine
 62
7
  6
BYLAYER
 10
6.3861122976
 20
8.3139172751
 11
6.3861122976
 21
7.1339172751
  0
LINE
  5
223
100
AcDbEntity
  8
ALL_ASSEMBLY_MEMBERS
100
AcDbLine
 62
7
  6
BYLAYER
 10
6.4461122976
 20
7.0939172751
 11
6.4461122976
 21
8.3539172751
  0
LINE
  5
224
100
AcDbEntity
  8
ALL_ASSEMBLY_MEMBERS
100
AcDbLine
 62
7
  6
BYLAYER
 10
7.0161122976
 20
7.0939172751
 11
7.0161122976
 21
7.6039172751
  0
LINE
  5
225
100
AcDbEntity
  8
ALL_ASSEMBLY_MEMBERS
100
AcDbLine
 62
7
  6
BYLAYER
 10
7.0561122976
 20
7.1339172751
 11
7.0561122976
 21
7.6039172751
  0
LINE
  5
226
100
AcDbEntity
  8
ALL_ASSEMBLY_MEMBERS
100
AcDbLine
 62
7
  6
BYLAYER
 10
7.1361122976
 20
7.7239172751
 11
7.1361122976
 21
7.6839172751
  0
LINE
  5
227
100
AcDbEntity
  8
ALL_ASSEMBLY_MEMBERS
100
AcDbLine
 62
7
  6
BYLAYER
 10
8.4735223974
 20
12.4933355552
 11
8.2153130379
 21
12.0077143791
  0
LINE
  5
228
100
AcDbEntity
  8
ALL_ASSEMBLY_MEMBERS
100
AcDbLine
 62
7
  6
BYLAYER
 10
8.2671699828
 20
11.9348387504
 11
8.5629370674
 21
12.4910957339
  0
LINE
  5
229
100
AcDbEntity
  8
ALL_FEATURES
100
AcDbLine
 62
7
  6
BYLAYER
 10
8.5980459028
 20
11.758908903
 11
8.5181530768
 21
11.6631616187
  0
LINE
  5
22A
100
AcDbEntity
  8
ALL_FEATURES
100
AcDbLine
 62
7
  6
BYLAYER
 10
8.8099533251
 20
11.646235728
 11
8.7300604991
 21
11.5504884436
  0
LINE
  5
22B
100
AcDbEntity
  8
ALL_ASSEMBLY_MEMBERS
100
AcDbLine
 62
7
  6
BYLAYER
 10
14.7021222464
 20
4.8139172751
 11
15.4321023487
 21
4.8139172751
  0
LINE
  5
22C
100
AcDbEntity
  8
ALL_ASSEMBLY_MEMBERS
100
AcDbLine
 62
7
  6
BYLAYER
 10
14.7475087559
 20
4.8152572749
 11
14.7007722978
 21
4.8152572749
  0
LINE
  5
22D
100
AcDbEntity
  8
0
100
AcDbLine
 62
7
  6
BYLAYER
 10
15.9096122976
 20
4.8489172751
 11
15.7846122976
 21
4.8489172751
  0
LINE
  5
22E
100
AcDbEntity
  8
0
100
AcDbLine
 62
7
  6
BYLAYER
 10
15.7837996134
 20
4.8489172751
 11
15.4334522969
 21
4.8489172751
  0
LINE
  5
22F
100
AcDbEntity
  8
0
100
AcDbLine
 62
7
  6
BYLAYER
 10
14.6671122976
 20
4.8489172751
 11
14.3504249817
 21
4.8489172751
  0
LINE
  5
230
100
AcDbEntity
  8
0
100
AcDbLine
 62
7
  6
BYLAYER
 10
14.3496122976
 20
4.8489172751
 11
14.2246122976
 21
4.8489172751
  0
LINE
  5
231
100
AcDbEntity
  8
ALL_ASSEMBLY_MEMBERS
100
AcDbLine
 62
7
  6
BYLAYER
 10
14.6905425691
 20
4.8539172751
 11
14.6621122976
 21
4.8539172751
  0
LINE
  5
232
100
AcDbEntity
  8
ALL_ASSEMBLY_MEMBERS
100
AcDbLine
 62
7
  6
BYLAYER
 10
16.2056122976
 20
4.8684172751
 11
15.9704614649
 21
4.8684172751
  0
LINE
  5
233
100
AcDbEntity
  8
ALL_ASSEMBLY_MEMBERS
100
AcDbLine
 62
7
  6
BYLAYER
 10
14.1637631303
 20
4.8684172751
 11
13.9286122976
 21
4.8684172751
  0
LINE
  5
234
100
AcDbEntity
  8
0
100
AcDbLine
 62
7
  6
BYLAYER
 10
15.9556122976
 20
4.8709172751
 11
14.1786122976
 21
4.8709172751
  0
LINE
  5
235
100
AcDbEntity
  8
0
100
AcDbLine
 62
7
  6
BYLAYER
 10
13.8171122976
 20
4.8939172751
 11
16.3171122976
 21
4.8939172751
  0
LINE
  5
236
100
AcDbEntity
  8
ALL_FEATURES
100
AcDbLine
 62
7
  6
BYLAYER
 10
8.4589990378
 20
11.8328414326
 11
8.4242964429
 21
11.7130660762
  0
LINE
  5
237
100
AcDbEntity
  8
ALL_FEATURES
100
AcDbLine
 62
7
  6
BYLAYER
 10
8.6709064601
 20
11.7201682575
 11
8.6362038652
 21
11.6003929011
  0
LINE
  5
238
100
AcDbEntity
  8
ALL_FEATURES
100
AcDbLine
 62
7
  6
BYLAYER
 10
9.0218607474
 20
11.5335625529
 11
8.9419679214
 21
11.4378152686
  0
LINE
  5
239
100
AcDbEntity
  8
ALL_FEATURES
100
AcDbLine
 62
7
  6
BYLAYER
 10
9.2337681697
 20
11.4208893778
 11
9.1538753437
 21
11.3251420935
  0
LINE
  5
23A
100
AcDbEntity
  8
0
100
AcDbLine
 62
7
  6
BYLAYER
 10
13.8171122976
 20
5.1739172751
 11
16.3171122976
 21
5.1739172751
  0
LINE
  5
23B
100
AcDbEntity
  8
0
100
AcDbLine
 62
7
  6
BYLAYER
 10
13.8471122976
 20
5.2039172751
 11
16.2871122976
 21
5.2039172751
  0
LINE
  5
23C
100
AcDbEntity
  8
0
100
AcDbLine
 62
7
  6
BYLAYER
 10
14.0671122976
 20
5.2139172751
 11
14.5196122976
 21
5.2139172751
  0
LINE
  5
23D
100
AcDbEntity
  8
0
100
AcDbLine
 62
7
  6
BYLAYER
 10
15.6146122976
 20
5.2139172751
 11
16.0671122976
 21
5.2139172751
  0
LINE
  5
23E
100
AcDbEntity
  8
0
100
AcDbLine
 62
7
  6
BYLAYER
 10
14.0971122976
 20
5.2439172751
 11
14.5196122976
 21
5.2439172751
  0
LINE
  5
23F
100
AcDbEntity
  8
0
100
AcDbLine
 62
7
  6
BYLAYER
 10
15.6146122976
 20
5.2439172751
 11
16.0371122976
 21
5.2439172751
  0
LINE
  5
240
100
AcDbEntity
  8
ALL_FEATURES
100
AcDbLine
 62
7
  6
BYLAYER
 10
8.8828138824
 20
11.6074950825
 11
8.8481112875
 21
11.487719726
  0
LINE
  5
241
100
AcDbEntity
  8
ALL_FEATURES
100
AcDbLine
 62
7
  6
BYLAYER
 10
9.0947213047
 20
11.4948219074
 11
9.0600187098
 21
11.375046551
  0
LINE
  5
242
100
AcDbEntity
  8
ALL_FEATURES
100
AcDbLine
 62
7
  6
BYLAYER
 10
9.445675592
 20
11.3082162028
 11
9.365782766
 21
11.2124689184
  0
LINE
  5
243
100
AcDbEntity
  8
ALL_FEATURES
100
AcDbLine
 62
7
  6
BYLAYER
 10
9.6575830143
 20
11.1955430277
 11
9.5776901883
 21
11.0997957434
  0
LINE
  5
244
100
AcDbEntity
  8
ALL_ASSEMBLY_MEMBERS
100
AcDbLine
 62
7
  6
BYLAYER
 10
14.8336442494
 20
5.613206597
 11
15.3005803458
 21
5.6132065971
  0
LINE
  5
245
100
AcDbEntity
  8
ALL_ASSEMBLY_MEMBERS
100
AcDbLine
 62
7
  6
BYLAYER
 10
14.9337406517
 20
5.6485619361
 11
15.2004839435
 21
5.6485619361
  0
LINE
  5
246
100
AcDbEntity
  8
ALL_ASSEMBLY_MEMBERS
100
AcDbLine
 62
7
  6
BYLAYER
 10
14.5196122976
 20
5.7360887066
 11
15.6146122976
 21
5.7360887066
  0
LINE
  5
247
100
AcDbEntity
  8
ALL_FEATURES
100
AcDbLine
 62
7
  6
BYLAYER
 10
9.3066287269
 20
11.3821487323
 11
9.2719261321
 21
11.2623733759
  0
LINE
  5
248
100
AcDbEntity
  8
ALL_FEATURES
100
AcDbLine
 62
7
  6
BYLAYER
 10
9.5185361492
 20
11.2694755573
 11
9.4838335544
 21
11.1497002008
  0
LINE
  5
249
100
AcDbEntity
  8
ALL_FEATURES
100
AcDbLine
 62
7
  6
BYLAYER
 10
9.8694904365
 20
11.0828698526
 11
9.7895976106
 21
10.9871225683
  0
LINE
  5
24A
100
AcDbEntity
  8
ALL_FEATURES
100
AcDbLine
 62
7
  6
BYLAYER
 10
10.0813978588
 20
10.9701966775
 11
10.0015050328
 21
10.8744493932
  0
LINE
  5
24B
100
AcDbEntity
  8
ALL_ASSEMBLY_MEMBERS
100
AcDbLine
 62
7
  6
BYLAYER
 10
14.5496122976
 20
5.8075029909
 11
15.5846122976
 21
5.8075029909
  0
LINE
  5
24C
100
AcDbEntity
  8
ALL_ASSEMBLY_MEMBERS
100
AcDbLine
 62
7
  6
BYLAYER
 10
15.5546122976
 20
5.8789172751
 11
14.5796122976
 21
5.8789172751
  0
LINE
  5
24D
100
AcDbEntity
  8
ALL_FEATURES
100
AcDbLine
 62
7
  6
BYLAYER
 10
9.7304435715
 20
11.1568023822
 11
9.6957409767
 21
11.0370270257
  0
LINE
  5
24E
100
AcDbEntity
  8
ALL_FEATURES
100
AcDbLine
 62
7
  6
BYLAYER
 10
9.9423509938
 20
11.0441292071
 11
9.907648399
 21
10.9243538507
  0
LINE
  5
24F
100
AcDbEntity
  8
ALL_FEATURES
100
AcDbLine
 62
7
  6
BYLAYER
 10
10.2933052811
 20
10.8575235025
 11
10.2134124551
 21
10.7617762181
  0
LINE
  5
250
100
AcDbEntity
  8
ALL_FEATURES
100
AcDbLine
 62
7
  6
BYLAYER
 10
10.1542584161
 20
10.9314560321
 11
10.1195558212
 21
10.8116806756
  0
LINE
  5
251
100
AcDbEntity
  8
0
100
AcDbLine
 62
7
  6
BYLAYER
 10
15.0619814781
 20
6.8839172751
 11
15.6471122976
 21
6.8839172751
  0
LINE
  5
252
100
AcDbEntity
  8
0
100
AcDbLine
 62
7
  6
BYLAYER
 10
15.0368084891
 20
6.9139172751
 11
15.6171122976
 21
6.9139172751
  0
LINE
  5
253
100
AcDbEntity
  8
0
100
AcDbLine
 62
7
  6
BYLAYER
 10
15.0116355002
 20
6.9439172751
 11
15.3921084895
 21
6.9439172751
  0
LINE
  5
254
100
AcDbEntity
  8
ALL_ASSEMBLY_MEMBERS
100
AcDbLine
 62
7
  6
BYLAYER
 10
14.6740872709
 20
4.8424340184
 11
14.7006400647
 21
4.8270831902
  0
LINE
  5
255
100
AcDbEntity
  8
ALL_ASSEMBLY_MEMBERS
100
AcDbLine
 62
7
  6
BYLAYER
 10
6.4261122976
 20
7.0939172751
 11
7.0161122976
 21
7.0939172751
  0
LINE
  5
256
100
AcDbEntity
  8
ALL_ASSEMBLY_MEMBERS
100
AcDbLine
 62
7
  6
BYLAYER
 10
6.3861122976
 20
7.1339172751
 11
7.0561122976
 21
7.1339172751
  0
LINE
  5
257
100
AcDbEntity
  8
ALL_ASSEMBLY_MEMBERS
100
AcDbLine
 62
7
  6
BYLAYER
 10
15.4522802136
 20
4.8345868749
 11
15.4335845302
 21
4.8453956079
  0
LINE
  5
258
100
AcDbEntity
  8
ALL_ASSEMBLY_MEMBERS
100
AcDbLine
 62
7
  6
BYLAYER
 10
11.401518327
 20
9.7061207975
 11
12.1675627701
 21
10.3489084071
  0
LINE
  5
259
100
AcDbEntity
  8
0
100
AcDbLine
 62
7
  6
BYLAYER
 10
14.6971122976
 20
7.4939172751
 11
15.4371122976
 21
7.4939172751
  0
LINE
  5
25A
100
AcDbEntity
  8
0
100
AcDbLine
 62
7
  6
BYLAYER
 10
14.6671122976
 20
7.5239172751
 11
15.4671122976
 21
7.5239172751
  0
LINE
  5
25B
100
AcDbEntity
  8
ALL_ASSEMBLY_MEMBERS
100
AcDbLine
 62
7
  6
BYLAYER
 10
7.0161122976
 20
7.6039172751
 11
7.0561122976
 21
7.6039172751
  0
LINE
  5
25C
100
AcDbEntity
  8
ALL_ASSEMBLY_MEMBERS
100
AcDbLine
 62
7
  6
BYLAYER
 10
15.6771122976
 20
7.6039172751
 11
15.7171122976
 21
7.6039172751
  0
LINE
  5
25D
100
AcDbEntity
  8
ALL_ASSEMBLY_MEMBERS
100
AcDbLine
 62
7
  6
BYLAYER
 10
7.1361122976
 20
7.6839172751
 11
13.0983485567
 21
7.6839172751
  0
LINE
  5
25E
100
AcDbEntity
  8
ALL_ASSEMBLY_MEMBERS
100
AcDbLine
 62
7
  6
BYLAYER
 10
15.7971122976
 20
7.6839172751
 11
16.3461122976
 21
7.6839172751
  0
LINE
  5
25F
100
AcDbEntity
  8
ALL_ASSEMBLY_MEMBERS
100
AcDbLine
 62
7
  6
BYLAYER
 10
7.1361122976
 20
7.7239172751
 11
13.0647845715
 21
7.7239172751
  0
LINE
  5
260
100
AcDbEntity
  8
ALL_ASSEMBLY_MEMBERS
100
AcDbLine
 62
7
  6
BYLAYER
 10
15.7971122976
 20
7.7239172751
 11
16.3861122976
 21
7.7239172751
  0
LINE
  5
261
100
AcDbEntity
  8
ALL_ASSEMBLY_MEMBERS
100
AcDbLine
 62
7
  6
BYLAYER
 10
14.6740872709
 20
4.8424340184
 11
14.6722495539
 21
4.8437800193
  0
LINE
  5
262
100
AcDbEntity
  8
ALL_ASSEMBLY_MEMBERS
100
AcDbLine
 62
7
  6
BYLAYER
 10
11.6576887394
 20
10.1320679493
 11
11.953455824
 21
10.6883249328
  0
LINE
  5
263
100
AcDbEntity
  8
ALL_ASSEMBLY_MEMBERS
100
AcDbLine
 62
7
  6
BYLAYER
 10
11.7471034093
 20
10.129828128
 11
12.0053127689
 21
10.6154493041
  0
LINE
  5
264
100
AcDbEntity
  8
0
100
AcDbLine
 62
7
  6
BYLAYER
 10
14.6671122976
 20
7.9139172751
 11
15.4671122976
 21
7.9139172751
  0
LINE
  5
265
100
AcDbEntity
  8
0
100
AcDbLine
 62
7
  6
BYLAYER
 10
14.6971122976
 20
7.9439172751
 11
15.4371122976
 21
7.9439172751
  0
LINE
  5
266
100
AcDbEntity
  8
ALL_ASSEMBLY_MEMBERS
100
AcDbLine
 62
7
  6
BYLAYER
 10
14.6621122976
 20
4.8539172751
 11
14.672250759
 21
4.8437788137
  0
LINE
  5
267
100
AcDbEntity
  8
ALL_ASSEMBLY_MEMBERS
100
AcDbLine
 62
7
  6
BYLAYER
 10
14.7007722978
 20
4.8152572749
 11
14.7021122976
 21
4.8139172751
  0
LINE
  5
268
100
AcDbEntity
  8
ALL_ASSEMBLY_MEMBERS
100
AcDbLine
 62
7
  6
BYLAYER
 10
12.5697157891
 20
8.3139172751
 11
6.3861122976
 21
8.3139172751
  0
LINE
  5
269
100
AcDbEntity
  8
ALL_ASSEMBLY_MEMBERS
100
AcDbLine
 62
7
  6
BYLAYER
 10
13.8751230784
 20
8.3139172751
 11
16.3861122976
 21
8.3139172751
  0
LINE
  5
26A
100
AcDbEntity
  8
ALL_ASSEMBLY_MEMBERS
100
AcDbLine
 62
7
  6
BYLAYER
 10
16.3461122976
 20
8.3539172751
 11
13.8415590931
 21
8.3539172751
  0
LINE
  5
26B
100
AcDbEntity
  8
ALL_ASSEMBLY_MEMBERS
100
AcDbLine
 62
7
  6
BYLAYER
 10
12.5361518038
 20
8.3539172751
 11
6.4261122976
 21
8.3539172751
  0
LINE
  5
26C
100
AcDbEntity
  8
ALL_ASSEMBLY_MEMBERS
100
AcDbLine
 62
7
  6
BYLAYER
 10
10.5548225543
 20
10.7151735264
 11
14.0851565974
 21
6.5078852474
  0
LINE
  5
26D
100
AcDbEntity
  8
ALL_ASSEMBLY_MEMBERS
100
AcDbLine
 62
7
  6
BYLAYER
 10
14.3949272184
 20
6.1542722353
 11
14.105672794
 21
6.4989922347
  0
LINE
  5
26E
100
AcDbEntity
  8
ALL_ASSEMBLY_MEMBERS
100
AcDbLine
 62
7
  6
BYLAYER
 10
14.5415945196
 20
5.9833702617
 11
14.4096980817
 21
6.1405583154
  0
LINE
  5
26F
100
AcDbEntity
  8
ALL_FEATURES
100
AcDbLine
 62
7
  6
BYLAYER
 10
8.4242964429
 20
11.7130660762
 11
8.5181530768
 21
11.6631616187
  0
LINE
  5
270
100
AcDbEntity
  8
ALL_FEATURES
100
AcDbLine
 62
7
  6
BYLAYER
 10
8.6362038652
 20
11.6003929011
 11
8.7300604991
 21
11.5504884436
  0
LINE
  5
271
100
AcDbEntity
  8
ALL_FEATURES
100
AcDbLine
 62
7
  6
BYLAYER
 10
8.8481112875
 20
11.487719726
 11
8.9419679214
 21
11.4378152686
  0
LINE
  5
272
100
AcDbEntity
  8
ALL_FEATURES
100
AcDbLine
 62
7
  6
BYLAYER
 10
9.0600187098
 20
11.375046551
 11
9.1538753437
 21
11.3251420935
  0
LINE
  5
273
100
AcDbEntity
  8
ALL_FEATURES
100
AcDbLine
 62
7
  6
BYLAYER
 10
9.2719261321
 20
11.2623733759
 11
9.365782766
 21
11.2124689184
  0
LINE
  5
274
100
AcDbEntity
  8
ALL_FEATURES
100
AcDbLine
 62
7
  6
BYLAYER
 10
9.4838335544
 20
11.1497002008
 11
9.5776901883
 21
11.0997957434
  0
LINE
  5
275
100
AcDbEntity
  8
ALL_FEATURES
100
AcDbLine
 62
7
  6
BYLAYER
 10
9.6957409767
 20
11.0370270257
 11
9.7895976106
 21
10.9871225683
  0
LINE
  5
276
100
AcDbEntity
  8
ALL_FEATURES
100
AcDbLine
 62
7
  6
BYLAYER
 10
9.907648399
 20
10.9243538507
 11
10.0015050328
 21
10.8744493932
  0
LINE
  5
277
100
AcDbEntity
  8
ALL_FEATURES
100
AcDbLine
 62
7
  6
BYLAYER
 10
10.1195558212
 20
10.8116806756
 11
10.2134124551
 21
10.7617762181
  0
LINE
  5
278
100
AcDbEntity
  8
ALL_ASSEMBLY_MEMBERS
100
AcDbLine
 62
7
  6
BYLAYER
 10
14.5805803746
 20
6.4797566777
 11
14.3748883395
 21
6.7248908995
  0
LINE
  5
279
100
AcDbEntity
  8
ALL_ASSEMBLY_MEMBERS
100
AcDbLine
 62
7
  6
BYLAYER
 10
8.2318520791
 20
11.9536176129
 11
11.6930066431
 21
10.1132890868
  0
LINE
  5
27A
100
AcDbEntity
  8
ALL_ASSEMBLY_MEMBERS
100
AcDbLine
 62
7
  6
BYLAYER
 10
8.2153130379
 20
12.0077143791
 11
11.7471034093
 21
10.129828128
  0
LINE
  5
27B
100
AcDbEntity
  8
ALL_ASSEMBLY_MEMBERS
100
AcDbLine
 62
7
  6
BYLAYER
 10
14.792872838
 20
6.6578912055
 11
14.5871808029
 21
6.9030254273
  0
LINE
  5
27C
100
AcDbEntity
  8
ALL_ASSEMBLY_MEMBERS
100
AcDbLine
 62
7
  6
BYLAYER
 10
15.2884878516
 20
6.6100881812
 11
15.1565914137
 21
6.7672762349
  0
LINE
  5
27D
100
AcDbEntity
  8
ALL_ASSEMBLY_MEMBERS
100
AcDbLine
 62
7
  6
BYLAYER
 10
15.1456507727
 20
6.7842040928
 11
14.8563963483
 21
7.1289240922
  0
LINE
  5
27E
100
AcDbEntity
  8
ALL_ASSEMBLY_MEMBERS
100
AcDbLine
 62
7
  6
BYLAYER
 10
11.9988378711
 20
10.5499869117
 11
14.8512010405
 21
7.1506728571
  0
LWPOLYLINE
  5
27F
100
AcDbEntity
  8
ALL_ASSEMBLY_MEMBERS
100
AcDbPolyline
 62
7
  6
BYLAYER
 90
12
 70
0
 10
11.9988372754
 20
10.5499864146
 10
11.9977921654
 20
10.5512860367
 10
11.9952104766
 20
10.555066384
 10
11.9930776793
 20
10.5591168409
 10
11.9914216699
 20
10.5633843387
 10
11.990264097
 20
10.5678129728
 10
11.9896200786
 20
10.5723447358
 10
11.9894980057
 20
10.5769202801
 10
11.9898994344
 20
10.581479693
 10
11.9908190671
 20
10.5859632806
 10
11.9922448219
 20
10.5903123482
 10
11.9941579929
 20
10.5944699709
  0
LINE
  5
280
100
AcDbEntity
  8
ALL_ASSEMBLY_MEMBERS
100
AcDbLine
 62
7
  6
BYLAYER
 10
12.0053127689
 20
10.6154493041
 11
8.4735223974
 21
12.4933355552
  0
LINE
  5
281
100
AcDbEntity
  8
ALL_ASSEMBLY_MEMBERS
100
AcDbLine
 62
7
  6
BYLAYER
 10
11.9887737277
 20
10.6695460703
 11
8.5276191637
 21
12.5098745964
  0
LINE
  5
282
100
AcDbEntity
  8
0
100
AcDbLine
 62
7
  6
BYLAYER
 10
13.8171122976
 20
5.1739172751
 11
13.8171122976
 21
4.8939172751
  0
LINE
  5
283
100
AcDbEntity
  8
0
100
AcDbLine
 62
7
  6
BYLAYER
 10
13.8471122976
 20
5.2039172751
 11
13.8471122976
 21
4.8939172751
  0
LINE
  5
284
100
AcDbEntity
  8
ALL_ASSEMBLY_MEMBERS
100
AcDbLine
 62
7
  6
BYLAYER
 10
14.0616122976
 20
4.8684172751
 11
14.0616122976
 21
4.8939172751
  0
LINE
  5
285
100
AcDbEntity
  8
0
100
AcDbLine
 62
7
  6
BYLAYER
 10
14.0671122976
 20
5.2139172751
 11
14.0671122976
 21
5.2039172751
  0
LINE
  5
286
100
AcDbEntity
  8
0
100
AcDbLine
 62
7
  6
BYLAYER
 10
14.0971122976
 20
5.2439172751
 11
14.0971122976
 21
5.2039172751
  0
LINE
  5
287
100
AcDbEntity
  8
ALL_ASSEMBLY_MEMBERS
100
AcDbLine
 62
7
  6
BYLAYER
 10
14.4171122976
 20
6.1483439868
 11
14.4171122976
 21
6.1467795812
  0
LINE
  5
288
100
AcDbEntity
  8
ALL_ASSEMBLY_MEMBERS
100
AcDbLine
 62
7
  6
BYLAYER
 10
14.4171122976
 20
6.131722397
 11
14.4171122976
 21
5.2439172751
  0
LINE
  5
289
100
AcDbEntity
  8
ALL_ASSEMBLY_MEMBERS
100
AcDbLine
 62
7
  6
BYLAYER
 10
14.4571122976
 20
6.0840522533
 11
14.4571122976
 21
5.2439172751
  0
LINE
  5
28A
100
AcDbEntity
  8
0
100
AcDbLine
 62
7
  6
BYLAYER
 10
14.4871122976
 20
6.0482996455
 11
14.4871122976
 21
5.2439172751
  0
LINE
  5
28B
100
AcDbEntity
  8
0
100
AcDbLine
 62
7
  6
BYLAYER
 10
14.5171122976
 20
6.0125470378
 11
14.5171122976
 21
5.2439172751
  0
LINE
  5
28C
100
AcDbEntity
  8
ALL_ASSEMBLY_MEMBERS
100
AcDbLine
 62
7
  6
BYLAYER
 10
14.5196122976
 20
5.7360887066
 11
14.5196122976
 21
5.2039172751
  0
LINE
  5
28D
100
AcDbEntity
  8
ALL_ASSEMBLY_MEMBERS
100
AcDbLine
 62
7
  6
BYLAYER
 10
14.6621122976
 20
4.8585615563
 11
14.6621122976
 21
4.8539172751
  0
LINE
  5
28E
100
AcDbEntity
  8
0
100
AcDbLine
 62
7
  6
BYLAYER
 10
14.6671122976
 20
7.5239172751
 11
14.6671122976
 21
7.9139172751
  0
LINE
  5
28F
100
AcDbEntity
  8
0
100
AcDbLine
 62
7
  6
BYLAYER
 10
14.6971122976
 20
7.4939172751
 11
14.6971122976
 21
7.9439172751
  0
LINE
  5
290
100
AcDbEntity
  8
ALL_ASSEMBLY_MEMBERS
100
AcDbLine
 62
7
  6
BYLAYER
 10
14.7007722978
 20
4.8273118956
 11
14.7007722978
 21
4.8152572749
  0
LINE
  5
291
100
AcDbEntity
  8
0
100
AcDbLine
 62
7
  6
BYLAYER
 10
14.7421122976
 20
7.4939172751
 11
14.7421122976
 21
7.2806797584
  0
LINE
  5
292
100
AcDbEntity
  8
ALL_ASSEMBLY_MEMBERS
100
AcDbLine
 62
7
  6
BYLAYER
 10
14.7708525893
 20
7.2464284125
 11
14.0048081462
 21
6.6036408028
  0
LINE
  5
293
100
AcDbEntity
  8
ALL_ASSEMBLY_MEMBERS
100
AcDbLine
 62
7
  6
BYLAYER
 10
14.8512010405
 20
7.1506728571
 11
14.0851565974
 21
6.5078852474
  0
LINE
  5
294
100
AcDbEntity
  8
ALL_ASSEMBLY_MEMBERS
100
AcDbLine
 62
7
  6
BYLAYER
 10
14.8563963483
 20
7.1289240922
 11
14.5871808029
 21
6.9030254273
  0
LINE
  5
295
100
AcDbEntity
  8
ALL_ASSEMBLY_MEMBERS
100
AcDbLine
 62
7
  6
BYLAYER
 10
14.3748883395
 20
6.7248908995
 11
14.105672794
 21
6.4989922347
  0
LINE
  5
296
100
AcDbEntity
  8
ALL_ASSEMBLY_MEMBERS
100
AcDbLine
 62
7
  6
BYLAYER
 10
14.8336442494
 20
5.613206597
 11
14.8336442494
 21
5.2039172751
  0
LINE
  5
297
100
AcDbEntity
  8
ALL_ASSEMBLY_MEMBERS
100
AcDbLine
 62
7
  6
BYLAYER
 10
14.8549655323
 20
5.613206597
 11
14.8549655323
 21
5.2039172751
  0
LINE
  5
298
100
AcDbEntity
  8
ALL_ASSEMBLY_MEMBERS
100
AcDbLine
 62
7
  6
BYLAYER
 10
14.5805803746
 20
6.4797566777
 11
14.792872838
 21
6.6578912055
  0
LINE
  5
299
100
AcDbEntity
  8
ALL_ASSEMBLY_MEMBERS
100
AcDbLine
 62
7
  6
BYLAYER
 10
15.2792590628
 20
5.2039172751
 11
15.2792590628
 21
5.613206597
  0
LINE
  5
29A
100
AcDbEntity
  8
ALL_ASSEMBLY_MEMBERS
100
AcDbLine
 62
7
  6
BYLAYER
 10
15.3005803458
 20
5.2039172751
 11
15.3005803458
 21
5.6132065971
  0
LINE
  5
29B
100
AcDbEntity
  8
0
100
AcDbLine
 62
7
  6
BYLAYER
 10
15.3286122976
 20
6.9439172751
 11
15.3286122976
 21
6.9139172751
  0
LINE
  5
29C
100
AcDbEntity
  8
0
100
AcDbLine
 62
7
  6
BYLAYER
 10
15.3921122976
 20
7.4939172751
 11
15.3921122976
 21
6.9439172751
  0
LINE
  5
29D
100
AcDbEntity
  8
ALL_ASSEMBLY_MEMBERS
100
AcDbLine
 62
7
  6
BYLAYER
 10
15.4334522969
 20
4.8451669019
 11
15.4334522969
 21
4.8624164376
  0
LINE
  5
29E
100
AcDbEntity
  8
0
100
AcDbLine
 62
7
  6
BYLAYER
 10
15.4371122976
 20
7.9439172751
 11
15.4371122976
 21
7.4939172751
  0
LINE
  5
29F
100
AcDbEntity
  8
0
100
AcDbLine
 62
7
  6
BYLAYER
 10
15.4671122976
 20
7.9139172751
 11
15.4671122976
 21
7.5239172751
  0
LINE
  5
2A0
100
AcDbEntity
  8
ALL_ASSEMBLY_MEMBERS
100
AcDbLine
 62
7
  6
BYLAYER
 10
15.6146122976
 20
5.7360887066
 11
15.6146122976
 21
5.2039172751
  0
LINE
  5
2A1
100
AcDbEntity
  8
0
100
AcDbLine
 62
7
  6
BYLAYER
 10
15.6171122976
 20
5.2439172751
 11
15.6171122976
 21
6.9139172751
  0
LINE
  5
2A2
100
AcDbEntity
  8
0
100
AcDbLine
 62
7
  6
BYLAYER
 10
15.6471122976
 20
6.8839172751
 11
15.6471122976
 21
5.2439172751
  0
LINE
  5
2A3
100
AcDbEntity
  8
ALL_ASSEMBLY_MEMBERS
100
AcDbLine
 62
7
  6
BYLAYER
 10
15.1456507727
 20
6.7842040928
 11
14.3949272184
 21
6.1542722353
  0
LINE
  5
2A4
100
AcDbEntity
  8
ALL_ASSEMBLY_MEMBERS
100
AcDbLine
 62
7
  6
BYLAYER
 10
14.4097024574
 20
6.1405619871
 11
15.156587038
 21
6.7672725632
  0
LINE
  5
2A5
100
AcDbEntity
  8
ALL_ASSEMBLY_MEMBERS
100
AcDbLine
 62
7
  6
BYLAYER
 10
14.5415945196
 20
5.9833702617
 11
15.2884878516
 21
6.6100881812
  0
LINE
  5
2A6
100
AcDbEntity
  8
ALL_ASSEMBLY_MEMBERS
100
AcDbLine
 62
7
  6
BYLAYER
 10
15.6771122976
 20
5.2439172751
 11
15.6771122976
 21
7.6039172751
  0
LINE
  5
2A7
100
AcDbEntity
  8
ALL_ASSEMBLY_MEMBERS
100
AcDbLine
 62
7
  6
BYLAYER
 10
15.7171122976
 20
5.2439172751
 11
15.7171122976
 21
7.6039172751
  0
LINE
  5
2A8
100
AcDbEntity
  8
ALL_ASSEMBLY_MEMBERS
100
AcDbLine
 62
7
  6
BYLAYER
 10
15.7971122976
 20
7.7239172751
 11
15.7971122976
 21
7.6839172751
  0
LINE
  5
2A9
100
AcDbEntity
  8
0
100
AcDbLine
 62
7
  6
BYLAYER
 10
16.0371122976
 20
5.2439172751
 11
16.0371122976
 21
5.2039172751
  0
LINE
  5
2AA
100
AcDbEntity
  8
0
100
AcDbLine
 62
7
  6
BYLAYER
 10
16.0671122976
 20
5.2139172751
 11
16.0671122976
 21
5.2039172751
  0
LINE
  5
2AB
100
AcDbEntity
  8
ALL_ASSEMBLY_MEMBERS
100
AcDbLine
 62
7
  6
BYLAYER
 10
16.0726122976
 20
4.8684172751
 11
16.0726122976
 21
4.8939172751
  0
LINE
  5
2AC
100
AcDbEntity
  8
0
100
AcDbLine
 62
7
  6
BYLAYER
 10
16.2871122976
 20
4.8939172751
 11
16.2871122976
 21
5.2039172751
  0
LINE
  5
2AD
100
AcDbEntity
  8
0
100
AcDbLine
 62
7
  6
BYLAYER
 10
16.3171122976
 20
5.1739172751
 11
16.3171122976
 21
4.8939172751
  0
LINE
  5
2AE
100
AcDbEntity
  8
ALL_ASSEMBLY_MEMBERS
100
AcDbLine
 62
7
  6
BYLAYER
 10
16.3461122976
 20
7.6839172751
 11
16.3461122976
 21
8.3539172751
  0
LINE
  5
2AF
100
AcDbEntity
  8
ALL_ASSEMBLY_MEMBERS
100
AcDbLine
 62
7
  6
BYLAYER
 10
16.3861122976
 20
7.7239172751
 11
16.3861122976
 21
8.3139172751
  0
LINE
  5
2B0
100
AcDbEntity
  8
ALL_ASSEMBLY_MEMBERS
100
AcDbLine
 62
7
  6
BYLAYER
 10
14.6830088468
 20
4.8709172751
 11
14.6625901223
 21
4.8591138442
  0
LINE
  5
2B1
100
AcDbEntity
  8
ALL_ASSEMBLY_MEMBERS
100
AcDbLine
 62
7
  6
BYLAYER
 10
15.4329242547
 20
4.8624164376
 11
15.4476277474
 21
4.8709172751
  0
LINE
  5
2B2
100
AcDbEntity
  8
ALL_ASSEMBLY_MEMBERS
100
AcDbLine
 62
7
  6
BYLAYER
 10
15.4524142408
 20
4.8342192184
 11
15.4321122976
 21
4.8139172751
  0
ARC
  5
2B3
100
AcDbEntity
  8
ALL_ASSEMBLY_MEMBERS
100
AcDbCircle
 62
7
  6
BYLAYER
 10
7.1361122976
 20
7.6039172751
 40
0.1199999395
100
AcDbArc
 50
90.0
 51
180.0
  0
ARC
  5
2B4
100
AcDbEntity
  8
ALL_ASSEMBLY_MEMBERS
100
AcDbCircle
 62
7
  6
BYLAYER
 10
7.1361122976
 20
7.6039172751
 40
0.08
100
AcDbArc
 50
90.0
 51
180.0
  0
ARC
  5
2B5
100
AcDbEntity
  8
ALL_ASSEMBLY_MEMBERS
100
AcDbCircle
 62
7
  6
BYLAYER
 10
6.4261122976
 20
7.1339172751
 40
0.04
100
AcDbArc
 50
180.0
 51
270.0
  0
ARC
  5
2B6
100
AcDbEntity
  8
ALL_ASSEMBLY_MEMBERS
100
AcDbCircle
 62
7
  6
BYLAYER
 10
7.0161122976
 20
7.1339172751
 40
0.04
100
AcDbArc
 50
270.0
 51
360.0
  0
ARC
  5
2B7
100
AcDbEntity
  8
ALL_ASSEMBLY_MEMBERS
100
AcDbCircle
 62
7
  6
BYLAYER
 10
8.2506309416
 20
11.9889355166
 40
0.04
100
AcDbArc
 50
152.0
 51
242.0
  0
ARC
  5
2B8
100
AcDbEntity
  8
ALL_ASSEMBLY_MEMBERS
100
AcDbCircle
 62
7
  6
BYLAYER
 10
8.5088403012
 20
12.4745566927
 40
0.04
100
AcDbArc
 50
62.0
 51
152.0
  0
ARC
  5
2B9
100
AcDbEntity
  8
ALL_ASSEMBLY_MEMBERS
100
AcDbCircle
 62
7
  6
BYLAYER
 10
6.4261122976
 20
8.3139172751
 40
0.04
100
AcDbArc
 50
90.0
 51
180.0
  0
ARC
  5
2BA
100
AcDbEntity
  8
ALL_ASSEMBLY_MEMBERS
100
AcDbCircle
 62
7
  6
BYLAYER
 10
14.8774849636
 20
2.7587727982
 40
2.0605878329
100
AcDbArc
 50
93.0053242469
 51
93.6164609047
  0
ARC
  5
2BB
100
AcDbEntity
  8
ALL_ASSEMBLY_MEMBERS
100
AcDbCircle
 62
7
  6
BYLAYER
 10
15.0669336354
 20
5.1029650129
 40
0.599162967
100
AcDbArc
 50
89.9829151806
 51
104.1623292527
  0
ARC
  5
2BC
100
AcDbEntity
  8
0
100
AcDbCircle
 62
7
  6
BYLAYER
 10
14.2246122976
 20
4.9539172751
 40
0.105
100
AcDbArc
 50
225.7418934428
 51
270.0
  0
ARC
  5
2BD
100
AcDbEntity
  8
0
100
AcDbCircle
 62
7
  6
BYLAYER
 10
14.3496122976
 20
4.9539172751
 40
0.105
100
AcDbArc
 50
232.2628656867
 51
270.0
  0
ARC
  5
2BE
100
AcDbEntity
  8
ALL_ASSEMBLY_MEMBERS
100
AcDbCircle
 62
7
  6
BYLAYER
 10
13.9286122976
 20
4.9309172751
 40
0.0625
100
AcDbArc
 50
216.3108780647
 51
270.0
  0
ARC
  5
2BF
100
AcDbEntity
  8
0
100
AcDbCircle
 62
7
  6
BYLAYER
 10
14.1786122976
 20
4.9224172751
 40
0.0515
100
AcDbArc
 50
213.6287472526
 51
270.0
  0
ARC
  5
2C0
100
AcDbEntity
  8
0
100
AcDbCircle
 62
7
  6
BYLAYER
 10
13.8471122976
 20
5.1739172751
 40
0.03
100
AcDbArc
 50
90.0
 51
180.0
  0
ARC
  5
2C1
100
AcDbEntity
  8
ALL_ASSEMBLY_MEMBERS
100
AcDbCircle
 62
7
  6
BYLAYER
 10
14.4171122976
 20
5.8789172751
 40
1.1375
100
AcDbArc
 50
0.0
 51
40.0
  0
ARC
  5
2C2
100
AcDbEntity
  8
ALL_ASSEMBLY_MEMBERS
100
AcDbCircle
 62
7
  6
BYLAYER
 10
14.4171122976
 20
5.8789172751
 40
0.1625
100
AcDbArc
 50
0.0
 51
40.0
  0
ARC
  5
2C3
100
AcDbEntity
  8
ALL_ASSEMBLY_MEMBERS
100
AcDbCircle
 62
7
  6
BYLAYER
 10
14.3371122976
 20
7.6039172751
 40
0.1199999395
100
AcDbArc
 50
8.6573521403
 51
71.3306876538
  0
ARC
  5
2C4
100
AcDbEntity
  8
ALL_ASSEMBLY_MEMBERS
100
AcDbCircle
 62
7
  6
BYLAYER
 10
14.6196122976
 20
5.7360887066
 40
0.1
100
AcDbArc
 50
134.4270040008
 51
180.0
  0
ARC
  5
2C5
100
AcDbEntity
  8
ALL_ASSEMBLY_MEMBERS
100
AcDbCircle
 62
7
  6
BYLAYER
 10
14.4796122976
 20
5.8789172751
 40
0.1
100
AcDbArc
 50
314.4270040008
 51
360.0
  0
ARC
  5
2C6
100
AcDbEntity
  8
0
100
AcDbCircle
 62
7
  6
BYLAYER
 10
14.6971122976
 20
7.5239172751
 40
0.03
100
AcDbArc
 50
180.0
 51
270.0
  0
ARC
  5
2C7
100
AcDbEntity
  8
0
100
AcDbCircle
 62
7
  6
BYLAYER
 10
14.0971122976
 20
5.2139172751
 40
0.03
100
AcDbArc
 50
90.0
 51
180.0
  0
ARC
  5
2C8
100
AcDbEntity
  8
ALL_ASSEMBLY_MEMBERS
100
AcDbCircle
 62
7
  6
BYLAYER
 10
14.4102481073
 20
6.1671279875
 40
0.02
100
AcDbArc
 50
220.0
 51
310.0000018536
  0
ARC
  5
2C9
100
AcDbEntity
  8
ALL_ASSEMBLY_MEMBERS
100
AcDbCircle
 62
7
  6
BYLAYER
 10
14.1209936829
 20
6.5118479869
 40
0.02
100
AcDbArc
 50
130.0
 51
220.0
  0
ARC
  5
2CA
100
AcDbEntity
  8
ALL_ASSEMBLY_MEMBERS
100
AcDbCircle
 62
7
  6
BYLAYER
 10
14.8410754594
 20
7.11606834
 40
0.02
100
AcDbArc
 50
40.0
 51
130.0
  0
ARC
  5
2CB
100
AcDbEntity
  8
ALL_ASSEMBLY_MEMBERS
100
AcDbCircle
 62
7
  6
BYLAYER
 10
15.0672918328
 20
5.1029720492
 40
0.599155931
100
AcDbArc
 50
75.8375870639
 51
90.0171685029
  0
ARC
  5
2CC
100
AcDbEntity
  8
ALL_ASSEMBLY_MEMBERS
100
AcDbCircle
 62
7
  6
BYLAYER
 10
15.0671125705
 20
5.1692746133
 40
0.4974980009
100
AcDbArc
 50
74.4497003459
 51
105.5502391117
  0
ARC
  5
2CD
100
AcDbEntity
  8
0
100
AcDbCircle
 62
7
  6
BYLAYER
 10
15.9096122976
 20
4.9539172751
 40
0.105
100
AcDbArc
 50
270.0
 51
314.2581065572
  0
ARC
  5
2CE
100
AcDbEntity
  8
0
100
AcDbCircle
 62
7
  6
BYLAYER
 10
15.7846122976
 20
4.9539172751
 40
0.105
100
AcDbArc
 50
270.0
 51
307.7371343133
  0
ARC
  5
2CF
100
AcDbEntity
  8
ALL_ASSEMBLY_MEMBERS
100
AcDbCircle
 62
7
  6
BYLAYER
 10
16.2056122976
 20
4.9309172751
 40
0.0625
100
AcDbArc
 50
270.0
 51
323.6891219353
  0
ARC
  5
2D0
100
AcDbEntity
  8
0
100
AcDbCircle
 62
7
  6
BYLAYER
 10
15.9556122976
 20
4.9224172751
 40
0.0515
100
AcDbArc
 50
270.0
 51
326.3712527474
  0
ARC
  5
2D1
100
AcDbEntity
  8
0
100
AcDbCircle
 62
7
  6
BYLAYER
 10
16.2871122976
 20
5.1739172751
 40
0.03
100
AcDbArc
 50
0.0
 51
90.0
  0
ARC
  5
2D2
100
AcDbEntity
  8
ALL_ASSEMBLY_MEMBERS
100
AcDbCircle
 62
7
  6
BYLAYER
 10
15.7971122976
 20
7.6039172751
 40
0.1199999395
100
AcDbArc
 50
90.0
 51
180.0
  0
ARC
  5
2D3
100
AcDbEntity
  8
ALL_ASSEMBLY_MEMBERS
100
AcDbCircle
 62
7
  6
BYLAYER
 10
15.5146122976
 20
5.7360887066
 40
0.1
100
AcDbArc
 50
0.0
 51
45.5729959992
  0
ARC
  5
2D4
100
AcDbEntity
  8
ALL_ASSEMBLY_MEMBERS
100
AcDbCircle
 62
7
  6
BYLAYER
 10
15.6546122976
 20
5.8789172751
 40
0.1
100
AcDbArc
 50
180.0
 51
225.5729959992
  0
ARC
  5
2D5
100
AcDbEntity
  8
ALL_ASSEMBLY_MEMBERS
100
AcDbCircle
 62
7
  6
BYLAYER
 10
15.7971122976
 20
7.6039172751
 40
0.08
100
AcDbArc
 50
90.0
 51
180.0
  0
ARC
  5
2D6
100
AcDbEntity
  8
0
100
AcDbCircle
 62
7
  6
BYLAYER
 10
15.4371122976
 20
7.5239172751
 40
0.03
100
AcDbArc
 50
270.0
 51
360.0
  0
ARC
  5
2D7
100
AcDbEntity
  8
0
100
AcDbCircle
 62
7
  6
BYLAYER
 10
16.0371122976
 20
5.2139172751
 40
0.03
100
AcDbArc
 50
0.0
 51
90.0
  0
ARC
  5
2D8
100
AcDbEntity
  8
0
100
AcDbCircle
 62
7
  6
BYLAYER
 10
15.6171122976
 20
6.8839172751
 40
0.03
100
AcDbArc
 50
0.0
 51
90.0
  0
ARC
  5
2D9
100
AcDbEntity
  8
ALL_ASSEMBLY_MEMBERS
100
AcDbCircle
 62
7
  6
BYLAYER
 10
15.1303298838
 20
6.7713483406
 40
0.02
100
AcDbArc
 50
309.9999981464
 51
40.0
  0
ARC
  5
2DA
100
AcDbEntity
  8
ALL_ASSEMBLY_MEMBERS
100
AcDbCircle
 62
7
  6
BYLAYER
 10
11.7117855056
 20
10.1486069905
 40
0.04
100
AcDbArc
 50
242.0
 51
332.0
  0
ARC
  5
2DB
100
AcDbEntity
  8
ALL_ASSEMBLY_MEMBERS
100
AcDbCircle
 62
7
  6
BYLAYER
 10
11.9699948652
 20
10.6342281666
 40
0.04
100
AcDbArc
 50
332.0
 51
62.0
  0
ARC
  5
2DC
100
AcDbEntity
  8
ALL_ASSEMBLY_MEMBERS
100
AcDbCircle
 62
7
  6
BYLAYER
 10
16.3461122976
 20
8.3139172751
 40
0.04
100
AcDbArc
 50
0.0
 51
90.0
  0
ARC
  5
2DD
100
AcDbEntity
  8
ALL_ASSEMBLY_MEMBERS
100
AcDbCircle
 62
7
  6
BYLAYER
 10
16.3461122976
 20
7.7239172751
 40
0.04
100
AcDbArc
 50
270.0
 51
360.0
  0
ARC
  5
2DE
100
AcDbEntity
  8
0
100
AcDbCircle
 62
7
  6
BYLAYER
 10
15.4371122976
 20
7.9139172751
 40
0.03
100
AcDbArc
 50
0.0
 51
90.0
  0
ARC
  5
2DF
100
AcDbEntity
  8
0
100
AcDbCircle
 62
7
  6
BYLAYER
 10
14.6971122976
 20
7.9139172751
 40
0.03
100
AcDbArc
 50
90.0
 51
180.0
  0
SPLINE
  5
2E0
100
AcDbEntity
  8
ALL_ASSEMBLY_MEMBERS
100
AcDbSpline
 62
7
  6
BYLAYER
 70
0
 71
3
 72
34
 73
30
 74
28
 42
0.0000001
 43
0.0000001
 44
0.0000000001
 12
0.1026551609
 22
0.0861125046
 32
0.0
 13
0.0861274126
 23
-0.1026426534
 33
0.0
 40
0.0
 40
0.0
 40
0.0
 40
0.0
 40
0.124976224
 40
0.2499522923
 40
0.3124404521
 40
0.3749286004
 40
0.4374166946
 40
0.4999046491
 40
0.5623923135
 40
0.6248794547
 40
0.6561237591
 40
0.6873680604
 40
0.7186123676
 40
0.7498566602
 40
0.781100924
 40
0.8123451848
 40
0.8435893591
 40
0.8748330772
 40
0.8904582697
 40
0.9060838942
 40
0.9217129646
 40
0.9373417377
 40
0.9451629468
 40
0.9529831892
 40
0.9608108199
 40
0.9686483936
 40
0.9764816942
 40
0.9843476135
 40
1.0
 40
1.0
 40
1.0
 40
1.0
 10
14.4762431547
 20
6.8360454139
 30
0.0
 10
14.4805196395
 20
6.8396327525
 30
0.0
 10
14.4890737978
 20
6.846805978
 30
0.0
 10
14.4998018681
 20
6.8557304283
 30
0.0
 10
14.5084419199
 20
6.8628001177
 30
0.0
 10
14.5149634408
 20
6.8680513779
 30
0.0
 10
14.521540807
 20
6.8732326481
 30
0.0
 10
14.5281911806
 20
6.8783201155
 30
0.0
 10
14.5349348513
 20
6.8832834924
 30
0.0
 10
14.5406528647
 20
6.8872836229
 30
0.0
 10
14.5453013338
 20
6.8903741848
 30
0.0
 10
14.5488295699
 20
6.8926280929
 30
0.0
 10
14.5524048764
 20
6.8948067359
 30
0.0
 10
14.5560334547
 20
6.8968957464
 30
0.0
 10
14.5597225936
 20
6.8988762819
 30
0.0
 10
14.5634811051
 20
6.9007227549
 30
0.0
 10
14.567319338
 20
6.9023982633
 30
0.0
 10
14.5705956182
 20
6.9036064166
 30
0.0
 10
14.5732687466
 20
6.904412694
 30
0.0
 10
14.5753017525
 20
6.9049180122
 30
0.0
 10
14.5773620626
 20
6.9053002861
 30
0.0
 10
14.5791006688
 20
6.9054824315
 30
0.0
 10
14.5804974994
 20
6.9055199675
 30
0.0
 10
14.5815458459
 20
6.9054819685
 30
0.0
 10
14.5825895502
 20
6.9053666255
 30
0.0
 10
14.5836202886
 20
6.9051610843
 30
0.0
 10
14.5846250159
 20
6.9048406853
 30
0.0
 10
14.585890014
 20
6.9042353546
 30
0.0
 10
14.5867314364
 20
6.9035609614
 30
0.0
 10
14.5871808029
 20
6.9030254273
 30
0.0
 11
14.4762431547
 21
6.8360454139
 31
0.0
 11
14.4890808771
 21
6.8467975656
 31
0.0
 11
14.5019666742
 21
6.8574920228
 31
0.0
 11
14.5084488333
 21
6.8627916163
 31
0.0
 11
14.5149727514
 21
6.8680397154
 31
0.0
 11
14.5215529827
 21
6.8732170203
 31
0.0
 11
14.5282067462
 21
6.8782994458
 31
0.0
 11
14.5349545267
 21
6.883256302
 31
0.0
 11
14.5418211114
 21
6.8880471064
 31
0.0
 11
14.5453083078
 21
6.8903635114
 31
0.0
 11
14.5488374149
 21
6.8926155486
 31
0.0
 11
14.5524137558
 21
6.8947917976
 31
0.0
 11
14.5560435495
 21
6.896877668
 31
0.0
 11
14.5597341566
 21
6.8988539386
 31
0.0
 11
14.5634943992
 21
6.9006942641
 31
0.0
 11
14.5673348826
 21
6.9023606412
 31
0.0
 11
14.5712680107
 21
6.9037945578
 31
0.0
 11
14.5732733568
 21
6.9043961059
 31
0.0
 11
14.5753061267
 21
6.9048974664
 31
0.0
 11
14.5773663278
 21
6.905272994
 31
0.0
 11
14.5794499002
 21
6.9054827763
 31
0.0
 11
14.580497541
 21
6.9055089421
 31
0.0
 11
14.5815446217
 21
6.9054691138
 31
0.0
 11
14.5825868536
 21
6.9053516715
 31
0.0
 11
14.5836158644
 21
6.9051419741
 31
0.0
 11
14.5846144824
 21
6.9048188699
 31
0.0
 11
14.5855638132
 21
6.9043610501
 31
0.0
 11
14.5871808029
 21
6.9030254273
 31
0.0
  0
SPLINE
  5
2E1
100
AcDbEntity
  8
ALL_ASSEMBLY_MEMBERS
100
AcDbSpline
 62
7
  6
BYLAYER
 70
0
 71
3
 72
34
 73
30
 74
28
 42
0.0000001
 43
0.0000001
 44
0.0000000001
 12
-0.086123295
 22
0.1026377463
 32
0.0
 13
0.1026252128
 23
0.0861382296
 33
0.0
 40
0.0
 40
0.0
 40
0.0
 40
0.0
 40
0.0156522462
 40
0.0235172779
 40
0.0313499118
 40
0.0391861435
 40
0.0470121522
 40
0.0548326788
 40
0.06265445
 40
0.0782832819
 40
0.0939121276
 40
0.1095378934
 40
0.1251631163
 40
0.1564070615
 40
0.1876514672
 40
0.2188959324
 40
0.2501403681
 40
0.2813848035
 40
0.3126292384
 40
0.3438736626
 40
0.3751180915
 40
0.4376054729
 40
0.5000933796
 40
0.5625815762
 40
0.6250699147
 40
0.687558309
 40
0.7500467159
 40
0.8750232799
 40
1.0
 40
1.0
 40
1.0
 40
1.0
 10
14.3748883395
 20
6.7248908995
 30
0.0
 10
14.3744389985
 20
6.7254264033
 30
0.0
 10
14.3739208813
 20
6.7263719979
 30
0.0
 10
14.3735445554
 20
6.7277227976
 30
0.0
 10
14.3734036357
 20
6.728767729
 30
0.0
 10
14.3733800796
 20
6.7298182751
 30
0.0
 10
14.37344745
 20
6.7308660045
 30
0.0
 10
14.373592117
 20
6.7319049337
 30
0.0
 10
14.3738715214
 20
6.7332740196
 30
0.0
 10
14.3743527563
 20
6.7349545314
 30
0.0
 10
14.3750868302
 20
6.7369171114
 30
0.0
 10
14.3759374677
 20
6.7388313865
 30
0.0
 10
14.3771954839
 20
6.7413238633
 30
0.0
 10
14.3789541096
 20
6.7443404666
 30
0.0
 10
14.3812704929
 20
6.7478293467
 30
0.0
 10
14.383741421
 20
6.7512100187
 30
0.0
 10
14.3863323217
 20
6.754499094
 30
0.0
 10
14.3890195327
 20
6.7577096909
 30
0.0
 10
14.3917857615
 20
6.7608522617
 30
0.0
 10
14.3946179386
 20
6.7639354077
 30
0.0
 10
14.3984685359
 20
6.7679764474
 30
0.0
 10
14.4034005531
 20
6.7729128076
 30
0.0
 10
14.4094592385
 20
6.7786919403
 30
0.0
 10
14.4156239295
 20
6.784357646
 30
0.0
 10
14.421868325
 20
6.7899351614
 30
0.0
 10
14.4281719538
 20
6.7954455226
 30
0.0
 10
14.4366341695
 20
6.8027263865
 30
0.0
 10
14.4472854601
 20
6.8117413873
 30
0.0
 10
14.4558347428
 20
6.8189196619
 30
0.0
 10
14.460109997
 20
6.8225080863
 30
0.0
 11
14.3748883395
 21
6.7248908995
 31
0.0
 11
14.3738537785
 21
6.7267151057
 31
0.0
 11
14.3735678737
 21
6.7277293687
 31
0.0
 11
14.373423177
 21
6.7287687937
 31
0.0
 11
14.3733952484
 21
6.7298183523
 31
0.0
 11
14.3734603653
 21
6.7308648889
 31
0.0
 11
14.373602942
 21
6.7319029693
 31
0.0
 11
14.3738105825
 21
6.732930186
 31
0.0
 11
14.3743788809
 21
6.7349456098
 31
0.0
 11
14.3751063198
 21
6.7369092128
 31
0.0
 11
14.375952985
 21
6.7388239801
 31
0.0
 11
14.3768934983
 21
6.740694356
 31
0.0
 11
14.3789884504
 21
6.7443186309
 31
0.0
 11
14.3812962468
 21
6.7478113068
 31
0.0
 11
14.3837614171
 21
6.7511947534
 31
0.0
 11
14.3863483735
 21
6.7544860145
 31
0.0
 11
14.3890327024
 21
6.7576983533
 31
0.0
 11
14.3917967532
 21
6.7608423579
 31
0.0
 11
14.3946272393
 21
6.7639266858
 31
0.0
 11
14.3975138401
 21
6.7669585616
 31
0.0
 11
14.4034239146
 21
6.772888709
 31
0.0
 11
14.4094768915
 21
6.7786730221
 31
0.0
 11
14.4156372062
 21
6.7843429409
 31
0.0
 11
14.4218781942
 21
6.7899239663
 31
0.0
 11
14.4281791262
 21
6.7954372372
 31
0.0
 11
14.4345235232
 21
6.8009004373
 31
0.0
 11
14.4472925179
 21
6.8117329518
 31
0.0
 11
14.460109997
 21
6.8225080863
 31
0.0
  0
LINE
  5
2E2
100
AcDbEntity
  8
ALL_ASSEMBLY_MEMBERS
100
AcDbLine
 62
7
  6
BYLAYER
 10
14.6621134357
 20
4.8585615543
 11
14.6625907131
 21
4.8591138417
  0
SPLINE
  5
2E3
100
AcDbEntity
  8
ALL_ASSEMBLY_MEMBERS
100
AcDbSpline
 62
7
  6
BYLAYER
 70
0
 71
3
 72
12
 73
8
 74
6
 42
0.0000001
 43
0.0000001
 44
0.0000000001
 12
0.0004088974
 22
-0.0002366357
 32
0.0
 13
-0.000333599
 23
-0.0003345225
 33
0.0
 40
0.0
 40
0.0
 40
0.0
 40
0.0
 40
0.3322561793
 40
0.5701068862
 40
0.669121885
 40
0.7673594955
 40
1.0
 40
1.0
 40
1.0
 40
1.0
 10
15.4522798966
 20
4.8345868745
 30
0.0
 10
15.4523251828
 20
4.8345606666
 30
0.0
 10
15.452400245
 20
4.8345110696
 30
0.0
 10
15.4524695123
 20
4.8344259766
 30
0.0
 10
15.4524837669
 20
4.834357528
 30
0.0
 10
15.4524731054
 20
4.834289335
 30
0.0
 10
15.4524397524
 20
4.8342454956
 30
0.0
 10
15.4524138828
 20
4.8342195544
 30
0.0
 11
15.4522798966
 21
4.8345868745
 31
0.0
 11
15.452407225
 21
4.8344950773
 31
0.0
 11
15.4524720014
 21
4.8344032582
 31
0.0
 11
15.4524809314
 21
4.8343573405
 31
0.0
 11
15.4524742219
 21
4.8343114173
 31
0.0
 11
15.4524138828
 21
4.8342195544
 31
0.0
  0
SPLINE
  5
2E4
100
AcDbEntity
  8
ALL_ASSEMBLY_MEMBERS
100
AcDbSpline
 62
7
  6
BYLAYER
 70
0
 71
3
 72
25
 73
21
 74
19
 42
0.0000001
 43
0.0000001
 44
0.0000000001
 12
0.0001040383
 22
0.0909632452
 32
0.0
 13
-0.0900957127
 23
0.0125333696
 33
0.0
 40
0.0
 40
0.0
 40
0.0
 40
0.0
 40
0.0317068759
 40
0.0634541797
 40
0.0949608047
 40
0.1263741113
 40
0.1576531885
 40
0.1888867253
 40
0.2511693128
 40
0.282297513
 40
0.3134064506
 40
0.3756121221
 40
0.4378334149
 40
0.5000899837
 40
0.5623907999
 40
0.6247419052
 40
0.6871480697
 40
0.7496083489
 40
0.8746964958
 40
1.0
 40
1.0
 40
1.0
 40
1.0
 10
15.2792590628
 20
5.613206597
 30
0.0
 10
15.2792601624
 20
5.6141679838
 30
0.0
 10
15.2790069609
 20
5.6160976404
 30
0.0
 10
15.2780147585
 20
5.6188206454
 30
0.0
 10
15.2765286675
 20
5.6212928957
 30
0.0
 10
15.2747161376
 20
5.6235093301
 30
0.0
 10
15.2726798036
 20
5.6255070856
 30
0.0
 10
15.2697489282
 20
5.6279059832
 30
0.0
 10
15.2665872213
 20
5.6299950733
 30
0.0
 10
15.2632928967
 20
5.6318405238
 30
0.0
 10
15.2599300106
 20
5.6335539558
 30
0.0
 10
15.2556167011
 20
5.6354690487
 30
0.0
 10
15.2503268818
 20
5.6374890881
 30
0.0
 10
15.2449521861
 20
5.6392786886
 30
0.0
 10
15.2395147635
 20
5.6408796679
 30
0.0
 10
15.2340280375
 20
5.6423195734
 30
0.0
 10
15.2285019705
 20
5.6436206499
 30
0.0
 10
15.2210882078
 20
5.6451964773
 30
0.0
 10
15.2117543854
 20
5.6469002822
 30
0.0
 10
15.2042470463
 20
5.6480384444
 30
0.0
 10
15.2004839435
 20
5.6485619361
 30
0.0
 11
15.2792590628
 21
5.613206597
 31
0.0
 11
15.2789048021
 21
5.6160689197
 31
0.0
 11
15.2779285979
 21
5.6187867577
 31
0.0
 11
15.2764712988
 21
5.621254536
 31
0.0
 11
15.2746751687
 21
5.6234769186
 31
0.0
 11
15.2726505622
 21
5.6254760198
 31
0.0
 11
15.2704585148
 21
5.6272834517
 31
0.0
 11
15.2657516821
 21
5.6304366758
 31
0.0
 11
15.2632835548
 21
5.6318244352
 31
0.0
 11
15.2607630081
 21
5.6331106903
 31
0.0
 11
15.2555983557
 21
5.6354224504
 31
0.0
 11
15.2503141969
 21
5.637450163
 31
0.0
 11
15.2449436382
 21
5.6392466552
 31
0.0
 11
15.2395087438
 21
5.6408522114
 31
0.0
 11
15.2340238828
 21
5.6422958376
 31
0.0
 11
15.2284990885
 21
5.6436001538
 31
0.0
 11
15.2229421543
 21
5.6447837865
 31
0.0
 11
15.2117515774
 21
5.6468428359
 31
0.0
 11
15.2004839435
 21
5.6485619361
 31
0.0
  0
SPLINE
  5
2E5
100
AcDbEntity
  8
ALL_ASSEMBLY_MEMBERS
100
AcDbSpline
 62
7
  6
BYLAYER
 70
0
 71
3
 72
23
 73
19
 74
17
 42
0.0000001
 43
0.0000001
 44
0.0000000001
 12
0.0001480326
 22
0.1199140279
 32
0.0
 13
-0.1162582374
 23
0.0293839792
 33
0.0
 40
0.0
 40
0.0
 40
0.0
 40
0.0
 40
0.064861623
 40
0.0972095253
 40
0.129384547
 40
0.1613874123
 40
0.1932001212
 40
0.2562947397
 40
0.3187890763
 40
0.3808570388
 40
0.4426437148
 40
0.5042761891
 40
0.5658605299
 40
0.6274703521
 40
0.6891672821
 40
0.7509903361
 40
0.8751166638
 40
1.0
 40
1.0
 40
1.0
 40
1.0
 10
15.3005803458
 20
5.613206597
 30
0.0
 10
15.3005835463
 20
5.6157992032
 30
0.0
 10
15.3002209016
 20
5.6196961089
 30
0.0
 10
15.2990704155
 20
5.6247422521
 30
0.0
 10
15.2978952606
 20
5.6284222943
 30
0.0
 10
15.2964383468
 20
5.631975987
 30
0.0
 10
15.2941607925
 20
5.636513321
 30
0.0
 10
15.290747981
 20
5.6418229446
 30
0.0
 10
15.2859459633
 20
5.6476048263
 30
0.0
 10
15.2806099481
 20
5.652818427
 30
0.0
 10
15.2748614063
 20
5.6575137652
 30
0.0
 10
15.2687909686
 20
5.6617474666
 30
0.0
 10
15.2624620941
 20
5.6655674635
 30
0.0
 10
15.2559252368
 20
5.6690225966
 30
0.0
 10
15.2492156033
 20
5.6721498629
 30
0.0
 10
15.2400666271
 20
5.675935736
 30
0.0
 10
15.228318723
 20
5.6800132014
 30
0.0
 10
15.2187277012
 20
5.6826940854
 30
0.0
 10
15.213888129
 20
5.6839172751
 30
0.0
 11
15.3005803458
 21
5.613206597
 31
0.0
 11
15.2998762309
 21
5.6209524846
 31
0.0
 11
15.2990156446
 21
5.6247347856
 31
0.0
 11
15.2978447218
 21
5.6284110543
 31
0.0
 11
15.2963910284
 21
5.6319626615
 31
0.0
 11
15.2946823446
 21
5.6353733865
 31
0.0
 11
15.2906111159
 21
5.6417505708
 31
0.0
 11
15.2858395736
 21
5.6475291277
 31
0.0
 11
15.2805285783
 21
5.6527434324
 31
0.0
 11
15.2748003015
 21
5.6574425314
 31
0.0
 11
15.2687453152
 21
5.6616802391
 31
0.0
 11
15.2624287034
 21
5.6655059624
 31
0.0
 11
15.2559009908
 21
5.6689657097
 31
0.0
 11
15.2491985759
 21
5.6720982752
 31
0.0
 11
15.2423508455
 21
5.6749386859
 31
0.0
 11
15.2283026778
 21
5.6798577612
 31
0.0
 11
15.213888129
 21
5.6839172751
 31
0.0
  0
SPLINE
  5
2E6
100
AcDbEntity
  8
ALL_ASSEMBLY_MEMBERS
100
AcDbSpline
 62
7
  6
BYLAYER
 70
0
 71
3
 72
12
 73
8
 74
6
 42
0.0000001
 43
0.0000001
 44
0.0000000001
 12
0.0184305414
 22
0.0331166725
 32
0.0
 13
0.0094773867
 23
0.036695749
 33
0.0
 40
0.0
 40
0.0
 40
0.0
 40
0.0
 40
0.1060099096
 40
0.2198858689
 40
0.4662595429
 40
0.7297824106
 40
1.0
 40
1.0
 40
1.0
 40
1.0
 10
15.2004839435
 20
5.6485619361
 30
0.0
 10
15.2011352168
 20
5.6497321679
 30
0.0
 10
15.2024270202
 20
5.652192604
 30
0.0
 10
15.2049572832
 20
5.6575130934
 30
0.0
 10
15.2079584412
 20
5.6648062268
 30
0.0
 10
15.2111743634
 20
5.6741267822
 30
0.0
 10
15.2130343855
 20
5.6806119962
 30
0.0
 10
15.2138880377
 20
5.6839172751
 30
0.0
 11
15.2004839435
 21
5.6485619361
 31
0.0
 11
15.2023579034
 21
5.6521159014
 31
0.0
 11
15.2042161012
 21
5.6560112755
 31
0.0
 11
15.2077939187
 21
5.6646361589
 31
0.0
 11
15.2110638219
 21
5.6740731843
 31
0.0
 11
15.2138880377
 21
5.6839172751
 31
0.0
  0
SPLINE
  5
2E7
100
AcDbEntity
  8
ALL_ASSEMBLY_MEMBERS
100
AcDbSpline
 62
7
  6
BYLAYER
 70
0
 71
3
 72
25
 73
21
 74
19
 42
0.0000001
 43
0.0000001
 44
0.0000000001
 12
-0.0900957177
 22
-0.0125333174
 32
0.0
 13
0.0001043693
 23
-0.0909632425
 33
0.0
 40
0.0
 40
0.0
 40
0.0
 40
0.0
 40
0.1253034548
 40
0.2503915402
 40
0.3128517815
 40
0.3752578946
 40
0.437608952
 40
0.4999097207
 40
0.5621662275
 40
0.6243874903
 40
0.6865930891
 40
0.7177020323
 40
0.748830216
 40
0.8111127996
 40
0.8423463005
 40
0.8736253642
 40
0.9050387618
 40
0.9365453856
 40
0.9682930951
 40
1.0
 40
1.0
 40
1.0
 40
1.0
 10
14.9337406517
 20
5.6485619361
 30
0.0
 10
14.9299775501
 20
5.6480384468
 30
0.0
 10
14.9224702143
 20
5.646900286
 30
0.0
 10
14.9131363979
 20
5.6451964752
 30
0.0
 10
14.905722639
 20
5.6436206525
 30
0.0
 10
14.9001965769
 20
5.6423195741
 30
0.0
 10
14.8947098555
 20
5.6408796698
 30
0.0
 10
14.8892724359
 20
5.6392786969
 30
0.0
 10
14.8838977474
 20
5.6374890896
 30
0.0
 10
14.8786079268
 20
5.6354690671
 30
0.0
 10
14.874294626
 20
5.6335539625
 30
0.0
 10
14.8709317371
 20
5.6318405421
 30
0.0
 10
14.8676374089
 20
5.6299950986
 30
0.0
 10
14.8644757072
 20
5.6279060052
 30
0.0
 10
14.8615448237
 20
5.625507119
 30
0.0
 10
14.8595084987
 20
5.6235093542
 30
0.0
 10
14.8576959341
 20
5.621292945
 30
0.0
 10
14.8562098516
 20
5.6188206693
 30
0.0
 10
14.8552176515
 20
5.6160976529
 30
0.0
 10
14.8549644293
 20
5.6141679847
 30
0.0
 10
14.8549655323
 20
5.613206597
 30
0.0
 11
14.9337406517
 21
5.6485619361
 31
0.0
 11
14.9224730223
 21
5.6468428381
 31
0.0
 11
14.9112824518
 21
5.6447837862
 31
0.0
 11
14.9057255209
 21
5.6436001553
 31
0.0
 11
14.9002007316
 21
5.6422958388
 31
0.0
 11
14.8947158749
 21
5.6408522141
 31
0.0
 11
14.8892809841
 21
5.6392466612
 31
0.0
 11
14.8839104316
 21
5.6374501687
 31
0.0
 11
14.8786262732
 21
5.6354224632
 31
0.0
 11
14.8734616285
 21
5.6331107024
 31
0.0
 11
14.8709410785
 21
5.6318244527
 31
0.0
 11
14.8684729501
 21
5.6304366988
 31
0.0
 11
14.8637661163
 21
5.627283477
 31
0.0
 11
14.8615740684
 21
5.625476051
 31
0.0
 11
14.8595494626
 21
5.6234769509
 31
0.0
 11
14.8577533096
 21
5.6212545764
 31
0.0
 11
14.8562960165
 21
5.6187867947
 31
0.0
 11
14.8553198024
 21
5.6160689211
 31
0.0
 11
14.8549655323
 21
5.613206597
 31
0.0
  0
SPLINE
  5
2E8
100
AcDbEntity
  8
ALL_ASSEMBLY_MEMBERS
100
AcDbSpline
 62
7
  6
BYLAYER
 70
0
 71
3
 72
23
 73
19
 74
17
 42
0.0000001
 43
0.0000001
 44
0.0000000001
 12
-0.1162582317
 22
-0.0293839759
 32
0.0
 13
0.0001485842
 23
-0.1199140209
 33
0.0
 40
0.0
 40
0.0
 40
0.0
 40
0.0
 40
0.1248833498
 40
0.2490096569
 40
0.3108326625
 40
0.3725295414
 40
0.434139318
 40
0.4957235934
 40
0.5573560463
 40
0.619142657
 40
0.6812106199
 40
0.7437049405
 40
0.8067995565
 40
0.8386122812
 40
0.8706151721
 40
0.9027902332
 40
0.9351382733
 40
1.0
 40
1.0
 40
1.0
 40
1.0
 10
14.9203364662
 20
5.6839172751
 30
0.0
 10
14.9154968937
 20
5.6826940854
 30
0.0
 10
14.9059058738
 20
5.6800131971
 30
0.0
 10
14.8941579739
 20
5.6759357286
 30
0.0
 10
14.8850090031
 20
5.6721498564
 30
0.0
 10
14.8782993764
 20
5.6690225903
 30
0.0
 10
14.8717625231
 20
5.6655674643
 30
0.0
 10
14.8654336564
 20
5.6617474657
 30
0.0
 10
14.8593632177
 20
5.6575137769
 30
0.0
 10
14.8536146814
 20
5.6528184383
 30
0.0
 10
14.848278658
 20
5.6476048511
 30
0.0
 10
14.8434766424
 20
5.6418229694
 30
0.0
 10
14.8400638164
 20
5.6365133555
 30
0.0
 10
14.8377862643
 20
5.6319760188
 30
0.0
 10
14.8363293469
 20
5.6284223245
 30
0.0
 10
14.8351541855
 20
5.6247422758
 30
0.0
 10
14.8340036975
 20
5.6196961225
 30
0.0
 10
14.8336410369
 20
5.6157992072
 30
0.0
 10
14.8336442494
 20
5.613206597
 30
0.0
 11
14.9203364662
 21
5.6839172751
 31
0.0
 11
14.9059219177
 21
5.6798577569
 31
0.0
 11
14.8918737547
 21
5.6749386781
 31
0.0
 11
14.8850260305
 21
5.6720982684
 31
0.0
 11
14.878323622
 21
5.6689657047
 31
0.0
 11
14.8717959139
 21
5.6655059614
 31
0.0
 11
14.8654793097
 21
5.6616802414
 31
0.0
 11
14.8594243225
 21
5.6574425401
 31
0.0
 11
14.8536960509
 21
5.6527434478
 31
0.0
 11
14.8483850493
 21
5.64752915
 31
0.0
 11
14.8436135046
 21
5.641750598
 31
0.0
 11
14.8395422665
 21
5.6353734206
 31
0.0
 11
14.8378335821
 21
5.631962694
 31
0.0
 11
14.8363798857
 21
5.6284110849
 31
0.0
 11
14.8352089584
 21
5.624734813
 31
0.0
 11
14.8343483664
 21
5.6209524965
 31
0.0
 11
14.8336442494
 21
5.613206597
 31
0.0
  0
SPLINE
  5
2E9
100
AcDbEntity
  8
ALL_ASSEMBLY_MEMBERS
100
AcDbSpline
 62
7
  6
BYLAYER
 70
0
 71
3
 72
12
 73
8
 74
6
 42
0.0000001
 43
0.0000001
 44
0.0000000001
 12
-0.0184306998
 22
0.0331165927
 32
0.0
 13
-0.0094775033
 23
0.0366957264
 33
0.0
 40
0.0
 40
0.0
 40
0.0
 40
0.0
 40
0.1060094968
 40
0.2198851182
 40
0.4662584439
 40
0.7297815319
 40
1.0
 40
1.0
 40
1.0
 40
1.0
 10
14.9337406517
 20
5.648561976
 30
0.0
 10
14.9330893753
 20
5.6497322004
 30
0.0
 10
14.9317975652
 20
5.6521926229
 30
0.0
 10
14.9292672861
 20
5.6575130906
 30
0.0
 10
14.9262661033
 20
5.6648062091
 30
0.0
 10
14.9230501466
 20
5.6741267647
 30
0.0
 10
14.9211901
 20
5.6806119875
 30
0.0
 10
14.9203364345
 20
5.6839172751
 30
0.0
 11
14.9337406517
 21
5.648561976
 31
0.0
 11
14.9318666829
 21
5.6521159198
 31
0.0
 11
14.9300084744
 21
5.6560112755
 31
0.0
 11
14.9264306295
 21
5.6646361353
 31
0.0
 11
14.9231606913
 21
5.6740731594
 31
0.0
 11
14.9203364345
 21
5.6839172751
 31
0.0
  0
SPLINE
  5
2EA
100
AcDbEntity
  8
ALL_ASSEMBLY_MEMBERS
100
AcDbSpline
 62
7
  6
BYLAYER
 70
0
 71
3
 72
18
 73
14
 74
12
 42
0.0000001
 43
0.0000001
 44
0.0000000001
 12
-0.496932178
 22
-0.0146079231
 32
0.0
 13
-0.4957073194
 23
-0.0378052173
 33
0.0
 40
0.0
 40
0.0
 40
0.0
 40
0.0
 40
0.1488365017
 40
0.3009161427
 40
0.4509449394
 40
0.593700901
 40
0.7242156203
 40
0.7834435131
 40
0.8379505655
 40
0.8872599247
 40
0.9309498674
 40
0.9686458293
 40
1.0
 40
1.0
 40
1.0
 40
1.0
 10
15.1873766677
 20
4.8709172974
 30
0.0
 10
15.1627227853
 20
4.8701925666
 30
0.0
 10
15.112876568
 20
4.8687698281
 30
0.0
 10
15.0381771434
 20
4.8666814362
 30
0.0
 10
14.9644857082
 20
4.8645941919
 30
0.0
 10
14.8943693114
 20
4.8625102235
 30
0.0
 10
14.8392978041
 20
4.8607275979
 30
0.0
 10
14.7988478994
 20
4.8592735822
 30
0.0
 10
14.7718494068
 20
4.8582199412
 30
0.0
 10
14.7474278566
 20
4.8571682813
 30
0.0
 10
14.7257948447
 20
4.8561196258
 30
0.0
 10
14.7071411339
 20
4.855074685
 30
0.0
 10
14.6957233997
 20
4.8543123922
 30
0.0
 10
14.6905425691
 20
4.8539172751
 30
0.0
 11
15.1873766677
 21
4.8709172974
 31
0.0
 11
15.1134135911
 21
4.8687922935
 31
0.0
 11
15.037837547
 21
4.86666729
 31
0.0
 11
14.9632814821
 21
4.8645422879
 31
0.0
 11
14.8923426274
 21
4.8624172829
 31
0.0
 11
14.8274924534
 21
4.8602922891
 31
0.0
 11
14.7980666703
 21
4.8592297704
 31
0.0
 11
14.7709895001
 21
4.8581672556
 31
0.0
 11
14.7464985408
 21
4.857104842
 31
0.0
 11
14.7248042271
 21
4.8560423341
 31
0.0
 11
14.7060939639
 21
4.8549794577
 31
0.0
 11
14.6905425691
 21
4.8539172751
 31
0.0
  0
SPLINE
  5
2EB
100
AcDbEntity
  8
ALL_ASSEMBLY_MEMBERS
100
AcDbSpline
 62
7
  6
BYLAYER
 70
0
 71
3
 72
59
 73
55
 74
53
 42
0.0000001
 43
0.0000001
 44
0.0000000001
 12
0.0009561642
 22
0.7337217105
 32
0.0
 13
0.6350724436
 23
0.3674662626
 33
0.0
 40
0.0
 40
0.0
 40
0.0
 40
0.0
 40
0.0001904354
 40
0.0004068784
 40
0.0006675641
 40
0.0009831172
 40
0.0017995773
 40
0.0028815768
 40
0.004238598
 40
0.0058751504
 40
0.0077932309
 40
0.0099930599
 40
0.0124741905
 40
0.0152358295
 40
0.0215963651
 40
0.0290649578
 40
0.0376257809
 40
0.0472584751
 40
0.0579421984
 40
0.0823663845
 40
0.1106710602
 40
0.1425979081
 40
0.1778495053
 40
0.2160997283
 40
0.2569937988
 40
0.3001509593
 40
0.34517165
 40
0.3916360741
 40
0.4391136097
 40
0.4871620474
 40
0.5353354131
 40
0.5831853587
 40
0.6302678047
 40
0.6761441369
 40
0.7203893898
 40
0.7625907497
 40
0.80235794
 40
0.8393203325
 40
0.8731356818
 40
0.9034909356
 40
0.9301039278
 40
0.9419300086
 40
0.9527323764
 40
0.962484699
 40
0.9711665464
 40
0.9787598391
 40
0.9852471488
 40
0.9906155615
 40
0.9928784414
 40
0.9948599888
 40
0.9965604935
 40
0.9979811678
 40
0.9991250846
 40
1.0
 40
1.0
 40
1.0
 40
1.0
 10
14.7007726173
 20
4.8273118968
 30
0.0
 10
14.700772678
 20
4.8273584724
 30
0.0
 10
14.700793766
 20
4.8274585894
 30
0.0
 10
14.7008809942
 20
4.8275991384
 30
0.0
 10
14.7010195671
 20
4.8277363801
 30
0.0
 10
14.7012974788
 20
4.8279349632
 30
0.0
 10
14.7017876286
 20
4.8281717641
 30
0.0
 10
14.7025379331
 20
4.8284392586
 30
0.0
 10
14.7034984487
 20
4.8287083578
 30
0.0
 10
14.704669068
 20
4.8289788995
 30
0.0
 10
14.7060502687
 20
4.8292502659
 30
0.0
 10
14.7076412491
 20
4.8295222901
 30
0.0
 10
14.7094410944
 20
4.8297947902
 30
0.0
 10
14.7122532201
 20
4.8301767872
 30
0.0
 10
14.7162839842
 20
4.8306462242
 30
0.0
 10
14.7217332262
 20
4.8311884842
 30
0.0
 10
14.727986068
 20
4.8317319976
 30
0.0
 10
14.7350277362
 20
4.8322767068
 30
0.0
 10
14.745943678
 20
4.8330382673
 30
0.0
 10
14.7614248442
 20
4.8339733029
 30
0.0
 10
14.7821012224
 20
4.8350563024
 30
0.0
 10
14.8054287855
 20
4.8361417839
 30
0.0
 10
14.8311910136
 20
4.8372294604
 30
0.0
 10
14.8591481234
 20
4.8383184607
 30
0.0
 10
14.8890400498
 20
4.8394084366
 30
0.0
 10
14.9205888654
 20
4.84049916
 30
0.0
 10
14.9535008045
 20
4.8415903335
 30
0.0
 10
14.9874699411
 20
4.8426819096
 30
0.0
 10
15.022179952
 20
4.843773671
 30
0.0
 10
15.057308124
 20
4.8448655863
 30
0.0
 10
15.0925274215
 20
4.8459575022
 30
0.0
 10
15.1275103501
 20
4.8470493766
 30
0.0
 10
15.1619312139
 20
4.8481410488
 30
0.0
 10
15.1954700188
 20
4.8492324902
 30
0.0
 10
15.2278144021
 20
4.8503234546
 30
0.0
 10
15.2586637818
 20
4.8514139044
 30
0.0
 10
15.2877308269
 20
4.8525034668
 30
0.0
 10
15.3147453793
 20
4.853591949
 30
0.0
 10
15.3394560833
 20
4.854678739
 30
0.0
 10
15.3616329942
 20
4.8557633252
 30
0.0
 10
15.3784325919
 20
4.8566970765
 30
0.0
 10
15.3904519461
 20
4.8574551575
 30
0.0
 10
15.3983527002
 20
4.8580005244
 30
0.0
 10
15.4054825032
 20
4.8585452621
 30
0.0
 10
15.4118249815
 20
4.8590890884
 30
0.0
 10
15.4173658197
 20
4.8596313141
 30
0.0
 10
15.4220919616
 20
4.8601717262
 30
0.0
 10
15.4255134325
 20
4.8606419372
 30
0.0
 10
15.4278328689
 20
4.8610271173
 30
0.0
 10
15.4292614453
 20
4.8612987234
 30
0.0
 10
15.4304799243
 20
4.8615694541
 30
0.0
 10
15.4314882885
 20
4.8618389026
 30
0.0
 10
15.4322861082
 20
4.8621066444
 30
0.0
 10
15.4327386521
 20
4.8623092716
 30
0.0
 10
15.4329238636
 20
4.8624164389
 30
0.0
 11
14.7007726173
 21
4.8273118968
 31
0.0
 11
14.700799445
 21
4.8274490239
 31
0.0
 11
14.700879548
 21
4.827586151
 31
0.0
 11
14.7010128923
 21
4.8277232781
 31
0.0
 11
14.701199444
 21
4.8278604051
 31
0.0
 11
14.7017320335
 21
4.8281346593
 31
0.0
 11
14.7024770446
 21
4.8284089135
 31
0.0
 11
14.7034342054
 21
4.8286831678
 31
0.0
 11
14.7046032415
 21
4.828957422
 31
0.0
 11
14.7059835988
 21
4.8292316761
 31
0.0
 11
14.7075741918
 21
4.8295059303
 31
0.0
 11
14.7093738759
 21
4.8297801845
 31
0.0
 11
14.7113815063
 21
4.8300544387
 31
0.0
 11
14.7160160275
 21
4.830602947
 31
0.0
 11
14.7214683801
 21
4.8311514553
 31
0.0
 11
14.7277256523
 21
4.8316999637
 31
0.0
 11
14.7347720588
 21
4.8322484721
 31
0.0
 11
14.7425917313
 21
4.8327969804
 31
0.0
 11
14.7604786935
 21
4.8338939972
 31
0.0
 11
14.781217472
 21
4.834991014
 31
0.0
 11
14.8046172126
 21
4.8360880308
 31
0.0
 11
14.8304588221
 21
4.8371850476
 31
0.0
 11
14.8585024166
 21
4.8382820644
 31
0.0
 11
14.8884872485
 21
4.8393790813
 31
0.0
 11
14.9201336127
 21
4.8404760982
 31
0.0
 11
14.953148078
 21
4.8415731151
 31
0.0
 11
14.9872224091
 21
4.842670132
 31
0.0
 11
15.0220404596
 21
4.8437671489
 31
0.0
 11
15.0572775992
 21
4.8448641658
 31
0.0
 11
15.0926064456
 21
4.8459611828
 31
0.0
 11
15.1276978762
 21
4.8470581998
 31
0.0
 11
15.1622258957
 21
4.8481552168
 31
0.0
 11
15.1958685042
 21
4.8492522338
 31
0.0
 11
15.2283136939
 21
4.8503492508
 31
0.0
 11
15.2592583351
 21
4.8514462678
 31
0.0
 11
15.288415781
 21
4.8525432849
 31
0.0
 11
15.3155137175
 21
4.853640302
 31
0.0
 11
15.3403005304
 21
4.854737319
 31
0.0
 11
15.362545825
 21
4.8558343361
 31
0.0
 11
15.3820415317
 21
4.8569313532
 31
0.0
 11
15.3907012374
 21
4.8574798618
 31
0.0
 11
15.3986081736
 21
4.8580283703
 31
0.0
 11
15.4057426163
 21
4.8585768789
 31
0.0
 11
15.4120890225
 21
4.8591253875
 31
0.0
 11
15.4176333245
 21
4.859673896
 31
0.0
 11
15.4223614989
 21
4.8602224046
 31
0.0
 11
15.4262620454
 21
4.8607709132
 31
0.0
 11
15.4278995636
 21
4.8610451675
 31
0.0
 11
15.4293273682
 21
4.8613194218
 31
0.0
 11
15.4305445516
 21
4.861593676
 31
0.0
 11
15.4315502064
 21
4.8618679303
 31
0.0
 11
15.4323434517
 21
4.8621421846
 31
0.0
 11
15.4329238636
 21
4.8624164389
 31
0.0
  0
SPLINE
  5
2EC
100
AcDbEntity
  8
ALL_ASSEMBLY_MEMBERS
100
AcDbSpline
 62
7
  6
BYLAYER
 70
0
 71
3
 72
15
 73
11
 74
9
 42
0.0000001
 43
0.0000001
 44
0.0000000001
 12
-0.3196399211
 22
-0.0061600537
 32
0.0
 13
-0.3194214315
 23
-0.0133257091
 33
0.0
 40
0.0
 40
0.0
 40
0.0
 40
0.0
 40
0.3026311067
 40
0.4467969919
 40
0.5828118868
 40
0.7082642275
 40
0.8209197244
 40
0.9187623183
 40
0.9615665287
 40
1.0
 40
1.0
 40
1.0
 40
1.0
 10
15.0671122976
 20
4.8228980138
 30
0.0
 10
15.0348679699
 20
4.8222766058
 30
0.0
 10
14.9872633094
 20
4.8213556435
 30
0.0
 10
14.9251682406
 20
4.8200790422
 30
0.0
 10
14.8819516453
 20
4.8191358639
 30
0.0
 10
14.8420938544
 20
4.8181922619
 30
0.0
 10
14.8063052049
 20
4.8172488748
 30
0.0
 10
14.7793238856
 20
4.8164328612
 30
0.0
 10
14.7602515947
 20
4.8157650922
 30
0.0
 10
14.751600914
 20
4.8154279926
 30
0.0
 10
14.7475087559
 20
4.8152572749
 30
0.0
 11
15.0671122976
 21
4.8228980138
 31
0.0
 11
14.970379922
 21
4.8210025302
 31
0.0
 11
14.9243000126
 21
4.8200511899
 31
0.0
 11
14.8808266119
 21
4.8190973672
 31
0.0
 11
14.8407309918
 21
4.8181410861
 31
0.0
 11
14.8047278741
 21
4.8171823547
 31
0.0
 11
14.7734624437
 21
4.81622102
 31
0.0
 11
14.7597864499
 21
4.8157393067
 31
0.0
 11
14.7475087559
 21
4.8152572749
 31
0.0
  0
LINE
  5
2ED
100
AcDbEntity
  8
ALL_ASSEMBLY_MEMBERS
100
AcDbLine
 62
7
  6
BYLAYER
 10
14.6625907131
 20
4.8591138417
 11
14.6636459853
 21
4.8595512347
  0
SPLINE
  5
2EE
100
AcDbEntity
  8
ALL_ASSEMBLY_MEMBERS
100
AcDbSpline
 62
7
  6
BYLAYER
 70
0
 71
3
 72
23
 73
19
 74
17
 42
0.0000001
 43
0.0000001
 44
0.0000000001
 12
0.2050202267
 22
0.0661992022
 32
0.0
 13
0.2153346169
 23
0.0068286544
 33
0.0
 40
0.0
 40
0.0
 40
0.0
 40
0.0
 40
0.0062422836
 40
0.0142570909
 40
0.024053235
 40
0.0356308738
 40
0.0489861451
 40
0.0641125289
 40
0.0996219654
 40
0.1420254996
 40
0.1911755741
 40
0.2468804787
 40
0.3089233498
 40
0.3770732497
 40
0.4510568354
 40
0.6153688742
 40
0.7993035595
 40
1.0
 40
1.0
 40
1.0
 40
1.0
 10
14.6636459853
 20
4.8595512347
 30
0.0
 10
14.6640725834
 20
4.8596889794
 30
0.0
 10
14.6650641539
 20
4.8599491962
 30
0.0
 10
14.6667565
 20
4.8602965371
 30
0.0
 10
14.6688382996
 20
4.860645988
 30
0.0
 10
14.6713076616
 20
4.8609970571
 30
0.0
 10
14.6741630043
 20
4.8613491215
 30
0.0
 10
14.6787316176
 20
4.8618463091
 30
0.0
 10
14.6853858893
 20
4.8624543169
 30
0.0
 10
14.6944840654
 20
4.863154901
 30
0.0
 10
14.7050361229
 20
4.8638574427
 30
0.0
 10
14.7170011409
 20
4.8645618158
 30
0.0
 10
14.7303326561
 20
4.8652673581
 30
0.0
 10
14.744978458
 20
4.8659736373
 30
0.0
 10
14.7669639628
 20
4.8669507681
 30
0.0
 10
14.7972623817
 20
4.8681545392
 30
0.0
 10
14.8366594242
 20
4.8695577627
 30
0.0
 10
14.8642667163
 20
4.870460418
 30
0.0
 10
14.8786723467
 20
4.8709172469
 30
0.0
 11
14.6636459853
 21
4.8595512347
 31
0.0
 11
14.6649430874
 21
4.8599064281
 31
0.0
 11
14.6666328943
 21
4.8602616175
 31
0.0
 11
14.668713301
 21
4.8606168044
 31
0.0
 11
14.6711822024
 21
4.8609719898
 31
0.0
 11
14.6740374934
 21
4.8613271749
 31
0.0
 11
14.6772769511
 21
4.861682361
 31
0.0
 11
14.6848941529
 21
4.8623927362
 31
0.0
 11
14.6940020305
 21
4.8631031133
 31
0.0
 11
14.7045672083
 21
4.8638134898
 31
0.0
 11
14.7165473898
 21
4.8645238655
 31
0.0
 11
14.7298951938
 21
4.8652342408
 31
0.0
 11
14.7445604084
 21
4.8659446165
 31
0.0
 11
14.7604838062
 21
4.8666549923
 31
0.0
 11
14.7958551405
 21
4.868075744
 31
0.0
 11
14.8354570788
 21
4.8694964954
 31
0.0
 11
14.8786723467
 21
4.8709172469
 31
0.0
  0
SPLINE
  5
2EF
100
AcDbEntity
  8
ALL_ASSEMBLY_MEMBERS
100
AcDbSpline
 62
7
  6
BYLAYER
 70
0
 71
3
 72
44
 73
40
 74
38
 42
0.0000001
 43
0.0000001
 44
0.0000000001
 12
0.6642025763
 22
0.0353623338
 32
0.0
 13
-0.0004500498
 23
0.6651431083
 33
0.0
 40
0.0
 40
0.0
 40
0.0
 40
0.0
 40
0.0266774618
 40
0.055953288
 40
0.1215743407
 40
0.1952596942
 40
0.2751852232
 40
0.3593775991
 40
0.4457558253
 40
0.5321850743
 40
0.6165290857
 40
0.6572637852
 40
0.6967033309
 40
0.7346017303
 40
0.7707268331
 40
0.8048531039
 40
0.8367716093
 40
0.8662838597
 40
0.8932085621
 40
0.9173802104
 40
0.9386494097
 40
0.9568888229
 40
0.9648357505
 40
0.9719860914
 40
0.9783300034
 40
0.983858046
 40
0.9885625591
 40
0.9906050886
 40
0.9924409937
 40
0.9940704627
 40
0.99549405
 40
0.9967129242
 40
0.9977293606
 40
0.9985478336
 40
0.9991779594
 40
0.9994290479
 40
0.9996435489
 40
0.999829724
 40
1.0
 40
1.0
 40
1.0
 40
1.0
 10
14.7694509104
 20
4.8165266369
 30
0.0
 10
14.7753573233
 20
4.816841096
 30
0.0
 10
14.7877474243
 20
4.8174633455
 30
0.0
 10
14.8146740624
 20
4.8186961132
 30
0.0
 10
14.8520208019
 20
4.820208295
 30
0.0
 10
14.9005958652
 20
4.8219686179
 30
0.0
 10
14.9532908003
 20
4.8237327891
 30
0.0
 10
15.008801305
 20
4.8254995741
 30
0.0
 10
15.0657544489
 20
4.8272674193
 30
0.0
 10
15.1227412229
 20
4.8290353616
 30
0.0
 10
15.1696119554
 20
4.8305243672
 30
0.0
 10
15.2060681831
 20
4.8317274994
 30
0.0
 10
15.2322314085
 20
4.8326191351
 30
0.0
 10
15.2573720132
 20
4.8335105648
 30
0.0
 10
15.2813338327
 20
4.8344015523
 30
0.0
 10
15.303968876
 20
4.8352921517
 30
0.0
 10
15.3251365801
 20
4.8361820599
 30
0.0
 10
15.3447061205
 20
4.8370711591
 30
0.0
 10
15.3625562031
 20
4.837959129
 30
0.0
 10
15.3785763159
 20
4.8388452945
 30
0.0
 10
15.3926675759
 20
4.8397294442
 30
0.0
 10
15.4031616881
 20
4.8404935732
 30
0.0
 10
15.4105267494
 20
4.8411159085
 30
0.0
 10
15.415259826
 20
4.8415603831
 30
0.0
 10
15.4194540888
 20
4.8420039339
 30
0.0
 10
15.423102753
 20
4.8424464231
 30
0.0
 10
15.4257975521
 20
4.8428295688
 30
0.0
 10
15.4276748969
 20
4.8431412849
 30
0.0
 10
15.4288757491
 20
4.8433636679
 30
0.0
 10
15.4299368378
 20
4.8435856927
 30
0.0
 10
15.430857913
 20
4.8438072558
 30
0.0
 10
15.4316387179
 20
4.8440281765
 30
0.0
 10
15.4322797112
 20
4.8442481862
 30
0.0
 10
15.4327809539
 20
4.8444671714
 30
0.0
 10
15.433106771
 20
4.8446613496
 30
0.0
 10
15.4332896684
 20
4.8448223983
 30
0.0
 10
15.4333815828
 20
4.8449350501
 30
0.0
 10
15.4334384058
 20
4.8450496783
 30
0.0
 10
15.4334515733
 20
4.84512915
 30
0.0
 10
15.4334515477
 20
4.8451669027
 30
0.0
 11
14.7694509104
 21
4.8165266369
 31
0.0
 11
14.7871726416
 21
4.8174219738
 31
0.0
 11
14.8066246798
 21
4.8183170041
 31
0.0
 11
14.8502353658
 21
4.8201068865
 31
0.0
 11
14.8992139826
 21
4.8218969201
 31
0.0
 11
14.9523457661
 21
4.8236869094
 31
0.0
 11
15.0083171422
 21
4.825476911
 31
0.0
 11
15.0657431463
 21
4.8272669095
 31
0.0
 11
15.1232031044
 21
4.8290569088
 31
0.0
 11
15.1792753913
 21
4.8308469079
 31
0.0
 11
15.2063550161
 21
4.8317419075
 31
0.0
 11
15.2325726921
 21
4.8326369071
 31
0.0
 11
15.2577646637
 21
4.8335319068
 31
0.0
 11
15.2817763582
 21
4.8344269064
 31
0.0
 11
15.3044575658
 21
4.835321906
 31
0.0
 11
15.3256690711
 21
4.8362169057
 31
0.0
 11
15.3452785318
 21
4.8371119054
 31
0.0
 11
15.3631649381
 21
4.838006905
 31
0.0
 11
15.3792176166
 21
4.8389019047
 31
0.0
 11
15.3933363421
 21
4.8397969044
 31
0.0
 11
15.4054351064
 21
4.8406919041
 31
0.0
 11
15.4107019751
 21
4.8411394039
 31
0.0
 11
15.4154368763
 21
4.8415869038
 31
0.0
 11
15.4196326903
 21
4.8420344036
 31
0.0
 11
15.4232822976
 21
4.8424819035
 31
0.0
 11
15.4263793093
 21
4.8429294033
 31
0.0
 11
15.4277193322
 21
4.8431531533
 31
0.0
 11
15.4289197982
 21
4.8433769032
 31
0.0
 11
15.4299802811
 21
4.8436006531
 31
0.0
 11
15.4309003549
 21
4.8438244031
 31
0.0
 11
15.4316795933
 21
4.844048153
 31
0.0
 11
15.4323175702
 21
4.8442719029
 31
0.0
 11
15.4328138658
 21
4.8444956529
 31
0.0
 11
15.4331682678
 21
4.8447194028
 31
0.0
 11
15.4332922689
 21
4.8448312778
 31
0.0
 11
15.4333808118
 21
4.8449431527
 31
0.0
 11
15.4334339026
 21
4.8450550277
 31
0.0
 11
15.4334515477
 21
4.8451669027
 31
0.0
  0
SPLINE
  5
2F0
100
AcDbEntity
  8
ALL_ASSEMBLY_MEMBERS
100
AcDbSpline
 62
7
  6
BYLAYER
 70
0
 71
3
 72
21
 73
17
 74
15
 42
0.0000001
 43
0.0000001
 44
0.0000000001
 12
-0.0167814621
 22
0.016786859
 32
0.0
 13
0.0231973666
 23
0.0050297401
 33
0.0
 40
0.0
 40
0.0
 40
0.0
 40
0.0
 40
0.0350098619
 40
0.0648473952
 40
0.091966992
 40
0.1195587037
 40
0.1506494081
 40
0.1873898755
 40
0.2310864743
 40
0.2825027088
 40
0.3420928159
 40
0.4101329799
 40
0.4867686501
 40
0.5720660541
 40
0.7687048694
 40
1.0
 40
1.0
 40
1.0
 40
1.0
 10
14.6722504738
 20
4.8437800288
 30
0.0
 10
14.6720546349
 20
4.8439759307
 30
0.0
 10
14.6717183562
 20
4.8443687006
 30
0.0
 10
14.671388597
 20
4.8450285654
 30
0.0
 10
14.6713007329
 20
4.8457065265
 30
0.0
 10
14.6714666258
 20
4.8463789233
 30
0.0
 10
14.6718661365
 20
4.8470296147
 30
0.0
 10
14.6724837
 20
4.8476665108
 30
0.0
 10
14.6733178246
 20
4.8482977356
 30
0.0
 10
14.6743697657
 20
4.8489269018
 30
0.0
 10
14.6756406333
 20
4.8495553178
 30
0.0
 10
14.6771306567
 20
4.8501832235
 30
0.0
 10
14.678839131
 20
4.8508108195
 30
0.0
 10
14.6815373523
 20
4.8516891509
 30
0.0
 10
14.6854548869
 20
4.8527655251
 30
0.0
 10
14.6887540898
 20
4.8535294903
 30
0.0
 10
14.6905425691
 20
4.8539172751
 30
0.0
 11
14.6722504738
 21
4.8437800288
 31
0.0
 11
14.6717217772
 21
4.8444211635
 31
0.0
 11
14.6714186537
 21
4.845061252
 31
0.0
 11
14.6713411842
 21
4.8457002947
 31
0.0
 11
14.6714890934
 21
4.8463383017
 31
0.0
 11
14.6718617287
 21
4.8469752938
 31
0.0
 11
14.6724584199
 21
4.8476112919
 31
0.0
 11
14.6732784964
 21
4.8482463173
 31
0.0
 11
14.6743212877
 21
4.8488803909
 31
0.0
 11
14.6755861235
 21
4.849513534
 31
0.0
 11
14.67707226
 21
4.8501457627
 31
0.0
 11
14.6787782608
 21
4.8507770458
 31
0.0
 11
14.6807023095
 21
4.8514073263
 31
0.0
 11
14.6851972676
 21
4.85266465
 31
0.0
 11
14.6905425691
 21
4.8539172751
 31
0.0
  0
SPLINE
  5
2F1
100
AcDbEntity
  8
ALL_ASSEMBLY_MEMBERS
100
AcDbSpline
 62
7
  6
BYLAYER
 70
0
 71
3
 72
37
 73
33
 74
31
 42
0.0000001
 43
0.0000001
 44
0.0000000001
 12
-0.2722918226
 22
-0.2730456122
 32
0.0
 13
-0.3855405775
 23
-0.0074300815
 33
0.0
 40
0.0
 40
0.0
 40
0.0
 40
0.0
 40
0.0003743151
 40
0.0008728809
 40
0.0015050684
 40
0.0022753922
 40
0.004239044
 40
0.0067745276
 40
0.009884758
 40
0.0135698677
 40
0.0178290064
 40
0.0226608123
 40
0.0280636313
 40
0.03403563
 40
0.0476761376
 40
0.0635507758
 40
0.081624257
 40
0.1018601636
 40
0.1242119206
 40
0.1486258217
 40
0.1750478859
 40
0.2034190215
 40
0.233669717
 40
0.2995250716
 40
0.3719961783
 40
0.4503965896
 40
0.5339783404
 40
0.6219429114
 40
0.7134256794
 40
0.8075478813
 40
0.9034176036
 40
1.0
 40
1.0
 40
1.0
 40
1.0
 10
15.4524138828
 20
4.8342195544
 30
0.0
 10
15.4523799085
 20
4.8341854861
 30
0.0
 10
15.4522871083
 20
4.8341201411
 30
0.0
 10
15.4521131263
 20
4.8340351634
 30
0.0
 10
15.4518838902
 20
4.8339495369
 30
0.0
 10
15.4514694756
 20
4.8338246377
 30
0.0
 10
15.4508082215
 20
4.8336749398
 30
0.0
 10
15.4498450368
 20
4.8335042544
 30
0.0
 10
15.4486578514
 20
4.8333325399
 30
0.0
 10
15.4472474067
 20
4.8331598524
 30
0.0
 10
15.4456143093
 20
4.8329866194
 30
0.0
 10
15.4437593962
 20
4.8328129547
 30
0.0
 10
15.4416834914
 20
4.832638957
 30
0.0
 10
15.4384772744
 20
4.832395715
 30
0.0
 10
15.4339255895
 20
4.8320961764
 30
0.0
 10
15.4278184737
 20
4.8317491365
 30
0.0
 10
15.4208624633
 20
4.8314010043
 30
0.0
 10
15.4130730256
 20
4.8310520108
 30
0.0
 10
15.4044679025
 20
4.8307022998
 30
0.0
 10
15.3950670569
 20
4.8303519138
 30
0.0
 10
15.384892022
 20
4.830000983
 30
0.0
 10
15.3739663431
 20
4.8296495803
 30
0.0
 10
15.357973654
 20
4.8291665926
 30
0.0
 10
15.3363134296
 20
4.8285677192
 30
0.0
 10
15.3084647599
 20
4.8278653978
 30
0.0
 10
15.2783369686
 20
4.8271610169
 30
0.0
 10
15.2462172265
 20
4.8264546657
 30
0.0
 10
15.2124155644
 20
4.8257466288
 30
0.0
 10
15.1772588102
 20
4.8250369264
 30
0.0
 10
15.1410857796
 20
4.8243256452
 30
0.0
 10
15.1042571597
 20
4.823612952
 30
0.0
 10
15.0795244419
 20
4.8231372188
 30
0.0
 10
15.0671122976
 20
4.8228980138
 30
0.0
 11
15.4524138828
 21
4.8342195544
 31
0.0
 11
15.452298828
 21
4.8341323962
 31
0.0
 11
15.4521274768
 21
4.8340452182
 31
0.0
 11
15.4518998261
 21
4.8339580204
 31
0.0
 11
15.4516158727
 21
4.8338708027
 31
0.0
 11
15.4508790447
 21
4.8336963078
 31
0.0
 11
15.4499170431
 21
4.8335217332
 31
0.0
 11
15.4487304856
 21
4.8333470789
 31
0.0
 11
15.4473202463
 21
4.8331723449
 31
0.0
 11
15.4456872007
 21
4.8329975314
 31
0.0
 11
15.443832224
 21
4.8328226385
 31
0.0
 11
15.4417561917
 21
4.8326476661
 31
0.0
 11
15.4394599792
 21
4.8324726144
 31
0.0
 11
15.4342117139
 21
4.8321222728
 31
0.0
 11
15.4281003121
 21
4.8317716112
 31
0.0
 11
15.4211398015
 21
4.8314206264
 31
0.0
 11
15.413344502
 21
4.8310693155
 31
0.0
 11
15.4047325685
 21
4.8307176776
 31
0.0
 11
15.3953248528
 21
4.830365713
 31
0.0
 11
15.3851422757
 21
4.8300134221
 31
0.0
 11
15.3742077047
 21
4.8296608053
 31
0.0
 11
15.3625480091
 21
4.8293078628
 31
0.0
 11
15.3371632228
 21
4.8286010018
 31
0.0
 11
15.3092264565
 21
4.8278928356
 31
0.0
 11
15.2790026303
 21
4.8271833511
 31
0.0
 11
15.24678033
 21
4.8264725145
 31
0.0
 11
15.2128675989
 21
4.825760309
 31
0.0
 11
15.1775979469
 21
4.825046806
 31
0.0
 11
15.1413103216
 21
4.8243319282
 31
0.0
 11
15.1043487341
 21
4.82361544
 31
0.0
 11
15.0671122976
 21
4.8228980138
 31
0.0
  0
SPLINE
  5
2F2
100
AcDbEntity
  8
ALL_ASSEMBLY_MEMBERS
100
AcDbSpline
 62
7
  6
BYLAYER
 70
0
 71
3
 72
23
 73
19
 74
17
 42
0.0000001
 43
0.0000001
 44
0.0000000001
 12
0.032254135
 22
-0.0171505232
 32
0.0
 13
-0.0170448814
 23
-0.0323100865
 33
0.0
 40
0.0
 40
0.0
 40
0.0
 40
0.0
 40
0.002178312
 40
0.003913736
 40
0.0061677834
 40
0.0123125056
 40
0.0206920918
 40
0.0441887797
 40
0.0766154601
 40
0.1177980693
 40
0.167334286
 40
0.2247613813
 40
0.2896128692
 40
0.3613896701
 40
0.439468818
 40
0.6119155685
 40
0.8012613677
 40
1.0
 40
1.0
 40
1.0
 40
1.0
 10
11.6930066447
 20
10.1132890898
 30
0.0
 10
11.6930300646
 20
10.1132766368
 30
0.0
 10
11.6930485677
 20
10.1132234511
 30
0.0
 10
11.6930507732
 20
10.1131505084
 30
0.0
 10
11.6930408787
 20
10.1130262662
 30
0.0
 10
11.6929983687
 20
10.1128265746
 30
0.0
 10
11.6928715949
 20
10.1123808209
 30
0.0
 10
11.6926044781
 20
10.1116442689
 30
0.0
 10
11.6921613152
 20
10.1105479515
 30
0.0
 10
11.6915645986
 20
10.1091721217
 30
0.0
 10
11.6908209157
 20
10.1075285693
 30
0.0
 10
11.6899361661
 20
10.1056326513
 30
0.0
 10
11.6889177618
 20
10.1035003749
 30
0.0
 10
11.6877737942
 20
10.101149463
 30
0.0
 10
11.686035284
 20
10.097630894
 30
0.0
 10
11.6836245669
 20
10.0928477387
 30
0.0
 10
11.6805025941
 20
10.0867780469
 30
0.0
 10
11.6783116914
 20
10.0825909352
 30
0.0
 10
11.6771825326
 20
10.0804505144
 30
0.0
 11
11.6930066447
 21
10.1132890898
 31
0.0
 11
11.6930453632
 21
10.1132195701
 31
0.0
 11
11.6930495807
 21
10.1131563148
 31
0.0
 11
11.6930437353
 21
10.1130741813
 31
0.0
 11
11.6930019495
 21
10.1128536357
 31
0.0
 11
11.6929201943
 21
10.1125586456
 31
0.0
 11
11.6926375292
 21
10.1117481806
 31
0.0
 11
11.6921972475
 21
10.1106484838
 31
0.0
 11
11.6916018182
 21
10.1092669143
 31
0.0
 11
11.6908575565
 21
10.1076174765
 31
0.0
 11
11.689971739
 21
10.1057158359
 31
0.0
 11
11.6889516427
 21
10.1035776584
 31
0.0
 11
11.6878051043
 21
10.1012195837
 31
0.0
 11
11.6865422014
 21
10.0986621485
 31
0.0
 11
11.6837098529
 21
10.0930352396
 31
0.0
 11
11.6805479102
 21
10.0868833862
 31
0.0
 11
11.6771825326
 21
10.0804505144
 31
0.0
  0
SPLINE
  5
2F3
100
AcDbEntity
  8
ALL_ASSEMBLY_MEMBERS
100
AcDbSpline
 62
7
  6
BYLAYER
 70
0
 71
3
 72
23
 73
19
 74
17
 42
0.0000001
 43
0.0000001
 44
0.0000000001
 12
-0.0183465912
 22
-0.0345041414
 32
0.0
 13
0.034444786
 23
-0.0184577868
 33
0.0
 40
0.0
 40
0.0
 40
0.0
 40
0.0
 40
0.0045271136
 40
0.0101548211
 40
0.0174788538
 40
0.0267583795
 40
0.0381066295
 40
0.051574064
 40
0.0671814641
 40
0.0849341555
 40
0.1267992491
 40
0.1768190407
 40
0.2345393881
 40
0.2994857152
 40
0.4488496645
 40
0.6196915012
 40
0.8060240122
 40
1.0
 40
1.0
 40
1.0
 40
1.0
 10
11.7471033955
 20
10.1298281353
 30
0.0
 10
11.7470757098
 20
10.1297760673
 30
0.0
 10
11.7470499099
 20
10.1296396266
 30
0.0
 10
11.7471052016
 20
10.1294151769
 30
0.0
 10
11.7472361576
 20
10.1291554833
 30
0.0
 10
11.7474449547
 20
10.1288561925
 30
0.0
 10
11.7477315851
 20
10.1285164341
 30
0.0
 10
11.748096619
 20
10.128136563
 30
0.0
 10
11.7485398436
 20
10.1277172306
 30
0.0
 10
11.7492761829
 20
10.1270704384
 30
0.0
 10
11.7503911237
 20
10.1261769367
 30
0.0
 10
11.7519562213
 20
10.1250153875
 30
0.0
 10
11.7537990019
 20
10.1237249415
 30
0.0
 10
11.7567447473
 20
10.1217550334
 30
0.0
 10
11.7609892949
 20
10.1190786231
 30
0.0
 10
11.7666547481
 20
10.115695477
 30
0.0
 10
11.772892884
 20
10.1121408485
 30
0.0
 10
11.7772394054
 20
10.1097633884
 30
0.0
 10
11.7794665592
 20
10.1085699326
 30
0.0
 11
11.7471033955
 21
10.1298281353
 31
0.0
 11
11.7470642181
 21
10.1296556147
 31
0.0
 11
11.7471065046
 21
10.1294397958
 31
0.0
 11
11.7472297407
 21
10.1291814733
 31
0.0
 11
11.7474334125
 21
10.1288814422
 31
0.0
 11
11.7477170057
 21
10.1285404974
 31
0.0
 11
11.7480800062
 21
10.1281594338
 31
0.0
 11
11.7485219
 21
10.1277390462
 31
0.0
 11
11.7490421728
 21
10.1272801296
 31
0.0
 11
11.7503137692
 21
10.1262507475
 31
0.0
 11
11.7518805323
 21
10.1250819406
 31
0.0
 11
11.7537261688
 21
10.123785221
 31
0.0
 11
11.7558343853
 21
10.1223721005
 31
0.0
 11
11.7607640396
 21
10.1192466849
 31
0.0
 11
11.7664924193
 21
10.1158176909
 31
0.0
 11
11.772816464
 21
10.1122082277
 31
0.0
 11
11.7794665592
 21
10.1085699326
 31
0.0
  0
SPLINE
  5
2F4
100
AcDbEntity
  8
ALL_ASSEMBLY_MEMBERS
100
AcDbSpline
 62
7
  6
BYLAYER
 70
0
 71
3
 72
19
 73
15
 74
13
 42
0.0000001
 43
0.0000001
 44
0.0000000001
 12
-0.0529030581
 22
-0.1064490729
 32
0.0
 13
-0.1034656187
 23
0.0585235373
 33
0.0
 40
0.0
 40
0.0
 40
0.0
 40
0.0
 40
0.1244664263
 40
0.1868792245
 40
0.2493536427
 40
0.3118850227
 40
0.3744522097
 40
0.4370480538
 40
0.4996515973
 40
0.624705
 40
0.7497171212
 40
0.8123398196
 40
0.8749914098
 40
1.0
 40
1.0
 40
1.0
 40
1.0
 10
11.7794665595
 20
10.1085699328
 30
0.0
 10
11.7772716746
 20
10.1041534876
 30
0.0
 10
11.7732622902
 20
10.0978411918
 30
0.0
 10
11.766688176
 20
10.0904476403
 30
0.0
 10
11.7611717331
 20
10.0854527117
 30
0.0
 10
11.7551446404
 20
10.0810793775
 30
0.0
 10
11.7486751558
 20
10.0773820729
 30
0.0
 10
11.7418449949
 20
10.074395469
 30
0.0
 10
11.7323747465
 20
10.0714039465
 30
0.0
 10
11.7200320759
 20
10.0695410789
 30
0.0
 10
11.7075753815
 20
10.0701768261
 30
0.0
 10
11.6978320048
 20
10.0720952489
 30
0.0
 10
11.6883148636
 20
10.0749206339
 30
0.0
 10
11.6814938979
 20
10.0780118674
 30
0.0
 10
11.6771825342
 20
10.0804505157
 30
0.0
 11
11.7794665595
 21
10.1085699328
 31
0.0
 11
11.7715239203
 21
10.0960872627
 31
0.0
 11
11.7665940696
 21
10.0905430303
 31
0.0
 11
11.7610891646
 21
10.0855583839
 31
0.0
 11
11.7550727692
 21
10.081193263
 31
0.0
 11
11.7486164797
 21
10.0775012562
 31
0.0
 11
11.7417993662
 21
10.0745192713
 31
0.0
 11
11.7347039257
 21
10.0722756994
 31
0.0
 11
11.720007793
 21
10.0700405738
 31
0.0
 11
11.7051656176
 21
10.0707727399
 31
0.0
 11
11.6978614088
 21
10.0722084691
 31
0.0
 11
11.6907211225
 21
10.0743251267
 31
0.0
 11
11.6771825342
 21
10.0804505157
 31
0.0
  0
LINE
  5
2F5
100
AcDbEntity
  8
ALL_ASSEMBLY_MEMBERS
100
AcDbLine
 62
7
  6
BYLAYER
 10
11.6771825342
 20
10.0804505157
 11
10.554822546
 21
10.715173536
  0
LINE
  5
2F6
100
AcDbEntity
  8
ALL_ASSEMBLY_MEMBERS
100
AcDbLine
 62
7
  6
BYLAYER
 10
11.9988378711
 20
10.5499869117
 11
11.7794665595
 21
10.1085699328
  0
ENDSEC
  0
SECTION
  2
OBJECTS
  0
DICTIONARY
  5
C
100
AcDbDictionary
280
0
281
1
  3
ACAD_GROUP
350
D
  3
ACAD_MLINESTYLE
350
17
  3
ACAD_LAYOUT
350
1A
  3
ACAD_PLOTSETTINGS
350
19
  3
ACAD_PLOTSTYLENAME
350
E
  0
DICTIONARY
  5
D
102
{ACAD_REACTORS
330
C
102
}
100
AcDbDictionary
280
0
281
1
  0
ACDBDICTIONARYWDFLT
  5
E
102
{ACAD_REACTORS
330
C
102
}
100
AcDbDictionary
281
1
  3
Normal
350
F
100
AcDbDictionaryWithDefault
340
F
  0
DICTIONARY
  5
17
102
{ACAD_REACTORS
330
C
102
}
100
AcDbDictionary
280
0
281
1
  3
Standard
350
18
  0
DICTIONARY
  5
19
102
{ACAD_REACTORS
330
C
102
}
100
AcDbDictionary
281
1
  0
DICTIONARY
  5
1A
102
{ACAD_REACTORS
330
C
102
}
100
AcDbDictionary
281
1
  3
Model
350
2F7
  3
Layout1
350
2F8
  0
ACDBPLACEHOLDER
  5
F
102
{ACAD_REACTORS
330
E
102
}
  0
MLINESTYLE
  5
18
102
{ACAD_REACTORS
330
17
102
}
100
AcDbMlineStyle
  2
STANDARD
 70
0
  3

 62
256
 51
90.0
 52
90.0
 71
2
 49
0.5
 62
256
  6
BYLAYER
 49
-0.5
 62
256
  6
BYLAYER
  0
LAYOUT
  5
2F7
102
{ACAD_REACTORS
330
1A
102
}
100
AcDbPlotSettings
  1

  2
none_device
  4
ISO_A2_(594.00_x_420.00_MM)
  6

 40
0.0
 41
0.0
 42
0.0
 43
0.0
 44
594.0
 45
420.0
 46
0.0
 47
0.0
 48
0.0
 49
0.0
140
0.0
141
0.0
142
1.0
143
1.0
 70
1024
 72
0
 73
0
 74
0
  7

 75
0
147
1.0
148
0.0
149
0.0
100
AcDbLayout
  1
Model
 70
0
 71
0
 10
0.0
 20
0.0
 11
23.3858267717
 21
16.5354330709
 12
0.0
 22
0.0
 32
0.0
 14
0.0
 24
0.0
 34
0.0
 15
0.0
 25
0.0
 35
0.0
146
0.0
 13
0.0
 23
0.0
 33
0.0
 16
1.0
 26
0.0
 36
0.0
 17
0.0
 27
1.0
 37
0.0
 76
0
330
21F
345
0
346
0
  0
LAYOUT
  5
2F8
102
{ACAD_REACTORS
330
1A
102
}
100
AcDbPlotSettings
  1

  2
none_device
  4
ISO_A2_(594.00_x_420.00_MM)
  6

 40
0.0
 41
0.0
 42
0.0
 43
0.0
 44
594.0
 45
420.0
 46
0.0
 47
0.0
 48
0.0
 49
0.0
140
0.0
141
0.0
142
1.0
143
1.0
 70
0
 72
0
 73
0
 74
0
  7

 75
0
147
1.0
148
0.0
149
0.0
100
AcDbLayout
  1
Layout1
 70
0
 71
1
 10
0.0
 20
0.0
 11
23.3858267717
 21
16.5354330709
 12
0.0
 22
0.0
 32
0.0
 14
0.0
 24
0.0
 34
0.0
 15
0.0
 25
0.0
 35
0.0
146
0.0
 13
0.0
 23
0.0
 33
0.0
 16
1.0
 26
0.0
 36
0.0
 17
0.0
 27
1.0
 37
0.0
 76
0
330
220
345
0
346
0
  0
ENDSEC
  0
EOF
