  0
SECTION
  2
HEADER
  9
$ACADVER
  1
AC1015
  9
$DWGCODEPAGE
  3
ANSI_1252
  9
$EXTMAX
 10
11.6929133858
 20
8.2677165354
 30
0.0
  9
$EXTMIN
 10
0.0
 20
0.0
 30
0.0
  9
$LIMMIN
 10
0.0
 20
0.0
  9
$LIMMAX
 10
11.6929133858
 20
8.2677165354
  9
$VIEWCTR
 10
5.8464566929
 20
4.1338582677
  9
$VIEWSIZE
 40
8.2677165354
  9
$CLAYER
  8
0
  9
$LTSCALE
 40
0.6431102362
  9
$CELTYPE
  6
BYLAYER
  9
$DIMSCALE
 40
1.0
  9
$DIMASZ
 40
0.1875
  9
$DIMEXO
 40
0.0730807087
  9
$DIMDLI
 40
0.4443307087
  9
$DIMEXE
 40
0.2104724409
  9
$DIMCEN
 40
0.1052362205
  9
$DIMLFAC
 40
1.0
  9
$DIMBLK
  1
_CLOSED
  9
$DIMTXT
 40
0.15625
  9
$DIMTOL
 70
0
  9
$DIMLIM
 70
0
  9
$DIMTFAC
 40
1.0
  9
$PDMODE
 70
3
  9
$PDSIZE
 40
0.3125
  9
$HANDSEED
  5
223
  9
$TILEMODE
 70
1
  9
$MEASUREMENT
 70
0
  9
$INSUNITS
 70
1
  0
ENDSEC
  0
SECTION
  2
CLASSES
  0
CLASS
  1
ACDBDICTIONARYWDFLT
  2
AcDbDictionaryWithDefault
  3
AutoCAD 2000
 90
0
280
0
281
0
  0
CLASS
  1
ACDBPLACEHOLDER
  2
AcDbPlaceHolder
  3
AutoCAD 2000
 90
0
280
0
281
0
  0
CLASS
  1
LAYOUT
  2
AcDbLayout
  3
AutoCAD 2000
 90
0
280
0
281
0
  0
ENDSEC
  0
SECTION
  2
TABLES
  0
TABLE
  2
VPORT
  5
8
100
AcDbSymbolTable
 70
2
  0
VPORT
  5
1F4
100
AcDbSymbolTableRecord
100
AcDbViewportTableRecord
  2
*ACTIVE
 70
0
 10
0.0
 20
0.0
 11
1.0
 21
1.0
 12
5.8464566929
 22
4.1338582677
 13
0.0
 23
0.0
 14
1.0
 24
1.0
 15
0.0
 25
0.0
 16
0.0
 26
0.0
 36
1.0
 17
0.0
 27
0.0
 37
0.0
 40
8.2677165354
 41
1.4142857143
 42
50.0
 43
0.0
 44
0.0
 50
0.0
 51
0.0
 71
0
 72
100
 73
1
 74
1
 75
0
 76
0
 77
0
 78
0
  0
ENDTAB
  0
TABLE
  2
LTYPE
  5
5
100
AcDbSymbolTable
 70
6
  0
LTYPE
  5
14
100
AcDbSymbolTableRecord
100
AcDbLinetypeTableRecord
  2
BYBLOCK
 70
0
  3

 72
65
 73
0
 40
0.0
  0
LTYPE
  5
15
100
AcDbSymbolTableRecord
100
AcDbLinetypeTableRecord
  2
BYLAYER
 70
0
  3

 72
65
 73
0
 40
0.0
  0
LTYPE
  5
16
100
AcDbSymbolTableRecord
100
AcDbLinetypeTableRecord
  2
CONTINUOUS
 70
64
  3
Solid line
 72
65
 73
0
 40
0.0
  0
LTYPE
  5
1F5
100
AcDbSymbolTableRecord
100
AcDbLinetypeTableRecord
  2
CENTER
 70
64
  3
____ _ ____ _ ____ _ ____ _ ____ _ ____ _ ____
 72
65
 73
4
 40
0.6
 49
0.375
 74
0
 49
-0.075
 74
0
 49
0.075
 74
0
 49
-0.075
 74
0
  0
LTYPE
  5
1F6
100
AcDbSymbolTableRecord
100
AcDbLinetypeTableRecord
  2
HIDDEN
 70
64
  3
- - - - - - - - - - - - - - - - - - - -
 72
65
 73
2
 40
0.2
 49
0.1
 74
0
 49
-0.1
 74
0
  0
LTYPE
  5
1F7
100
AcDbSymbolTableRecord
100
AcDbLinetypeTableRecord
  2
PHANTOM
 70
64
  3
_____ _ _ _____ _ _ _____ _ _ _____
 72
65
 73
6
 40
0.8
 49
0.45
 74
0
 49
-0.05
 74
0
 49
0.1
 74
0
 49
-0.05
 74
0
 49
0.1
 74
0
 49
-0.05
 74
0
  0
LTYPE
  5
1F8
100
AcDbSymbolTableRecord
100
AcDbLinetypeTableRecord
  2
DOT
 70
64
  3
. . . . . . . . . . . . . . . . . . . .
 72
65
 73
2
 40
0.2
 49
0.1
 74
0
 49
-0.1
 74
0
  0
LTYPE
  5
1F9
100
AcDbSymbolTableRecord
100
AcDbLinetypeTableRecord
  2
DASHED
 70
64
  3
- - - - - - - - - - - - - - - - - - - -
 72
65
 73
2
 40
0.2
 49
0.1
 74
0
 49
-0.1
 74
0
  0
ENDTAB
  0
TABLE
  2
LAYER
  5
2
100
AcDbSymbolTable
 70
36
  0
LAYER
  5
10
100
AcDbSymbolTableRecord
100
AcDbLayerTableRecord
  2
0
 70
0
 62
7
  6
CONTINUOUS
370
-3
390
F
  0
LAYER
  5
1FA
100
AcDbSymbolTableRecord
100
AcDbLayerTableRecord
  2
DEFAULT_1
 70
0
 62
7
  6
CENTER
370
-3
390
F
  0
LAYER
  5
1FB
100
AcDbSymbolTableRecord
100
AcDbLayerTableRecord
  2
DEFAULT_2
 70
0
 62
8
  6
HIDDEN
370
-3
390
F
  0
LAYER
  5
1FC
100
AcDbSymbolTableRecord
100
AcDbLayerTableRecord
  2
DEFAULT_3
 70
0
 62
7
  6
PHANTOM
370
-3
390
F
  0
LAYER
  5
1FD
100
AcDbSymbolTableRecord
100
AcDbLayerTableRecord
  2
DEFAULT_COORDINATE_SYSTEM
 70
0
 62
7
  6
CONTINUOUS
370
-3
390
F
  0
LAYER
  5
1FE
100
AcDbSymbolTableRecord
100
AcDbLayerTableRecord
  2
DEFAULT_DATUM_AXES
 70
0
 62
7
  6
CONTINUOUS
370
-3
390
F
  0
LAYER
  5
1FF
100
AcDbSymbolTableRecord
100
AcDbLayerTableRecord
  2
DEFAULT_DATUM_CURVES
 70
0
 62
7
  6
CONTINUOUS
370
-3
390
F
  0
LAYER
  5
200
100
AcDbSymbolTableRecord
100
AcDbLayerTableRecord
  2
DEFAULT_DATUM_PLANES
 70
0
 62
7
  6
CONTINUOUS
370
-3
390
F
  0
ENDTAB
  0
TABLE
  2
STYLE
  5
3
100
AcDbSymbolTable
 70
1
  0
STYLE
  5
11
100
AcDbSymbolTableRecord
100
AcDbTextStyleTableRecord
  2
STANDARD
 70
0
 40
0.0
 41
0.8
 50
0.0
 71
0
 42
0.2
  3
txt
  4

  0
STYLE
  5
201
100
AcDbSymbolTableRecord
100
AcDbTextStyleTableRecord
  2
TEXTSTYLE_1
 70
0
 40
0.0
 41
0.8
 50
0.0
 71
0
 42
0.2
  3
gdt
  4

  0
ENDTAB
  0
TABLE
  2
VIEW
  5
6
100
AcDbSymbolTable
 70
0
  0
ENDTAB
  0
TABLE
  2
UCS
  5
7
100
AcDbSymbolTable
 70
0
  0
ENDTAB
  0
TABLE
  2
APPID
  5
9
100
AcDbSymbolTable
 70
1
  0
APPID
  5
202
100
AcDbSymbolTableRecord
100
AcDbRegAppTableRecord
  2
ACAD
 70
0
  0
ENDTAB
  0
TABLE
  2
BLOCK_RECORD
  5
1
100
AcDbSymbolTable
 70
0
  0
BLOCK_RECORD
  5
203
100
AcDbSymbolTableRecord
100
AcDbBlockTableRecord
  2
*Model_Space
  0
BLOCK_RECORD
  5
204
100
AcDbSymbolTableRecord
100
AcDbBlockTableRecord
  2
*Paper_Space
  0
ENDTAB
  0
TABLE
  2
DIMSTYLE
  5
A
100
AcDbSymbolTable
 70
1
100
AcDbDimStyleTable
 71
0
  0
DIMSTYLE
105
205
100
AcDbSymbolTableRecord
100
AcDbDimStyleTableRecord
  2
STANDARD
 70
0
  3

  4

 40
1.0
 41
0.1875
 42
0.0625
 43
0.38
 44
0.18
 45
0.0
 46
0.0
 47
0.01
 48
0.01
140
0.15625
141
0.09
142
0.0
143
25.4
144
1.0
145
0.0
146
1.0
147
0.09
 71
0.0
 72
0.0
 73
1
 74
1
 75
0
 76
0
 77
0
 78
4
170
0
171
2
172
0
173
0
174
0
175
0
176
0
177
0
178
0
270
2
271
2
272
2
273
2
274
2
275
0
280
0
281
0
282
0
283
1
284
4
285
0
286
0
287
3
288
0
340
11
  0
ENDTAB
  0
ENDSEC
  0
SECTION
  2
BLOCKS
  0
BLOCK
  5
20
100
AcDbEntity
  8
0
100
AcDbBlockBegin
  2
*Model_Space
 70
0
 10
0.0
 20
0.0
 30
0.0
  3
*Model_Space
  1

  0
ENDBLK
  5
21
100
AcDbEntity
  8
0
100
AcDbBlockEnd
  0
BLOCK
  5
1C
100
AcDbEntity
  8
0
100
AcDbBlockBegin
  2
*Paper_Space
 70
0
 10
0.0
 20
0.0
 30
0.0
  3
*Paper_Space
  1

  0
ENDBLK
  5
1D
100
AcDbEntity
  8
0
100
AcDbBlockEnd
  0
ENDSEC
  0
SECTION
  2
ENTITIES
  0
LINE
  5
206
100
AcDbEntity
  8
0
100
AcDbLine
 62
6
  6
CONTINUOUS
 10
6.2348968222
 20
2.8023404814
 11
5.4848968222
 21
2.8023404814
  0
LINE
  5
207
100
AcDbEntity
  8
0
100
AcDbLine
 62
6
  6
CONTINUOUS
 10
6.2348968222
 20
3.5523404814
 11
5.4848968222
 21
3.5523404814
  0
LINE
  5
208
100
AcDbEntity
  8
0
100
AcDbLine
 62
9
  6
CONTINUOUS
 10
5.1723968222
 20
4.3523404814
 11
5.1723968222
 21
4.6369052438
  0
LINE
  5
209
100
AcDbEntity
  8
0
100
AcDbLine
 62
9
  6
CONTINUOUS
 10
5.2348968222
 20
4.3523404814
 11
5.2348968222
 21
4.6369052438
  0
LINE
  5
20A
100
AcDbEntity
  8
0
100
AcDbLine
 62
6
  6
CONTINUOUS
 10
5.2598968222
 20
4.3523404814
 11
5.2598968222
 21
4.2773404814
  0
LINE
  5
20B
100
AcDbEntity
  8
0
100
AcDbLine
 62
6
  6
CONTINUOUS
 10
5.4848968222
 20
3.5523404814
 11
5.4848968222
 21
2.8023404814
  0
LINE
  5
20C
100
AcDbEntity
  8
0
100
AcDbLine
 62
6
  6
CONTINUOUS
 10
5.5598968222
 20
3.5523404814
 11
5.4543036077
 21
4.1235168735
  0
LINE
  5
20D
100
AcDbEntity
  8
0
100
AcDbLine
 62
9
  6
CONTINUOUS
 10
5.4543036077
 20
4.1235168735
 11
6.2654900367
 21
4.1235168735
  0
LINE
  5
20E
100
AcDbEntity
  8
0
100
AcDbLine
 62
6
  6
CONTINUOUS
 10
6.4598939146
 20
4.2773404814
 11
6.4503574871
 21
4.2773404814
  0
LINE
  5
20F
100
AcDbEntity
  8
0
100
AcDbLine
 62
6
  6
CONTINUOUS
 10
5.9664623098
 20
4.2773404814
 11
5.7533313345
 21
4.2773404814
  0
LINE
  5
210
100
AcDbEntity
  8
0
100
AcDbLine
 62
6
  6
CONTINUOUS
 10
5.2694361573
 20
4.2773404814
 11
5.2598997298
 21
4.2773404814
  0
LINE
  5
211
100
AcDbEntity
  8
0
100
AcDbLine
 62
6
  6
CONTINUOUS
 10
5.1723968222
 20
4.3523404814
 11
6.5473968222
 21
4.3523404814
  0
LINE
  5
212
100
AcDbEntity
  8
0
100
AcDbLine
 62
9
  6
CONTINUOUS
 10
5.1723968222
 20
4.6369052438
 11
6.5473968222
 21
4.6369052438
  0
LINE
  5
213
100
AcDbEntity
  8
0
100
AcDbLine
 62
6
  6
CONTINUOUS
 10
6.2348968222
 20
3.5523404814
 11
6.2348968222
 21
2.8023404814
  0
LINE
  5
214
100
AcDbEntity
  8
0
100
AcDbLine
 62
6
  6
CONTINUOUS
 10
6.2654900367
 20
4.1235168735
 11
6.1598968222
 21
3.5523404814
  0
LINE
  5
215
100
AcDbEntity
  8
0
100
AcDbLine
 62
6
  6
CONTINUOUS
 10
6.4598968222
 20
4.3523404814
 11
6.4598968222
 21
4.2773404814
  0
LINE
  5
216
100
AcDbEntity
  8
0
100
AcDbLine
 62
9
  6
CONTINUOUS
 10
6.4848968222
 20
4.6369052438
 11
6.4848968222
 21
4.3523404814
  0
LINE
  5
217
100
AcDbEntity
  8
0
100
AcDbLine
 62
9
  6
CONTINUOUS
 10
6.5473968222
 20
4.6369052438
 11
6.5473968222
 21
4.3523404814
  0
LINE
  5
218
100
AcDbEntity
  8
0
100
AcDbLine
 62
6
  6
CONTINUOUS
 10
4.9848968222
 20
5.9223404814
 11
6.7348968364
 21
5.9223404814
  0
ARC
  5
219
100
AcDbEntity
  8
0
100
AcDbCircle
 62
6
  6
CONTINUOUS
 10
11.0473968222
 20
4.6369052438
 40
4.5
100
AcDbArc
 50
163.4021578123
 51
180.0
  0
ARC
  5
21A
100
AcDbEntity
  8
0
100
AcDbCircle
 62
6
  6
CONTINUOUS
 10
0.6723968222
 20
4.6369052438
 40
4.5
100
AcDbArc
 50
0.0
 51
16.5978421359
  0
ARC
  5
21B
100
AcDbEntity
  8
0
100
AcDbCircle
 62
6
  6
CONTINUOUS
 10
5.2694361573
 20
4.0893404814
 40
0.188
100
AcDbArc
 50
10.474
 51
90.0
  0
ARC
  5
21C
100
AcDbEntity
  8
0
100
AcDbCircle
 62
6
  6
CONTINUOUS
 10
6.4503574871
 20
4.0893404814
 40
0.188
100
AcDbArc
 50
90.0
 51
169.526
  0
SPLINE
  5
21D
100
AcDbEntity
  8
0
100
AcDbSpline
 62
6
  6
CONTINUOUS
 70
0
 71
3
 72
45
 73
41
 74
39
 42
0.0000001
 43
0.0000001
 44
0.0000000001
 12
0.3506599136
 22
0.0
 32
0.0
 13
0.1639127032
 23
-0.3099919366
 33
0.0
 40
0.0
 40
0.0
 40
0.0
 40
0.0
 40
0.0683077156
 40
0.1022381261
 40
0.1359994639
 40
0.1695785975
 40
0.2029622391
 40
0.2361367481
 40
0.269089116
 40
0.3018065328
 40
0.334277392
 40
0.3664903576
 40
0.398435551
 40
0.4301044573
 40
0.4614900523
 40
0.4925885584
 40
0.5233977892
 40
0.5386950894
 40
0.5539216281
 40
0.5841646357
 40
0.6141395947
 40
0.6438663393
 40
0.6733697496
 40
0.7026863837
 40
0.7318605243
 40
0.7609473722
 40
0.7900142999
 40
0.8045649632
 40
0.8191402777
 40
0.8337515597
 40
0.8484090886
 40
0.8631238306
 40
0.8779077511
 40
0.892773216
 40
0.9077315521
 40
0.9227944066
 40
0.9379741004
 40
0.9532814775
 40
0.968720567
 40
1.0
 40
1.0
 40
1.0
 40
1.0
 10
5.9664623098
 20
4.2773404814
 30
0.0
 10
5.9744465691
 20
4.2773404814
 30
0.0
 10
5.9863969053
 20
4.2773161329
 30
0.0
 10
6.0022930128
 20
4.277195936
 30
0.0
 10
6.0141293961
 20
4.2770513963
 30
0.0
 10
6.0259008873
 20
4.2768406013
 30
0.0
 10
6.0376021284
 20
4.2765512256
 30
0.0
 10
6.0492274501
 20
4.276169169
 30
0.0
 10
6.0607708944
 20
4.2756806403
 30
0.0
 10
6.0722261922
 20
4.2750693821
 30
0.0
 10
6.0835867214
 20
4.2743195607
 30
0.0
 10
6.0948453812
 20
4.2734131798
 30
0.0
 10
6.1059945199
 20
4.2723317247
 30
0.0
 10
6.1170258721
 20
4.2710557352
 30
0.0
 10
6.1279303846
 20
4.2695636217
 30
0.0
 10
6.1386982047
 20
4.2678342915
 30
0.0
 10
6.1475691864
 20
4.2661713868
 30
0.0
 10
6.1545852803
 20
4.2646973591
 30
0.0
 10
6.1615135224
 20
4.2631311796
 30
0.0
 10
6.1700674246
 20
4.2609799862
 30
0.0
 10
6.180167973
 20
4.2580543348
 30
0.0
 10
6.1900650145
 20
4.2547635208
 30
0.0
 10
6.1997402785
 20
4.2510781052
 30
0.0
 10
6.2091737968
 20
4.2469695021
 30
0.0
 10
6.218343693
 20
4.242408777
 30
0.0
 10
6.2272252977
 20
4.2373671893
 30
0.0
 10
6.2343624276
 20
4.2327436771
 30
0.0
 10
6.2398939778
 20
4.2287836732
 30
0.0
 10
6.2439548672
 20
4.2256765537
 30
0.0
 10
6.2479221183
 20
4.222430975
 30
0.0
 10
6.2517919066
 20
4.2190449126
 30
0.0
 10
6.2555600827
 20
4.2155164858
 30
0.0
 10
6.2592224339
 20
4.2118438809
 30
0.0
 10
6.2627745848
 20
4.2080255685
 30
0.0
 10
6.2662125744
 20
4.2040608725
 30
0.0
 10
6.2695322395
 20
4.1999492383
 30
0.0
 10
6.2727291981
 20
4.1956903772
 30
0.0
 10
6.2757986438
 20
4.1912848627
 30
0.0
 10
6.2797321637
 20
4.1851935122
 30
0.0
 10
6.2824518588
 20
4.1804514504
 30
0.0
 10
6.2841608909
 20
4.1772193264
 30
0.0
 11
5.9664623098
 21
4.2773404814
 31
0.0
 11
5.9904150073
 21
4.2772784796
 31
0.0
 11
6.0023126869
 21
4.2771865437
 31
0.0
 11
6.0141505261
 21
4.2770398711
 31
0.0
 11
6.0259234537
 21
4.2768267719
 31
0.0
 11
6.0376261149
 21
4.2765347214
 31
0.0
 11
6.0492527206
 21
4.2761499581
 31
0.0
 11
6.0607973269
 21
4.2756582152
 31
0.0
 11
6.0722535444
 21
4.2750437101
 31
0.0
 11
6.0836148107
 21
4.2742901628
 31
0.0
 11
6.0948738662
 21
4.2733798494
 31
0.0
 11
6.1060230301
 21
4.2722941802
 31
0.0
 11
6.1170539518
 21
4.2710134981
 31
0.0
 11
6.1279573605
 21
4.2695166844
 31
0.0
 11
6.1387235101
 21
4.2677820272
 31
0.0
 11
6.1493410681
 21
4.2657859263
 31
0.0
 11
6.1545904632
 21
4.2646823157
 31
0.0
 11
6.1597982119
 21
4.2635042367
 31
0.0
 11
6.1700813702
 21
4.2609113808
 31
0.0
 11
6.1801755253
 21
4.2579805958
 31
0.0
 11
6.1900647316
 21
4.2546847028
 31
0.0
 11
6.1997301858
 21
4.2509952931
 31
0.0
 11
6.2091523346
 21
4.2468837271
 31
0.0
 11
6.2183089792
 21
4.2423216131
 31
0.0
 11
6.2271758555
 21
4.2372807627
 31
0.0
 11
6.2357271763
 21
4.2317342198
 31
0.0
 11
6.2398755839
 21
4.2287636089
 31
0.0
 11
6.2439343354
 21
4.2256573832
 31
0.0
 11
6.2478996785
 21
4.2224128127
 31
0.0
 11
6.2517675247
 21
4.219027936
 31
0.0
 11
6.2555337344
 21
4.2155009083
 31
0.0
 11
6.259194168
 21
4.211829885
 31
0.0
 11
6.2627446779
 21
4.2080132953
 31
0.0
 11
6.2661810902
 21
4.2040504522
 31
0.0
 11
6.2694992259
 21
4.1999408467
 31
0.0
 11
6.2726949061
 21
4.1956839699
 31
0.0
 11
6.2757638004
 21
4.1912801177
 31
0.0
 11
6.2787010647
 21
4.1867323199
 31
0.0
 11
6.2841608909
 21
4.1772193264
 31
0.0
  0
SPLINE
  5
21E
100
AcDbEntity
  8
0
100
AcDbSpline
 62
9
  6
CONTINUOUS
 70
0
 71
3
 72
27
 73
23
 74
21
 42
0.0000001
 43
0.0000001
 44
0.0000000001
 12
-0.3772520569
 22
-1.2483187576
 32
0.0
 13
-0.0000049157
 23
-1.3040777718
 33
0.0
 40
0.0
 40
0.0
 40
0.0
 40
0.0
 40
0.0610419564
 40
0.1223541356
 40
0.1839188319
 40
0.2147908081
 40
0.2457196911
 40
0.2767037898
 40
0.3077414523
 40
0.369970344
 40
0.4011590529
 40
0.4323948635
 40
0.4949980002
 40
0.5577614612
 40
0.5891977607
 40
0.6206671258
 40
0.6836952979
 40
0.7468286671
 40
0.8100494655
 40
0.8733372105
 40
0.9366638183
 40
1.0
 40
1.0
 40
1.0
 40
1.0
 10
6.6750009419
 20
5.9223404814
 30
0.0
 10
6.6673248741
 20
5.8969405416
 30
0.0
 10
6.6523939332
 20
5.8458893613
 30
0.0
 10
6.6313284848
 20
5.768762262
 30
0.0
 10
6.6148810852
 20
5.7039800585
 30
0.0
 10
6.6023903899
 20
5.6518283147
 30
0.0
 10
6.5933520171
 20
5.6125205613
 30
0.0
 10
6.5846553442
 20
5.5730620296
 30
0.0
 10
6.5735102852
 20
5.5202130115
 30
0.0
 10
6.5630711215
 20
5.4671262999
 30
0.0
 10
6.5533457412
 20
5.4138196857
 30
0.0
 10
6.5440818222
 20
5.3602657508
 30
0.0
 10
6.5334026969
 20
5.2930306009
 30
0.0
 10
6.5239493325
 20
5.2255241424
 30
0.0
 10
6.5171220033
 20
5.171324335
 30
0.0
 10
6.5107826945
 20
5.1169494459
 30
0.0
 10
6.5037932188
 20
5.0487815956
 30
0.0
 10
6.4969137517
 20
4.9667418234
 30
0.0
 10
6.4915506444
 20
4.8844757576
 30
0.0
 10
6.4877151403
 20
4.8020401919
 30
0.0
 10
6.4854102875
 20
4.7194977583
 30
0.0
 10
6.484896926
 20
4.6644370127
 30
0.0
 10
6.4848968222
 20
4.6369052438
 30
0.0
 11
6.6750009419
 21
5.9223404814
 31
0.0
 11
6.652655124
 21
5.8459377653
 31
0.0
 11
6.6315887186
 21
5.7688070676
 31
0.0
 11
6.6118325057
 21
5.6909906319
 31
0.0
 11
6.6024553313
 21
5.6518384601
 31
0.0
 11
6.5934168774
 21
5.6125305577
 31
0.0
 11
6.5847201664
 21
5.573071899
 31
0.0
 11
6.5763681892
 21
5.5334674465
 31
0.0
 11
6.5607103994
 21
5.4538410096
 31
0.0
 11
6.5534105685
 21
5.4138289503
 31
0.0
 11
6.5464673518
 21
5.3736911316
 31
0.0
 11
6.5336607335
 21
5.2930625047
 31
0.0
 11
6.522309926
 21
5.2120049611
 31
0.0
 11
6.5171864728
 21
5.1713309969
 31
0.0
 11
6.512434169
 21
5.1305685871
 31
0.0
 11
6.5040502568
 21
5.0488036547
 31
0.0
 11
6.4971707258
 21
4.9667607601
 31
0.0
 11
6.4918076814
 21
4.8844905404
 31
0.0
 11
6.4879712268
 21
4.8020476148
 31
0.0
 11
6.485666255
 21
4.7194969666
 31
0.0
 11
6.4848968222
 21
4.6369052438
 31
0.0
  0
SPLINE
  5
21F
100
AcDbEntity
  8
0
100
AcDbSpline
 62
9
  6
CONTINUOUS
 70
0
 71
3
 72
27
 73
23
 74
21
 42
0.0000001
 43
0.0000001
 44
0.0000000001
 12
-0.000005028
 22
1.3040777758
 32
0.0
 13
-0.3772522557
 23
1.2483187017
 33
0.0
 40
0.0
 40
0.0
 40
0.0
 40
0.0
 40
0.0633361814
 40
0.1266627884
 40
0.1899505325
 40
0.2531713306
 40
0.3163047003
 40
0.3793328731
 40
0.4108022385
 40
0.4422385382
 40
0.5050019991
 40
0.5676051357
 40
0.5988409463
 40
0.6300296553
 40
0.6922585475
 40
0.7232962103
 40
0.7542803094
 40
0.7852091926
 40
0.8160811691
 40
0.8776458656
 40
0.9389580445
 40
1.0
 40
1.0
 40
1.0
 40
1.0
 10
5.2348968222
 20
4.6369052438
 30
0.0
 10
5.234896716
 20
4.6644370126
 30
0.0
 10
5.2343833527
 20
4.7194977579
 30
0.0
 10
5.2320785019
 20
4.8020401909
 30
0.0
 10
5.2282430011
 20
4.8844757561
 30
0.0
 10
5.2228798943
 20
4.9667418219
 30
0.0
 10
5.2160004262
 20
5.0487815947
 30
0.0
 10
5.2090109494
 20
5.1169494458
 30
0.0
 10
5.2026716403
 20
5.1713243355
 30
0.0
 10
5.1958443115
 20
5.2255241433
 30
0.0
 10
5.1863909479
 20
5.2930306021
 30
0.0
 10
5.1757118233
 20
5.3602657523
 30
0.0
 10
5.166447904
 20
5.4138196873
 30
0.0
 10
5.1567225229
 20
5.4671263017
 30
0.0
 10
5.1462833579
 20
5.5202130136
 30
0.0
 10
5.1351382979
 20
5.5730620322
 30
0.0
 10
5.1264416248
 20
5.6125205645
 30
0.0
 10
5.1174032523
 20
5.6518283184
 30
0.0
 10
5.1049125589
 20
5.7039800632
 30
0.0
 10
5.0884651631
 20
5.768762268
 30
0.0
 10
5.0673997167
 20
5.8458893676
 30
0.0
 10
5.052468772
 20
5.8969405465
 30
0.0
 10
5.0447927002
 20
5.9223404847
 30
0.0
 11
5.2348968222
 21
4.6369052438
 31
0.0
 11
5.234127386
 21
4.7194969664
 31
0.0
 11
5.2318224157
 21
4.8020476138
 31
0.0
 11
5.2279859637
 21
4.8844905387
 31
0.0
 11
5.2226229199
 21
4.9667607583
 31
0.0
 11
5.2157433881
 21
5.0488036537
 31
0.0
 11
5.2073594749
 21
5.1305685872
 31
0.0
 11
5.2026071709
 21
5.1713309975
 31
0.0
 11
5.1974837178
 21
5.2120049621
 31
0.0
 11
5.1861329113
 21
5.2930625059
 31
0.0
 11
5.1733262936
 21
5.3736911331
 31
0.0
 11
5.1663830767
 21
5.4138289518
 31
0.0
 11
5.1590832452
 21
5.4538410113
 31
0.0
 11
5.1434254536
 21
5.5334674487
 31
0.0
 11
5.1350734757
 21
5.5730719017
 31
0.0
 11
5.1263767645
 21
5.6125305609
 31
0.0
 11
5.1173383111
 21
5.6518384639
 31
0.0
 11
5.107961138
 21
5.6909906365
 31
0.0
 11
5.0882049288
 21
5.7688070737
 31
0.0
 11
5.0671385245
 21
5.8459377715
 31
0.0
 11
5.0447927002
 21
5.9223404847
 31
0.0
  0
SPLINE
  5
220
100
AcDbEntity
  8
0
100
AcDbSpline
 62
6
  6
CONTINUOUS
 70
0
 71
3
 72
45
 73
41
 74
39
 42
0.0000001
 43
0.0000001
 44
0.0000000001
 12
0.1639127029
 22
0.309991936
 32
0.0
 13
0.3506599129
 23
-0.0
 33
0.0
 40
0.0
 40
0.0
 40
0.0
 40
0.0
 40
0.0312794952
 40
0.0467186708
 40
0.0620261749
 40
0.077205982
 40
0.0922688838
 40
0.1072272296
 40
0.1220926936
 40
0.1368766058
 40
0.1515913217
 40
0.1662488229
 40
0.18086009
 40
0.1954353987
 40
0.209986043
 40
0.2390529264
 40
0.2681397497
 40
0.2973138576
 40
0.3266304704
 40
0.3561338539
 40
0.3858605685
 40
0.4158354998
 40
0.4460784762
 40
0.4613049966
 40
0.4766022782
 40
0.5074114774
 40
0.5385099468
 40
0.5698955084
 40
0.6015643894
 40
0.6335095531
 40
0.6657225056
 40
0.6981933497
 40
0.7309107651
 40
0.763863139
 40
0.7970376572
 40
0.8304213135
 40
0.864000461
 40
0.8977618233
 40
0.9316922626
 40
1.0
 40
1.0
 40
1.0
 40
1.0
 10
5.4356327535
 20
4.1772193264
 30
0.0
 10
5.437341789
 20
4.1804514568
 30
0.0
 10
5.4400614988
 20
4.1851935304
 30
0.0
 10
5.4439950415
 20
4.1912849042
 30
0.0
 10
5.447064506
 20
4.1956904521
 30
0.0
 10
5.4502614803
 20
4.1999493435
 30
0.0
 10
5.4535811627
 20
4.2040609894
 30
0.0
 10
5.4570191635
 20
4.2080256843
 30
0.0
 10
5.4605713185
 20
4.211843993
 30
0.0
 10
5.4642336679
 20
4.2155165939
 30
0.0
 10
5.468001844
 20
4.2190450101
 30
0.0
 10
5.4718716315
 20
4.2224310612
 30
0.0
 10
5.4758388812
 20
4.2256766324
 30
0.0
 10
5.4798997671
 20
4.2287837491
 30
0.0
 10
5.4854313135
 20
4.2327437443
 30
0.0
 10
5.4925684393
 20
4.237367244
 30
0.0
 10
5.5014500358
 20
4.2424088217
 30
0.0
 10
5.5106199257
 20
4.246969539
 30
0.0
 10
5.5200534376
 20
4.2510781329
 30
0.0
 10
5.5297286937
 20
4.2547635434
 30
0.0
 10
5.5396257265
 20
4.2580543521
 30
0.0
 10
5.5497262659
 20
4.2609799973
 30
0.0
 10
5.5582801596
 20
4.2631311873
 30
0.0
 10
5.5652083939
 20
4.2646973654
 30
0.0
 10
5.5722244798
 20
4.2661713918
 30
0.0
 10
5.5810954523
 20
4.2678342905
 30
0.0
 10
5.59186326
 20
4.2695636221
 30
0.0
 10
5.6027677615
 20
4.2710557343
 30
0.0
 10
5.613799104
 20
4.2723317178
 30
0.0
 10
5.6249482337
 20
4.273413182
 30
0.0
 10
5.6362068876
 20
4.2743195523
 30
0.0
 10
5.6475674126
 20
4.2750693843
 30
0.0
 10
5.6590227095
 20
4.2756806366
 30
0.0
 10
5.6705661553
 20
4.276169167
 30
0.0
 10
5.6821914803
 20
4.2765512276
 30
0.0
 10
5.693892726
 20
4.2768405973
 30
0.0
 10
5.7056642232
 20
4.2770513997
 30
0.0
 10
5.7175006145
 20
4.2771959346
 30
0.0
 10
5.7333967306
 20
4.2773161346
 30
0.0
 10
5.7453470728
 20
4.2773404814
 30
0.0
 10
5.7533313345
 20
4.2773404814
 30
0.0
 11
5.4356327535
 21
4.1772193264
 31
0.0
 11
5.4410925976
 21
4.1867323347
 31
0.0
 11
5.4440298813
 21
4.1912801559
 31
0.0
 11
5.4470987989
 21
4.1956840462
 31
0.0
 11
5.4502945003
 21
4.1999409567
 31
0.0
 11
5.4536126502
 21
4.2040505721
 31
0.0
 11
5.4570490709
 21
4.2080134124
 31
0.0
 11
5.4605995845
 21
4.2118299982
 31
0.0
 11
5.4642600184
 21
4.2155010171
 31
0.0
 11
5.468026226
 21
4.2190280336
 31
0.0
 11
5.4718940698
 21
4.2224128983
 31
0.0
 11
5.4758594117
 21
4.2256574619
 31
0.0
 11
5.4799181625
 21
4.2287636852
 31
0.0
 11
5.4840665666
 21
4.2317342897
 31
0.0
 11
5.4926178788
 21
4.237280817
 31
0.0
 11
5.5014847504
 21
4.2423216584
 31
0.0
 11
5.5106413867
 21
4.2468837632
 31
0.0
 11
5.5200635306
 21
4.2509953217
 31
0.0
 11
5.529728977
 21
4.2546847255
 31
0.0
 11
5.539618174
 21
4.257980613
 31
0.0
 11
5.5497123206
 21
4.2609113924
 31
0.0
 11
5.5599954686
 21
4.2635042443
 31
0.0
 11
5.565203211
 21
4.2646823221
 31
0.0
 11
5.5704525997
 21
4.2657859312
 31
0.0
 11
5.5810701472
 21
4.2677820278
 31
0.0
 11
5.5918362839
 21
4.2695166843
 31
0.0
 11
5.602739681
 21
4.2710134963
 31
0.0
 11
5.6137705939
 21
4.2722941758
 31
0.0
 11
5.6249197472
 21
4.2733798482
 31
0.0
 11
5.6361787983
 21
4.274290158
 31
0.0
 11
5.6475400589
 21
4.2750437094
 31
0.0
 11
5.6589962761
 21
4.2756582127
 31
0.0
 11
5.6705408844
 21
4.2761499565
 31
0.0
 11
5.6821674932
 21
4.2765347217
 31
0.0
 11
5.6938701597
 21
4.2768267702
 31
0.0
 11
5.7056430921
 21
4.2770398724
 31
0.0
 11
5.7174809398
 21
4.2771865435
 31
0.0
 11
5.7293786295
 21
4.2772784801
 31
0.0
 11
5.7533313345
 21
4.2773404814
 31
0.0
  0
ENDSEC
  0
SECTION
  2
OBJECTS
  0
DICTIONARY
  5
C
100
AcDbDictionary
280
0
281
1
  3
ACAD_GROUP
350
D
  3
ACAD_MLINESTYLE
350
17
  3
ACAD_LAYOUT
350
1A
  3
ACAD_PLOTSETTINGS
350
19
  3
ACAD_PLOTSTYLENAME
350
E
  0
DICTIONARY
  5
D
102
{ACAD_REACTORS
330
C
102
}
100
AcDbDictionary
280
0
281
1
  0
ACDBDICTIONARYWDFLT
  5
E
102
{ACAD_REACTORS
330
C
102
}
100
AcDbDictionary
281
1
  3
Normal
350
F
100
AcDbDictionaryWithDefault
340
F
  0
DICTIONARY
  5
17
102
{ACAD_REACTORS
330
C
102
}
100
AcDbDictionary
280
0
281
1
  3
Standard
350
18
  0
DICTIONARY
  5
19
102
{ACAD_REACTORS
330
C
102
}
100
AcDbDictionary
281
1
  0
DICTIONARY
  5
1A
102
{ACAD_REACTORS
330
C
102
}
100
AcDbDictionary
281
1
  3
Model
350
221
  3
Layout1
350
222
  0
ACDBPLACEHOLDER
  5
F
102
{ACAD_REACTORS
330
E
102
}
  0
MLINESTYLE
  5
18
102
{ACAD_REACTORS
330
17
102
}
100
AcDbMlineStyle
  2
STANDARD
 70
0
  3

 62
256
 51
90.0
 52
90.0
 71
2
 49
0.5
 62
256
  6
BYLAYER
 49
-0.5
 62
256
  6
BYLAYER
  0
LAYOUT
  5
221
102
{ACAD_REACTORS
330
1A
102
}
100
AcDbPlotSettings
  1

  2
none_device
  4
ISO_A4_(297.00_x_210.00_MM)
  6

 40
0.0
 41
0.0
 42
0.0
 43
0.0
 44
297.0
 45
210.0
 46
0.0
 47
0.0
 48
0.0
 49
0.0
140
0.0
141
0.0
142
1.0
143
1.0
 70
1024
 72
0
 73
0
 74
0
  7

 75
0
147
1.0
148
0.0
149
0.0
100
AcDbLayout
  1
Model
 70
0
 71
0
 10
0.0
 20
0.0
 11
11.6929133858
 21
8.2677165354
 12
0.0
 22
0.0
 32
0.0
 14
0.0
 24
0.0
 34
0.0
 15
0.0
 25
0.0
 35
0.0
146
0.0
 13
0.0
 23
0.0
 33
0.0
 16
1.0
 26
0.0
 36
0.0
 17
0.0
 27
1.0
 37
0.0
 76
0
330
203
345
0
346
0
  0
LAYOUT
  5
222
102
{ACAD_REACTORS
330
1A
102
}
100
AcDbPlotSettings
  1

  2
none_device
  4
ISO_A4_(297.00_x_210.00_MM)
  6

 40
0.0
 41
0.0
 42
0.0
 43
0.0
 44
297.0
 45
210.0
 46
0.0
 47
0.0
 48
0.0
 49
0.0
140
0.0
141
0.0
142
1.0
143
1.0
 70
0
 72
0
 73
0
 74
0
  7

 75
0
147
1.0
148
0.0
149
0.0
100
AcDbLayout
  1
Layout1
 70
0
 71
1
 10
0.0
 20
0.0
 11
11.6929133858
 21
8.2677165354
 12
0.0
 22
0.0
 32
0.0
 14
0.0
 24
0.0
 34
0.0
 15
0.0
 25
0.0
 35
0.0
146
0.0
 13
0.0
 23
0.0
 33
0.0
 16
1.0
 26
0.0
 36
0.0
 17
0.0
 27
1.0
 37
0.0
 76
0
330
204
345
0
346
0
  0
ENDSEC
  0
EOF
