  0
SECTION
  2
HEADER
  9
$ACADVER
  1
AC1015
  9
$DWGCODEPAGE
  3
ANSI_1252
  9
$EXTMAX
 10
11.6929133858
 20
8.2677165354
 30
0.0
  9
$EXTMIN
 10
0.0
 20
0.0
 30
0.0
  9
$LIMMIN
 10
0.0
 20
0.0
  9
$LIMMAX
 10
11.6929133858
 20
8.2677165354
  9
$VIEWCTR
 10
5.8464566929
 20
4.1338582677
  9
$VIEWSIZE
 40
8.2677165354
  9
$CLAYER
  8
0
  9
$LTSCALE
 40
0.6431102362
  9
$CELTYPE
  6
BYLAYER
  9
$DIMSCALE
 40
1.0
  9
$DIMASZ
 40
0.1875
  9
$DIMEXO
 40
0.0730807087
  9
$DIMDLI
 40
0.4443307087
  9
$DIMEXE
 40
0.2104724409
  9
$DIMCEN
 40
0.1052362205
  9
$DIMLFAC
 40
1.0
  9
$DIMBLK
  1
_CLOSED
  9
$DIMTXT
 40
0.15625
  9
$DIMTOL
 70
0
  9
$DIMLIM
 70
0
  9
$DIMTFAC
 40
1.0
  9
$PDMODE
 70
3
  9
$PDSIZE
 40
0.3125
  9
$HANDSEED
  5
22F
  9
$TILEMODE
 70
1
  9
$MEASUREMENT
 70
0
  9
$INSUNITS
 70
1
  0
ENDSEC
  0
SECTION
  2
CLASSES
  0
CLASS
  1
ACDBDICTIONARYWDFLT
  2
AcDbDictionaryWithDefault
  3
AutoCAD 2000
 90
0
280
0
281
0
  0
CLASS
  1
ACDBPLACEHOLDER
  2
AcDbPlaceHolder
  3
AutoCAD 2000
 90
0
280
0
281
0
  0
CLASS
  1
LAYOUT
  2
AcDbLayout
  3
AutoCAD 2000
 90
0
280
0
281
0
  0
ENDSEC
  0
SECTION
  2
TABLES
  0
TABLE
  2
VPORT
  5
8
100
AcDbSymbolTable
 70
2
  0
VPORT
  5
1F4
100
AcDbSymbolTableRecord
100
AcDbViewportTableRecord
  2
*ACTIVE
 70
0
 10
0.0
 20
0.0
 11
1.0
 21
1.0
 12
5.8464566929
 22
4.1338582677
 13
0.0
 23
0.0
 14
1.0
 24
1.0
 15
0.0
 25
0.0
 16
0.0
 26
0.0
 36
1.0
 17
0.0
 27
0.0
 37
0.0
 40
8.2677165354
 41
1.4142857143
 42
50.0
 43
0.0
 44
0.0
 50
0.0
 51
0.0
 71
0
 72
100
 73
1
 74
1
 75
0
 76
0
 77
0
 78
0
  0
ENDTAB
  0
TABLE
  2
LTYPE
  5
5
100
AcDbSymbolTable
 70
6
  0
LTYPE
  5
14
100
AcDbSymbolTableRecord
100
AcDbLinetypeTableRecord
  2
BYBLOCK
 70
0
  3

 72
65
 73
0
 40
0.0
  0
LTYPE
  5
15
100
AcDbSymbolTableRecord
100
AcDbLinetypeTableRecord
  2
BYLAYER
 70
0
  3

 72
65
 73
0
 40
0.0
  0
LTYPE
  5
16
100
AcDbSymbolTableRecord
100
AcDbLinetypeTableRecord
  2
CONTINUOUS
 70
64
  3
Solid line
 72
65
 73
0
 40
0.0
  0
LTYPE
  5
1F5
100
AcDbSymbolTableRecord
100
AcDbLinetypeTableRecord
  2
CENTER
 70
64
  3
____ _ ____ _ ____ _ ____ _ ____ _ ____ _ ____
 72
65
 73
4
 40
0.6
 49
0.375
 74
0
 49
-0.075
 74
0
 49
0.075
 74
0
 49
-0.075
 74
0
  0
LTYPE
  5
1F6
100
AcDbSymbolTableRecord
100
AcDbLinetypeTableRecord
  2
HIDDEN
 70
64
  3
- - - - - - - - - - - - - - - - - - - -
 72
65
 73
2
 40
0.2
 49
0.1
 74
0
 49
-0.1
 74
0
  0
LTYPE
  5
1F7
100
AcDbSymbolTableRecord
100
AcDbLinetypeTableRecord
  2
PHANTOM
 70
64
  3
_____ _ _ _____ _ _ _____ _ _ _____
 72
65
 73
6
 40
0.8
 49
0.45
 74
0
 49
-0.05
 74
0
 49
0.1
 74
0
 49
-0.05
 74
0
 49
0.1
 74
0
 49
-0.05
 74
0
  0
LTYPE
  5
1F8
100
AcDbSymbolTableRecord
100
AcDbLinetypeTableRecord
  2
DOT
 70
64
  3
. . . . . . . . . . . . . . . . . . . .
 72
65
 73
2
 40
0.2
 49
0.1
 74
0
 49
-0.1
 74
0
  0
LTYPE
  5
1F9
100
AcDbSymbolTableRecord
100
AcDbLinetypeTableRecord
  2
DASHED
 70
64
  3
- - - - - - - - - - - - - - - - - - - -
 72
65
 73
2
 40
0.2
 49
0.1
 74
0
 49
-0.1
 74
0
  0
ENDTAB
  0
TABLE
  2
LAYER
  5
2
100
AcDbSymbolTable
 70
36
  0
LAYER
  5
10
100
AcDbSymbolTableRecord
100
AcDbLayerTableRecord
  2
0
 70
0
 62
7
  6
CONTINUOUS
370
-3
390
F
  0
LAYER
  5
1FA
100
AcDbSymbolTableRecord
100
AcDbLayerTableRecord
  2
DEFAULT_1
 70
0
 62
7
  6
CENTER
370
-3
390
F
  0
LAYER
  5
1FB
100
AcDbSymbolTableRecord
100
AcDbLayerTableRecord
  2
DEFAULT_2
 70
0
 62
8
  6
HIDDEN
370
-3
390
F
  0
LAYER
  5
1FC
100
AcDbSymbolTableRecord
100
AcDbLayerTableRecord
  2
DEFAULT_3
 70
0
 62
7
  6
PHANTOM
370
-3
390
F
  0
LAYER
  5
1FD
100
AcDbSymbolTableRecord
100
AcDbLayerTableRecord
  2
DEFAULT_COORDINATE_SYSTEM
 70
0
 62
7
  6
CONTINUOUS
370
-3
390
F
  0
LAYER
  5
1FE
100
AcDbSymbolTableRecord
100
AcDbLayerTableRecord
  2
DEFAULT_DATUM_AXES
 70
0
 62
7
  6
CONTINUOUS
370
-3
390
F
  0
LAYER
  5
1FF
100
AcDbSymbolTableRecord
100
AcDbLayerTableRecord
  2
DEFAULT_DATUM_CURVES
 70
0
 62
7
  6
CONTINUOUS
370
-3
390
F
  0
LAYER
  5
200
100
AcDbSymbolTableRecord
100
AcDbLayerTableRecord
  2
DEFAULT_DATUM_PLANES
 70
0
 62
7
  6
CONTINUOUS
370
-3
390
F
  0
ENDTAB
  0
TABLE
  2
STYLE
  5
3
100
AcDbSymbolTable
 70
1
  0
STYLE
  5
11
100
AcDbSymbolTableRecord
100
AcDbTextStyleTableRecord
  2
STANDARD
 70
0
 40
0.0
 41
0.8
 50
0.0
 71
0
 42
0.2
  3
txt
  4

  0
STYLE
  5
201
100
AcDbSymbolTableRecord
100
AcDbTextStyleTableRecord
  2
TEXTSTYLE_1
 70
0
 40
0.0
 41
0.8
 50
0.0
 71
0
 42
0.2
  3
gdt
  4

  0
ENDTAB
  0
TABLE
  2
VIEW
  5
6
100
AcDbSymbolTable
 70
0
  0
ENDTAB
  0
TABLE
  2
UCS
  5
7
100
AcDbSymbolTable
 70
0
  0
ENDTAB
  0
TABLE
  2
APPID
  5
9
100
AcDbSymbolTable
 70
1
  0
APPID
  5
202
100
AcDbSymbolTableRecord
100
AcDbRegAppTableRecord
  2
ACAD
 70
0
  0
ENDTAB
  0
TABLE
  2
BLOCK_RECORD
  5
1
100
AcDbSymbolTable
 70
0
  0
BLOCK_RECORD
  5
203
100
AcDbSymbolTableRecord
100
AcDbBlockTableRecord
  2
*Model_Space
  0
BLOCK_RECORD
  5
204
100
AcDbSymbolTableRecord
100
AcDbBlockTableRecord
  2
*Paper_Space
  0
ENDTAB
  0
TABLE
  2
DIMSTYLE
  5
A
100
AcDbSymbolTable
 70
1
100
AcDbDimStyleTable
 71
0
  0
DIMSTYLE
105
205
100
AcDbSymbolTableRecord
100
AcDbDimStyleTableRecord
  2
STANDARD
 70
0
  3

  4

 40
1.0
 41
0.1875
 42
0.0625
 43
0.38
 44
0.18
 45
0.0
 46
0.0
 47
0.01
 48
0.01
140
0.15625
141
0.09
142
0.0
143
25.4
144
1.0
145
0.0
146
1.0
147
0.09
 71
0.0
 72
0.0
 73
1
 74
1
 75
0
 76
0
 77
0
 78
4
170
0
171
2
172
0
173
0
174
0
175
0
176
0
177
0
178
0
270
2
271
2
272
2
273
2
274
2
275
0
280
0
281
0
282
0
283
1
284
4
285
0
286
0
287
3
288
0
340
11
  0
ENDTAB
  0
ENDSEC
  0
SECTION
  2
BLOCKS
  0
BLOCK
  5
20
100
AcDbEntity
  8
0
100
AcDbBlockBegin
  2
*Model_Space
 70
0
 10
0.0
 20
0.0
 30
0.0
  3
*Model_Space
  1

  0
ENDBLK
  5
21
100
AcDbEntity
  8
0
100
AcDbBlockEnd
  0
BLOCK
  5
1C
100
AcDbEntity
  8
0
100
AcDbBlockBegin
  2
*Paper_Space
 70
0
 10
0.0
 20
0.0
 30
0.0
  3
*Paper_Space
  1

  0
ENDBLK
  5
1D
100
AcDbEntity
  8
0
100
AcDbBlockEnd
  0
ENDSEC
  0
SECTION
  2
ENTITIES
  0
LINE
  5
206
100
AcDbEntity
  8
0
100
AcDbLine
 62
6
  6
CONTINUOUS
 10
4.1818822422
 20
3.9009065035
 11
4.1818822422
 21
4.6509065035
  0
LINE
  5
207
100
AcDbEntity
  8
0
100
AcDbLine
 62
6
  6
CONTINUOUS
 10
4.9318822422
 20
3.9009065035
 11
4.9318822422
 21
4.6509065035
  0
LINE
  5
208
100
AcDbEntity
  8
0
100
AcDbLine
 62
6
  6
CONTINUOUS
 10
5.7318822422
 20
3.6759065035
 11
5.6568822422
 21
3.6759065035
  0
LINE
  5
209
100
AcDbEntity
  8
0
100
AcDbLine
 62
6
  6
CONTINUOUS
 10
5.7318822422
 20
3.5884065035
 11
6.0443822422
 21
3.5868228135
  0
LINE
  5
20A
100
AcDbEntity
  8
0
100
AcDbLine
 62
9
  6
CONTINUOUS
 10
5.7318822422
 20
3.650907306
 11
6.0164470046
 21
3.6494651865
  0
LINE
  5
20B
100
AcDbEntity
  8
0
100
AcDbLine
 62
6
  6
CONTINUOUS
 10
4.9318822422
 20
3.9009065035
 11
4.1818822422
 21
3.9009065035
  0
LINE
  5
20C
100
AcDbEntity
  8
0
100
AcDbLine
 62
6
  6
CONTINUOUS
 10
5.5030586343
 20
3.8703132889
 11
4.9318822422
 21
3.9759065035
  0
LINE
  5
20D
100
AcDbEntity
  8
0
100
AcDbLine
 62
9
  6
CONTINUOUS
 10
5.5030586343
 20
4.681499718
 11
5.5030586343
 21
3.8703132889
  0
LINE
  5
20E
100
AcDbEntity
  8
0
100
AcDbLine
 62
6
  6
CONTINUOUS
 10
5.6568822422
 20
3.675909411
 11
5.6568822422
 21
3.6854458385
  0
LINE
  5
20F
100
AcDbEntity
  8
0
100
AcDbLine
 62
6
  6
CONTINUOUS
 10
5.6568822422
 20
4.1693410158
 11
5.6568822422
 21
4.3824719911
  0
LINE
  5
210
100
AcDbEntity
  8
0
100
AcDbLine
 62
6
  6
CONTINUOUS
 10
5.6568822422
 20
4.8663671684
 11
5.6568822422
 21
4.8759035959
  0
LINE
  5
211
100
AcDbEntity
  8
0
100
AcDbLine
 62
6
  6
CONTINUOUS
 10
5.7318822422
 20
3.5884065035
 11
5.7318822422
 21
4.9634065035
  0
LINE
  5
212
100
AcDbEntity
  8
0
100
AcDbLine
 62
9
  6
CONTINUOUS
 10
6.0164470046
 20
3.6494651865
 11
6.0164470046
 21
4.9634065035
  0
LINE
  5
213
100
AcDbEntity
  8
0
100
AcDbLine
 62
9
  6
CONTINUOUS
 10
6.0164470046
 20
3.6494651865
 11
6.0161302707
 21
3.5869659891
  0
LINE
  5
214
100
AcDbEntity
  8
0
100
AcDbLine
 62
6
  6
CONTINUOUS
 10
4.9318822422
 20
4.6509065035
 11
4.1818822422
 21
4.6509065035
  0
LINE
  5
215
100
AcDbEntity
  8
0
100
AcDbLine
 62
6
  6
CONTINUOUS
 10
4.9318822422
 20
4.5759065035
 11
5.5030586343
 21
4.681499718
  0
LINE
  5
216
100
AcDbEntity
  8
0
100
AcDbLine
 62
6
  6
CONTINUOUS
 10
5.7318822422
 20
4.8759065035
 11
5.6568822422
 21
4.8759065035
  0
LINE
  5
217
100
AcDbEntity
  8
0
100
AcDbLine
 62
9
  6
CONTINUOUS
 10
6.0164470046
 20
4.9009065035
 11
5.7318822422
 21
4.9009065035
  0
LINE
  5
218
100
AcDbEntity
  8
0
100
AcDbLine
 62
6
  6
CONTINUOUS
 10
6.0164470046
 20
4.9634065035
 11
5.7318822422
 21
4.9634065035
  0
LINE
  5
219
100
AcDbEntity
  8
0
100
AcDbLine
 62
6
  6
CONTINUOUS
 10
7.3018822422
 20
3.4009064912
 11
7.3018822422
 21
5.1509065035
  0
ARC
  5
21A
100
AcDbEntity
  8
0
100
AcDbCircle
 62
6
  6
CONTINUOUS
 10
4.5568822422
 20
4.2759065035
 40
0.4
100
AcDbArc
 50
110.1223260205
 51
110.3320526322
  0
ARC
  5
21B
100
AcDbEntity
  8
0
100
AcDbCircle
 62
6
  6
CONTINUOUS
 10
4.5568822422
 20
4.2759065035
 40
0.4
100
AcDbArc
 50
199.7460875166
 51
200.3320526322
  0
ARC
  5
21C
100
AcDbEntity
  8
0
100
AcDbCircle
 62
6
  6
CONTINUOUS
 10
4.5568822422
 20
4.2759065035
 40
0.4
100
AcDbArc
 50
290.1223260205
 51
290.3320526322
  0
ARC
  5
21D
100
AcDbEntity
  8
0
100
AcDbCircle
 62
6
  6
CONTINUOUS
 10
4.5568822422
 20
4.2759065035
 40
0.4
100
AcDbArc
 50
69.6679473678
 51
69.8776739795
  0
ARC
  5
21E
100
AcDbEntity
  8
0
100
AcDbCircle
 62
6
  6
CONTINUOUS
 10
4.5568822422
 20
4.2759065035
 40
0.4
100
AcDbArc
 50
159.6679473678
 51
160.2539124834
  0
ARC
  5
21F
100
AcDbEntity
  8
0
100
AcDbCircle
 62
6
  6
CONTINUOUS
 10
4.5568822422
 20
4.2759065035
 40
0.4
100
AcDbArc
 50
249.6679473678
 51
249.8776739795
  0
ARC
  5
220
100
AcDbEntity
  8
0
100
AcDbCircle
 62
9
  6
CONTINUOUS
 10
4.5568822422
 20
4.2759065035
 40
0.4
100
AcDbArc
 50
160.2539124834
 51
199.7460875166
  0
ARC
  5
221
100
AcDbEntity
  8
0
100
AcDbCircle
 62
9
  6
CONTINUOUS
 10
4.5568822422
 20
4.2759065035
 40
0.4
100
AcDbArc
 50
69.8776739795
 51
110.1223260205
  0
ARC
  5
222
100
AcDbEntity
  8
0
100
AcDbCircle
 62
9
  6
CONTINUOUS
 10
4.5568822422
 20
4.2759065035
 40
0.4
100
AcDbArc
 50
249.8776739795
 51
290.1223260205
  0
ARC
  5
223
100
AcDbEntity
  8
0
100
AcDbCircle
 62
6
  6
CONTINUOUS
 10
6.0215773994
 20
-0.9131194016
 40
4.5
100
AcDbArc
 50
73.4703080664
 51
89.7096384808
  0
ARC
  5
224
100
AcDbEntity
  8
0
100
AcDbCircle
 62
6
  6
CONTINUOUS
 10
5.4688822422
 20
3.6854458385
 40
0.188
100
AcDbArc
 50
0.0
 51
79.526
  0
ARC
  5
225
100
AcDbEntity
  8
0
100
AcDbCircle
 62
6
  6
CONTINUOUS
 10
6.0164470046
 20
9.4634065035
 40
4.5
100
AcDbArc
 50
270.0
 51
286.5978421359
  0
ARC
  5
226
100
AcDbEntity
  8
0
100
AcDbCircle
 62
6
  6
CONTINUOUS
 10
5.4688822422
 20
4.8663671684
 40
0.188
100
AcDbArc
 50
280.474
 51
360.0
  0
LINE
  5
227
100
AcDbEntity
  8
0
100
AcDbLine
 62
9
  6
CONTINUOUS
 10
6.0164470046
 20
3.6494651865
 11
6.0443119628
 21
3.6493220109
  0
SPLINE
  5
228
100
AcDbEntity
  8
0
100
AcDbSpline
 62
9
  6
CONTINUOUS
 70
0
 71
3
 72
27
 73
23
 74
21
 42
0.0000001
 43
0.0000001
 44
0.0000000001
 12
-1.2483187593
 22
-0.3772520644
 32
0.0
 13
-1.3040777756
 23
-0.0000049164
 33
0.0
 40
0.0
 40
0.0
 40
0.0
 40
0.0
 40
0.0610419566
 40
0.1223541358
 40
0.1839188319
 40
0.2147908081
 40
0.245719691
 40
0.2767037897
 40
0.3077414522
 40
0.3699703439
 40
0.4011590529
 40
0.4323948634
 40
0.4949980002
 40
0.5577614611
 40
0.5891977607
 40
0.6206671258
 40
0.6836952979
 40
0.7468286671
 40
0.8100494655
 40
0.8733372105
 40
0.9366638183
 40
1.0
 40
1.0
 40
1.0
 40
1.0
 10
7.3018822461
 20
5.0910106234
 30
0.0
 10
7.2764823062
 20
5.0833345553
 30
0.0
 10
7.2254311256
 20
5.0684036144
 30
0.0
 10
7.148304026
 20
5.0473381663
 30
0.0
 10
7.0835218224
 20
5.0308907671
 30
0.0
 10
7.0313700785
 20
5.0184000719
 30
0.0
 10
6.992062325
 20
5.0093616992
 30
0.0
 10
6.9526037931
 20
5.0006650262
 30
0.0
 10
6.8997547749
 20
4.9895199671
 30
0.0
 10
6.8466680631
 20
4.9790808033
 30
0.0
 10
6.7933614488
 20
4.9693554229
 30
0.0
 10
6.7398075138
 20
4.9600915038
 30
0.0
 10
6.6725723637
 20
4.9494123784
 30
0.0
 10
6.6050659049
 20
4.939959014
 30
0.0
 10
6.5508660974
 20
4.9331316848
 30
0.0
 10
6.4964912082
 20
4.926792376
 30
0.0
 10
6.4283233577
 20
4.9198029002
 30
0.0
 10
6.3462835852
 20
4.9129234331
 30
0.0
 10
6.2640175191
 20
4.9075603257
 30
0.0
 10
6.1815819532
 20
4.9037248216
 30
0.0
 10
6.0990395193
 20
4.9014199688
 30
0.0
 10
6.0439787736
 20
4.9009066073
 30
0.0
 10
6.0164470046
 20
4.9009065035
 30
0.0
 11
7.3018822461
 21
5.0910106234
 31
0.0
 11
7.2254795296
 21
5.0686648052
 31
0.0
 11
7.1483488316
 21
5.0475984001
 31
0.0
 11
7.0705323957
 21
5.0278421876
 31
0.0
 11
7.0313802238
 21
5.0184650133
 31
0.0
 11
6.9920723214
 21
5.0094265595
 31
0.0
 11
6.9526136626
 21
5.0007298485
 31
0.0
 11
6.91300921
 21
4.9923778712
 31
0.0
 11
6.8333827729
 21
4.9767200812
 31
0.0
 11
6.7933707134
 21
4.9694202502
 31
0.0
 11
6.7532328946
 21
4.9624770334
 31
0.0
 11
6.6726042674
 21
4.949670415
 31
0.0
 11
6.5915467237
 21
4.9383196075
 31
0.0
 11
6.5508727593
 21
4.9331961543
 31
0.0
 11
6.5101103494
 21
4.9284438504
 31
0.0
 11
6.4283454167
 21
4.9200599382
 31
0.0
 11
6.3463025219
 21
4.9131804072
 31
0.0
 11
6.264032302
 21
4.9078173627
 31
0.0
 11
6.1815893761
 21
4.9039809081
 31
0.0
 11
6.0990387276
 21
4.9016759363
 31
0.0
 11
6.0164470046
 21
4.9009065035
 31
0.0
  0
SPLINE
  5
229
100
AcDbEntity
  8
0
100
AcDbSpline
 62
6
  6
CONTINUOUS
 70
0
 71
3
 72
45
 73
41
 74
39
 42
0.0000001
 43
0.0000001
 44
0.0000000001
 12
0.0
 22
-0.3506599136
 32
0.0
 13
-0.3099919366
 23
-0.1639127032
 33
0.0
 40
0.0
 40
0.0
 40
0.0
 40
0.0
 40
0.0683077156
 40
0.1022381261
 40
0.1359994639
 40
0.1695785975
 40
0.2029622391
 40
0.2361367481
 40
0.269089116
 40
0.3018065328
 40
0.334277392
 40
0.3664903576
 40
0.398435551
 40
0.4301044573
 40
0.4614900523
 40
0.4925885584
 40
0.5233977892
 40
0.5386950894
 40
0.5539216281
 40
0.5841646357
 40
0.6141395947
 40
0.6438663393
 40
0.6733697496
 40
0.7026863837
 40
0.7318605243
 40
0.7609473722
 40
0.7900142999
 40
0.8045649632
 40
0.8191402777
 40
0.8337515597
 40
0.8484090886
 40
0.8631238306
 40
0.8779077511
 40
0.892773216
 40
0.9077315521
 40
0.9227944066
 40
0.9379741004
 40
0.9532814775
 40
0.968720567
 40
1.0
 40
1.0
 40
1.0
 40
1.0
 10
5.6568822422
 20
4.1693410158
 30
0.0
 10
5.6568822422
 20
4.1613567566
 30
0.0
 10
5.6568578937
 20
4.1494064203
 30
0.0
 10
5.6567376968
 20
4.1335103129
 30
0.0
 10
5.6565931571
 20
4.1216739295
 30
0.0
 10
5.6563823621
 20
4.1099024384
 30
0.0
 10
5.6560929864
 20
4.0982011972
 30
0.0
 10
5.6557109298
 20
4.0865758756
 30
0.0
 10
5.6552224011
 20
4.0750324312
 30
0.0
 10
5.6546111429
 20
4.0635771335
 30
0.0
 10
5.6538613215
 20
4.0522166043
 30
0.0
 10
5.6529549406
 20
4.0409579444
 30
0.0
 10
5.6518734855
 20
4.0298088058
 30
0.0
 10
5.650597496
 20
4.0187774535
 30
0.0
 10
5.6491053825
 20
4.007872941
 30
0.0
 10
5.6473760523
 20
3.997105121
 30
0.0
 10
5.6457131476
 20
3.9882341392
 30
0.0
 10
5.6442391199
 20
3.9812180454
 30
0.0
 10
5.6426729404
 20
3.9742898032
 30
0.0
 10
5.640521747
 20
3.9657359011
 30
0.0
 10
5.6375960956
 20
3.9556353526
 30
0.0
 10
5.6343052816
 20
3.9457383111
 30
0.0
 10
5.630619866
 20
3.9360630472
 30
0.0
 10
5.6265112629
 20
3.9266295288
 30
0.0
 10
5.6219505378
 20
3.9174596326
 30
0.0
 10
5.6169089501
 20
3.908578028
 30
0.0
 10
5.6122854379
 20
3.9014408981
 30
0.0
 10
5.6083254341
 20
3.8959093479
 30
0.0
 10
5.6052183145
 20
3.8918484584
 30
0.0
 10
5.6019727358
 20
3.8878812074
 30
0.0
 10
5.5985866734
 20
3.884011419
 30
0.0
 10
5.5950582466
 20
3.8802432429
 30
0.0
 10
5.5913856418
 20
3.8765808917
 30
0.0
 10
5.5875673293
 20
3.8730287408
 30
0.0
 10
5.5836026333
 20
3.8695907512
 30
0.0
 10
5.5794909991
 20
3.8662710862
 30
0.0
 10
5.575232138
 20
3.8630741275
 30
0.0
 10
5.5708266235
 20
3.8600046818
 30
0.0
 10
5.564735273
 20
3.856071162
 30
0.0
 10
5.5599932112
 20
3.8533514669
 30
0.0
 10
5.5567610872
 20
3.8516424348
 30
0.0
 11
5.6568822422
 21
4.1693410158
 31
0.0
 11
5.6568202404
 21
4.1453883184
 31
0.0
 11
5.6567283045
 21
4.1334906388
 31
0.0
 11
5.656581632
 21
4.1216527996
 31
0.0
 11
5.6563685328
 21
4.109879872
 31
0.0
 11
5.6560764822
 21
4.0981772107
 31
0.0
 11
5.6556917189
 21
4.0865506051
 31
0.0
 11
5.655199976
 21
4.0750059988
 31
0.0
 11
5.6545854709
 21
4.0635497812
 31
0.0
 11
5.6538319236
 21
4.052188515
 31
0.0
 11
5.6529216102
 21
4.0409294595
 31
0.0
 11
5.651835941
 21
4.0297802955
 31
0.0
 11
5.6505552589
 21
4.0187493739
 31
0.0
 11
5.6490584452
 21
4.0078459651
 31
0.0
 11
5.647323788
 21
3.9970798155
 31
0.0
 11
5.6453276871
 21
3.9864622575
 31
0.0
 11
5.6442240765
 21
3.9812128625
 31
0.0
 11
5.6430459975
 21
3.9760051138
 31
0.0
 11
5.6404531416
 21
3.9657219555
 31
0.0
 11
5.6375223567
 21
3.9556278003
 31
0.0
 11
5.6342264636
 21
3.9457385941
 31
0.0
 11
5.6305370539
 21
3.9360731398
 31
0.0
 11
5.6264254879
 21
3.9266509911
 31
0.0
 11
5.6218633739
 21
3.9174943465
 31
0.0
 11
5.6168225235
 21
3.9086274701
 31
0.0
 11
5.6112759806
 21
3.9000761494
 31
0.0
 11
5.6083053697
 21
3.8959277417
 31
0.0
 11
5.605199144
 21
3.8918689903
 31
0.0
 11
5.6019545735
 21
3.8879036472
 31
0.0
 11
5.5985696968
 21
3.884035801
 31
0.0
 11
5.5950426691
 21
3.8802695913
 31
0.0
 11
5.5913716458
 21
3.8766091576
 31
0.0
 11
5.5875550561
 21
3.8730586478
 31
0.0
 11
5.583592213
 21
3.8696222355
 31
0.0
 11
5.5794826075
 21
3.8663040997
 31
0.0
 11
5.5752257307
 21
3.8631084196
 31
0.0
 11
5.5708218785
 21
3.8600395253
 31
0.0
 11
5.5662740807
 21
3.857102261
 31
0.0
 11
5.5567610872
 21
3.8516424348
 31
0.0
  0
SPLINE
  5
22A
100
AcDbEntity
  8
0
100
AcDbSpline
 62
9
  6
CONTINUOUS
 70
0
 71
3
 72
48
 73
44
 74
42
 42
0.0000001
 43
0.0000001
 44
0.0000000001
 12
-0.0003167477
 22
-0.0625042899
 32
0.0
 13
0.0625043065
 23
-0.0003134465
 33
0.0
 40
0.0
 40
0.0
 40
0.0
 40
0.0
 40
0.0978795142
 40
0.1950071629
 40
0.2902726309
 40
0.3826698437
 40
0.4713542993
 40
0.5554986393
 40
0.6343131761
 40
0.6714825631
 40
0.7070325349
 40
0.7408714471
 40
0.772923552
 40
0.8031170782
 40
0.831380257
 40
0.8576413245
 40
0.8818298206
 40
0.9038903836
 40
0.923777399
 40
0.9414454329
 40
0.9494331435
 40
0.9568490861
 40
0.9636875938
 40
0.9699431912
 40
0.9756125668
 40
0.9806938119
 40
0.9851850587
 40
0.9890844683
 40
0.9923902514
 40
0.9938200028
 40
0.9951007255
 40
0.9962322405
 40
0.9972143973
 40
0.9980470947
 40
0.9987303239
 40
0.9992642726
 40
0.9994754695
 40
0.9996497015
 40
0.999787343
 40
0.9998892068
 40
0.9999273486
 40
0.999957651
 40
1.0
 40
1.0
 40
1.0
 40
1.0
 10
6.0443119627
 20
3.6493220109
 30
0.0
 10
6.0443016283
 20
3.6472827144
 30
0.0
 10
6.04428228
 20
3.6432197799
 30
0.0
 10
6.0442571531
 20
3.6371719926
 30
0.0
 10
6.0442362252
 20
3.6312384137
 30
0.0
 10
6.0442197437
 20
3.6254807358
 30
0.0
 10
6.0442078248
 20
3.6199547561
 30
0.0
 10
6.044200597
 20
3.6147117639
 30
0.0
 10
6.0441984746
 20
3.6105420852
 30
0.0
 10
6.0441992954
 20
3.6073848718
 30
0.0
 10
6.0442010991
 20
3.6051647275
 30
0.0
 10
6.0442041038
 20
3.6030512034
 30
0.0
 10
6.0442082946
 20
3.6010492832
 30
0.0
 10
6.0442136555
 20
3.5991635368
 30
0.0
 10
6.0442201703
 20
3.5973984512
 30
0.0
 10
6.0442278212
 20
3.5957584863
 30
0.0
 10
6.0442365948
 20
3.5942477607
 30
0.0
 10
6.0442464639
 20
3.5928698483
 30
0.0
 10
6.0442573956
 20
3.5916278027
 30
0.0
 10
6.0442676712
 20
3.5906789726
 30
0.0
 10
6.0442765396
 20
3.5899899798
 30
0.0
 10
6.0442832171
 20
3.5895266116
 30
0.0
 10
6.0442901407
 20
3.5890993399
 30
0.0
 10
6.0442973079
 20
3.5887084676
 30
0.0
 10
6.0443047109
 20
3.5883542194
 30
0.0
 10
6.0443123398
 20
3.5880367456
 30
0.0
 10
6.0443201819
 20
3.5877561667
 30
0.0
 10
6.0443282268
 20
3.5875126028
 30
0.0
 10
6.0443353799
 20
3.5873328333
 30
0.0
 10
6.0443413254
 20
3.5872076248
 30
0.0
 10
6.0443456127
 20
3.5871276912
 30
0.0
 10
6.0443499423
 20
3.5870571006
 30
0.0
 10
6.0443543113
 20
3.5869958675
 30
0.0
 10
6.0443587075
 20
3.586944003
 30
0.0
 10
6.0443631296
 20
3.5869015215
 30
0.0
 10
6.0443670397
 20
3.5868720094
 30
0.0
 10
6.0443703291
 20
3.5868531361
 30
0.0
 10
6.0443725928
 20
3.5868424713
 30
0.0
 10
6.0443748606
 20
3.5868341493
 30
0.0
 10
6.0443768524
 20
3.5868287042
 30
0.0
 10
6.0443785796
 20
3.586825578
 30
0.0
 10
6.0443799336
 20
3.5868237444
 30
0.0
 10
6.0443813597
 20
3.586822798
 30
0.0
 10
6.0443822421
 20
3.5868227935
 30
0.0
 11
6.0443119627
 21
3.6493220109
 31
0.0
 11
6.0442828272
 21
3.6432041122
 31
0.0
 11
6.0442576332
 21
3.6371331918
 31
0.0
 11
6.044236684
 21
3.6311786518
 31
0.0
 11
6.0442202154
 21
3.6254033789
 31
0.0
 11
6.0442083587
 21
3.6198601615
 31
0.0
 11
6.0442012311
 21
3.6146007166
 31
0.0
 11
6.044198891
 21
3.6096744072
 31
0.0
 11
6.0441995229
 21
3.6073511313
 31
0.0
 11
6.0442013593
 21
3.6051290778
 31
0.0
 11
6.0442043999
 21
3.6030139757
 31
0.0
 11
6.0442086334
 21
3.6010105604
 31
0.0
 11
6.0442140454
 21
3.599123319
 31
0.0
 11
6.0442206217
 21
3.5973567386
 31
0.0
 11
6.0442283479
 21
3.5957153063
 31
0.0
 11
6.0442372093
 21
3.5942034281
 31
0.0
 11
6.0442471844
 21
3.5928245667
 31
0.0
 11
6.0442582475
 21
3.5915815762
 31
0.0
 11
6.0442703728
 21
3.5904773007
 31
0.0
 11
6.0442768258
 21
3.5899780698
 31
0.0
 11
6.0442835346
 21
3.5895145841
 31
0.0
 11
6.0442904961
 21
3.5890871993
 31
0.0
 11
6.0442977069
 21
3.5886962591
 31
0.0
 11
6.0443051619
 21
3.5883419727
 31
0.0
 11
6.0443128552
 21
3.5880244622
 31
0.0
 11
6.0443207805
 21
3.5877438482
 31
0.0
 11
6.0443289318
 21
3.5875002516
 31
0.0
 11
6.0443373029
 21
3.587293793
 31
0.0
 11
6.044341569
 21
3.5872045281
 31
0.0
 11
6.0443458877
 21
3.587124593
 31
0.0
 11
6.0443502584
 21
3.5870540028
 31
0.0
 11
6.0443546802
 21
3.5869927724
 31
0.0
 11
6.0443591523
 21
3.5869409171
 31
0.0
 11
6.0443636741
 21
3.5868984518
 31
0.0
 11
6.0443682447
 21
3.5868653918
 31
0.0
 11
6.0443705481
 21
3.5868523934
 31
0.0
 11
6.0443728635
 21
3.586841752
 31
0.0
 11
6.0443751906
 21
3.5868334694
 31
0.0
 11
6.0443775295
 21
3.5868275475
 31
0.0
 11
6.0443787033
 21
3.5868254725
 31
0.0
 11
6.04437988
 21
3.5868239883
 31
0.0
 11
6.0443822421
 21
3.5868227935
 31
0.0
  0
SPLINE
  5
22B
100
AcDbEntity
  8
0
100
AcDbSpline
 62
6
  6
CONTINUOUS
 70
0
 71
3
 72
45
 73
41
 74
39
 42
0.0000001
 43
0.0000001
 44
0.0000000001
 12
0.309991936
 22
-0.1639127029
 32
0.0
 13
-0.0
 23
-0.3506599129
 33
0.0
 40
0.0
 40
0.0
 40
0.0
 40
0.0
 40
0.0312794952
 40
0.0467186708
 40
0.0620261749
 40
0.077205982
 40
0.0922688838
 40
0.1072272296
 40
0.1220926936
 40
0.1368766058
 40
0.1515913217
 40
0.1662488229
 40
0.18086009
 40
0.1954353987
 40
0.209986043
 40
0.2390529264
 40
0.2681397497
 40
0.2973138576
 40
0.3266304704
 40
0.3561338539
 40
0.3858605685
 40
0.4158354998
 40
0.4460784762
 40
0.4613049966
 40
0.4766022782
 40
0.5074114774
 40
0.5385099468
 40
0.5698955084
 40
0.6015643894
 40
0.6335095531
 40
0.6657225056
 40
0.6981933497
 40
0.7309107651
 40
0.763863139
 40
0.7970376572
 40
0.8304213135
 40
0.864000461
 40
0.8977618233
 40
0.9316922626
 40
1.0
 40
1.0
 40
1.0
 40
1.0
 10
5.5567610872
 20
4.7001705722
 30
0.0
 10
5.5599932176
 20
4.6984615366
 30
0.0
 10
5.5647352912
 20
4.6957418269
 30
0.0
 10
5.5708266651
 20
4.6918082841
 30
0.0
 10
5.5752322129
 20
4.6887388197
 30
0.0
 10
5.5794911043
 20
4.6855418454
 30
0.0
 10
5.5836027502
 20
4.6822221629
 30
0.0
 10
5.5875674451
 20
4.6787841621
 30
0.0
 10
5.5913857538
 20
4.6752320072
 30
0.0
 10
5.5950583547
 20
4.6715696578
 30
0.0
 10
5.5985867709
 20
4.6678014817
 30
0.0
 10
5.601972822
 20
4.6639316942
 30
0.0
 10
5.6052183932
 20
4.6599644444
 30
0.0
 10
5.6083255099
 20
4.6559035586
 30
0.0
 10
5.6122855051
 20
4.6503720121
 30
0.0
 10
5.6169090048
 20
4.6432348864
 30
0.0
 10
5.6219505825
 20
4.6343532899
 30
0.0
 10
5.6265112998
 20
4.6251834
 30
0.0
 10
5.6306198937
 20
4.615749888
 30
0.0
 10
5.6343053042
 20
4.6060746319
 30
0.0
 10
5.6375961129
 20
4.5961775991
 30
0.0
 10
5.6405217581
 20
4.5860770597
 30
0.0
 10
5.6426729481
 20
4.577523166
 30
0.0
 10
5.6442391262
 20
4.5705949318
 30
0.0
 10
5.6457131526
 20
4.5635788458
 30
0.0
 10
5.6473760513
 20
4.5547078733
 30
0.0
 10
5.6491053829
 20
4.5439400656
 30
0.0
 10
5.6505974951
 20
4.5330355642
 30
0.0
 10
5.6518734786
 20
4.5220042217
 30
0.0
 10
5.6529549428
 20
4.5108550919
 30
0.0
 10
5.6538613131
 20
4.499596438
 30
0.0
 10
5.6546111451
 20
4.4882359131
 30
0.0
 10
5.6552223974
 20
4.4767806162
 30
0.0
 10
5.6557109278
 20
4.4652371704
 30
0.0
 10
5.6560929884
 20
4.4536118453
 30
0.0
 10
5.6563823581
 20
4.4419105997
 30
0.0
 10
5.6565931605
 20
4.4301391025
 30
0.0
 10
5.6567376954
 20
4.4183027112
 30
0.0
 10
5.6568578954
 20
4.402406595
 30
0.0
 10
5.6568822422
 20
4.3904562529
 30
0.0
 10
5.6568822422
 20
4.3824719911
 30
0.0
 11
5.5567610872
 21
4.7001705722
 31
0.0
 11
5.5662740955
 21
4.694710728
 31
0.0
 11
5.5708219167
 21
4.6917734444
 31
0.0
 11
5.575225807
 21
4.6887045268
 31
0.0
 11
5.5794827175
 21
4.6855088254
 31
0.0
 11
5.5835923329
 21
4.6821906755
 31
0.0
 11
5.5875551732
 21
4.6787542548
 31
0.0
 11
5.591371759
 21
4.6752037411
 31
0.0
 11
5.5950427779
 21
4.6715433073
 31
0.0
 11
5.5985697944
 21
4.6677770996
 31
0.0
 11
5.6019546591
 21
4.6639092559
 31
0.0
 11
5.6051992228
 21
4.6599439139
 31
0.0
 11
5.608305446
 21
4.6558851632
 31
0.0
 11
5.6112760505
 21
4.6517367591
 31
0.0
 11
5.6168225778
 21
4.6431854468
 31
0.0
 11
5.6218634192
 21
4.6343185753
 31
0.0
 11
5.626425524
 21
4.6251619389
 31
0.0
 11
5.6305370826
 21
4.6157397951
 31
0.0
 11
5.6342264863
 21
4.6060743487
 31
0.0
 11
5.6375223738
 21
4.5961851517
 31
0.0
 11
5.6404531532
 21
4.5860910051
 31
0.0
 11
5.6430460051
 21
4.5758078571
 31
0.0
 11
5.6442240829
 21
4.5706001147
 31
0.0
 11
5.645327692
 21
4.565350726
 31
0.0
 11
5.6473237886
 21
4.5547331785
 31
0.0
 11
5.6490584451
 21
4.5439670418
 31
0.0
 11
5.6505552571
 21
4.5330636447
 31
0.0
 11
5.6518359366
 21
4.5220327317
 31
0.0
 11
5.652921609
 21
4.5108835785
 31
0.0
 11
5.6538319188
 21
4.4996245273
 31
0.0
 11
5.6545854702
 21
4.4882632667
 31
0.0
 11
5.6551999735
 21
4.4768070496
 31
0.0
 11
5.6556917173
 21
4.4652624412
 31
0.0
 11
5.6560764825
 21
4.4536358324
 31
0.0
 11
5.656368531
 21
4.441933166
 31
0.0
 11
5.6565816333
 21
4.4301602336
 31
0.0
 11
5.6567283043
 21
4.4183223858
 31
0.0
 11
5.6568202409
 21
4.4064246961
 31
0.0
 11
5.6568822422
 21
4.3824719911
 31
0.0
  0
SPLINE
  5
22C
100
AcDbEntity
  8
0
100
AcDbSpline
 62
9
  6
CONTINUOUS
 70
0
 71
3
 72
27
 73
23
 74
21
 42
0.0000001
 43
0.0000001
 44
0.0000000001
 12
1.2759717144
 22
-0.0065616627
 32
0.0
 13
1.221867682
 23
-0.3676768135
 33
0.0
 40
0.0
 40
0.0
 40
0.0
 40
0.0
 40
0.0633508364
 40
0.1266854522
 40
0.1899758619
 40
0.2531952386
 40
0.3163240636
 40
0.3793454054
 40
0.4108107458
 40
0.4422427667
 40
0.5049973863
 40
0.5675920264
 40
0.5988239927
 40
0.6300092822
 40
0.6922329403
 40
0.7232689075
 40
0.7542520348
 40
0.7851807472
 40
0.8160534326
 40
0.877622554
 40
0.9389437297
 40
1.0
 40
1.0
 40
1.0
 40
1.0
 10
6.0443119628
 20
3.6493220109
 30
0.0
 10
6.0712565879
 20
3.6491834486
 30
0.0
 10
6.1251376976
 20
3.6484149342
 30
0.0
 10
6.2059017136
 20
3.6457926024
 30
0.0
 10
6.2865491449
 20
3.6417053293
 30
0.0
 10
6.3670214408
 20
3.6361566772
 30
0.0
 10
6.4472655654
 20
3.6291577228
 30
0.0
 10
6.5139380232
 20
3.6221233903
 30
0.0
 10
6.5671187288
 20
3.6157809981
 30
0.0
 10
6.6201273924
 20
3.6089723737
 30
0.0
 10
6.6861505921
 20
3.5995827276
 30
0.0
 10
6.7519101836
 20
3.5890206163
 30
0.0
 10
6.8042908409
 20
3.57988187
 30
0.0
 10
6.8564321424
 20
3.5703021451
 30
0.0
 10
6.9083612468
 20
3.5600396143
 30
0.0
 10
6.9600615137
 20
3.5491017046
 30
0.0
 10
6.9986650606
 20
3.5405750996
 30
0.0
 10
7.0371236588
 20
3.5317215325
 30
0.0
 10
7.0881533473
 20
3.5194962146
 30
0.0
 10
7.151549526
 20
3.5034161762
 30
0.0
 10
7.2270392108
 20
3.4828477472
 30
0.0
 10
7.277014681
 20
3.4682854181
 30
0.0
 10
7.3018822422
 20
3.4608024264
 30
0.0
 11
6.0443119628
 21
3.6493220109
 31
0.0
 11
6.1251386937
 21
3.648169726
 31
0.0
 11
6.2059103786
 21
3.6455472422
 31
0.0
 11
6.2865646751
 21
3.6414590614
 31
0.0
 11
6.3670408245
 21
3.6359104537
 31
0.0
 11
6.4472878408
 21
3.6289114305
 31
0.0
 11
6.527258463
 21
3.6204738098
 31
0.0
 11
6.5671253604
 21
3.6157192298
 31
0.0
 11
6.6069054706
 21
3.6106098022
 31
0.0
 11
6.6861819739
 21
3.5993354923
 31
0.0
 11
6.7650412729
 21
3.5866691877
 31
0.0
 11
6.8042998777
 21
3.5798197669
 31
0.0
 11
6.8434369016
 21
3.5726293244
 31
0.0
 11
6.9213271516
 21
3.5572364248
 31
0.0
 11
6.9600711075
 21
3.5490396058
 31
0.0
 11
6.9986747707
 21
3.5405129662
 31
0.0
 11
7.0371335061
 21
3.5316593251
 31
0.0
 11
7.0754426672
 21
3.5224815301
 31
0.0
 11
7.1515928717
 21
3.5031668976
 31
0.0
 11
7.2270859296
 21
3.4825975745
 31
0.0
 11
7.3018822422
 21
3.4608024264
 31
0.0
  0
ENDSEC
  0
SECTION
  2
OBJECTS
  0
DICTIONARY
  5
C
100
AcDbDictionary
280
0
281
1
  3
ACAD_GROUP
350
D
  3
ACAD_MLINESTYLE
350
17
  3
ACAD_LAYOUT
350
1A
  3
ACAD_PLOTSETTINGS
350
19
  3
ACAD_PLOTSTYLENAME
350
E
  0
DICTIONARY
  5
D
102
{ACAD_REACTORS
330
C
102
}
100
AcDbDictionary
280
0
281
1
  0
ACDBDICTIONARYWDFLT
  5
E
102
{ACAD_REACTORS
330
C
102
}
100
AcDbDictionary
281
1
  3
Normal
350
F
100
AcDbDictionaryWithDefault
340
F
  0
DICTIONARY
  5
17
102
{ACAD_REACTORS
330
C
102
}
100
AcDbDictionary
280
0
281
1
  3
Standard
350
18
  0
DICTIONARY
  5
19
102
{ACAD_REACTORS
330
C
102
}
100
AcDbDictionary
281
1
  0
DICTIONARY
  5
1A
102
{ACAD_REACTORS
330
C
102
}
100
AcDbDictionary
281
1
  3
Model
350
22D
  3
Layout1
350
22E
  0
ACDBPLACEHOLDER
  5
F
102
{ACAD_REACTORS
330
E
102
}
  0
MLINESTYLE
  5
18
102
{ACAD_REACTORS
330
17
102
}
100
AcDbMlineStyle
  2
STANDARD
 70
0
  3

 62
256
 51
90.0
 52
90.0
 71
2
 49
0.5
 62
256
  6
BYLAYER
 49
-0.5
 62
256
  6
BYLAYER
  0
LAYOUT
  5
22D
102
{ACAD_REACTORS
330
1A
102
}
100
AcDbPlotSettings
  1

  2
none_device
  4
ISO_A4_(297.00_x_210.00_MM)
  6

 40
0.0
 41
0.0
 42
0.0
 43
0.0
 44
297.0
 45
210.0
 46
0.0
 47
0.0
 48
0.0
 49
0.0
140
0.0
141
0.0
142
1.0
143
1.0
 70
1024
 72
0
 73
0
 74
0
  7

 75
0
147
1.0
148
0.0
149
0.0
100
AcDbLayout
  1
Model
 70
0
 71
0
 10
0.0
 20
0.0
 11
11.6929133858
 21
8.2677165354
 12
0.0
 22
0.0
 32
0.0
 14
0.0
 24
0.0
 34
0.0
 15
0.0
 25
0.0
 35
0.0
146
0.0
 13
0.0
 23
0.0
 33
0.0
 16
1.0
 26
0.0
 36
0.0
 17
0.0
 27
1.0
 37
0.0
 76
0
330
203
345
0
346
0
  0
LAYOUT
  5
22E
102
{ACAD_REACTORS
330
1A
102
}
100
AcDbPlotSettings
  1

  2
none_device
  4
ISO_A4_(297.00_x_210.00_MM)
  6

 40
0.0
 41
0.0
 42
0.0
 43
0.0
 44
297.0
 45
210.0
 46
0.0
 47
0.0
 48
0.0
 49
0.0
140
0.0
141
0.0
142
1.0
143
1.0
 70
0
 72
0
 73
0
 74
0
  7

 75
0
147
1.0
148
0.0
149
0.0
100
AcDbLayout
  1
Layout1
 70
0
 71
1
 10
0.0
 20
0.0
 11
11.6929133858
 21
8.2677165354
 12
0.0
 22
0.0
 32
0.0
 14
0.0
 24
0.0
 34
0.0
 15
0.0
 25
0.0
 35
0.0
146
0.0
 13
0.0
 23
0.0
 33
0.0
 16
1.0
 26
0.0
 36
0.0
 17
0.0
 27
1.0
 37
0.0
 76
0
330
204
345
0
346
0
  0
ENDSEC
  0
EOF
