999
DXF file: 277-01a_front.dxf
999
Pro/ENGINEER 2013150 by Parametric Technology Corporation
  0
SECTION
  2
HEADER
  9
$ACADVER
  1
AC1021
  9
$DWGCODEPAGE
  3
ANSI_1252
  9
$EXTMAX
 10
11.0
 20
8.5
 30
0.0
  9
$EXTMIN
 10
0.0
 20
0.0
 30
0.0
  9
$LIMMIN
 10
0.0
 20
0.0
  9
$LIMMAX
 10
11.0
 20
8.5
  9
$VIEWCTR
 10
5.5
 20
4.25
  9
$VIEWSIZE
 40
8.5
  9
$CLAYER
  8
0
  9
$LTSCALE
 40
0.605
  9
$CELTYPE
  6
BYLAYER
  9
$DIMSCALE
 40
1.0
  9
$DIMASZ
 40
0.1
  9
$DIMEXO
 40
0.0625
  9
$DIMDLI
 40
0.418
  9
$DIMEXE
 40
0.125
  9
$DIMCEN
 40
0.099
  9
$DIMLFAC
 40
1.0
  9
$DIMBLK
  1
_FILLED
  9
$DIMTXT
 40
0.08
  9
$DIMTOL
 70
1
  9
$DIMLIM
 70
0
  9
$DIMTFAC
 40
1.0
  9
$DIMTP
 40
0.001
  9
$DIMTM
 40
0.001
  9
$DIMGAP
 40
0.09
  9
$DIMDSEP
 70
46
  9
$PDMODE
 70
3
  9
$PDSIZE
 40
0.06
  9
$HANDSEED
  5
2A6
  9
$TILEMODE
 70
1
  9
$MEASUREMENT
 70
0
  9
$INSUNITS
 70
1
  0
ENDSEC
  0
SECTION
  2
CLASSES
  0
CLASS
  1
ACDBDICTIONARYWDFLT
  2
AcDbDictionaryWithDefault
  3
AutoCAD 2000
 90
0
 91
1
280
0
281
0
  0
CLASS
  1
ACDBPLACEHOLDER
  2
AcDbPlaceHolder
  3
AutoCAD 2000
 90
0
 91
1
280
0
281
0
  0
CLASS
  1
LAYOUT
  2
AcDbLayout
  3
AutoCAD 2000
 90
0
 91
0
280
0
281
0
  0
ENDSEC
  0
SECTION
  2
TABLES
  0
TABLE
  2
VPORT
  5
8
100
AcDbSymbolTable
 70
2
  0
VPORT
  5
1F4
100
AcDbSymbolTableRecord
100
AcDbViewportTableRecord
  2
*ACTIVE
 70
0
 10
0.0
 20
0.0
 11
1.0
 21
1.0
 12
5.5
 22
4.25
 13
0.0
 23
0.0
 14
1.0
 24
1.0
 15
0.0
 25
0.0
 16
0.0
 26
0.0
 36
1.0
 17
0.0
 27
0.0
 37
0.0
 40
8.5
 41
1.2941176471
 42
50.0
 43
0.0
 44
0.0
 50
0.0
 51
0.0
 71
0
 72
100
 73
1
 74
1
 75
0
 76
0
 77
0
 78
0
  0
ENDTAB
  0
TABLE
  2
LTYPE
  5
5
100
AcDbSymbolTable
 70
6
  0
LTYPE
  5
14
100
AcDbSymbolTableRecord
100
AcDbLinetypeTableRecord
  2
BYBLOCK
 70
0
  3

 72
65
 73
0
 40
0.0
  0
LTYPE
  5
15
100
AcDbSymbolTableRecord
100
AcDbLinetypeTableRecord
  2
BYLAYER
 70
0
  3

 72
65
 73
0
 40
0.0
  0
LTYPE
  5
16
100
AcDbSymbolTableRecord
100
AcDbLinetypeTableRecord
  2
CONTINUOUS
 70
64
  3
Solid line
 72
65
 73
0
 40
0.0
  0
LTYPE
  5
1F5
100
AcDbSymbolTableRecord
100
AcDbLinetypeTableRecord
  2
CENTER
 70
64
  3
____ _ ____ _ ____ _ ____ _ ____ _ ____ _ ____
 72
65
 73
4
 40
0.6
 49
0.375
 74
0
 49
-0.075
 74
0
 49
0.075
 74
0
 49
-0.075
 74
0
  0
LTYPE
  5
1F6
100
AcDbSymbolTableRecord
100
AcDbLinetypeTableRecord
  2
HIDDEN
 70
64
  3
- - - - - - - - - - - - - - - - - - - -
 72
65
 73
2
 40
0.2
 49
0.1
 74
0
 49
-0.1
 74
0
  0
LTYPE
  5
1F7
100
AcDbSymbolTableRecord
100
AcDbLinetypeTableRecord
  2
PHANTOM
 70
64
  3
_____ _ _ _____ _ _ _____ _ _ _____
 72
65
 73
6
 40
0.8
 49
0.45
 74
0
 49
-0.05
 74
0
 49
0.1
 74
0
 49
-0.05
 74
0
 49
0.1
 74
0
 49
-0.05
 74
0
  0
LTYPE
  5
1F8
100
AcDbSymbolTableRecord
100
AcDbLinetypeTableRecord
  2
DOT
 70
64
  3
. . . . . . . . . . . . . . . . . . . .
 72
65
 73
2
 40
0.2
 49
0.1
 74
0
 49
-0.1
 74
0
  0
LTYPE
  5
1F9
100
AcDbSymbolTableRecord
100
AcDbLinetypeTableRecord
  2
DASHED
 70
64
  3
- - - - - - - - - - - - - - - - - - - -
 72
65
 73
2
 40
0.2
 49
0.1
 74
0
 49
-0.1
 74
0
  0
ENDTAB
  0
TABLE
  2
LAYER
  5
2
100
AcDbSymbolTable
 70
36
  0
LAYER
  5
10
100
AcDbSymbolTableRecord
100
AcDbLayerTableRecord
  2
0
 70
0
 62
7
  6
CONTINUOUS
370
-3
390
F
  0
LAYER
  5
1FA
100
AcDbSymbolTableRecord
100
AcDbLayerTableRecord
  2
DEFAULT_1
 70
0
 62
7
  6
CENTER
370
-3
390
F
  0
LAYER
  5
1FB
100
AcDbSymbolTableRecord
100
AcDbLayerTableRecord
  2
DEFAULT_2
 70
0
 62
8
  6
HIDDEN
370
-3
390
F
  0
LAYER
  5
1FC
100
AcDbSymbolTableRecord
100
AcDbLayerTableRecord
  2
DEFAULT_3
 70
0
 62
7
  6
PHANTOM
370
-3
390
F
  0
LAYER
  5
1FD
100
AcDbSymbolTableRecord
100
AcDbLayerTableRecord
  2
DEFAULT_COORDINATE_SYSTEM
 70
0
 62
7
  6
CONTINUOUS
370
-3
390
F
  0
LAYER
  5
1FE
100
AcDbSymbolTableRecord
100
AcDbLayerTableRecord
  2
DEFAULT_DATUM_AXES
 70
0
 62
7
  6
CONTINUOUS
370
-3
390
F
  0
LAYER
  5
1FF
100
AcDbSymbolTableRecord
100
AcDbLayerTableRecord
  2
DEFAULT_DATUM_CURVES
 70
0
 62
7
  6
CONTINUOUS
370
-3
390
F
  0
LAYER
  5
200
100
AcDbSymbolTableRecord
100
AcDbLayerTableRecord
  2
DEFAULT_DATUM_PLANES
 70
0
 62
7
  6
CONTINUOUS
370
-3
390
F
  0
LAYER
  5
201
100
AcDbSymbolTableRecord
100
AcDbLayerTableRecord
  2
DEFAULT_SURFACES
 70
0
 62
7
  6
CONTINUOUS
370
-3
390
F
  0
ENDTAB
  0
TABLE
  2
STYLE
  5
3
100
AcDbSymbolTable
 70
1
  0
STYLE
  5
11
100
AcDbSymbolTableRecord
100
AcDbTextStyleTableRecord
  2
STANDARD
 70
0
 40
0.0
 41
0.8
 50
0.0
 71
0
 42
0.2
  3
txt
  4

  0
STYLE
  5
202
100
AcDbSymbolTableRecord
100
AcDbTextStyleTableRecord
  2
TEXTSTYLE_1
 70
0
 40
0.0
 41
0.8
 50
0.0
 71
0
 42
0.2
  3
gdt
  4

  0
ENDTAB
  0
TABLE
  2
VIEW
  5
6
100
AcDbSymbolTable
 70
0
  0
ENDTAB
  0
TABLE
  2
UCS
  5
7
100
AcDbSymbolTable
 70
0
  0
ENDTAB
  0
TABLE
  2
APPID
  5
9
100
AcDbSymbolTable
 70
1
  0
APPID
  5
203
100
AcDbSymbolTableRecord
100
AcDbRegAppTableRecord
  2
ACAD
 70
0
  0
ENDTAB
  0
TABLE
  2
BLOCK_RECORD
  5
1
100
AcDbSymbolTable
 70
0
  0
BLOCK_RECORD
  5
204
100
AcDbSymbolTableRecord
100
AcDbBlockTableRecord
  2
*Model_Space
  0
BLOCK_RECORD
  5
205
100
AcDbSymbolTableRecord
100
AcDbBlockTableRecord
  2
*Paper_Space
  0
ENDTAB
  0
TABLE
  2
DIMSTYLE
  5
A
100
AcDbSymbolTable
 70
1
100
AcDbDimStyleTable
 71
0
  0
DIMSTYLE
105
206
100
AcDbSymbolTableRecord
100
AcDbDimStyleTableRecord
  2
STANDARD
 70
0
  3

  4

 40
1.0
 41
0.1
 42
0.0625
 43
0.38
 44
0.125
 45
0.0
 46
0.0
 47
0.001
 48
0.001
140
0.08
141
0.09
142
0.0
143
25.4
144
1.0
145
0.0
146
1.0
147
0.09
 71
1.0
 72
0.0
 73
1
 74
1
 75
0
 76
0
 77
0
 78
4
170
0
171
2
172
0
173
0
174
0
175
0
176
0
177
0
178
0
270
2
271
3
272
3
273
2
274
2
275
0
280
0
281
0
282
0
283
1
284
4
285
0
286
0
287
3
288
0
340
11
278
46
  0
ENDTAB
  0
ENDSEC
  0
SECTION
  2
BLOCKS
  0
BLOCK
  5
20
100
AcDbEntity
  8
0
100
AcDbBlockBegin
  2
*Model_Space
 70
0
 10
0.0
 20
0.0
 30
0.0
  3
*Model_Space
  1

  0
ENDBLK
  5
21
100
AcDbEntity
  8
0
100
AcDbBlockEnd
  0
BLOCK
  5
1C
100
AcDbEntity
  8
0
100
AcDbBlockBegin
  2
*Paper_Space
 70
0
 10
0.0
 20
0.0
 30
0.0
  3
*Paper_Space
  1

  0
ENDBLK
  5
1D
100
AcDbEntity
  8
0
100
AcDbBlockEnd
  0
ENDSEC
  0
SECTION
  2
ENTITIES
  0
LINE
  5
207
100
AcDbEntity
  8
0
100
AcDbLine
 62
7
  6
CONTINUOUS
 10
0.0
 20
0.0
 11
0.0
 21
8.5
  0
LINE
  5
208
100
AcDbEntity
  8
0
100
AcDbLine
 62
7
  6
CONTINUOUS
 10
0.0
 20
0.0
 11
11.0
 21
0.0
  0
LINE
  5
209
100
AcDbEntity
  8
0
100
AcDbLine
 62
7
  6
CONTINUOUS
 10
0.0
 20
8.5
 11
11.0
 21
8.5
  0
LINE
  5
20A
100
AcDbEntity
  8
0
100
AcDbLine
 62
7
  6
CONTINUOUS
 10
11.0
 20
0.0
 11
11.0
 21
8.5
  0
LINE
  5
20B
100
AcDbEntity
  8
0
100
AcDbLine
 62
7
  6
CONTINUOUS
 10
2.3934210802
 20
3.8381642588
 11
2.3934210802
 21
3.7452601221
  0
LINE
  5
20C
100
AcDbEntity
  8
0
100
AcDbLine
 62
7
  6
CONTINUOUS
 10
3.2767711713
 20
3.5707685888
 11
3.276773987
 21
3.5707646533
  0
LINE
  5
20D
100
AcDbEntity
  8
0
100
AcDbLine
 62
7
  6
CONTINUOUS
 10
4.0154411821
 20
4.007026306
 11
4.009735964
 21
3.8981642588
  0
LINE
  5
20E
100
AcDbEntity
  8
0
100
AcDbLine
 62
7
  6
CONTINUOUS
 10
4.0656989979
 20
3.4622871712
 11
4.0657019499
 21
3.4622782365
  0
LWPOLYLINE
  5
20F
100
AcDbEntity
  8
0
100
AcDbPolyline
 62
7
  6
CONTINUOUS
 90
31
 70
0
 10
4.1635832152
 20
3.5646627743
 10
4.163338179
 20
3.5645270722
 10
4.1633381515
 20
3.5645256434
 10
4.1637350131
 20
3.5646941242
 10
4.1644584799
 20
3.5649667349
 10
4.1655127198
 20
3.5653216894
 10
4.1669241523
 20
3.565747576
 10
4.1686440033
 20
3.566214187
 10
4.170674447
 20
3.5667113708
 10
4.1730328305
 20
3.5672337247
 10
4.1756893917
 20
3.5677669247
 10
4.1786467328
 20
3.5683057509
 10
4.181915324
 20
3.5688468931
 10
4.1854744561
 20
3.5693826404
 10
4.1893258911
 20
3.5699099163
 10
4.1934756739
 20
3.5704264473
 10
4.197907116
 20
3.5709275804
 10
4.2026210512
 20
3.571411362
 10
4.2076203171
 20
3.5718761611
 10
4.2128884208
 20
3.5723188342
 10
4.2184238396
 20
3.5727379697
 10
4.2242263905
 20
3.5731323513
 10
4.2302792254
 20
3.5734998702
 10
4.2365795745
 20
3.5738396293
 10
4.2431250021
 20
3.5741507922
 10
4.249896533
 20
3.5744318686
 10
4.2568891407
 20
3.5746822299
 10
4.264098219
 20
3.5749013269
 10
4.2715033339
 20
3.5750883055
 10
4.2790983479
 20
3.5752429203
 10
4.2868764608
 20
3.5753648968
  0
LINE
  5
210
100
AcDbEntity
  8
0
100
AcDbLine
 62
7
  6
CONTINUOUS
 10
6.253135316
 20
3.5709226488
 11
6.255379172
 21
3.5715538619
  0
LWPOLYLINE
  5
211
100
AcDbEntity
  8
0
100
AcDbPolyline
 62
7
  6
CONTINUOUS
 90
23
 70
0
 10
6.2553846175
 20
3.5715553623
 10
6.3959366521
 20
3.6103266691
 10
6.4014563909
 20
3.6117548118
 10
6.4073801255
 20
3.6131695973
 10
6.413662846
 20
3.6145632637
 10
6.4202583458
 20
3.6159289175
 10
6.4271266132
 20
3.6172619147
 10
6.4342301527
 20
3.6185586029
 10
6.4415381484
 20
3.6198168805
 10
6.4490332615
 20
3.6210369781
 10
6.4566874597
 20
3.6222172507
 10
6.4644735161
 20
3.6233562599
 10
6.4723839003
 20
3.6244554279
 10
6.4803949117
 20
3.6255137943
 10
6.4884855195
 20
3.6265308855
 10
6.4966577792
 20
3.6275088551
 10
6.5048933317
 20
3.6284471281
 10
6.5131732852
 20
3.6293452071
 10
6.5215031248
 20
3.6302051999
 10
6.5298722825
 20
3.6310272646
 10
6.5382601383
 20
3.6318104562
 10
6.5466597034
 20
3.6325552084
 10
6.5550587241
 20
3.6332615095
  0
LINE
  5
212
100
AcDbEntity
  8
0
100
AcDbLine
 62
7
  6
CONTINUOUS
 10
5.7276192758
 20
3.4388861486
 11
5.8161021779
 21
3.4627892266
  0
LINE
  5
213
100
AcDbEntity
  8
0
100
AcDbLine
 62
7
  6
CONTINUOUS
 10
5.8161195736
 20
3.4627939538
 11
5.8196516388
 21
3.4637280877
  0
LWPOLYLINE
  5
214
100
AcDbEntity
  8
0
100
AcDbPolyline
 62
7
  6
CONTINUOUS
 90
20
 70
0
 10
5.8196516388
 20
3.4637280877
 10
5.8276928051
 20
3.4657051487
 10
5.8363014975
 20
3.4676357791
 10
5.8454104827
 20
3.4695122535
 10
5.8549550716
 20
3.4713284837
 10
5.8648794455
 20
3.4730812627
 10
5.8751295892
 20
3.4747680422
 10
5.8856556244
 20
3.4763871409
 10
5.896420243
 20
3.477938864
 10
5.9073762687
 20
3.4794220958
 10
5.9184808012
 20
3.4808364311
 10
5.929710061
 20
3.4821837923
 10
5.9410262445
 20
3.4834641928
 10
5.9523933748
 20
3.4846779017
 10
5.9637975853
 20
3.4858274264
 10
5.9752098973
 20
3.4869135065
 10
5.9866000194
 20
3.4879367615
 10
5.9979568248
 20
3.4888993662
 10
6.0092562361
 20
3.4898022238
 10
6.0204733761
 20
3.4906462248
  0
LINE
  5
215
100
AcDbEntity
  8
0
100
AcDbLine
 62
7
  6
CONTINUOUS
 10
6.886091203
 20
3.4813473983
 11
6.8888637898
 21
3.4818241932
  0
LINE
  5
216
100
AcDbEntity
  8
0
100
AcDbLine
 62
7
  6
CONTINUOUS
 10
6.8927922581
 20
3.4824979302
 11
6.9285055921
 21
3.4885262089
  0
LINE
  5
217
100
AcDbEntity
  8
0
100
AcDbLine
 62
7
  6
CONTINUOUS
 10
6.9285055921
 20
3.4885262089
 11
6.9750070599
 21
3.4961318166
  0
LINE
  5
218
100
AcDbEntity
  8
0
100
AcDbLine
 62
7
  6
CONTINUOUS
 10
6.9750070599
 20
3.4961318166
 11
7.0188107143
 21
3.5030666619
  0
LINE
  5
219
100
AcDbEntity
  8
0
100
AcDbLine
 62
7
  6
CONTINUOUS
 10
7.0188107143
 20
3.5030666619
 11
7.0688251987
 21
3.5107379832
  0
LINE
  5
21A
100
AcDbEntity
  8
0
100
AcDbLine
 62
7
  6
CONTINUOUS
 10
7.0688251987
 20
3.5107379832
 11
7.1235456034
 21
3.5188575779
  0
LINE
  5
21B
100
AcDbEntity
  8
0
100
AcDbLine
 62
7
  6
CONTINUOUS
 10
7.1235456034
 20
3.5188575779
 11
7.1813083957
 21
3.5271479111
  0
LINE
  5
21C
100
AcDbEntity
  8
0
100
AcDbLine
 62
7
  6
CONTINUOUS
 10
8.3417714662
 20
3.685844038
 11
7.5589459113
 21
3.5758250811
  0
LINE
  5
21D
100
AcDbEntity
  8
0
100
AcDbLine
 62
7
  6
CONTINUOUS
 10
6.8829288828
 20
3.4808170836
 11
6.5845747774
 21
3.4388861486
  0
LINE
  5
21E
100
AcDbEntity
  8
0
100
AcDbLine
 62
7
  6
CONTINUOUS
 10
7.1813083957
 20
3.5271479111
 11
7.2403252149
 21
3.5353483901
  0
LINE
  5
21F
100
AcDbEntity
  8
0
100
AcDbLine
 62
7
  6
CONTINUOUS
 10
7.2403252149
 20
3.5353483901
 11
7.3177823998
 21
3.545738247
  0
LINE
  5
220
100
AcDbEntity
  8
0
100
AcDbLine
 62
7
  6
CONTINUOUS
 10
7.3177823998
 20
3.545738247
 11
7.3899077412
 21
3.5550697534
  0
LINE
  5
221
100
AcDbEntity
  8
0
100
AcDbLine
 62
7
  6
CONTINUOUS
 10
7.3899077412
 20
3.5550697534
 11
7.4666709777
 21
3.5646743965
  0
LINE
  5
222
100
AcDbEntity
  8
0
100
AcDbLine
 62
7
  6
CONTINUOUS
 10
7.4666709777
 20
3.5646743965
 11
7.5492883389
 21
3.5746709621
  0
LINE
  5
223
100
AcDbEntity
  8
0
100
AcDbLine
 62
7
  6
CONTINUOUS
 10
3.7893808315
 20
3.4970271738
 11
3.8637983748
 21
3.4882185605
  0
LINE
  5
224
100
AcDbEntity
  8
0
100
AcDbLine
 62
7
  6
CONTINUOUS
 10
3.8637983748
 20
3.4882185605
 11
3.9295380291
 21
3.4801273806
  0
LINE
  5
225
100
AcDbEntity
  8
0
100
AcDbLine
 62
7
  6
CONTINUOUS
 10
3.9295380291
 20
3.4801273806
 11
3.9909953021
 21
3.4722681377
  0
LINE
  5
226
100
AcDbEntity
  8
0
100
AcDbLine
 62
7
  6
CONTINUOUS
 10
3.9909953021
 20
3.4722681377
 11
4.0400837525
 21
3.465762083
  0
LINE
  5
227
100
AcDbEntity
  8
0
100
AcDbLine
 62
7
  6
CONTINUOUS
 10
4.0400837525
 20
3.465762083
 11
4.2367467173
 21
3.4388861486
  0
LINE
  5
228
100
AcDbEntity
  8
0
100
AcDbLine
 62
7
  6
CONTINUOUS
 10
2.4450706941
 20
3.685844038
 11
2.7718215799
 21
3.6399221958
  0
LINE
  5
229
100
AcDbEntity
  8
0
100
AcDbLine
 62
7
  6
CONTINUOUS
 10
3.5121228338
 20
3.5358796396
 11
3.7845267112
 21
3.4975957713
  0
LINE
  5
22A
100
AcDbEntity
  8
0
100
AcDbLine
 62
7
  6
CONTINUOUS
 10
3.276773987
 20
3.5707646533
 11
3.3507728963
 21
3.5602508638
  0
LINE
  5
22B
100
AcDbEntity
  8
0
100
AcDbLine
 62
7
  6
CONTINUOUS
 10
3.3507728963
 20
3.5602508638
 11
3.4130095767
 21
3.5511014205
  0
LINE
  5
22C
100
AcDbEntity
  8
0
100
AcDbLine
 62
7
  6
CONTINUOUS
 10
3.4130095767
 20
3.5511014205
 11
3.4714204735
 21
3.5422321446
  0
LINE
  5
22D
100
AcDbEntity
  8
0
100
AcDbLine
 62
7
  6
CONTINUOUS
 10
3.4714204735
 20
3.5422321446
 11
3.5050700908
 21
3.5369876385
  0
LINE
  5
22E
100
AcDbEntity
  8
0
100
AcDbLine
 62
7
  6
CONTINUOUS
 10
6.5550587241
 20
3.6332615095
 11
6.5717982989
 21
3.6345584422
  0
LINE
  5
22F
100
AcDbEntity
  8
0
100
AcDbLine
 62
7
  6
CONTINUOUS
 10
6.5717982989
 20
3.6345584422
 11
6.5883814306
 21
3.6357014525
  0
LINE
  5
230
100
AcDbEntity
  8
0
100
AcDbLine
 62
7
  6
CONTINUOUS
 10
6.0204733761
 20
3.4906462248
 11
6.0426146033
 21
3.4921649012
  0
LINE
  5
231
100
AcDbEntity
  8
0
100
AcDbLine
 62
7
  6
CONTINUOUS
 10
6.5883814306
 20
3.6357014525
 11
6.6047203247
 21
3.636691931
  0
LINE
  5
232
100
AcDbEntity
  8
0
100
AcDbLine
 62
7
  6
CONTINUOUS
 10
6.0426146033
 20
3.4921649012
 11
6.0642489414
 21
3.4934656621
  0
LINE
  5
233
100
AcDbEntity
  8
0
100
AcDbLine
 62
7
  6
CONTINUOUS
 10
6.6047203247
 20
3.636691931
 11
6.6207328999
 21
3.6375323477
  0
LINE
  5
234
100
AcDbEntity
  8
0
100
AcDbLine
 62
7
  6
CONTINUOUS
 10
6.0642489414
 20
3.4934656621
 11
6.0852811586
 21
3.4945602644
  0
LINE
  5
235
100
AcDbEntity
  8
0
100
AcDbLine
 62
7
  6
CONTINUOUS
 10
6.0852811586
 20
3.4945602644
 11
6.1056312689
 21
3.4954599855
  0
LINE
  5
236
100
AcDbEntity
  8
0
100
AcDbLine
 62
7
  6
CONTINUOUS
 10
6.1056312689
 20
3.4954599855
 11
6.1252213878
 21
3.4961751409
  0
LINE
  5
237
100
AcDbEntity
  8
0
100
AcDbLine
 62
7
  6
CONTINUOUS
 10
6.1252213878
 20
3.4961751409
 11
6.1439932338
 21
3.4967166263
  0
LINE
  5
238
100
AcDbEntity
  8
0
100
AcDbLine
 62
7
  6
CONTINUOUS
 10
6.1439932338
 20
3.4967166263
 11
6.1619022576
 21
3.4970946404
  0
LINE
  5
239
100
AcDbEntity
  8
0
100
AcDbLine
 62
7
  6
CONTINUOUS
 10
6.1619022576
 20
3.4970946404
 11
6.1789081354
 21
3.4973192706
  0
LWPOLYLINE
  5
23A
100
AcDbEntity
  8
0
100
AcDbPolyline
 62
7
  6
CONTINUOUS
 90
31
 70
0
 10
6.1789081354
 20
3.4973192706
 10
6.1949882307
 20
3.497400598
 10
6.2026775098
 20
3.497390429
 10
6.210130448
 20
3.4973479053
 10
6.2173441626
 20
3.4972742094
 10
6.2243224132
 20
3.4971704436
 10
6.2310632796
 20
3.4970376913
 10
6.2375654575
 20
3.4968770147
 10
6.2438334999
 20
3.4966893275
 10
6.2498664887
 20
3.496475672
 10
6.2556634516
 20
3.4962371313
 10
6.2612281798
 20
3.4959745924
 10
6.2665608828
 20
3.4956890489
 10
6.2716613336
 20
3.4953815264
 10
6.2765320612
 20
3.4950529135
 10
6.2811750715
 20
3.4947041228
 10
6.2855889863
 20
3.4943363579
 10
6.2897708162
 20
3.4939510916
 10
6.2937224471
 20
3.493549473
 10
6.2974444769
 20
3.4931328425
 10
6.3009319856
 20
3.4927033732
 10
6.304188646
 20
3.49226244
 10
6.307215264
 20
3.4918118933
 10
6.3100025963
 20
3.4913555037
 10
6.3125563276
 20
3.4908951415
 10
6.3148764355
 20
3.4904338794
 10
6.3169456419
 20
3.489979313
 10
6.3187753744
 20
3.4895340353
 10
6.3203632823
 20
3.4891043294
 10
6.321672408
 20
3.4887088759
 10
6.3222638656
 20
3.4885137404
  0
LINE
  5
23B
100
AcDbEntity
  8
0
100
AcDbLine
 62
7
  6
CONTINUOUS
 10
6.5845747774
 20
3.4388861486
 11
6.2048663031
 21
3.4388861486
  0
LINE
  5
23C
100
AcDbEntity
  8
0
100
AcDbLine
 62
7
  6
CONTINUOUS
 10
5.7276217579
 20
3.4388861486
 11
4.2368288104
 21
3.4388861486
  0
LINE
  5
23D
100
AcDbEntity
  8
0
100
AcDbLine
 62
7
  6
CONTINUOUS
 10
4.3111241203
 20
3.5755324963
 11
4.3184736007
 21
3.5755254356
  0
LWPOLYLINE
  5
23E
100
AcDbEntity
  8
0
100
AcDbPolyline
 62
7
  6
CONTINUOUS
 90
10
 70
0
 10
4.3184736007
 20
3.5755254356
 10
4.3316471835
 20
3.5754514356
 10
4.3449847364
 20
3.5753007107
 10
4.3584426956
 20
3.5750758633
 10
4.3719864395
 20
3.574779738
 10
4.3855924201
 20
3.5744148235
 10
4.3992295211
 20
3.5739836078
 10
4.4128680811
 20
3.573488725
 10
4.4264917137
 20
3.5729324359
 10
4.440073562
 20
3.5723172667
  0
LINE
  5
23F
100
AcDbEntity
  8
0
100
AcDbLine
 62
7
  6
CONTINUOUS
 10
4.440073562
 20
3.5723172667
 11
4.4670189682
 21
3.5709196201
  0
LINE
  5
240
100
AcDbEntity
  8
0
100
AcDbLine
 62
7
  6
CONTINUOUS
 10
4.4670189682
 20
3.5709196201
 11
4.4935457003
 21
3.5693142205
  0
LWPOLYLINE
  5
241
100
AcDbEntity
  8
0
100
AcDbPolyline
 62
7
  6
CONTINUOUS
 90
38
 70
0
 10
4.4935457003
 20
3.5693142205
 10
4.5195107907
 20
3.5675186106
 10
4.5322377793
 20
3.5665550989
 10
4.5447791181
 20
3.5655503299
 10
4.5571178601
 20
3.5645065531
 10
4.5692390277
 20
3.5634259224
 10
4.5811379023
 20
3.5623097519
 10
4.5928003957
 20
3.5611602616
 10
4.6042133148
 20
3.559979664
 10
4.6153741261
 20
3.5587690124
 10
4.6262714543
 20
3.5575303156
 10
4.6368942889
 20
3.5562656694
 10
4.6472405475
 20
3.5549761635
 10
4.6573006202
 20
3.5536637911
 10
4.6670657362
 20
3.5523305148
 10
4.6765347135
 20
3.550977311
 10
4.6857011355
 20
3.5496058872
 10
4.6945548576
 20
3.5482186157
 10
4.7030892917
 20
3.5468174786
 10
4.7113021208
 20
3.545403837
 10
4.7191833224
 20
3.5439804687
 10
4.7267159412
 20
3.5425517686
 10
4.7338966529
 20
3.5411199503
 10
4.7407214243
 20
3.5396875866
 10
4.7471738989
 20
3.5382602712
 10
4.7532543137
 20
3.5368404759
 10
4.7589603791
 20
3.5354314313
 10
4.7642742506
 20
3.5340409487
 10
4.7692008973
 20
3.5326718382
 10
4.7737398699
 20
3.5313286594
 10
4.7778674213
 20
3.5300241198
 10
4.7815948888
 20
3.5287615931
 10
4.7849217431
 20
3.5275490657
 10
4.7878087533
 20
3.5264117469
 10
4.7902800149
 20
3.525353896
 10
4.7923316017
 20
3.5243929755
 10
4.7938897527
 20
3.523588841
 10
4.7945417868
 20
3.5232238816
  0
LINE
  5
242
100
AcDbEntity
  8
0
100
AcDbLine
 62
7
  6
CONTINUOUS
 10
6.6207328999
 20
3.6375323477
 11
6.6363473128
 21
3.6382252895
  0
LINE
  5
243
100
AcDbEntity
  8
0
100
AcDbLine
 62
7
  6
CONTINUOUS
 10
6.6363473128
 20
3.6382252895
 11
6.6514983702
 21
3.6387746554
  0
LINE
  5
244
100
AcDbEntity
  8
0
100
AcDbLine
 62
7
  6
CONTINUOUS
 10
6.6514983702
 20
3.6387746554
 11
6.666126257
 21
3.6391844337
  0
LWPOLYLINE
  5
245
100
AcDbEntity
  8
0
100
AcDbPolyline
 62
7
  6
CONTINUOUS
 90
31
 70
0
 10
6.666126257
 20
3.6391844337
 10
6.6801803818
 20
3.6394589695
 10
6.6869776889
 20
3.6395472079
 10
6.6936150964
 20
3.6396036232
 10
6.7000870154
 20
3.6396288018
 10
6.706389008
 20
3.6396234212
 10
6.7125171783
 20
3.6395882308
 10
6.7184664217
 20
3.639524062
 10
6.7242309428
 20
3.639431804
 10
6.7298077884
 20
3.6393122335
 10
6.7351940705
 20
3.6391661707
 10
6.7403849131
 20
3.638994591
 10
6.7453784508
 20
3.6387984808
 10
6.7501723391
 20
3.6385789181
 10
6.7547614934
 20
3.6383371732
 10
6.7591454969
 20
3.638074292
 10
6.7633236123
 20
3.6377914032
 10
6.7672909579
 20
3.6374900619
 10
6.7710484679
 20
3.6371715547
 10
6.7745953142
 20
3.6368374021
 10
6.7779241694
 20
3.6364899572
 10
6.7810376697
 20
3.6361307621
 10
6.7839360555
 20
3.6357617335
 10
6.786608862
 20
3.635386566
 10
6.789060787
 20
3.6350073584
 10
6.7912913716
 20
3.6346271834
 10
6.793282205
 20
3.6342530556
 10
6.795042269
 20
3.6338879628
 10
6.7965693937
 20
3.6335375444
 10
6.7978286367
 20
3.6332172436
 10
6.7984813447
 20
3.6330363209
  0
LINE
  5
246
100
AcDbEntity
  8
0
100
AcDbLine
 62
7
  6
CONTINUOUS
 10
4.2868764608
 20
3.5753648968
 11
4.3028978041
 21
3.5755096368
  0
LINE
  5
247
100
AcDbEntity
  8
0
100
AcDbLine
 62
7
  6
CONTINUOUS
 10
4.3028978041
 20
3.5755096368
 11
4.3111241203
 21
3.5755324963
  0
LINE
  5
248
100
AcDbEntity
  8
0
100
AcDbLine
 62
7
  6
CONTINUOUS
 10
2.4450706941
 20
3.685844038
 11
8.3417714662
 21
3.685844038
  0
LINE
  5
249
100
AcDbEntity
  8
0
100
AcDbLine
 62
7
  6
CONTINUOUS
 10
2.3934210802
 20
3.7452601221
 11
8.3934210802
 21
3.7452601221
  0
LINE
  5
24A
100
AcDbEntity
  8
0
100
AcDbLine
 62
7
  6
CONTINUOUS
 10
2.3934210802
 20
3.8381642588
 11
8.3934210802
 21
3.8381642588
  0
LINE
  5
24B
100
AcDbEntity
  8
0
100
AcDbLine
 62
7
  6
CONTINUOUS
 10
8.3334210802
 20
3.8981642588
 11
2.4534210802
 21
3.8981642588
  0
LINE
  5
24C
100
AcDbEntity
  8
0
100
AcDbLine
 62
7
  6
CONTINUOUS
 10
4.2894073167
 20
3.9073160699
 11
5.2237574841
 21
3.9073160699
  0
LINE
  5
24D
100
AcDbEntity
  8
0
100
AcDbLine
 62
7
  6
CONTINUOUS
 10
6.6670984397
 20
3.9073160699
 11
6.7766265703
 21
3.9073160699
  0
LINE
  5
24E
100
AcDbEntity
  8
0
100
AcDbLine
 62
7
  6
CONTINUOUS
 10
4.0154411821
 20
4.007026306
 11
6.7714009783
 21
4.007026306
  0
LINE
  5
24F
100
AcDbEntity
  8
0
100
AcDbLine
 62
7
  6
CONTINUOUS
 10
4.0753589542
 20
4.0638861486
 11
6.7114832062
 21
4.0638861486
  0
LWPOLYLINE
  5
250
100
AcDbEntity
  8
0
100
AcDbPolyline
 62
7
  6
CONTINUOUS
 90
8
 70
0
 10
6.2395797417
 20
3.5662765462
 10
6.2408299367
 20
3.5668034271
 10
6.2423210109
 20
3.5673911408
 10
6.2440332871
 20
3.5680244928
 10
6.2459680772
 20
3.5686982312
 10
6.2481339566
 20
3.5694100778
 10
6.2505227972
 20
3.5701527575
 10
6.253135316
 20
3.5709226488
  0
LINE
  5
251
100
AcDbEntity
  8
0
100
AcDbLine
 62
7
  6
CONTINUOUS
 10
6.189507181
 20
3.47204551
 11
6.1887212588
 21
3.4920327567
  0
LWPOLYLINE
  5
252
100
AcDbEntity
  8
0
100
AcDbPolyline
 62
7
  6
CONTINUOUS
 90
9
 70
0
 10
6.2377451668
 20
3.5656137283
 10
6.2376206761
 20
3.5655077355
 10
6.2371283123
 20
3.5651164
 10
6.2368953239
 20
3.5649509206
 10
6.2369432817
 20
3.564980267
 10
6.2372283031
 20
3.5651439404
 10
6.2377590758
 20
3.5654246052
 10
6.2385558474
 20
3.5658134122
 10
6.2395797417
 20
3.5662765462
  0
LINE
  5
253
100
AcDbEntity
  8
0
100
AcDbLine
 62
7
  6
CONTINUOUS
 10
6.2836760286
 20
3.4810458135
 11
6.2830632665
 21
3.4945467994
  0
LINE
  5
254
100
AcDbEntity
  8
0
100
AcDbLine
 62
7
  6
CONTINUOUS
 10
6.6259848528
 20
3.5989065522
 11
6.6242244129
 21
3.6376943241
  0
LINE
  5
255
100
AcDbEntity
  8
0
100
AcDbLine
 62
7
  6
CONTINUOUS
 10
6.7714009783
 20
4.007026306
 11
6.7766265703
 21
3.9073160699
  0
LINE
  5
256
100
AcDbEntity
  8
0
100
AcDbLine
 62
7
  6
CONTINUOUS
 10
6.7617413769
 20
3.6373205549
 11
6.7617150637
 21
3.6379003136
  0
LINE
  5
257
100
AcDbEntity
  8
0
100
AcDbLine
 62
7
  6
CONTINUOUS
 10
8.3934210802
 20
3.8381642588
 11
8.3934210802
 21
3.7452601221
  0
ARC
  5
258
100
AcDbEntity
  8
0
100
AcDbCircle
 62
7
  6
CONTINUOUS
 10
-6.0615109864
 20
47.8936773181
 40
46.0964801215
100
AcDbArc
 50
285.4077835571
 51
285.5341049516
  0
ARC
  5
259
100
AcDbEntity
  8
0
100
AcDbCircle
 62
7
  6
CONTINUOUS
 10
1.4675885776
 20
-9.4466781054
 40
13.142566724
100
AcDbArc
 50
81.0960042567
 51
82.0876387862
  0
ARC
  5
25A
100
AcDbEntity
  8
0
100
AcDbCircle
 62
7
  6
CONTINUOUS
 10
2.2968816923
 20
-9.4928372654
 40
13.0753149791
100
AcDbArc
 50
82.2252410933
 51
83.4292462129
  0
ARC
  5
25B
100
AcDbEntity
  8
0
100
AcDbCircle
 62
7
  6
CONTINUOUS
 10
4.1224733513
 20
6.2075380811
 40
2.5502643082
100
AcDbArc
 50
295.1045845282
 51
295.5838398082
  0
ARC
  5
25C
100
AcDbEntity
  8
0
100
AcDbCircle
 62
7
  6
CONTINUOUS
 10
3.9743152207
 20
3.5223703777
 40
0.4974597622
100
AcDbArc
 50
49.0668803669
 51
50.6984226262
  0
ARC
  5
25D
100
AcDbEntity
  8
0
100
AcDbCircle
 62
7
  6
CONTINUOUS
 10
5.9088900084
 20
3.1010878281
 40
0.3740428203
100
AcDbArc
 50
103.5558319631
 51
104.4085185977
  0
ARC
  5
25E
100
AcDbEntity
  8
0
100
AcDbCircle
 62
7
  6
CONTINUOUS
 10
5.8963488814
 20
3.1497517854
 40
0.3237888753
100
AcDbArc
 50
104.4018971972
 51
105.1501249001
  0
ARC
  5
25F
100
AcDbEntity
  8
0
100
AcDbCircle
 62
7
  6
CONTINUOUS
 10
6.4670008268
 20
3.3239174804
 40
0.2958998432
100
AcDbArc
 50
103.8419262581
 51
105.4077037254
  0
ARC
  5
260
100
AcDbEntity
  8
0
100
AcDbCircle
 62
7
  6
CONTINUOUS
 10
6.3068475438
 20
3.3601086718
 40
0.2184343385
100
AcDbArc
 50
105.3323175634
 51
107.2889394469
  0
ARC
  5
261
100
AcDbEntity
  8
0
100
AcDbCircle
 62
7
  6
CONTINUOUS
 10
6.6986922349
 20
3.8308490883
 40
0.2035398918
100
AcDbArc
 50
288.0449526566
 51
288.4776053377
  0
ARC
  5
262
100
AcDbEntity
  8
0
100
AcDbCircle
 62
7
  6
CONTINUOUS
 10
6.8144739415
 20
4.0350906774
 40
0.1950535538
100
AcDbArc
 50
220.9252985083
 51
224.5771086733
  0
ARC
  5
263
100
AcDbEntity
  8
0
100
AcDbCircle
 62
7
  6
CONTINUOUS
 10
6.7114832062
 20
4.0038861486
 40
0.06
100
AcDbArc
 50
3.0
 51
90.0
  0
ARC
  5
264
100
AcDbEntity
  8
0
100
AcDbCircle
 62
7
  6
CONTINUOUS
 10
4.0753589542
 20
4.0038861486
 40
0.06
100
AcDbArc
 50
90.0
 51
177.0
  0
ARC
  5
265
100
AcDbEntity
  8
0
100
AcDbCircle
 62
7
  6
CONTINUOUS
 10
8.3334210802
 20
3.8381642588
 40
0.06
100
AcDbArc
 50
0.0
 51
90.0
  0
ARC
  5
266
100
AcDbEntity
  8
0
100
AcDbCircle
 62
7
  6
CONTINUOUS
 10
2.4534210802
 20
3.8381642588
 40
0.06
100
AcDbArc
 50
90.0
 51
180.0
  0
ARC
  5
267
100
AcDbEntity
  8
0
100
AcDbCircle
 62
7
  6
CONTINUOUS
 10
2.4534210802
 20
3.7452601221
 40
0.06
100
AcDbArc
 50
180.0
 51
262.0
  0
ARC
  5
268
100
AcDbEntity
  8
0
100
AcDbCircle
 62
7
  6
CONTINUOUS
 10
8.3334210802
 20
3.7452601221
 40
0.06
100
AcDbArc
 50
278.0
 51
360.0
  0
ARC
  5
269
100
AcDbEntity
  8
0
100
AcDbCircle
 62
7
  6
CONTINUOUS
 10
6.8065854563
 20
3.9088861486
 40
0.03
100
AcDbArc
 50
183.0000000001
 51
200.9507234271
  0
ARC
  5
26A
100
AcDbEntity
  8
0
100
AcDbCircle
 62
7
  6
CONTINUOUS
 10
6.2495099966
 20
3.5929578996
 40
0.0221932895
100
AcDbArc
 50
268.9150668356
 51
285.3340955572
  0
ARC
  5
26B
100
AcDbEntity
  8
0
100
AcDbCircle
 62
7
  6
CONTINUOUS
 10
6.3887571332
 20
3.631367675
 40
0.0221882135
100
AcDbArc
 50
269.0376075061
 51
285.3717096888
  0
ARC
  5
26C
100
AcDbEntity
  8
0
100
AcDbCircle
 62
7
  6
CONTINUOUS
 10
5.812235659
 20
3.4771040437
 40
0.0148256021
100
AcDbArc
 50
268.0336981189
 51
285.1152359036
  0
LINE
  5
26D
100
AcDbEntity
  8
0
100
AcDbLine
 62
7
  6
CONTINUOUS
 10
3.0017653831
 20
3.6091825915
 11
3.2767711713
 21
3.5707685888
  0
LINE
  5
26E
100
AcDbEntity
  8
0
100
AcDbLine
 62
7
  6
CONTINUOUS
 10
6.1807384928
 20
3.4608580513
 11
6.1784353517
 21
3.464052236
  0
LINE
  5
26F
100
AcDbEntity
  8
0
100
AcDbLine
 62
7
  6
CONTINUOUS
 10
6.1784353517
 20
3.464052236
 11
6.1760136486
 21
3.467410386
  0
LINE
  5
270
100
AcDbEntity
  8
0
100
AcDbLine
 62
7
  6
CONTINUOUS
 10
6.1760136486
 20
3.467410386
 11
6.171184257
 21
3.4741058026
  0
LINE
  5
271
100
AcDbEntity
  8
0
100
AcDbLine
 62
7
  6
CONTINUOUS
 10
6.1803734892
 20
3.4613642968
 11
6.1857284985
 21
3.453936043
  0
SPLINE
  5
272
100
AcDbEntity
  8
0
100
AcDbSpline
 62
7
  6
CONTINUOUS
 70
0
 71
3
 72
13
 73
9
 74
0
 42
0.0000001
 43
0.0000001
 44
0.0000000001
 40
0.0
 40
0.0
 40
0.0
 40
0.0
 40
0.1377845382
 40
0.2765796798
 40
0.4118843268
 40
0.5420724453
 40
0.7839453126
 40
1.0
 40
1.0
 40
1.0
 40
1.0
 10
6.2048663031
 20
3.4388861486
 30
0.0
 10
6.2038127706
 20
3.4392992115
 30
0.0
 10
6.2017420097
 20
3.4402429933
 30
0.0
 10
6.1987911039
 20
3.4419035114
 30
0.0
 10
6.1960284108
 20
3.4437509776
 30
0.0
 10
6.1927286523
 20
3.4462996676
 30
0.0
 10
6.1891872057
 20
3.4496027173
 30
0.0
 10
6.1867660593
 20
3.45249656
 30
0.0
 10
6.1857284985
 20
3.453936043
 30
0.0
  0
LINE
  5
273
100
AcDbEntity
  8
0
100
AcDbLine
 62
7
  6
CONTINUOUS
 10
6.1887212588
 20
3.4920327567
 11
6.18380096
 21
3.4973540793
  0
LINE
  5
274
100
AcDbEntity
  8
0
100
AcDbLine
 62
7
  6
CONTINUOUS
 10
6.1874787934
 20
3.4933765345
 11
6.1847127571
 21
3.4901028506
  0
LINE
  5
275
100
AcDbEntity
  8
0
100
AcDbLine
 62
7
  6
CONTINUOUS
 10
6.1847127571
 20
3.4901028506
 11
6.1827676373
 21
3.4878013284
  0
LINE
  5
276
100
AcDbEntity
  8
0
100
AcDbLine
 62
7
  6
CONTINUOUS
 10
6.1827676373
 20
3.4878013284
 11
6.171184257
 21
3.4741058026
  0
LINE
  5
277
100
AcDbEntity
  8
0
100
AcDbLine
 62
7
  6
CONTINUOUS
 10
6.1803734892
 20
3.4613642968
 11
6.189507181
 21
3.47204551
  0
SPLINE
  5
278
100
AcDbEntity
  8
0
100
AcDbSpline
 62
7
  6
CONTINUOUS
 70
0
 71
3
 72
28
 73
24
 74
0
 42
0.0000001
 43
0.0000001
 44
0.0000000001
 40
0.0
 40
0.0
 40
0.0
 40
0.0
 40
0.0003040141
 40
0.0012135623
 40
0.0027273094
 40
0.00484392
 40
0.0075620591
 40
0.0108803914
 40
0.0193119705
 40
0.030118108
 40
0.0432673808
 40
0.0587277745
 40
0.0764639705
 40
0.1185679966
 40
0.1691614748
 40
0.2277369482
 40
0.2937224038
 40
0.3664637751
 40
0.4452590547
 40
0.5293531974
 40
0.6179380686
 40
0.8051927318
 40
1.0
 40
1.0
 40
1.0
 40
1.0
 10
2.7718215799
 20
3.6399221958
 30
0.0
 10
2.7718449749
 20
3.6399198793
 30
0.0
 10
2.7719378767
 20
3.6399063442
 30
0.0
 10
2.7721472487
 20
3.6398811146
 30
0.0
 10
2.7724953743
 20
3.6398356181
 30
0.0
 10
2.7729823681
 20
3.6397736145
 30
0.0
 10
2.7736077148
 20
3.6396933105
 30
0.0
 10
2.7747174578
 20
3.6395511114
 30
0.0
 10
2.7764475459
 20
3.6393291779
 30
0.0
 10
2.7789316657
 20
3.6390103814
 30
0.0
 10
2.7819548495
 20
3.6386219714
 30
0.0
 10
2.785509501
 20
3.6381647572
 30
0.0
 10
2.7912848132
 20
3.6374209527
 30
0.0
 10
2.7997543761
 20
3.6363274532
 30
0.0
 10
2.8113553348
 20
3.6348240222
 30
0.0
 10
2.8247867281
 20
3.6330754982
 30
0.0
 10
2.8399151828
 20
3.6310958456
 30
0.0
 10
2.8565923728
 20
3.6289007466
 30
0.0
 10
2.8746559433
 20
3.6265078069
 30
0.0
 10
2.8939317273
 20
3.623936235
 30
0.0
 10
2.9215173792
 20
3.6202281995
 30
0.0
 10
2.9575802788
 20
3.6153209237
 30
0.0
 10
2.9868459505
 20
3.6112680909
 30
0.0
 10
3.0017653831
 20
3.6091825915
 30
0.0
  0
LINE
  5
279
100
AcDbEntity
  8
0
100
AcDbLine
 62
7
  6
CONTINUOUS
 10
4.0656989979
 20
3.4622871712
 11
4.2368288101
 21
3.4388861487
  0
SPLINE
  5
27A
100
AcDbEntity
  8
0
100
AcDbSpline
 62
7
  6
CONTINUOUS
 70
0
 71
3
 72
29
 73
25
 74
0
 42
0.0000001
 43
0.0000001
 44
0.0000000001
 40
0.0
 40
0.0
 40
0.0
 40
0.0
 40
0.0224486925
 40
0.0467423288
 40
0.0727849432
 40
0.1004776609
 40
0.1604022386
 40
0.225594457
 40
0.2598460738
 40
0.2950176967
 40
0.3675525816
 40
0.4420151112
 40
0.5171766033
 40
0.5917844985
 40
0.6645876773
 40
0.7343627916
 40
0.7999362141
 40
0.8602122091
 40
0.888050993
 40
0.9142008942
 40
0.9385597445
 40
0.9610345432
 40
0.9815373957
 40
1.0
 40
1.0
 40
1.0
 40
1.0
 10
6.3962085581
 20
3.6112242361
 30
0.0
 10
6.3991158294
 20
3.6119435099
 30
0.0
 10
6.4051885122
 20
3.6133640863
 30
0.0
 10
6.4146877542
 20
3.6153806316
 30
0.0
 10
6.4249083367
 20
3.6173601135
 30
0.0
 10
6.4398389423
 20
3.6200109498
 30
0.0
 10
6.4599848878
 20
3.6231497816
 30
0.0
 10
6.4810622868
 20
3.6259541394
 30
0.0
 10
6.4988968154
 20
3.6280694118
 30
0.0
 10
6.5177235777
 20
3.6301296309
 30
0.0
 10
6.541916307
 20
3.6324603356
 30
0.0
 10
6.571460311
 20
3.6348410705
 30
0.0
 10
6.6013124666
 20
3.636799547
 30
0.0
 10
6.630969028
 20
3.6383087344
 30
0.0
 10
6.6599267494
 20
3.6393483507
 30
0.0
 10
6.6876924141
 20
3.6399050083
 30
0.0
 10
6.7137923946
 20
3.6399718577
 30
0.0
 10
6.7342950307
 20
3.6396124762
 30
0.0
 10
6.7495296261
 20
3.6390579173
 30
0.0
 10
6.759969278
 20
3.6385318533
 30
0.0
 10
6.7696852496
 20
3.637887022
 30
0.0
 10
6.7786371173
 20
3.6371262868
 30
0.0
 10
6.7867879302
 20
3.6362519416
 30
0.0
 10
6.7919409996
 20
3.6355592032
 30
0.0
 10
6.7943759542
 20
3.6351876873
 30
0.0
  0
SPLINE
  5
27B
100
AcDbEntity
  8
0
100
AcDbSpline
 62
7
  6
CONTINUOUS
 70
0
 71
3
 72
9
 73
5
 74
0
 42
0.0000001
 43
0.0000001
 44
0.0000000001
 40
0.0
 40
0.0
 40
0.0
 40
0.0
 40
0.532685802
 40
1.0
 40
1.0
 40
1.0
 40
1.0
 10
6.7943759542
 20
3.6351876873
 30
0.0
 10
6.7964159192
 20
3.6348764374
 30
0.0
 10
6.8002371775
 20
3.6342351476
 30
0.0
 10
6.8040303954
 20
3.6334402269
 30
0.0
 10
6.8057908783
 20
3.6330183337
 30
0.0
  0
SPLINE
  5
27C
100
AcDbEntity
  8
0
100
AcDbSpline
 62
7
  6
CONTINUOUS
 70
0
 71
3
 72
32
 73
28
 74
0
 42
0.0000001
 43
0.0000001
 44
0.0000000001
 40
0.0
 40
0.0
 40
0.0
 40
0.0
 40
0.0802068276
 40
0.1487719699
 40
0.1787522365
 40
0.2059283046
 40
0.230390906
 40
0.2522692857
 40
0.271749127
 40
0.2890988739
 40
0.3047035441
 40
0.3190961125
 40
0.3329565341
 40
0.3470395877
 40
0.3620620553
 40
0.3786151055
 40
0.397140378
 40
0.417951158
 40
0.4412645867
 40
0.4672245296
 40
0.4959268022
 40
0.5274360655
 40
0.5990223691
 40
0.6821848397
 40
0.7768861266
 40
0.8829127473
 40
1.0
 40
1.0
 40
1.0
 40
1.0
 10
6.8057908783
 20
3.6330183337
 30
0.0
 10
6.8071576994
 20
3.6326907801
 30
0.0
 10
6.8096799922
 20
3.6320265734
 30
0.0
 10
6.8126559759
 20
3.6310378237
 30
0.0
 10
6.8146934838
 20
3.6301974713
 30
0.0
 10
6.8159843104
 20
3.6295794518
 30
0.0
 10
6.8171072587
 20
3.6289456164
 30
0.0
 10
6.8180622444
 20
3.6282958258
 30
0.0
 10
6.8188492377
 20
3.6276295667
 30
0.0
 10
6.8194678011
 20
3.6269455439
 30
0.0
 10
6.8199161973
 20
3.6262417423
 30
0.0
 10
6.8201899092
 20
3.6255167919
 30
0.0
 10
6.8202836826
 20
3.6247735879
 30
0.0
 10
6.8201962538
 20
3.6240189265
 30
0.0
 10
6.8199317958
 20
3.6232580638
 30
0.0
 10
6.8194954462
 20
3.6224917263
 30
0.0
 10
6.8188900365
 20
3.6217183936
 30
0.0
 10
6.8181165053
 20
3.6209366327
 30
0.0
 10
6.8171751118
 20
3.6201457802
 30
0.0
 10
6.8160663292
 20
3.6193455322
 30
0.0
 10
6.8147907744
 20
3.6185359553
 30
0.0
 10
6.8127814978
 20
3.6173955851
 30
0.0
 10
6.8098438541
 20
3.615966037
 30
0.0
 10
6.8058070744
 20
3.6142848268
 30
0.0
 10
6.8011329171
 20
3.6125776719
 30
0.0
 10
6.7958376073
 20
3.6108496243
 30
0.0
 10
6.7920875269
 20
3.6097418082
 30
0.0
 10
6.7901134003
 20
3.6091825915
 30
0.0
  0
LINE
  5
27D
100
AcDbEntity
  8
0
100
AcDbLine
 62
7
  6
CONTINUOUS
 10
3.50178566
 20
3.5375085201
 11
3.5119696549
 21
3.5359038577
  0
LINE
  5
27E
100
AcDbEntity
  8
0
100
AcDbLine
 62
7
  6
CONTINUOUS
 10
6.2490897772
 20
3.5707685888
 11
6.2551407831
 21
3.5724359886
  0
LINE
  5
27F
100
AcDbEntity
  8
0
100
AcDbLine
 62
7
  6
CONTINUOUS
 10
6.2551407831
 20
3.5724359886
 11
6.2626534843
 21
3.5745063547
  0
LINE
  5
280
100
AcDbEntity
  8
0
100
AcDbLine
 62
7
  6
CONTINUOUS
 10
6.2626534843
 20
3.5745063547
 11
6.3883844572
 21
3.6091825915
  0
SPLINE
  5
281
100
AcDbEntity
  8
0
100
AcDbSpline
 62
7
  6
CONTINUOUS
 70
0
 71
3
 72
52
 73
48
 74
0
 42
0.0000001
 43
0.0000001
 44
0.0000000001
 40
0.0
 40
0.0
 40
0.0
 40
0.0
 40
0.026192913
 40
0.0560359828
 40
0.0892545813
 40
0.1255645951
 40
0.1646604298
 40
0.2061937581
 40
0.249795565
 40
0.2950752197
 40
0.3890161247
 40
0.4845866591
 40
0.5318769214
 40
0.5782447931
 40
0.6232539194
 40
0.6664821327
 40
0.7075233359
 40
0.7459990964
 40
0.7815553455
 40
0.813877882
 40
0.8426877548
 40
0.8557031014
 40
0.8677569649
 40
0.8788311067
 40
0.8889105288
 40
0.8979834188
 40
0.9060467684
 40
0.9131086636
 40
0.9191889215
 40
0.9243287771
 40
0.928611203
 40
0.930477819
 40
0.9321950981
 40
0.9337995135
 40
0.9353359417
 40
0.9368556113
 40
0.9384112585
 40
0.9418092796
 40
0.9437360324
 40
0.9458478414
 40
0.9506946966
 40
0.9564535933
 40
0.9631754134
 40
0.970886575
 40
0.9795992298
 40
0.9893090013
 40
1.0
 40
1.0
 40
1.0
 40
1.0
 10
6.654402292
 20
3.5707685888
 30
0.0
 10
6.650415126
 20
3.5696409376
 30
0.0
 10
6.6418323295
 20
3.5674146424
 30
0.0
 10
6.6280627279
 20
3.5642841872
 30
0.0
 10
6.612652461
 20
3.5611722602
 30
0.0
 10
6.595742985
 20
3.5581091312
 30
0.0
 10
6.5774852154
 20
3.5551259276
 30
0.0
 10
6.5580429813
 20
3.5522535391
 30
0.0
 10
6.5375929506
 20
3.5495233503
 30
0.0
 10
6.5088776309
 20
3.5460712991
 30
0.0
 10
6.471919587
 20
3.5423345393
 30
0.0
 10
6.4345649506
 20
3.5394652678
 30
0.0
 10
6.4046789082
 20
3.5377440367
 30
0.0
 10
6.3827632145
 20
3.5367765421
 30
0.0
 10
6.3614782163
 20
3.5361405847
 30
0.0
 10
6.3410283921
 20
3.5358444739
 30
0.0
 10
6.3216098736
 20
3.5358925823
 30
0.0
 10
6.3034089413
 20
3.5362824611
 30
0.0
 10
6.2865983896
 20
3.5370088613
 30
0.0
 10
6.2713371353
 20
3.5380593407
 30
0.0
 10
6.2596629076
 20
3.5392273757
 30
0.0
 10
6.2512112679
 20
3.5403353513
 30
0.0
 10
6.2455601921
 20
3.5412092627
 30
0.0
 10
6.2403913059
 20
3.5421508248
 30
0.0
 10
6.2357156799
 20
3.5431567211
 30
0.0
 10
6.2315433498
 20
3.5442238579
 30
0.0
 10
6.2278824502
 20
3.5453488073
 30
0.0
 10
6.2247390677
 20
3.5465274181
 30
0.0
 10
6.2221164449
 20
3.5477568847
 30
0.0
 10
6.2200173373
 20
3.5490355623
 30
0.0
 10
6.21864281
 20
3.5501951765
 30
0.0
 10
6.2178452453
 20
3.5511545171
 30
0.0
 10
6.2174098953
 20
3.5518538394
 30
0.0
 10
6.2171113134
 20
3.5525660396
 30
0.0
 10
6.2169520788
 20
3.5532903225
 30
0.0
 10
6.2169338269
 20
3.5540241497
 30
0.0
 10
6.2171011683
 20
3.5550398917
 30
0.0
 10
6.2175640815
 20
3.556046938
 30
0.0
 10
6.2182435119
 20
3.557008223
 30
0.0
 10
6.2191735354
 20
3.5580657916
 30
0.0
 10
6.2207020455
 20
3.559386505
 30
0.0
 10
6.2229790855
 20
3.560919682
 30
0.0
 10
6.2257766989
 20
3.562467808
 30
0.0
 10
6.2290912524
 20
3.5640280486
 30
0.0
 10
6.2329179486
 20
3.5655963695
 30
0.0
 10
6.2372476987
 20
3.5671690954
 30
0.0
 10
6.2403163205
 20
3.568170366
 30
0.0
 10
6.2419309207
 20
3.5686737511
 30
0.0
  0
LINE
  5
282
100
AcDbEntity
  8
0
100
AcDbLine
 62
7
  6
CONTINUOUS
 10
6.7901134003
 20
3.6091825915
 11
6.654402292
 21
3.5707685888
  0
SPLINE
  5
283
100
AcDbEntity
  8
0
100
AcDbSpline
 62
7
  6
CONTINUOUS
 70
0
 71
3
 72
13
 73
9
 74
0
 42
0.0000001
 43
0.0000001
 44
0.0000000001
 40
0.0
 40
0.0
 40
0.0
 40
0.0
 40
0.091450612
 40
0.1925419795
 40
0.3033345777
 40
0.4238037461
 40
0.6933082933
 40
1.0
 40
1.0
 40
1.0
 40
1.0
 10
6.3103451473
 20
3.4913176299
 30
0.0
 10
6.3095850558
 20
3.4908888413
 30
0.0
 10
6.3079596778
 20
3.490030216
 30
0.0
 10
6.3053446322
 20
3.4887875285
 30
0.0
 10
6.3024336234
 20
3.4875271464
 30
0.0
 10
6.297993865
 20
3.4857579839
 30
0.0
 10
6.2917263505
 20
3.4835338221
 30
0.0
 10
6.2864798254
 20
3.4818850451
 30
0.0
 10
6.2836760286
 20
3.4810458135
 30
0.0
  0
SPLINE
  5
284
100
AcDbEntity
  8
0
100
AcDbSpline
 62
7
  6
CONTINUOUS
 70
0
 71
3
 72
27
 73
23
 74
0
 42
0.0000001
 43
0.0000001
 44
0.0000000001
 40
0.0
 40
0.0
 40
0.0
 40
0.0
 40
0.0675928403
 40
0.1385561512
 40
0.2120161014
 40
0.2870639821
 40
0.3627794732
 40
0.4382437076
 40
0.5125529275
 40
0.5848298561
 40
0.6542328395
 40
0.7199645486
 40
0.7812798742
 40
0.8374908245
 40
0.8634849139
 40
0.8879735429
 40
0.9108911466
 40
0.9321752144
 40
0.9517716689
 40
0.9696330045
 40
0.9857178763
 40
1.0
 40
1.0
 40
1.0
 40
1.0
 10
4.635763913
 20
3.5094781408
 30
0.0
 10
4.6256055151
 20
3.5094781515
 30
0.0
 10
4.6047816216
 20
3.5097365013
 30
0.0
 10
4.5729342881
 20
3.5108127823
 30
0.0
 10
4.5399949994
 20
3.5125643184
 30
0.0
 10
4.5063799328
 20
3.5149515759
 30
0.0
 10
4.4725091745
 20
3.5179223375
 30
0.0
 10
4.438799964
 20
3.5214148461
 30
0.0
 10
4.4056612594
 20
3.5253607899
 30
0.0
 10
4.3734891061
 20
3.5296880241
 30
0.0
 10
4.3426628065
 20
3.5343229475
 30
0.0
 10
4.313541506
 20
3.53919217
 30
0.0
 10
4.2864620399
 20
3.5442243315
 30
0.0
 10
4.2653393959
 20
3.5486020002
 30
0.0
 10
4.2497031039
 20
3.5521565181
 30
0.0
 10
4.2389813878
 20
3.5547528953
 30
0.0
 10
4.228987452
 20
3.5573418394
 30
0.0
 10
4.2197507496
 20
3.5599161336
 30
0.0
 10
4.2112986999
 20
3.5624683296
 30
0.0
 10
4.2036563684
 20
3.5649910507
 30
0.0
 10
4.1968467969
 20
3.567477727
 30
0.0
 10
4.1926225248
 20
3.5692100342
 30
0.0
 10
4.1906592887
 20
3.5700777198
 30
0.0
  0
SPLINE
  5
285
100
AcDbEntity
  8
0
100
AcDbSpline
 62
7
  6
CONTINUOUS
 70
0
 71
3
 72
20
 73
16
 74
0
 42
0.0000001
 43
0.0000001
 44
0.0000000001
 40
0.0
 40
0.0
 40
0.0
 40
0.0
 40
0.0281418227
 40
0.0609527774
 40
0.0985789784
 40
0.1410770886
 40
0.1884467707
 40
0.2406429171
 40
0.2975896554
 40
0.3591829401
 40
0.4252952204
 40
0.4957791769
 40
0.6491725286
 40
0.8178358314
 40
1.0
 40
1.0
 40
1.0
 40
1.0
 10
4.7832733197
 20
3.5281527784
 30
0.0
 10
4.7820903047
 20
3.5273946487
 30
0.0
 10
4.7794127805
 20
3.5259317542
 30
0.0
 10
4.7748874733
 20
3.523984778
 30
0.0
 10
4.769559018
 20
3.5221281374
 30
0.0
 10
4.7634384242
 20
3.5203698643
 30
0.0
 10
4.7565383715
 20
3.5187178483
 30
0.0
 10
4.7488752202
 20
3.5171797663
 30
0.0
 10
4.7404678645
 20
3.5157631991
 30
0.0
 10
4.731337819
 20
3.5144751892
 30
0.0
 10
4.7215090136
 20
3.5133221414
 30
0.0
 10
4.7070959888
 20
3.5119337954
 30
0.0
 10
4.6875373972
 20
3.5106094504
 30
0.0
 10
4.6623766564
 20
3.5096725128
 30
0.0
 10
4.6448591841
 20
3.5094781538
 30
0.0
 10
4.635763913
 20
3.5094781408
 30
0.0
  0
LINE
  5
286
100
AcDbEntity
  8
0
100
AcDbLine
 62
7
  6
CONTINUOUS
 10
4.3106586646
 20
3.5758250811
 11
4.3127167566
 21
3.575824086
  0
SPLINE
  5
287
100
AcDbEntity
  8
0
100
AcDbSpline
 62
7
  6
CONTINUOUS
 70
0
 71
3
 72
27
 73
23
 74
0
 42
0.0000001
 43
0.0000001
 44
0.0000000001
 40
0.0
 40
0.0
 40
0.0
 40
0.0
 40
0.0661121207
 40
0.1353587414
 40
0.2069210896
 40
0.28003767
 40
0.3539078429
 40
0.4277155875
 40
0.50065748
 40
0.5719461099
 40
0.6408141556
 40
0.7065318347
 40
0.7684066699
 40
0.825798746
 40
0.8526303295
 40
0.878128673
 40
0.9022302178
 40
0.9248797159
 40
0.94602449
 40
0.9656175398
 40
0.9836205585
 40
1.0
 40
1.0
 40
1.0
 40
1.0
 10
4.3127167566
 20
3.575824086
 30
0.0
 10
4.3233134217
 20
3.5758139033
 30
0.0
 10
4.345009216
 20
3.5756351363
 30
0.0
 10
4.3781686914
 20
3.5749394909
 30
0.0
 10
4.4124396387
 20
3.5738121485
 30
0.0
 10
4.4474358199
 20
3.5722616962
 30
0.0
 10
4.4827718042
 20
3.5702995581
 30
0.0
 10
4.5180554059
 20
3.5679393812
 30
0.0
 10
4.5528965427
 20
3.5651990981
 30
0.0
 10
4.5869127223
 20
3.5620997102
 30
0.0
 10
4.6197327436
 20
3.5586645754
 30
0.0
 10
4.6510002322
 20
3.5549219326
 30
0.0
 10
4.6803778625
 20
3.5509015358
 30
0.0
 10
4.7035141577
 20
3.5472722964
 30
0.0
 10
4.7208365629
 20
3.5442329359
 30
0.0
 10
4.7328744068
 20
3.5419570709
 30
0.0
 10
4.7442206948
 20
3.5396381096
 30
0.0
 10
4.7548457212
 20
3.5372819439
 30
0.0
 10
4.7647217461
 20
3.5348939677
 30
0.0
 10
4.7738230664
 20
3.5324796652
 30
0.0
 10
4.7821260847
 20
3.5300457701
 30
0.0
 10
4.7873652438
 20
3.5283322432
 30
0.0
 10
4.7898438038
 20
3.5274666743
 30
0.0
  0
SPLINE
  5
288
100
AcDbEntity
  8
0
100
AcDbSpline
 62
7
  6
CONTINUOUS
 70
0
 71
3
 72
44
 73
40
 74
0
 42
0.0000001
 43
0.0000001
 44
0.0000000001
 40
0.0
 40
0.0
 40
0.0
 40
0.0
 40
0.0293948383
 40
0.0559227291
 40
0.0681115515
 40
0.0795863108
 40
0.0903516754
 40
0.1004145247
 40
0.1184719674
 40
0.1338994265
 40
0.1469425465
 40
0.1527054832
 40
0.1580570488
 40
0.1630963402
 40
0.1679426572
 40
0.1727301464
 40
0.1775980453
 40
0.1826791532
 40
0.1880901878
 40
0.1939274943
 40
0.2002675566
 40
0.207169681
 40
0.2146786588
 40
0.2316369221
 40
0.2513334309
 40
0.2738648827
 40
0.2862111842
 40
0.2992810392
 40
0.3275907424
 40
0.3587870537
 40
0.3928419176
 40
0.4297147768
 40
0.4693520277
 40
0.511691437
 40
0.5566600707
 40
0.654155933
 40
0.7611132435
 40
0.876706655
 40
1.0
 40
1.0
 40
1.0
 40
1.0
 10
4.7898438038
 20
3.5274666743
 30
0.0
 10
4.7918048101
 20
3.5267818468
 30
0.0
 10
4.7955154411
 20
3.5254200666
 30
0.0
 10
4.7999654993
 20
3.5235817507
 30
0.0
 10
4.8031893357
 20
3.5221022521
 30
0.0
 10
4.8053712137
 20
3.5210252438
 30
0.0
 10
4.8073852896
 20
3.5199498991
 30
0.0
 10
4.8097606305
 20
3.5185678914
 30
0.0
 10
4.8123275224
 20
3.516861437
 30
0.0
 10
4.8148545683
 20
3.5147461915
 30
0.0
 10
4.8164613052
 20
3.5129162932
 30
0.0
 10
4.8173571547
 20
3.5114585757
 30
0.0
 10
4.8178262354
 20
3.5104139096
 30
0.0
 10
4.8181185888
 20
3.5093730598
 30
0.0
 10
4.8182319673
 20
3.5083373666
 30
0.0
 10
4.8181649706
 20
3.5073095719
 30
0.0
 10
4.8179177902
 20
3.5062928898
 30
0.0
 10
4.8174920871
 20
3.5052897641
 30
0.0
 10
4.8168901711
 20
3.50430116
 30
0.0
 10
4.8161138168
 20
3.5033270363
 30
0.0
 10
4.8151640189
 20
3.5023671209
 30
0.0
 10
4.8140413379
 20
3.5014212076
 30
0.0
 10
4.8122402942
 20
3.5001259561
 30
0.0
 10
4.809531093
 20
3.4985620619
 30
0.0
 10
4.8057264752
 20
3.4968158935
 30
0.0
 10
4.80211375
 20
3.4954588215
 30
0.0
 10
4.7988961002
 20
3.4943968469
 30
0.0
 10
4.7952616775
 20
3.493298196
 30
0.0
 10
4.790302771
 20
3.4919841251
 30
0.0
 10
4.7838529475
 20
3.4905263557
 30
0.0
 10
4.7767672604
 20
3.4891535372
 30
0.0
 10
4.7690595896
 20
3.487870685
 30
0.0
 10
4.7607451005
 20
3.4866823306
 30
0.0
 10
4.7518405237
 20
3.4855929582
 30
0.0
 10
4.7388511613
 20
3.4842412899
 30
0.0
 10
4.721277966
 20
3.4828529766
 30
0.0
 10
4.6986908288
 20
3.4816754326
 30
0.0
 10
4.6742606719
 20
3.4809657879
 30
0.0
 10
4.6573795334
 20
3.4808170937
 30
0.0
 10
4.6486671789
 20
3.4808170836
 30
0.0
  0
SPLINE
  5
289
100
AcDbEntity
  8
0
100
AcDbSpline
 62
7
  6
CONTINUOUS
 70
0
 71
3
 72
50
 73
46
 74
0
 42
0.0000001
 43
0.0000001
 44
0.0000000001
 40
0.0
 40
0.0
 40
0.0
 40
0.0
 40
0.0427376936
 40
0.0871026399
 40
0.1796164456
 40
0.2272020052
 40
0.2752868525
 40
0.3717821292
 40
0.4667741439
 40
0.5579957924
 40
0.6015155982
 40
0.643298828
 40
0.683103551
 40
0.720700736
 40
0.7558750317
 40
0.7884265757
 40
0.81817213
 40
0.8449466211
 40
0.8686095861
 40
0.8792367363
 40
0.8890449369
 40
0.8980264569
 40
0.9061755776
 40
0.9134896257
 40
0.9199729146
 40
0.9256392406
 40
0.9305140037
 40
0.934642612
 40
0.936452673
 40
0.9381120623
 40
0.9410597797
 40
0.9424147081
 40
0.9437367789
 40
0.9450669866
 40
0.9464457225
 40
0.9494818163
 40
0.9512006627
 40
0.9530775763
 40
0.9573558508
 40
0.9623962775
 40
0.9682427841
 40
0.9749193052
 40
0.982436033
 40
0.9907964569
 40
1.0
 40
1.0
 40
1.0
 40
1.0
 10
4.6486671789
 20
3.4808170836
 30
0.0
 10
4.6408400016
 20
3.4808170904
 30
0.0
 10
4.6248873947
 20
3.4809434865
 30
0.0
 10
4.5919989036
 20
3.481673088
 30
0.0
 10
4.5582411054
 20
3.4830972679
 30
0.0
 10
4.5238363867
 20
3.4851413265
 30
0.0
 10
4.4887288318
 20
3.4876173159
 30
0.0
 10
4.445012148
 20
3.4913961006
 30
0.0
 10
4.3935232164
 20
3.4968757738
 30
0.0
 10
4.351776926
 20
3.5021454533
 30
0.0
 10
4.3197688209
 20
3.5066967116
 30
0.0
 10
4.2971201775
 20
3.510169258
 30
0.0
 10
4.2755837114
 20
3.5137288171
 30
0.0
 10
4.2552859484
 20
3.5173505448
 30
0.0
 10
4.2363461736
 20
3.5210101395
 30
0.0
 10
4.2188760361
 20
3.5246840769
 30
0.0
 10
4.2029788116
 20
3.5283491836
 30
0.0
 10
4.1887491118
 20
3.5319838191
 30
0.0
 10
4.1779967489
 20
3.5350687386
 30
0.0
 10
4.1703038166
 20
3.5375295941
 30
0.0
 10
4.1652110465
 20
3.5392889465
 30
0.0
 10
4.1605925646
 20
3.5410262349
 30
0.0
 10
4.1564552632
 20
3.542739156
 30
0.0
 10
4.1528053111
 20
3.5444256291
 30
0.0
 10
4.1496476029
 20
3.5460836109
 30
0.0
 10
4.146984697
 20
3.547711296
 30
0.0
 10
4.1448189466
 20
3.5493076949
 30
0.0
 10
4.1433690543
 20
3.5506680937
 30
0.0
 10
4.142488106
 20
3.5517484861
 30
0.0
 10
4.1418420676
 20
3.5527311954
 30
0.0
 10
4.1414050439
 20
3.5537513312
 30
0.0
 10
4.1412467794
 20
3.5547740265
 30
0.0
 10
4.1412635925
 20
3.5555117221
 30
0.0
 10
4.1414133622
 20
3.5562386255
 30
0.0
 10
4.1418010066
 20
3.5572216758
 30
0.0
 10
4.1424602445
 20
3.5581516508
 30
0.0
 10
4.143315799
 20
3.5590145748
 30
0.0
 10
4.1444260905
 20
3.5599383895
 30
0.0
 10
4.1461580695
 20
3.5610488264
 30
0.0
 10
4.148651119
 20
3.5622811756
 30
0.0
 10
4.1516443533
 20
3.5634667461
 30
0.0
 10
4.1551354406
 20
3.5646048013
 30
0.0
 10
4.159121
 20
3.5656945722
 30
0.0
 10
4.1635960117
 20
3.5667345975
 30
0.0
 10
4.1667511575
 20
3.5673637369
 30
0.0
 10
4.168408204
 20
3.5676725632
 30
0.0
  0
SPLINE
  5
28A
100
AcDbEntity
  8
0
100
AcDbSpline
 62
7
  6
CONTINUOUS
 70
0
 71
3
 72
18
 73
14
 74
0
 42
0.0000001
 43
0.0000001
 44
0.0000000001
 40
0.0
 40
0.0
 40
0.0
 40
0.0
 40
0.0398000188
 40
0.082971501
 40
0.1294633783
 40
0.1792205419
 40
0.288270947
 40
0.4094799259
 40
0.4744208058
 40
0.5421231045
 40
0.6853806821
 40
0.8383665287
 40
1.0
 40
1.0
 40
1.0
 40
1.0
 10
4.168408204
 20
3.5676725632
 30
0.0
 10
4.1702685075
 20
3.5680192707
 30
0.0
 10
4.1741570014
 20
3.5686873288
 30
0.0
 10
4.1802460661
 20
3.5695918645
 30
0.0
 10
4.1868210112
 20
3.5704388538
 30
0.0
 10
4.1965221683
 20
3.5715231337
 30
0.0
 10
4.2097851728
 20
3.5727032725
 30
0.0
 10
4.2237912678
 20
3.5736278065
 30
0.0
 10
4.2358447192
 20
3.5742559744
 30
0.0
 10
4.2489505477
 20
3.5748245155
 30
0.0
 10
4.2662470359
 20
3.5753644128
 30
0.0
 10
4.2880145206
 20
3.5757449211
 30
0.0
 10
4.3029736225
 20
3.5758250642
 30
0.0
 10
4.3106586646
 20
3.5758250811
 30
0.0
  0
LINE
  5
28B
100
AcDbEntity
  8
0
100
AcDbLine
 62
7
  6
CONTINUOUS
 10
6.3028372754
 20
3.4622871712
 11
6.2184074868
 21
3.4388861492
  0
SPLINE
  5
28C
100
AcDbEntity
  8
0
100
AcDbSpline
 62
7
  6
CONTINUOUS
 70
0
 71
3
 72
31
 73
27
 74
0
 42
0.0000001
 43
0.0000001
 44
0.0000000001
 40
0.0
 40
0.0
 40
0.0
 40
0.0
 40
0.0228944335
 40
0.0477432924
 40
0.0744420921
 40
0.1028818654
 40
0.1329513413
 40
0.1645276896
 40
0.2316462096
 40
0.2669001661
 40
0.3030786504
 40
0.3775723635
 40
0.4538029602
 40
0.5304021385
 40
0.6059841296
 40
0.6791734068
 40
0.7486373942
 40
0.813114139
 40
0.8431129259
 40
0.8714398843
 40
0.8979672675
 40
0.9225799284
 40
0.9451764682
 40
0.965660248
 40
0.9839552818
 40
1.0
 40
1.0
 40
1.0
 40
1.0
 10
5.8212170718
 20
3.4647105551
 30
0.0
 10
5.8249207833
 20
3.4656046723
 30
0.0
 10
5.8326702932
 20
3.4673626847
 30
0.0
 10
5.8448103006
 20
3.4698364426
 30
0.0
 10
5.8579025023
 20
3.4722470115
 30
0.0
 10
5.8718890295
 20
3.4745870208
 30
0.0
 10
5.8867101142
 20
3.4768482179
 30
0.0
 10
5.9079341878
 20
3.4798083938
 30
0.0
 10
5.9300648185
 20
3.4825012111
 30
0.0
 10
5.9529911152
 20
3.484961574
 30
0.0
 10
5.9771602578
 20
3.4873354831
 30
0.0
 10
6.0081534756
 20
3.4899813966
 30
0.0
 10
6.0458935522
 20
3.4926264071
 30
0.0
 10
6.0838485036
 20
3.4947396643
 30
0.0
 10
6.1213237126
 20
3.4962970955
 30
0.0
 10
6.1576305968
 20
3.4972817487
 30
0.0
 10
6.1921003997
 20
3.497683458
 30
0.0
 10
6.2193847608
 20
3.497528298
 30
0.0
 10
6.2398172313
 20
3.4970859134
 30
0.0
 10
6.2539310746
 20
3.4966153109
 30
0.0
 10
6.2671421263
 20
3.4959994941
 30
0.0
 10
6.2793904795
 20
3.4952402996
 30
0.0
 10
6.2906207472
 20
3.4943409761
 30
0.0
 10
6.3007831573
 20
3.4933040033
 30
0.0
 10
6.3098327081
 20
3.4921335147
 30
0.0
 10
6.3154737661
 20
3.4912063821
 30
0.0
 10
6.3180970827
 20
3.4907083486
 30
0.0
  0
SPLINE
  5
28D
100
AcDbEntity
  8
0
100
AcDbSpline
 62
7
  6
CONTINUOUS
 70
0
 71
3
 72
10
 73
6
 74
0
 42
0.0000001
 43
0.0000001
 44
0.0000000001
 40
0.0
 40
0.0
 40
0.0
 40
0.0
 40
0.5413314144
 40
0.7809869919
 40
1.0
 40
1.0
 40
1.0
 40
1.0
 10
6.3180970827
 20
3.4907083486
 30
0.0
 10
6.3201716394
 20
3.4903144965
 30
0.0
 10
6.3231548663
 20
3.489688213
 30
0.0
 10
6.3269330399
 20
3.488715896
 30
0.0
 10
6.3286497453
 20
3.4882099639
 30
0.0
 10
6.3294637239
 20
3.4879505372
 30
0.0
  0
SPLINE
  5
28E
100
AcDbEntity
  8
0
100
AcDbSpline
 62
7
  6
CONTINUOUS
 70
0
 71
3
 72
32
 73
28
 74
0
 42
0.0000001
 43
0.0000001
 44
0.0000000001
 40
0.0
 40
0.0
 40
0.0
 40
0.0
 40
0.0644861306
 40
0.0926959294
 40
0.1182880876
 40
0.1413577254
 40
0.1620380369
 40
0.1805171764
 40
0.1970621855
 40
0.2120478824
 40
0.2259798614
 40
0.2394871272
 40
0.2532582579
 40
0.2679404539
 40
0.2840670631
 40
0.3020392448
 40
0.3221443726
 40
0.3445847953
 40
0.3695025756
 40
0.3969938334
 40
0.4271234461
 40
0.4954512079
 40
0.5747073421
 40
0.6649525864
 40
0.7660641034
 40
0.8778274837
 40
1.0
 40
1.0
 40
1.0
 40
1.0
 10
6.3294637239
 20
3.4879505372
 30
0.0
 10
6.3306046749
 20
3.4875868997
 30
0.0
 10
6.3322309136
 20
3.4870148697
 30
0.0
 10
6.3342452922
 20
3.486136758
 30
0.0
 10
6.3355200516
 20
3.4854922155
 30
0.0
 10
6.3366272258
 20
3.4848322915
 30
0.0
 10
6.3375668854
 20
3.4841566696
 30
0.0
 10
6.3383390568
 20
3.4834646536
 30
0.0
 10
6.3389432788
 20
3.4827548362
 30
0.0
 10
6.3393776829
 20
3.482025321
 30
0.0
 10
6.3396380914
 20
3.4812751892
 30
0.0
 10
6.3397193554
 20
3.4805072765
 30
0.0
 10
6.339620807
 20
3.4797278441
 30
0.0
 10
6.3393465639
 20
3.4789413039
 30
0.0
 10
6.3389013233
 20
3.4781481132
 30
0.0
 10
6.3382877729
 20
3.4773468127
 30
0.0
 10
6.3375069175
 20
3.476535983
 30
0.0
 10
6.3365590228
 20
3.4757147878
 30
0.0
 10
6.335444213
 20
3.4748829901
 30
0.0
 10
6.3341629382
 20
3.4740404531
 30
0.0
 10
6.3321472743
 20
3.4728526714
 30
0.0
 10
6.3292010919
 20
3.4713589292
 30
0.0
 10
6.3251509643
 20
3.4695937894
 30
0.0
 10
6.32045808
 20
3.467792818
 30
0.0
 10
6.3151352107
 20
3.4659594266
 30
0.0
 10
6.3091976138
 20
3.4640983548
 30
0.0
 10
6.3050230368
 20
3.4628950887
 30
0.0
 10
6.3028372754
 20
3.4622871712
 30
0.0
  0
SPLINE
  5
28F
100
AcDbEntity
  8
0
100
AcDbSpline
 62
7
  6
CONTINUOUS
 70
0
 71
3
 72
9
 73
5
 74
0
 42
0.0000001
 43
0.0000001
 44
0.0000000001
 40
0.0
 40
0.0
 40
0.0
 40
0.0
 40
0.2551333739
 40
1.0
 40
1.0
 40
1.0
 40
1.0
 10
6.6850577074
 20
3.8981588304
 30
0.0
 10
6.6835093077
 20
3.8988951079
 30
0.0
 10
6.6774629159
 20
3.9018284591
 30
0.0
 10
6.6715007545
 20
3.9049336428
 30
0.0
 10
6.6670984397
 20
3.9073160699
 30
0.0
  0
LINE
  5
290
100
AcDbEntity
  8
0
100
AcDbLine
 62
7
  6
CONTINUOUS
 10
4.314322285
 20
3.8981588304
 11
4.2894073167
 21
3.9073160699
  0
LINE
  5
291
100
AcDbEntity
  8
0
100
AcDbLine
 62
7
  6
CONTINUOUS
 10
3.7845267112
 20
3.4975957713
 11
3.7882230293
 21
3.4971674934
  0
LINE
  5
292
100
AcDbEntity
  8
0
100
AcDbLine
 62
7
  6
CONTINUOUS
 10
3.7882230293
 20
3.4971674934
 11
3.7930923666
 21
3.4966020423
  0
LINE
  5
293
100
AcDbEntity
  8
0
100
AcDbLine
 62
7
  6
CONTINUOUS
 10
6.8829288828
 20
3.4808170836
 11
6.8881995901
 21
3.4817248165
  0
LINE
  5
294
100
AcDbEntity
  8
0
100
AcDbLine
 62
7
  6
CONTINUOUS
 10
6.8881995901
 20
3.4817248165
 11
6.8925821911
 21
3.4824765965
  0
SPLINE
  5
295
100
AcDbEntity
  8
0
100
AcDbSpline
 62
7
  6
CONTINUOUS
 70
0
 71
3
 72
14
 73
10
 74
0
 42
0.0000001
 43
0.0000001
 44
0.0000000001
 40
0.0
 40
0.0
 40
0.0
 40
0.0
 40
0.067530497
 40
0.1821634295
 40
0.3310569318
 40
0.4981446451
 40
0.6656170034
 40
0.8154171455
 40
1.0
 40
1.0
 40
1.0
 40
1.0
 10
6.8925821911
 20
3.4824765965
 30
0.0
 10
6.9072783236
 20
3.4849930553
 30
0.0
 10
6.946941515
 20
3.4916624538
 30
0.0
 10
7.0191106368
 20
3.5032585167
 30
0.0
 10
7.1131145419
 20
3.5174993746
 30
0.0
 10
7.2187919401
 20
3.5325431161
 30
0.0
 10
7.3247827898
 20
3.5467790474
 30
0.0
 10
7.4346932378
 20
3.5608298138
 30
0.0
 10
7.5079798465
 20
3.5697610319
 30
0.0
 10
7.548448122
 20
3.5745780769
 30
0.0
  0
LINE
  5
296
100
AcDbEntity
  8
0
100
AcDbLine
 62
7
  6
CONTINUOUS
 10
7.548448122
 20
3.5745780769
 11
7.5588352946
 21
3.5758119691
  0
LINE
  5
297
100
AcDbEntity
  8
0
100
AcDbLine
 62
7
  6
CONTINUOUS
 10
4.2888738661
 20
3.8981642594
 11
4.2894073167
 21
3.9073160699
  0
LINE
  5
298
100
AcDbEntity
  8
0
100
AcDbLine
 62
7
  6
CONTINUOUS
 10
5.2237574841
 20
3.9073160699
 11
5.2239468335
 21
3.8981642591
  0
LINE
  5
299
100
AcDbEntity
  8
0
100
AcDbLine
 62
7
  6
CONTINUOUS
 10
6.667442541
 20
3.8981642594
 11
6.6670984397
 21
3.9073160699
  0
LINE
  5
29A
100
AcDbEntity
  8
0
100
AcDbLine
 62
7
  6
CONTINUOUS
 10
5.7250269466
 20
3.438886149
 11
5.7274419452
 21
3.4395354417
  0
LINE
  5
29B
100
AcDbEntity
  8
0
100
AcDbLine
 62
7
  6
CONTINUOUS
 10
5.7274419452
 20
3.4395354417
 11
5.8117269673
 21
3.4622871712
  0
LINE
  5
29C
100
AcDbEntity
  8
0
100
AcDbLine
 62
7
  6
CONTINUOUS
 10
5.2237574841
 20
3.9073160699
 11
5.1808823689
 21
3.898158606
  0
LINE
  5
29D
100
AcDbEntity
  8
0
100
AcDbLine
 62
7
  6
CONTINUOUS
 10
6.7617413769
 20
3.6373205549
 11
6.6259848528
 21
3.5989065522
  0
SPLINE
  5
29E
100
AcDbEntity
  8
0
100
AcDbSpline
 62
7
  6
CONTINUOUS
 70
0
 71
3
 72
16
 73
12
 74
0
 42
0.0000001
 43
0.0000001
 44
0.0000000001
 40
0.0
 40
0.0
 40
0.0
 40
0.0
 40
0.1151469226
 40
0.1738754744
 40
0.2333440834
 40
0.3545925256
 40
0.4793101447
 40
0.6071067792
 40
0.73720663
 40
0.8687011707
 40
1.0
 40
1.0
 40
1.0
 40
1.0
 10
6.7901134003
 20
3.6091825915
 30
0.0
 10
6.7884394384
 20
3.6091550148
 30
0.0
 10
6.7858975152
 20
3.6093972757
 30
0.0
 10
6.7826068746
 20
3.6102396031
 30
0.0
 10
6.7793356876
 20
3.6114478233
 30
0.0
 10
6.7754215292
 20
3.6136097459
 30
0.0
 10
6.7712205041
 20
3.6171034348
 30
0.0
 10
6.7676196486
 20
3.6213807333
 30
0.0
 10
6.7647506992
 20
3.6262932045
 30
0.0
 10
6.7627187724
 20
3.6316583661
 30
0.0
 10
6.7619603596
 20
3.635424125
 30
0.0
 10
6.7617413769
 20
3.6373205549
 30
0.0
  0
SPLINE
  5
29F
100
AcDbEntity
  8
0
100
AcDbSpline
 62
7
  6
CONTINUOUS
 70
0
 71
3
 72
16
 73
12
 74
0
 42
0.0000001
 43
0.0000001
 44
0.0000000001
 40
0.0
 40
0.0
 40
0.0
 40
0.0
 40
0.1151394514
 40
0.1738621726
 40
0.2333242323
 40
0.3545599559
 40
0.47927
 40
0.6070666085
 40
0.7371742995
 40
0.8686834063
 40
1.0
 40
1.0
 40
1.0
 40
1.0
 10
6.654402292
 20
3.5707685888
 30
0.0
 10
6.6527266894
 20
3.5707374318
 30
0.0
 10
6.6501816602
 20
3.57097498
 30
0.0
 10
6.6468863053
 20
3.5718125886
 30
0.0
 10
6.6436100798
 20
3.5730170501
 30
0.0
 10
6.6396892374
 20
3.575176278
 30
0.0
 10
6.6354805656
 20
3.5786697012
 30
0.0
 10
6.6318729368
 20
3.5829493199
 30
0.0
 10
6.6289986411
 20
3.5878662645
 30
0.0
 10
6.6269632341
 20
3.5932374418
 30
0.0
 10
6.6262039064
 20
3.5970077904
 30
0.0
 10
6.6259848529
 20
3.5989065522
 30
0.0
  0
SPLINE
  5
2A0
100
AcDbEntity
  8
0
100
AcDbSpline
 62
7
  6
CONTINUOUS
 70
0
 71
3
 72
30
 73
26
 74
0
 42
0.0000001
 43
0.0000001
 44
0.0000000001
 40
0.0
 40
0.0
 40
0.0
 40
0.0
 40
0.0206992676
 40
0.043484234
 40
0.0682499041
 40
0.0948882252
 40
0.1232888385
 40
0.1533390213
 40
0.2178672717
 40
0.2873561624
 40
0.3605850349
 40
0.4362439098
 40
0.512952518
 40
0.5892855082
 40
0.6638018083
 40
0.7350818635
 40
0.8017692787
 40
0.8329960233
 40
0.8626146147
 40
0.8904928921
 40
0.9165098839
 40
0.9405538864
 40
0.9625340987
 40
0.9823687816
 40
1.0
 40
1.0
 40
1.0
 40
1.0
 10
6.6259848528
 20
3.5989065522
 30
0.0
 10
6.6235875972
 20
3.5981276446
 30
0.0
 10
6.6185232858
 20
3.5965777879
 30
0.0
 10
6.6105139592
 20
3.5943561363
 30
0.0
 10
6.6017562528
 20
3.5921352971
 30
0.0
 10
6.5922918265
 20
3.5899272328
 30
0.0
 10
6.5821628671
 20
3.5877418463
 30
0.0
 10
6.5674781385
 20
3.5848023845
 30
0.0
 10
6.5478088747
 20
3.5812845414
 30
0.0
 10
6.5228685327
 20
3.5774136508
 30
0.0
 10
6.4965091882
 20
3.5738860597
 30
0.0
 10
6.4692113859
 20
3.5707846546
 30
0.0
 10
6.4414813496
 20
3.5681864918
 30
0.0
 10
6.4138431336
 20
3.5661590613
 30
0.0
 10
6.3868277575
 20
3.5647570153
 30
0.0
 10
6.3609609476
 20
3.5640188163
 30
0.0
 10
6.3403544943
 20
3.5639708316
 30
0.0
 10
6.324827278
 20
3.5643007753
 30
0.0
 10
6.3140304335
 20
3.5647146206
 30
0.0
 10
6.3038766593
 20
3.5652967063
 30
0.0
 10
6.2944142067
 20
3.5660421194
 30
0.0
 10
6.2856872153
 20
3.5669462893
 30
0.0
 10
6.2777356559
 20
3.5680012123
 30
0.0
 10
6.2705951146
 20
3.5692000171
 30
0.0
 10
6.2661295576
 20
3.5701452506
 30
0.0
 10
6.2640427004
 20
3.5706499262
 30
0.0
  0
LINE
  5
2A1
100
AcDbEntity
  8
0
100
AcDbLine
 62
7
  6
CONTINUOUS
 10
6.2640427004
 20
3.5706499262
 11
6.2580665212
 21
3.5723051399
  0
SPLINE
  5
2A2
100
AcDbEntity
  8
0
100
AcDbSpline
 62
7
  6
CONTINUOUS
 70
0
 71
3
 72
15
 73
11
 74
0
 42
0.0000001
 43
0.0000001
 44
0.0000000001
 40
0.0
 40
0.0
 40
0.0
 40
0.0
 40
0.11498228
 40
0.2330273808
 40
0.3542650575
 40
0.4788705807
 40
0.6066311948
 40
0.7369027954
 40
0.8686648842
 40
1.0
 40
1.0
 40
1.0
 40
1.0
 10
6.3028372754
 20
3.4622871712
 30
0.0
 10
6.3017135799
 20
3.4622486021
 30
0.0
 10
6.2994209331
 20
3.4624306911
 30
0.0
 10
6.2960784767
 20
3.4634276229
 30
0.0
 10
6.2929268037
 20
3.4651298915
 30
0.0
 10
6.2900817629
 20
3.4674547085
 30
0.0
 10
6.2876470995
 20
3.4703213623
 30
0.0
 10
6.2857029381
 20
3.4736217251
 30
0.0
 10
6.2843334898
 20
3.4772343654
 30
0.0
 10
6.2838217321
 20
3.4797698416
 30
0.0
 10
6.2836760286
 20
3.4810458135
 30
0.0
  0
LINE
  5
2A3
100
AcDbEntity
  8
0
100
AcDbLine
 62
7
  6
CONTINUOUS
 10
6.171184257
 20
3.4741058026
 11
6.1896959932
 21
3.4739287736
  0
ENDSEC
  0
SECTION
  2
OBJECTS
  0
DICTIONARY
  5
C
100
AcDbDictionary
280
0
281
1
  3
ACAD_GROUP
350
D
  3
ACAD_MLINESTYLE
350
17
  3
ACAD_LAYOUT
350
1A
  3
ACAD_PLOTSETTINGS
350
19
  3
ACAD_PLOTSTYLENAME
350
E
  0
DICTIONARY
  5
D
102
{ACAD_REACTORS
330
C
102
}
100
AcDbDictionary
280
0
281
1
  0
ACDBDICTIONARYWDFLT
  5
E
102
{ACAD_REACTORS
330
C
102
}
100
AcDbDictionary
281
1
  3
Normal
350
F
100
AcDbDictionaryWithDefault
340
F
  0
DICTIONARY
  5
17
102
{ACAD_REACTORS
330
C
102
}
100
AcDbDictionary
280
0
281
1
  3
Standard
350
18
  0
DICTIONARY
  5
19
102
{ACAD_REACTORS
330
C
102
}
100
AcDbDictionary
281
1
  0
DICTIONARY
  5
1A
102
{ACAD_REACTORS
330
C
102
}
100
AcDbDictionary
281
1
  3
Model
350
2A4
  3
Layout1
350
2A5
  0
ACDBPLACEHOLDER
  5
F
102
{ACAD_REACTORS
330
E
102
}
  0
MLINESTYLE
  5
18
102
{ACAD_REACTORS
330
17
102
}
100
AcDbMlineStyle
  2
STANDARD
 70
0
  3

 62
256
 51
90.0
 52
90.0
 71
2
 49
0.5
 62
256
  6
BYLAYER
 49
-0.5
 62
256
  6
BYLAYER
  0
LAYOUT
  5
2A4
102
{ACAD_REACTORS
330
1A
102
}
100
AcDbPlotSettings
  1

  2
none_device
  4
ANSI_A_(11.00_x_8.50_Inches)
  6

 40
0.0
 41
0.0
 42
0.0
 43
0.0
 44
279.4
 45
215.9
 46
0.0
 47
0.0
 48
0.0
 49
0.0
140
0.0
141
0.0
142
1.0
143
1.0
 70
1024
 72
0
 73
0
 74
0
  7

 75
0
147
1.0
148
0.0
149
0.0
100
AcDbLayout
  1
Model
 70
0
 71
0
 10
0.0
 20
0.0
 11
11.0
 21
8.5
 12
0.0
 22
0.0
 32
0.0
 14
0.0
 24
0.0
 34
0.0
 15
0.0
 25
0.0
 35
0.0
146
0.0
 13
0.0
 23
0.0
 33
0.0
 16
1.0
 26
0.0
 36
0.0
 17
0.0
 27
1.0
 37
0.0
 76
0
330
204
345
0
346
0
  0
LAYOUT
  5
2A5
102
{ACAD_REACTORS
330
1A
102
}
100
AcDbPlotSettings
  1

  2
none_device
  4
ANSI_A_(11.00_x_8.50_Inches)
  6

 40
0.0
 41
0.0
 42
0.0
 43
0.0
 44
279.4
 45
215.9
 46
0.0
 47
0.0
 48
0.0
 49
0.0
140
0.0
141
0.0
142
1.0
143
1.0
 70
0
 72
0
 73
0
 74
0
  7

 75
0
147
1.0
148
0.0
149
0.0
100
AcDbLayout
  1
Layout1
 70
0
 71
1
 10
0.0
 20
0.0
 11
11.0
 21
8.5
 12
0.0
 22
0.0
 32
0.0
 14
0.0
 24
0.0
 34
0.0
 15
0.0
 25
0.0
 35
0.0
146
0.0
 13
0.0
 23
0.0
 33
0.0
 16
1.0
 26
0.0
 36
0.0
 17
0.0
 27
1.0
 37
0.0
 76
0
330
205
345
0
346
0
  0
ENDSEC
  0
EOF
