999
DXF file: 277-01a_right.dxf
999
Pro/ENGINEER 2013150 by Parametric Technology Corporation
  0
SECTION
  2
HEADER
  9
$ACADVER
  1
AC1021
  9
$DWGCODEPAGE
  3
ANSI_1252
  9
$EXTMAX
 10
11.0
 20
8.5
 30
0.0
  9
$EXTMIN
 10
0.0
 20
0.0
 30
0.0
  9
$LIMMIN
 10
0.0
 20
0.0
  9
$LIMMAX
 10
11.0
 20
8.5
  9
$VIEWCTR
 10
5.5
 20
4.25
  9
$VIEWSIZE
 40
8.5
  9
$CLAYER
  8
0
  9
$LTSCALE
 40
0.605
  9
$CELTYPE
  6
BYLAYER
  9
$DIMSCALE
 40
1.0
  9
$DIMASZ
 40
0.1
  9
$DIMEXO
 40
0.0625
  9
$DIMDLI
 40
0.418
  9
$DIMEXE
 40
0.125
  9
$DIMCEN
 40
0.099
  9
$DIMLFAC
 40
1.0
  9
$DIMBLK
  1
_FILLED
  9
$DIMTXT
 40
0.08
  9
$DIMTOL
 70
1
  9
$DIMLIM
 70
0
  9
$DIMTFAC
 40
1.0
  9
$DIMTP
 40
0.001
  9
$DIMTM
 40
0.001
  9
$DIMGAP
 40
0.09
  9
$DIMDSEP
 70
46
  9
$PDMODE
 70
3
  9
$PDSIZE
 40
0.06
  9
$HANDSEED
  5
2FF
  9
$TILEMODE
 70
1
  9
$MEASUREMENT
 70
0
  9
$INSUNITS
 70
1
  0
ENDSEC
  0
SECTION
  2
CLASSES
  0
CLASS
  1
ACDBDICTIONARYWDFLT
  2
AcDbDictionaryWithDefault
  3
AutoCAD 2000
 90
0
 91
1
280
0
281
0
  0
CLASS
  1
ACDBPLACEHOLDER
  2
AcDbPlaceHolder
  3
AutoCAD 2000
 90
0
 91
1
280
0
281
0
  0
CLASS
  1
LAYOUT
  2
AcDbLayout
  3
AutoCAD 2000
 90
0
 91
0
280
0
281
0
  0
ENDSEC
  0
SECTION
  2
TABLES
  0
TABLE
  2
VPORT
  5
8
100
AcDbSymbolTable
 70
2
  0
VPORT
  5
1F4
100
AcDbSymbolTableRecord
100
AcDbViewportTableRecord
  2
*ACTIVE
 70
0
 10
0.0
 20
0.0
 11
1.0
 21
1.0
 12
5.5
 22
4.25
 13
0.0
 23
0.0
 14
1.0
 24
1.0
 15
0.0
 25
0.0
 16
0.0
 26
0.0
 36
1.0
 17
0.0
 27
0.0
 37
0.0
 40
8.5
 41
1.2941176471
 42
50.0
 43
0.0
 44
0.0
 50
0.0
 51
0.0
 71
0
 72
100
 73
1
 74
1
 75
0
 76
0
 77
0
 78
0
  0
ENDTAB
  0
TABLE
  2
LTYPE
  5
5
100
AcDbSymbolTable
 70
6
  0
LTYPE
  5
14
100
AcDbSymbolTableRecord
100
AcDbLinetypeTableRecord
  2
BYBLOCK
 70
0
  3

 72
65
 73
0
 40
0.0
  0
LTYPE
  5
15
100
AcDbSymbolTableRecord
100
AcDbLinetypeTableRecord
  2
BYLAYER
 70
0
  3

 72
65
 73
0
 40
0.0
  0
LTYPE
  5
16
100
AcDbSymbolTableRecord
100
AcDbLinetypeTableRecord
  2
CONTINUOUS
 70
64
  3
Solid line
 72
65
 73
0
 40
0.0
  0
LTYPE
  5
1F5
100
AcDbSymbolTableRecord
100
AcDbLinetypeTableRecord
  2
CENTER
 70
64
  3
____ _ ____ _ ____ _ ____ _ ____ _ ____ _ ____
 72
65
 73
4
 40
0.6
 49
0.375
 74
0
 49
-0.075
 74
0
 49
0.075
 74
0
 49
-0.075
 74
0
  0
LTYPE
  5
1F6
100
AcDbSymbolTableRecord
100
AcDbLinetypeTableRecord
  2
HIDDEN
 70
64
  3
- - - - - - - - - - - - - - - - - - - -
 72
65
 73
2
 40
0.2
 49
0.1
 74
0
 49
-0.1
 74
0
  0
LTYPE
  5
1F7
100
AcDbSymbolTableRecord
100
AcDbLinetypeTableRecord
  2
PHANTOM
 70
64
  3
_____ _ _ _____ _ _ _____ _ _ _____
 72
65
 73
6
 40
0.8
 49
0.45
 74
0
 49
-0.05
 74
0
 49
0.1
 74
0
 49
-0.05
 74
0
 49
0.1
 74
0
 49
-0.05
 74
0
  0
LTYPE
  5
1F8
100
AcDbSymbolTableRecord
100
AcDbLinetypeTableRecord
  2
DOT
 70
64
  3
. . . . . . . . . . . . . . . . . . . .
 72
65
 73
2
 40
0.2
 49
0.1
 74
0
 49
-0.1
 74
0
  0
LTYPE
  5
1F9
100
AcDbSymbolTableRecord
100
AcDbLinetypeTableRecord
  2
DASHED
 70
64
  3
- - - - - - - - - - - - - - - - - - - -
 72
65
 73
2
 40
0.2
 49
0.1
 74
0
 49
-0.1
 74
0
  0
ENDTAB
  0
TABLE
  2
LAYER
  5
2
100
AcDbSymbolTable
 70
36
  0
LAYER
  5
10
100
AcDbSymbolTableRecord
100
AcDbLayerTableRecord
  2
0
 70
0
 62
7
  6
CONTINUOUS
370
-3
390
F
  0
LAYER
  5
1FA
100
AcDbSymbolTableRecord
100
AcDbLayerTableRecord
  2
DEFAULT_1
 70
0
 62
7
  6
CENTER
370
-3
390
F
  0
LAYER
  5
1FB
100
AcDbSymbolTableRecord
100
AcDbLayerTableRecord
  2
DEFAULT_2
 70
0
 62
8
  6
HIDDEN
370
-3
390
F
  0
LAYER
  5
1FC
100
AcDbSymbolTableRecord
100
AcDbLayerTableRecord
  2
DEFAULT_3
 70
0
 62
7
  6
PHANTOM
370
-3
390
F
  0
LAYER
  5
1FD
100
AcDbSymbolTableRecord
100
AcDbLayerTableRecord
  2
DEFAULT_COORDINATE_SYSTEM
 70
0
 62
7
  6
CONTINUOUS
370
-3
390
F
  0
LAYER
  5
1FE
100
AcDbSymbolTableRecord
100
AcDbLayerTableRecord
  2
DEFAULT_DATUM_AXES
 70
0
 62
7
  6
CONTINUOUS
370
-3
390
F
  0
LAYER
  5
1FF
100
AcDbSymbolTableRecord
100
AcDbLayerTableRecord
  2
DEFAULT_DATUM_CURVES
 70
0
 62
7
  6
CONTINUOUS
370
-3
390
F
  0
LAYER
  5
200
100
AcDbSymbolTableRecord
100
AcDbLayerTableRecord
  2
DEFAULT_DATUM_PLANES
 70
0
 62
7
  6
CONTINUOUS
370
-3
390
F
  0
LAYER
  5
201
100
AcDbSymbolTableRecord
100
AcDbLayerTableRecord
  2
DEFAULT_SURFACES
 70
0
 62
7
  6
CONTINUOUS
370
-3
390
F
  0
ENDTAB
  0
TABLE
  2
STYLE
  5
3
100
AcDbSymbolTable
 70
1
  0
STYLE
  5
11
100
AcDbSymbolTableRecord
100
AcDbTextStyleTableRecord
  2
STANDARD
 70
0
 40
0.0
 41
0.8
 50
0.0
 71
0
 42
0.2
  3
txt
  4

  0
STYLE
  5
202
100
AcDbSymbolTableRecord
100
AcDbTextStyleTableRecord
  2
TEXTSTYLE_1
 70
0
 40
0.0
 41
0.8
 50
0.0
 71
0
 42
0.2
  3
gdt
  4

  0
ENDTAB
  0
TABLE
  2
VIEW
  5
6
100
AcDbSymbolTable
 70
0
  0
ENDTAB
  0
TABLE
  2
UCS
  5
7
100
AcDbSymbolTable
 70
0
  0
ENDTAB
  0
TABLE
  2
APPID
  5
9
100
AcDbSymbolTable
 70
1
  0
APPID
  5
203
100
AcDbSymbolTableRecord
100
AcDbRegAppTableRecord
  2
ACAD
 70
0
  0
ENDTAB
  0
TABLE
  2
BLOCK_RECORD
  5
1
100
AcDbSymbolTable
 70
0
  0
BLOCK_RECORD
  5
204
100
AcDbSymbolTableRecord
100
AcDbBlockTableRecord
  2
*Model_Space
  0
BLOCK_RECORD
  5
205
100
AcDbSymbolTableRecord
100
AcDbBlockTableRecord
  2
*Paper_Space
  0
ENDTAB
  0
TABLE
  2
DIMSTYLE
  5
A
100
AcDbSymbolTable
 70
1
100
AcDbDimStyleTable
 71
0
  0
DIMSTYLE
105
206
100
AcDbSymbolTableRecord
100
AcDbDimStyleTableRecord
  2
STANDARD
 70
0
  3

  4

 40
1.0
 41
0.1
 42
0.0625
 43
0.38
 44
0.125
 45
0.0
 46
0.0
 47
0.001
 48
0.001
140
0.08
141
0.09
142
0.0
143
25.4
144
1.0
145
0.0
146
1.0
147
0.09
 71
1.0
 72
0.0
 73
1
 74
1
 75
0
 76
0
 77
0
 78
4
170
0
171
2
172
0
173
0
174
0
175
0
176
0
177
0
178
0
270
2
271
3
272
3
273
2
274
2
275
0
280
0
281
0
282
0
283
1
284
4
285
0
286
0
287
3
288
0
340
11
278
46
  0
ENDTAB
  0
ENDSEC
  0
SECTION
  2
BLOCKS
  0
BLOCK
  5
20
100
AcDbEntity
  8
0
100
AcDbBlockBegin
  2
*Model_Space
 70
0
 10
0.0
 20
0.0
 30
0.0
  3
*Model_Space
  1

  0
ENDBLK
  5
21
100
AcDbEntity
  8
0
100
AcDbBlockEnd
  0
BLOCK
  5
1C
100
AcDbEntity
  8
0
100
AcDbBlockBegin
  2
*Paper_Space
 70
0
 10
0.0
 20
0.0
 30
0.0
  3
*Paper_Space
  1

  0
ENDBLK
  5
1D
100
AcDbEntity
  8
0
100
AcDbBlockEnd
  0
ENDSEC
  0
SECTION
  2
ENTITIES
  0
LINE
  5
207
100
AcDbEntity
  8
0
100
AcDbLine
 62
7
  6
CONTINUOUS
 10
0.0
 20
0.0
 11
0.0
 21
8.5
  0
LINE
  5
208
100
AcDbEntity
  8
0
100
AcDbLine
 62
7
  6
CONTINUOUS
 10
0.0
 20
0.0
 11
11.0
 21
0.0
  0
LINE
  5
209
100
AcDbEntity
  8
0
100
AcDbLine
 62
7
  6
CONTINUOUS
 10
0.0
 20
8.5
 11
11.0
 21
8.5
  0
LINE
  5
20A
100
AcDbEntity
  8
0
100
AcDbLine
 62
7
  6
CONTINUOUS
 10
11.0
 20
0.0
 11
11.0
 21
8.5
  0
LINE
  5
20B
100
AcDbEntity
  8
0
100
AcDbLine
 62
7
  6
CONTINUOUS
 10
2.3934210802
 20
3.8381642588
 11
2.3934210802
 21
3.7452601221
  0
LINE
  5
20C
100
AcDbEntity
  8
0
100
AcDbLine
 62
7
  6
CONTINUOUS
 10
3.4623117202
 20
3.6051693484
 11
3.4621476106
 21
3.5989065522
  0
LINE
  5
20D
100
AcDbEntity
  8
0
100
AcDbLine
 62
7
  6
CONTINUOUS
 10
4.0154411821
 20
4.007026306
 11
4.009735964
 21
3.8981642588
  0
LINE
  5
20E
100
AcDbEntity
  8
0
100
AcDbLine
 62
7
  6
CONTINUOUS
 10
4.1144430394
 20
3.4810458135
 11
4.1147382158
 21
3.4923104171
  0
LINE
  5
20F
100
AcDbEntity
  8
0
100
AcDbLine
 62
7
  6
CONTINUOUS
 10
7.0466222836
 20
3.5590666686
 11
7.053210923
 21
3.5604547834
  0
LINE
  5
210
100
AcDbEntity
  8
0
100
AcDbLine
 62
7
  6
CONTINUOUS
 10
7.053210923
 20
3.5604547834
 11
7.0602775729
 21
3.5618838948
  0
LINE
  5
211
100
AcDbEntity
  8
0
100
AcDbLine
 62
7
  6
CONTINUOUS
 10
7.0602775729
 20
3.5618838948
 11
7.0678223147
 21
3.5633508554
  0
LINE
  5
212
100
AcDbEntity
  8
0
100
AcDbLine
 62
7
  6
CONTINUOUS
 10
7.0678223147
 20
3.5633508554
 11
7.075844209
 21
3.5648525027
  0
LINE
  5
213
100
AcDbEntity
  8
0
100
AcDbLine
 62
7
  6
CONTINUOUS
 10
7.075844209
 20
3.5648525027
 11
7.0843408114
 21
3.5663855062
  0
LINE
  5
214
100
AcDbEntity
  8
0
100
AcDbLine
 62
7
  6
CONTINUOUS
 10
7.0843408114
 20
3.5663855062
 11
7.0933055011
 21
3.5679457625
  0
LINE
  5
215
100
AcDbEntity
  8
0
100
AcDbLine
 62
7
  6
CONTINUOUS
 10
7.0933055011
 20
3.5679457625
 11
7.1027287082
 21
3.5695289514
  0
LINE
  5
216
100
AcDbEntity
  8
0
100
AcDbLine
 62
7
  6
CONTINUOUS
 10
7.1027287082
 20
3.5695289514
 11
7.3562281109
 21
3.6102536858
  0
LINE
  5
217
100
AcDbEntity
  8
0
100
AcDbLine
 62
7
  6
CONTINUOUS
 10
6.2534244069
 20
3.4388861486
 11
6.4114634058
 21
3.4637252924
  0
LINE
  5
218
100
AcDbEntity
  8
0
100
AcDbLine
 62
7
  6
CONTINUOUS
 10
7.3562281109
 20
3.6102536858
 11
7.3702344527
 21
3.6124105245
  0
LINE
  5
219
100
AcDbEntity
  8
0
100
AcDbLine
 62
7
  6
CONTINUOUS
 10
6.4114634058
 20
3.4637252924
 11
6.4277821138
 21
3.4661690638
  0
LINE
  5
21A
100
AcDbEntity
  8
0
100
AcDbLine
 62
7
  6
CONTINUOUS
 10
7.3702344527
 20
3.6124105245
 11
7.3845240828
 21
3.6145167692
  0
LINE
  5
21B
100
AcDbEntity
  8
0
100
AcDbLine
 62
7
  6
CONTINUOUS
 10
6.4277821138
 20
3.4661690638
 11
6.4442160133
 21
3.4685159728
  0
LINE
  5
21C
100
AcDbEntity
  8
0
100
AcDbLine
 62
7
  6
CONTINUOUS
 10
8.3417714662
 20
3.685844038
 11
6.5845747774
 21
3.4388861486
  0
LINE
  5
21D
100
AcDbEntity
  8
0
100
AcDbLine
 62
7
  6
CONTINUOUS
 10
7.3845240828
 20
3.6145167692
 11
7.3990081712
 21
3.6165632173
  0
LINE
  5
21E
100
AcDbEntity
  8
0
100
AcDbLine
 62
7
  6
CONTINUOUS
 10
6.4442160133
 20
3.4685159728
 11
6.4606827911
 21
3.4707629673
  0
LINE
  5
21F
100
AcDbEntity
  8
0
100
AcDbLine
 62
7
  6
CONTINUOUS
 10
7.3990081712
 20
3.6165632173
 11
7.413606532
 21
3.6185422585
  0
LINE
  5
220
100
AcDbEntity
  8
0
100
AcDbLine
 62
7
  6
CONTINUOUS
 10
6.4606827911
 20
3.4707629673
 11
6.4771117288
 21
3.4729085647
  0
LINE
  5
221
100
AcDbEntity
  8
0
100
AcDbLine
 62
7
  6
CONTINUOUS
 10
7.413606532
 20
3.6185422585
 11
7.428246611
 21
3.6204476291
  0
LINE
  5
222
100
AcDbEntity
  8
0
100
AcDbLine
 62
7
  6
CONTINUOUS
 10
6.4771117288
 20
3.4729085647
 11
6.4934369286
 21
3.4749517722
  0
LINE
  5
223
100
AcDbEntity
  8
0
100
AcDbLine
 62
7
  6
CONTINUOUS
 10
7.428246611
 20
3.6204476291
 11
7.4428595516
 21
3.6222741565
  0
LINE
  5
224
100
AcDbEntity
  8
0
100
AcDbLine
 62
7
  6
CONTINUOUS
 10
6.4934369286
 20
3.4749517722
 11
6.5096054501
 21
3.4768930598
  0
LINE
  5
225
100
AcDbEntity
  8
0
100
AcDbLine
 62
7
  6
CONTINUOUS
 10
6.5096054501
 20
3.4768930598
 11
6.5255626237
 21
3.4787323838
  0
LINE
  5
226
100
AcDbEntity
  8
0
100
AcDbLine
 62
7
  6
CONTINUOUS
 10
6.5255626237
 20
3.4787323838
 11
6.5489960213
 21
3.4813013207
  0
LINE
  5
227
100
AcDbEntity
  8
0
100
AcDbLine
 62
7
  6
CONTINUOUS
 10
6.5489960213
 20
3.4813013207
 11
6.5717153745
 21
3.4836471498
  0
LWPOLYLINE
  5
228
100
AcDbEntity
  8
0
100
AcDbPolyline
 62
7
  6
CONTINUOUS
 90
3
 70
0
 10
6.5717153745
 20
3.4836471498
 10
6.5936186846
 20
3.4857762641
 10
6.6007232686
 20
3.4864390336
  0
LINE
  5
229
100
AcDbEntity
  8
0
100
AcDbLine
 62
7
  6
CONTINUOUS
 10
4.1844180708
 20
3.4865956806
 11
4.2061039321
 21
3.4845399096
  0
LINE
  5
22A
100
AcDbEntity
  8
0
100
AcDbLine
 62
7
  6
CONTINUOUS
 10
4.2061039321
 20
3.4845399096
 11
4.2286502796
 21
3.4822677914
  0
LINE
  5
22B
100
AcDbEntity
  8
0
100
AcDbLine
 62
7
  6
CONTINUOUS
 10
4.2286502796
 20
3.4822677914
 11
4.2519624265
 21
3.4797722714
  0
LINE
  5
22C
100
AcDbEntity
  8
0
100
AcDbLine
 62
7
  6
CONTINUOUS
 10
4.2519624265
 20
3.4797722714
 11
4.2678706503
 21
3.4779816622
  0
LINE
  5
22D
100
AcDbEntity
  8
0
100
AcDbLine
 62
7
  6
CONTINUOUS
 10
4.2678706503
 20
3.4779816622
 11
4.2840244722
 21
3.4760877921
  0
LINE
  5
22E
100
AcDbEntity
  8
0
100
AcDbLine
 62
7
  6
CONTINUOUS
 10
4.2840244722
 20
3.4760877921
 11
4.3003704203
 21
3.4740905137
  0
LINE
  5
22F
100
AcDbEntity
  8
0
100
AcDbLine
 62
7
  6
CONTINUOUS
 10
3.3391207373
 20
3.6228656227
 11
3.3524380786
 21
3.6212262591
  0
LINE
  5
230
100
AcDbEntity
  8
0
100
AcDbLine
 62
7
  6
CONTINUOUS
 10
4.3003704203
 20
3.4740905137
 11
4.3168506244
 21
3.4719900279
  0
LINE
  5
231
100
AcDbEntity
  8
0
100
AcDbLine
 62
7
  6
CONTINUOUS
 10
3.3524380786
 20
3.6212262591
 11
3.3657962076
 21
3.6195201528
  0
LINE
  5
232
100
AcDbEntity
  8
0
100
AcDbLine
 62
7
  6
CONTINUOUS
 10
3.3657962076
 20
3.6195201528
 11
3.3791420396
 21
3.6177513489
  0
LINE
  5
233
100
AcDbEntity
  8
0
100
AcDbLine
 62
7
  6
CONTINUOUS
 10
4.3168506244
 20
3.4719900279
 11
4.3334074966
 21
3.4697862502
  0
LINE
  5
234
100
AcDbEntity
  8
0
100
AcDbLine
 62
7
  6
CONTINUOUS
 10
3.3791420396
 20
3.6177513489
 11
3.3924205644
 21
3.6159243848
  0
LINE
  5
235
100
AcDbEntity
  8
0
100
AcDbLine
 62
7
  6
CONTINUOUS
 10
2.4450706941
 20
3.685844038
 11
4.202267383
 21
3.4388861486
  0
LINE
  5
236
100
AcDbEntity
  8
0
100
AcDbLine
 62
7
  6
CONTINUOUS
 10
4.3334074966
 20
3.4697862502
 11
4.3499778057
 21
3.4674795432
  0
LINE
  5
237
100
AcDbEntity
  8
0
100
AcDbLine
 62
7
  6
CONTINUOUS
 10
3.3924205644
 20
3.6159243848
 11
3.4055743596
 21
3.6140447018
  0
LINE
  5
238
100
AcDbEntity
  8
0
100
AcDbLine
 62
7
  6
CONTINUOUS
 10
4.3499778057
 20
3.4674795432
 11
4.3664768791
 21
3.465073074
  0
LINE
  5
239
100
AcDbEntity
  8
0
100
AcDbLine
 62
7
  6
CONTINUOUS
 10
3.4055743596
 20
3.6140447018
 11
3.4185401216
 21
3.6121185786
  0
LINE
  5
23A
100
AcDbEntity
  8
0
100
AcDbLine
 62
7
  6
CONTINUOUS
 10
4.3664768791
 20
3.465073074
 11
4.3828156471
 21
3.4625707729
  0
LINE
  5
23B
100
AcDbEntity
  8
0
100
AcDbLine
 62
7
  6
CONTINUOUS
 10
3.4185401216
 20
3.6121185786
 11
3.4312499769
 21
3.6101534386
  0
LINE
  5
23C
100
AcDbEntity
  8
0
100
AcDbLine
 62
7
  6
CONTINUOUS
 10
4.3828156471
 20
3.4625707729
 11
4.533417754
 21
3.4388861486
  0
LINE
  5
23D
100
AcDbEntity
  8
0
100
AcDbLine
 62
7
  6
CONTINUOUS
 10
3.4312499769
 20
3.6101534386
 11
3.6786607233
 21
3.570420681
  0
LINE
  5
23E
100
AcDbEntity
  8
0
100
AcDbLine
 62
7
  6
CONTINUOUS
 10
3.6786607233
 20
3.570420681
 11
3.6883576789
 21
3.5688227158
  0
LINE
  5
23F
100
AcDbEntity
  8
0
100
AcDbLine
 62
7
  6
CONTINUOUS
 10
3.6883576789
 20
3.5688227158
 11
3.6975975173
 21
3.5672458668
  0
LINE
  5
240
100
AcDbEntity
  8
0
100
AcDbLine
 62
7
  6
CONTINUOUS
 10
3.6975975173
 20
3.5672458668
 11
3.7063716529
 21
3.5656941038
  0
LINE
  5
241
100
AcDbEntity
  8
0
100
AcDbLine
 62
7
  6
CONTINUOUS
 10
3.7063716529
 20
3.5656941038
 11
3.7146717569
 21
3.5641717317
  0
LINE
  5
242
100
AcDbEntity
  8
0
100
AcDbLine
 62
7
  6
CONTINUOUS
 10
3.7146717569
 20
3.5641717317
 11
3.7224927859
 21
3.5626826123
  0
LINE
  5
243
100
AcDbEntity
  8
0
100
AcDbLine
 62
7
  6
CONTINUOUS
 10
3.7224927859
 20
3.5626826123
 11
3.7298342656
 21
3.561229763
  0
LWPOLYLINE
  5
244
100
AcDbEntity
  8
0
100
AcDbPolyline
 62
7
  6
CONTINUOUS
 90
26
 70
0
 10
3.7298342656
 20
3.561229763
 10
3.7366955001
 20
3.5598164086
 10
3.7399460552
 20
3.5591255516
 10
3.7430752982
 20
3.5584460843
 10
3.7460834334
 20
3.5577784143
 10
3.7489710698
 20
3.5571228748
 10
3.7517377476
 20
3.5564800634
 10
3.7543841666
 20
3.5558503369
 10
3.7569106708
 20
3.555234154
 10
3.7593161164
 20
3.5546323739
 10
3.761601511
 20
3.554045362
 10
3.7637670935
 20
3.5534737004
 10
3.7658105439
 20
3.5529187106
 10
3.767733554
 20
3.5523807095
 10
3.7695363703
 20
3.5518604498
 10
3.7712143246
 20
3.5513602401
 10
3.7727699343
 20
3.5508804174
 10
3.7742027936
 20
3.5504222718
 10
3.7755036607
 20
3.5499902258
 10
3.7766758115
 20
3.5495849453
 10
3.7777188747
 20
3.5492084743
 10
3.77861749
 20
3.5488689305
 10
3.779380996
 20
3.54856589
 10
3.7800025187
 20
3.5483055859
 10
3.7804441035
 20
3.5481096462
 10
3.7806981381
 20
3.547990167
  0
LINE
  5
245
100
AcDbEntity
  8
0
100
AcDbLine
 62
7
  6
CONTINUOUS
 10
7.4428595516
 20
3.6222741565
 11
7.4573777044
 21
3.6240167244
  0
LINE
  5
246
100
AcDbEntity
  8
0
100
AcDbLine
 62
7
  6
CONTINUOUS
 10
7.4573777044
 20
3.6240167244
 11
7.4717374473
 21
3.6256713291
  0
LINE
  5
247
100
AcDbEntity
  8
0
100
AcDbLine
 62
7
  6
CONTINUOUS
 10
7.4717374473
 20
3.6256713291
 11
7.4858792952
 21
3.6272349983
  0
LINE
  5
248
100
AcDbEntity
  8
0
100
AcDbLine
 62
7
  6
CONTINUOUS
 10
7.4858792952
 20
3.6272349983
 11
7.4997483602
 21
3.628704894
  0
LINE
  5
249
100
AcDbEntity
  8
0
100
AcDbLine
 62
7
  6
CONTINUOUS
 10
7.4997483602
 20
3.628704894
 11
7.5132943443
 21
3.6300791951
  0
LINE
  5
24A
100
AcDbEntity
  8
0
100
AcDbLine
 62
7
  6
CONTINUOUS
 10
7.5132943443
 20
3.6300791951
 11
7.5264703783
 21
3.6313568649
  0
LINE
  5
24B
100
AcDbEntity
  8
0
100
AcDbLine
 62
7
  6
CONTINUOUS
 10
7.5264703783
 20
3.6313568649
 11
7.539232198
 21
3.6325367202
  0
LINE
  5
24C
100
AcDbEntity
  8
0
100
AcDbLine
 62
7
  6
CONTINUOUS
 10
6.6007232686
 20
3.4864390336
 11
6.6214190086
 21
3.4882914397
  0
LINE
  5
24D
100
AcDbEntity
  8
0
100
AcDbLine
 62
7
  6
CONTINUOUS
 10
7.539232198
 20
3.6325367202
 11
7.5515425299
 21
3.6336187303
  0
LINE
  5
24E
100
AcDbEntity
  8
0
100
AcDbLine
 62
7
  6
CONTINUOUS
 10
7.5515425299
 20
3.6336187303
 11
7.563368356
 21
3.6346037048
  0
LINE
  5
24F
100
AcDbEntity
  8
0
100
AcDbLine
 62
7
  6
CONTINUOUS
 10
6.6214190086
 20
3.4882914397
 11
6.6411417037
 21
3.4899456908
  0
LINE
  5
250
100
AcDbEntity
  8
0
100
AcDbLine
 62
7
  6
CONTINUOUS
 10
7.563368356
 20
3.6346037048
 11
7.574681864
 21
3.6354924224
  0
LINE
  5
251
100
AcDbEntity
  8
0
100
AcDbLine
 62
7
  6
CONTINUOUS
 10
6.6411417037
 20
3.4899456908
 11
6.6598488459
 21
3.4914102369
  0
LINE
  5
252
100
AcDbEntity
  8
0
100
AcDbLine
 62
7
  6
CONTINUOUS
 10
7.574681864
 20
3.6354924224
 11
7.5854603637
 21
3.6362863471
  0
LINE
  5
253
100
AcDbEntity
  8
0
100
AcDbLine
 62
7
  6
CONTINUOUS
 10
6.6598488459
 20
3.4914102369
 11
6.6775117606
 21
3.4926936869
  0
LINE
  5
254
100
AcDbEntity
  8
0
100
AcDbLine
 62
7
  6
CONTINUOUS
 10
7.5854603637
 20
3.6362863471
 11
7.595683965
 21
3.6369876801
  0
LINE
  5
255
100
AcDbEntity
  8
0
100
AcDbLine
 62
7
  6
CONTINUOUS
 10
6.6775117606
 20
3.4926936869
 11
6.6941144804
 21
3.4938043282
  0
LINE
  5
256
100
AcDbEntity
  8
0
100
AcDbLine
 62
7
  6
CONTINUOUS
 10
7.3486865142
 20
3.6091825915
 11
7.3500498841
 21
3.6092707964
  0
LINE
  5
257
100
AcDbEntity
  8
0
100
AcDbLine
 62
7
  6
CONTINUOUS
 10
7.1094900274
 20
3.5707685888
 11
7.1108794109
 21
3.570855687
  0
LINE
  5
258
100
AcDbEntity
  8
0
100
AcDbLine
 62
7
  6
CONTINUOUS
 10
7.595683965
 20
3.6369876801
 11
7.6053372937
 21
3.637598662
  0
LINE
  5
259
100
AcDbEntity
  8
0
100
AcDbLine
 62
7
  6
CONTINUOUS
 10
6.6941144804
 20
3.4938043282
 11
6.7096486445
 21
3.4947506925
  0
LINE
  5
25A
100
AcDbEntity
  8
0
100
AcDbLine
 62
7
  6
CONTINUOUS
 10
7.6053372937
 20
3.637598662
 11
7.6144118026
 21
3.6381219277
  0
LINE
  5
25B
100
AcDbEntity
  8
0
100
AcDbLine
 62
7
  6
CONTINUOUS
 10
6.7096486445
 20
3.4947506925
 11
6.7241075829
 21
3.4955402717
  0
LINE
  5
25C
100
AcDbEntity
  8
0
100
AcDbLine
 62
7
  6
CONTINUOUS
 10
7.6144118026
 20
3.6381219277
 11
7.6229033288
 21
3.6385608385
  0
LINE
  5
25D
100
AcDbEntity
  8
0
100
AcDbLine
 62
7
  6
CONTINUOUS
 10
6.7241075829
 20
3.4955402717
 11
6.7331410041
 21
3.4959827897
  0
LINE
  5
25E
100
AcDbEntity
  8
0
100
AcDbLine
 62
7
  6
CONTINUOUS
 10
6.4014907983
 20
3.4622871712
 11
6.4025415843
 21
3.462337
  0
LINE
  5
25F
100
AcDbEntity
  8
0
100
AcDbLine
 62
7
  6
CONTINUOUS
 10
7.6229033288
 20
3.6385608385
 11
7.6308093401
 21
3.6389189411
  0
LINE
  5
260
100
AcDbEntity
  8
0
100
AcDbLine
 62
7
  6
CONTINUOUS
 10
6.7331410041
 20
3.4959827897
 11
6.7416834487
 21
3.4963606459
  0
LINE
  5
261
100
AcDbEntity
  8
0
100
AcDbLine
 62
7
  6
CONTINUOUS
 10
6.7416834487
 20
3.4963606459
 11
6.7497313179
 21
3.4966759973
  0
LINE
  5
262
100
AcDbEntity
  8
0
100
AcDbLine
 62
7
  6
CONTINUOUS
 10
7.6308093401
 20
3.6389189411
 11
7.6381314995
 21
3.6391995981
  0
LINE
  5
263
100
AcDbEntity
  8
0
100
AcDbLine
 62
7
  6
CONTINUOUS
 10
6.7497313179
 20
3.4966759973
 11
6.7572840409
 21
3.4969310269
  0
LWPOLYLINE
  5
264
100
AcDbEntity
  8
0
100
AcDbPolyline
 62
7
  6
CONTINUOUS
 90
22
 70
0
 10
7.6381314995
 20
3.6391995981
 10
7.6448735443
 20
3.6394065758
 10
7.6480274431
 20
3.6394837127
 10
7.6510376102
 20
3.6395440301
 10
7.6539048627
 20
3.6395880444
 10
7.6566283929
 20
3.6396162648
 10
7.6592104091
 20
3.6396292834
 10
7.6616514058
 20
3.6396277111
 10
7.6639480687
 20
3.6396122503
 10
7.6661034203
 20
3.6395836578
 10
7.6681178403
 20
3.6395427542
 10
7.6699845089
 20
3.6394906607
 10
7.6717070441
 20
3.6394283673
 10
7.673286979
 20
3.6393569745
 10
7.6747151022
 20
3.6392783366
 10
7.6759968244
 20
3.639193861
 10
7.6771329128
 20
3.6391053486
 10
7.6781076499
 20
3.6390164532
 10
7.6789296824
 20
3.6389293389
 10
7.6795976114
 20
3.6388474075
 10
7.6800814493
 20
3.638779007
 10
7.6803104604
 20
3.6387425924
  0
LINE
  5
265
100
AcDbEntity
  8
0
100
AcDbLine
 62
7
  6
CONTINUOUS
 10
6.7572840409
 20
3.4969310269
 11
6.7643433658
 21
3.4971281489
  0
LINE
  5
266
100
AcDbEntity
  8
0
100
AcDbLine
 62
7
  6
CONTINUOUS
 10
6.7643433658
 20
3.4971281489
 11
6.770911359
 21
3.4972699497
  0
LINE
  5
267
100
AcDbEntity
  8
0
100
AcDbLine
 62
7
  6
CONTINUOUS
 10
6.770911359
 20
3.4972699497
 11
6.7769903603
 21
3.4973591733
  0
LWPOLYLINE
  5
268
100
AcDbEntity
  8
0
100
AcDbPolyline
 62
7
  6
CONTINUOUS
 90
21
 70
0
 10
6.7769903603
 20
3.4973591733
 10
6.7825868088
 20
3.4973986204
 10
6.7852057573
 20
3.4974005882
 10
6.7877070662
 20
3.4973912377
 10
6.7900907538
 20
3.4973709832
 10
6.7923585017
 20
3.4973402499
 10
6.7945116064
 20
3.4972994766
 10
6.7965494826
 20
3.4972491688
 10
6.7984741068
 20
3.4971898064
 10
6.8002868644
 20
3.4971218884
 10
6.8019862078
 20
3.4970460795
 10
6.8035746747
 20
3.496962939
 10
6.8050534655
 20
3.4968731182
 10
6.8064188991
 20
3.4967776845
 10
6.807674784
 20
3.4966773262
 10
6.8088210093
 20
3.4965730802
 10
6.809848185
 20
3.4964671474
 10
6.8107611393
 20
3.4963606634
 10
6.8115596009
 20
3.4962554463
 10
6.8122271709
 20
3.4961561521
 10
6.8125673899
 20
3.4961003784
  0
LINE
  5
269
100
AcDbEntity
  8
0
100
AcDbLine
 62
7
  6
CONTINUOUS
 10
5.3698917446
 20
3.5754347616
 11
5.3934210802
 21
3.5755331232
  0
LINE
  5
26A
100
AcDbEntity
  8
0
100
AcDbLine
 62
7
  6
CONTINUOUS
 10
4.2022715977
 20
3.4388861486
 11
6.5845705627
 21
3.4388861486
  0
LINE
  5
26B
100
AcDbEntity
  8
0
100
AcDbLine
 62
7
  6
CONTINUOUS
 10
6.3136967661
 20
3.4473462792
 11
6.3073457781
 21
3.4473462792
  0
LWPOLYLINE
  5
26C
100
AcDbEntity
  8
0
100
AcDbPolyline
 62
7
  6
CONTINUOUS
 90
34
 70
0
 10
5.3934210802
 20
3.5755331232
 10
5.4162960693
 20
3.5754402786
 10
5.4315645424
 20
3.5752741525
 10
5.4465115328
 20
3.5750294327
 10
5.4611140833
 20
3.5747104091
 10
5.4753730185
 20
3.5743204888
 10
5.4892679183
 20
3.5738632811
 10
5.5027792591
 20
3.5733425671
 10
5.5159134959
 20
3.5727611131
 10
5.5286560175
 20
3.5721222325
 10
5.5409916202
 20
3.5714293036
 10
5.5529263341
 20
3.5706845703
 10
5.5644477713
 20
3.5698913401
 10
5.5755463486
 20
3.5690528148
 10
5.5862322734
 20
3.5681705352
 10
5.5964980633
 20
3.567247354
 10
5.6063365119
 20
3.566286282
 10
5.6157563164
 20
3.5652887679
 10
5.6247532494
 20
3.5642574044
 10
5.6333218277
 20
3.5631950804
 10
5.6414668545
 20
3.5621034964
 10
5.6491909024
 20
3.5609845057
 10
5.6564819375
 20
3.5598422275
 10
5.663322742
 20
3.5586823863
 10
5.6697192723
 20
3.5575074277
 10
5.6756641724
 20
3.5563224594
 10
5.6811235411
 20
3.5551393863
 10
5.6861069036
 20
3.5539626544
 10
5.6906155522
 20
3.5527992528
 10
5.69460877
 20
3.5516696825
 10
5.6981082426
 20
3.5505804203
 10
5.7011154917
 20
3.5495451134
 10
5.7035675228
 20
3.548606442
 10
5.7050643804
 20
3.5479743724
  0
LINE
  5
26D
100
AcDbEntity
  8
0
100
AcDbLine
 62
7
  6
CONTINUOUS
 10
4.0029794118
 20
3.497401008
 11
4.0085142155
 21
3.4973726465
  0
LINE
  5
26E
100
AcDbEntity
  8
0
100
AcDbLine
 62
7
  6
CONTINUOUS
 10
4.0085142155
 20
3.4973726465
 11
4.0145321432
 21
3.4972943295
  0
LINE
  5
26F
100
AcDbEntity
  8
0
100
AcDbLine
 62
7
  6
CONTINUOUS
 10
4.0145321432
 20
3.4972943295
 11
4.0210393757
 21
3.4971633259
  0
LINE
  5
270
100
AcDbEntity
  8
0
100
AcDbLine
 62
7
  6
CONTINUOUS
 10
4.0210393757
 20
3.4971633259
 11
4.0280396294
 21
3.4969769814
  0
LINE
  5
271
100
AcDbEntity
  8
0
100
AcDbLine
 62
7
  6
CONTINUOUS
 10
4.0280396294
 20
3.4969769814
 11
4.0355353831
 21
3.4967326661
  0
LINE
  5
272
100
AcDbEntity
  8
0
100
AcDbLine
 62
7
  6
CONTINUOUS
 10
3.1441786734
 20
3.6393447623
 11
3.1504791973
 21
3.6391367658
  0
LINE
  5
273
100
AcDbEntity
  8
0
100
AcDbLine
 62
7
  6
CONTINUOUS
 10
4.0355353831
 20
3.4967326661
 11
4.0435287106
 21
3.4964278968
  0
LINE
  5
274
100
AcDbEntity
  8
0
100
AcDbLine
 62
7
  6
CONTINUOUS
 10
3.1504791973
 20
3.6391367658
 11
3.1572511751
 21
3.6388672182
  0
LINE
  5
275
100
AcDbEntity
  8
0
100
AcDbLine
 62
7
  6
CONTINUOUS
 10
4.0435287106
 20
3.4964278968
 11
4.0520202517
 21
3.4960603871
  0
LINE
  5
276
100
AcDbEntity
  8
0
100
AcDbLine
 62
7
  6
CONTINUOUS
 10
4.385351362
 20
3.4622871712
 11
4.3843005755
 21
3.4623370001
  0
LINE
  5
277
100
AcDbEntity
  8
0
100
AcDbLine
 62
7
  6
CONTINUOUS
 10
3.1572511751
 20
3.6388672182
 11
3.1644987345
 21
3.6385335459
  0
LINE
  5
278
100
AcDbEntity
  8
0
100
AcDbLine
 62
7
  6
CONTINUOUS
 10
4.0520202517
 20
3.4960603871
 11
4.0610087779
 21
3.4956279828
  0
LINE
  5
279
100
AcDbEntity
  8
0
100
AcDbLine
 62
7
  6
CONTINUOUS
 10
3.1644987345
 20
3.6385335459
 11
3.172226416
 21
3.6381331049
  0
LINE
  5
27A
100
AcDbEntity
  8
0
100
AcDbLine
 62
7
  6
CONTINUOUS
 10
4.0610087779
 20
3.4956279828
 11
4.070490705
 21
3.4951284428
  0
LINE
  5
27B
100
AcDbEntity
  8
0
100
AcDbLine
 62
7
  6
CONTINUOUS
 10
3.172226416
 20
3.6381331049
 11
3.1804387706
 21
3.6376628194
  0
LINE
  5
27C
100
AcDbEntity
  8
0
100
AcDbLine
 62
7
  6
CONTINUOUS
 10
4.070490705
 20
3.4951284428
 11
4.0856266176
 21
3.4942487169
  0
LINE
  5
27D
100
AcDbEntity
  8
0
100
AcDbLine
 62
7
  6
CONTINUOUS
 10
3.6773521329
 20
3.5707685888
 11
3.6759627494
 21
3.570855687
  0
LINE
  5
27E
100
AcDbEntity
  8
0
100
AcDbLine
 62
7
  6
CONTINUOUS
 10
3.1804387706
 20
3.6376628194
 11
3.1891358728
 21
3.6371199622
  0
LINE
  5
27F
100
AcDbEntity
  8
0
100
AcDbLine
 62
7
  6
CONTINUOUS
 10
3.4381556461
 20
3.6091825915
 11
3.4367922764
 21
3.6092707964
  0
LINE
  5
280
100
AcDbEntity
  8
0
100
AcDbLine
 62
7
  6
CONTINUOUS
 10
4.0856266176
 20
3.4942487169
 11
4.1018525715
 21
3.4932059093
  0
LINE
  5
281
100
AcDbEntity
  8
0
100
AcDbLine
 62
7
  6
CONTINUOUS
 10
3.1891358728
 20
3.6371199622
 11
3.1983178944
 21
3.6365020385
  0
LINE
  5
282
100
AcDbEntity
  8
0
100
AcDbLine
 62
7
  6
CONTINUOUS
 10
4.1018525715
 20
3.4932059093
 11
4.1191623847
 21
3.4919916568
  0
LINE
  5
283
100
AcDbEntity
  8
0
100
AcDbLine
 62
7
  6
CONTINUOUS
 10
3.1983178944
 20
3.6365020385
 11
3.2079728495
 21
3.6358072388
  0
LINE
  5
284
100
AcDbEntity
  8
0
100
AcDbLine
 62
7
  6
CONTINUOUS
 10
3.2079728495
 20
3.6358072388
 11
3.2180874334
 21
3.6350336
  0
LINE
  5
285
100
AcDbEntity
  8
0
100
AcDbLine
 62
7
  6
CONTINUOUS
 10
4.1191623847
 20
3.4919916568
 11
4.1375411195
 21
3.4905972828
  0
LINE
  5
286
100
AcDbEntity
  8
0
100
AcDbLine
 62
7
  6
CONTINUOUS
 10
4.1375411195
 20
3.4905972828
 11
4.1569645228
 21
3.4890144161
  0
LINE
  5
287
100
AcDbEntity
  8
0
100
AcDbLine
 62
7
  6
CONTINUOUS
 10
3.2180874334
 20
3.6350336
 11
3.2340830111
 21
3.6337225881
  0
LWPOLYLINE
  5
288
100
AcDbEntity
  8
0
100
AcDbPolyline
 62
7
  6
CONTINUOUS
 90
3
 70
0
 10
4.1569645228
 20
3.4890144161
 10
4.1773934225
 20
3.4872343303
 10
4.1844180708
 20
3.4865956806
  0
LINE
  5
289
100
AcDbEntity
  8
0
100
AcDbLine
 62
7
  6
CONTINUOUS
 10
3.2340830111
 20
3.6337225881
 11
3.2510035942
 21
3.6322286612
  0
LINE
  5
28A
100
AcDbEntity
  8
0
100
AcDbLine
 62
7
  6
CONTINUOUS
 10
3.2510035942
 20
3.6322286612
 11
3.268760828
 21
3.6305502001
  0
LINE
  5
28B
100
AcDbEntity
  8
0
100
AcDbLine
 62
7
  6
CONTINUOUS
 10
3.268760828
 20
3.6305502001
 11
3.2872464536
 21
3.6286890713
  0
LINE
  5
28C
100
AcDbEntity
  8
0
100
AcDbLine
 62
7
  6
CONTINUOUS
 10
3.2872464536
 20
3.6286890713
 11
3.3063365722
 21
3.6266484888
  0
LINE
  5
28D
100
AcDbEntity
  8
0
100
AcDbLine
 62
7
  6
CONTINUOUS
 10
3.3063365722
 20
3.6266484888
 11
3.3258953698
 21
3.6244343463
  0
LINE
  5
28E
100
AcDbEntity
  8
0
100
AcDbLine
 62
7
  6
CONTINUOUS
 10
3.3258953698
 20
3.6244343463
 11
3.3391207373
 21
3.6228656227
  0
LWPOLYLINE
  5
28F
100
AcDbEntity
  8
0
100
AcDbPolyline
 62
7
  6
CONTINUOUS
 90
36
 70
0
 10
5.0788693873
 20
3.5465026152
 10
5.0790755093
 20
3.5466286227
 10
5.0798936331
 20
3.5470789729
 10
5.0813130705
 20
3.5477659416
 10
5.0832408764
 20
3.5485926358
 10
5.085683217
 20
3.549529178
 10
5.0886800133
 20
3.5505627735
 10
5.0921684249
 20
3.5516505037
 10
5.0961503572
 20
3.5527787066
 10
5.1006473192
 20
3.5539409312
 10
5.1056180579
 20
3.5551165891
 10
5.1110634938
 20
3.5562986534
 10
5.1169938417
 20
3.55748275
 10
5.1233752744
 20
3.5586569539
 10
5.1302001115
 20
3.5598161201
 10
5.1374741235
 20
3.5609577956
 10
5.1451799056
 20
3.5620762385
 10
5.1533055666
 20
3.5631673577
 10
5.1618539761
 20
3.5642293501
 10
5.1708302774
 20
3.565260569
 10
5.1802286882
 20
3.5662580774
 10
5.1900442961
 20
3.5672191852
 10
5.2002864952
 20
3.568142573
 10
5.2109484631
 20
3.5690253003
 10
5.2220224178
 20
3.5698644522
 10
5.2335183845
 20
3.5706584325
 10
5.2454269282
 20
3.5714040763
 10
5.2577365941
 20
3.572098213
 10
5.2704545877
 20
3.5727386652
 10
5.2835665141
 20
3.5733219611
 10
5.2970567788
 20
3.5738446962
 10
5.3109295707
 20
3.5743041241
 10
5.3251648316
 20
3.5746964858
 10
5.3397406072
 20
3.5750180643
 10
5.3546557523
 20
3.57526548
 10
5.3698917446
 20
3.5754347616
  0
LINE
  5
290
100
AcDbEntity
  8
0
100
AcDbLine
 62
7
  6
CONTINUOUS
 10
2.4450706941
 20
3.685844038
 11
8.3417714662
 21
3.685844038
  0
LINE
  5
291
100
AcDbEntity
  8
0
100
AcDbLine
 62
7
  6
CONTINUOUS
 10
2.3934210802
 20
3.7452601221
 11
8.3934210802
 21
3.7452601221
  0
LINE
  5
292
100
AcDbEntity
  8
0
100
AcDbLine
 62
7
  6
CONTINUOUS
 10
3.132972037
 20
3.6395875625
 11
3.1383436512
 21
3.6394940553
  0
LINE
  5
293
100
AcDbEntity
  8
0
100
AcDbLine
 62
7
  6
CONTINUOUS
 10
3.1383436512
 20
3.6394940553
 11
3.1441786734
 21
3.6393447623
  0
LWPOLYLINE
  5
294
100
AcDbEntity
  8
0
100
AcDbPolyline
 62
7
  6
CONTINUOUS
 90
23
 70
0
 10
3.9732829194
 20
3.4959037839
 10
3.9733412942
 20
3.4959179381
 10
3.9735618674
 20
3.4959667862
 10
3.9739297818
 20
3.4960391333
 10
3.9744154533
 20
3.4961239136
 10
3.9750161256
 20
3.4962172249
 10
3.975740424
 20
3.4963173398
 10
3.9765757012
 20
3.4964199768
 10
3.9775225787
 20
3.4965233056
 10
3.9785861842
 20
3.4966261326
 10
3.97976112
 20
3.4967264183
 10
3.9810496644
 20
3.4968230893
 10
3.9824554371
 20
3.4969152267
 10
3.9839752193
 20
3.4970015717
 10
3.9856117356
 20
3.4970813677
 10
3.9873678829
 20
3.497153891
 10
3.989240313
 20
3.497218244
 10
3.9912311417
 20
3.4972738412
 10
3.9933430595
 20
3.4973201293
 10
3.9955727508
 20
3.4973564672
 10
3.9979214366
 20
3.4973823685
 10
4.0003912334
 20
3.4973973687
 10
4.0029794118
 20
3.497401008
  0
LINE
  5
295
100
AcDbEntity
  8
0
100
AcDbLine
 62
7
  6
CONTINUOUS
 10
2.3934210802
 20
3.8381642588
 11
8.3934210802
 21
3.8381642588
  0
LINE
  5
296
100
AcDbEntity
  8
0
100
AcDbLine
 62
7
  6
CONTINUOUS
 10
8.3316301116
 20
3.8981642588
 11
2.4534210802
 21
3.8981642588
  0
LINE
  5
297
100
AcDbEntity
  8
0
100
AcDbLine
 62
7
  6
CONTINUOUS
 10
4.8539737595
 20
3.9073160699
 11
5.9328684008
 21
3.9073160699
  0
LINE
  5
298
100
AcDbEntity
  8
0
100
AcDbLine
 62
7
  6
CONTINUOUS
 10
4.0154411821
 20
4.007026306
 11
6.7714009783
 21
4.007026306
  0
LINE
  5
299
100
AcDbEntity
  8
0
100
AcDbLine
 62
7
  6
CONTINUOUS
 10
6.7114832062
 20
4.0638861486
 11
4.0753589542
 21
4.0638861486
  0
LWPOLYLINE
  5
29A
100
AcDbEntity
  8
0
100
AcDbPolyline
 62
7
  6
CONTINUOUS
 90
22
 70
0
 10
3.1065798646
 20
3.6387669011
 10
3.1064177785
 20
3.6387267699
 10
3.1063050888
 20
3.6387016189
 10
3.106427725
 20
3.6387247244
 10
3.1067224483
 20
3.6387731461
 10
3.1071815878
 20
3.638839021
 10
3.1078185379
 20
3.638918517
 10
3.1085977909
 20
3.6390028422
 10
3.1095150675
 20
3.6390887088
 10
3.1105782802
 20
3.6391743245
 10
3.111769939
 20
3.6392562362
 10
3.1130890005
 20
3.6393328899
 10
3.1145395108
 20
3.6394031686
 10
3.116111594
 20
3.6394654766
 10
3.1178053866
 20
3.6395189538
 10
3.1196231206
 20
3.6395628525
 10
3.1215577663
 20
3.6395962822
 10
3.1236086997
 20
3.6396186474
 10
3.1257777386
 20
3.6396294222
 10
3.1280613595
 20
3.6396281036
 10
3.1304589849
 20
3.6396142805
 10
3.132972037
 20
3.6395875625
  0
LWPOLYLINE
  5
29B
100
AcDbEntity
  8
0
100
AcDbPolyline
 62
7
  6
CONTINUOUS
 90
27
 70
0
 10
7.0063774379
 20
3.5481353331
 10
7.0061450798
 20
3.5479973177
 10
7.0060184649
 20
3.5479272174
 10
7.0061158985
 20
3.5479764135
 10
7.0063826834
 20
3.5481025828
 10
7.0068154361
 20
3.5482951293
 10
7.0074275846
 20
3.5485521924
 10
7.008181551
 20
3.548852223
 10
7.0090707968
 20
3.5491890709
 10
7.0101045578
 20
3.5495630906
 10
7.0112671517
 20
3.5499660156
 10
7.0125580256
 20
3.550395732
 10
7.0139805604
 20
3.5508516012
 10
7.0155254741
 20
3.5513291725
 10
7.0171923796
 20
3.5518271563
 10
7.0189838419
 20
3.5523452269
 10
7.0208951904
 20
3.5528810689
 10
7.022926713
 20
3.5534339396
 10
7.0250801097
 20
3.5540035236
 10
7.0273528812
 20
3.554588446
 10
7.029745229
 20
3.555188114
 10
7.0322581959
 20
3.5558021718
 10
7.0348906349
 20
3.5564297596
 10
7.0376429204
 20
3.5570704276
 10
7.0405157666
 20
3.5577238244
 10
7.0435086813
 20
3.5583893472
 10
7.0466222836
 20
3.5590666686
  0
LINE
  5
29C
100
AcDbEntity
  8
0
100
AcDbLine
 62
7
  6
CONTINUOUS
 10
6.7714009783
 20
4.007026306
 11
6.7771061964
 21
3.8981642588
  0
LINE
  5
29D
100
AcDbEntity
  8
0
100
AcDbLine
 62
7
  6
CONTINUOUS
 10
6.672399121
 20
3.4810458135
 11
6.6721039256
 21
3.4923111396
  0
LINE
  5
29E
100
AcDbEntity
  8
0
100
AcDbLine
 62
7
  6
CONTINUOUS
 10
7.3246945498
 20
3.5989065522
 11
7.3245304403
 21
3.6051693421
  0
LINE
  5
29F
100
AcDbEntity
  8
0
100
AcDbLine
 62
7
  6
CONTINUOUS
 10
8.3934210802
 20
3.8381642588
 11
8.3934210802
 21
3.7452601221
  0
ARC
  5
2A0
100
AcDbEntity
  8
0
100
AcDbCircle
 62
7
  6
CONTINUOUS
 10
4.8005813259
 20
21.0869972999
 40
17.6375163356
100
AcDbArc
 50
268.6461643506
 51
268.8369820352
  0
ARC
  5
2A1
100
AcDbEntity
  8
0
100
AcDbCircle
 62
7
  6
CONTINUOUS
 10
0.305099599
 20
-4.7754335596
 40
9.8021628867
100
AcDbArc
 50
62.2353070363
 51
62.3500521068
  0
ARC
  5
2A2
100
AcDbEntity
  8
0
100
AcDbCircle
 62
7
  6
CONTINUOUS
 10
8.79931796
 20
-1.5720053137
 40
6.183809174
100
AcDbArc
 50
117.6158437986
 51
117.7978100849
  0
ARC
  5
2A3
100
AcDbEntity
  8
0
100
AcDbCircle
 62
7
  6
CONTINUOUS
 10
6.9645148585
 20
5.0795737111
 40
1.5185980811
100
AcDbArc
 50
275.4740125138
 51
275.8458257239
  0
ARC
  5
2A4
100
AcDbEntity
  8
0
100
AcDbCircle
 62
7
  6
CONTINUOUS
 10
3.8123647965
 20
4.9776900405
 40
1.416228762
100
AcDbArc
 50
264.2933035709
 51
264.687678449
  0
ARC
  5
2A5
100
AcDbEntity
  8
0
100
AcDbCircle
 62
7
  6
CONTINUOUS
 10
7.0027429591
 20
4.6687356723
 40
1.1059874848
100
AcDbArc
 50
273.9341793509
 51
275.532957818
  0
ARC
  5
2A6
100
AcDbEntity
  8
0
100
AcDbCircle
 62
7
  6
CONTINUOUS
 10
3.7816095729
 20
4.6365895883
 40
1.0737463641
100
AcDbArc
 50
264.6365821766
 51
266.0818251589
  0
ARC
  5
2A7
100
AcDbEntity
  8
0
100
AcDbCircle
 62
7
  6
CONTINUOUS
 10
6.7114832062
 20
4.0038861486
 40
0.06
100
AcDbArc
 50
3.0
 51
90.0
  0
ARC
  5
2A8
100
AcDbEntity
  8
0
100
AcDbCircle
 62
7
  6
CONTINUOUS
 10
4.0753589542
 20
4.0038861486
 40
0.06
100
AcDbArc
 50
90.0
 51
177.0
  0
ARC
  5
2A9
100
AcDbEntity
  8
0
100
AcDbCircle
 62
7
  6
CONTINUOUS
 10
8.3334210802
 20
3.8381642588
 40
0.06
100
AcDbArc
 50
0.0
 51
90.0
  0
ARC
  5
2AA
100
AcDbEntity
  8
0
100
AcDbCircle
 62
7
  6
CONTINUOUS
 10
2.4534210802
 20
3.8381642588
 40
0.06
100
AcDbArc
 50
90.0
 51
180.0
  0
ARC
  5
2AB
100
AcDbEntity
  8
0
100
AcDbCircle
 62
7
  6
CONTINUOUS
 10
8.3334210802
 20
3.7452601221
 40
0.06
100
AcDbArc
 50
278.0
 51
360.0
  0
ARC
  5
2AC
100
AcDbEntity
  8
0
100
AcDbCircle
 62
7
  6
CONTINUOUS
 10
2.4534210802
 20
3.7452601221
 40
0.06
100
AcDbArc
 50
180.0
 51
262.0
  0
LINE
  5
2AD
100
AcDbEntity
  8
0
100
AcDbLine
 62
7
  6
CONTINUOUS
 10
6.4784278323
 20
3.4730750489
 11
6.5013282595
 21
3.453936043
  0
SPLINE
  5
2AE
100
AcDbEntity
  8
0
100
AcDbSpline
 62
7
  6
CONTINUOUS
 70
0
 71
3
 72
13
 73
9
 74
0
 42
0.0000001
 43
0.0000001
 44
0.0000000001
 40
0.0
 40
0.0
 40
0.0
 40
0.0
 40
0.1093348869
 40
0.2310826123
 40
0.3590941884
 40
0.4897458351
 40
0.7499278725
 40
1.0
 40
1.0
 40
1.0
 40
1.0
 10
6.5225978594
 20
3.4388861486
 30
0.0
 10
6.5217552158
 20
3.4393270053
 30
0.0
 10
6.5200062961
 20
3.4403198941
 30
0.0
 10
6.5173540066
 20
3.4419703605
 30
0.0
 10
6.5146010298
 20
3.4438068616
 30
0.0
 10
6.5109096344
 20
3.4464036333
 30
0.0
 10
6.5064516086
 20
3.4497530703
 30
0.0
 10
6.5029969784
 20
3.4525408304
 30
0.0
 10
6.5013282597
 20
3.4539360429
 30
0.0
  0
SPLINE
  5
2AF
100
AcDbEntity
  8
0
100
AcDbSpline
 62
7
  6
CONTINUOUS
 70
0
 71
3
 72
13
 73
9
 74
0
 42
0.0000001
 43
0.0000001
 44
0.0000000001
 40
0.0
 40
0.0
 40
0.0
 40
0.0
 40
0.2500688016
 40
0.5102574638
 40
0.6408975974
 40
0.7689001001
 40
0.890660573
 40
1.0
 40
1.0
 40
1.0
 40
1.0
 10
4.2855139008
 20
3.453936043
 30
0.0
 10
4.2838452044
 20
3.4525408492
 30
0.0
 10
4.2803905574
 20
3.4497530639
 30
0.0
 10
4.2759325754
 20
3.4464036881
 30
0.0
 10
4.2722412953
 20
3.4438069641
 30
0.0
 10
4.2694883739
 20
3.4419705025
 30
0.0
 10
4.2668360165
 20
3.4403200112
 30
0.0
 10
4.2650869798
 20
3.4393270236
 30
0.0
 10
4.2642443012
 20
3.4388861486
 30
0.0
  0
LINE
  5
2B0
100
AcDbEntity
  8
0
100
AcDbLine
 62
7
  6
CONTINUOUS
 10
4.2855139009
 20
3.453936043
 11
4.2900571354
 21
3.4577343231
  0
LINE
  5
2B1
100
AcDbEntity
  8
0
100
AcDbLine
 62
7
  6
CONTINUOUS
 10
4.2780944646
 20
3.4767901287
 11
4.2779211019
 21
3.465736944
  0
LINE
  5
2B2
100
AcDbEntity
  8
0
100
AcDbLine
 62
7
  6
CONTINUOUS
 10
4.2779211019
 20
3.465736944
 11
4.2887131495
 21
3.4586202798
  0
LINE
  5
2B3
100
AcDbEntity
  8
0
100
AcDbLine
 62
7
  6
CONTINUOUS
 10
4.2887131495
 20
3.4586202798
 11
4.2900571354
 21
3.4577343231
  0
SPLINE
  5
2B4
100
AcDbEntity
  8
0
100
AcDbSpline
 62
7
  6
CONTINUOUS
 70
0
 71
3
 72
15
 73
11
 74
0
 42
0.0000001
 43
0.0000001
 44
0.0000000001
 40
0.0
 40
0.0
 40
0.0
 40
0.0
 40
0.1163959864
 40
0.2398607705
 40
0.3681094316
 40
0.4988158342
 40
0.6296428738
 40
0.7582618597
 40
0.8824731734
 40
1.0
 40
1.0
 40
1.0
 40
1.0
 10
3.6715406083
 20
3.5684801717
 30
0.0
 10
3.6633696794
 20
3.569295843
 30
0.0
 10
3.6465448749
 20
3.5711111013
 30
0.0
 10
3.6207620915
 20
3.5742240974
 30
0.0
 10
3.5940139978
 20
3.5777506403
 30
0.0
 10
3.5667875017
 20
3.5816114437
 30
0.0
 10
3.5395715503
 20
3.5857242888
 30
0.0
 10
3.5128456201
 20
3.5900060547
 30
0.0
 10
3.4870850687
 20
3.5943751157
 30
0.0
 10
3.470299463
 20
3.5973921938
 30
0.0
 10
3.4621476106
 20
3.5989065522
 30
0.0
  0
LINE
  5
2B5
100
AcDbEntity
  8
0
100
AcDbLine
 62
7
  6
CONTINUOUS
 10
3.4381556461
 20
3.6091825915
 11
3.6759843383
 21
3.5709880751
  0
LINE
  5
2B6
100
AcDbEntity
  8
0
100
AcDbLine
 62
7
  6
CONTINUOUS
 10
3.6759843383
 20
3.5709880751
 11
3.6773521329
 21
3.5707685888
  0
SPLINE
  5
2B7
100
AcDbEntity
  8
0
100
AcDbSpline
 62
7
  6
CONTINUOUS
 70
0
 71
3
 72
44
 73
40
 74
0
 42
0.0000001
 43
0.0000001
 44
0.0000000001
 40
0.0
 40
0.0
 40
0.0
 40
0.0
 40
0.1082797769
 40
0.2149936819
 40
0.3186370592
 40
0.4177505021
 40
0.5109543702
 40
0.5969768291
 40
0.6369333673
 40
0.6746763173
 40
0.7100858971
 40
0.7430529765
 40
0.7734797453
 40
0.8012826506
 40
0.8263932143
 40
0.8487614486
 40
0.8683625806
 40
0.8771277466
 40
0.885208696
 40
0.8926152733
 40
0.8993624556
 40
0.9054734908
 40
0.9109827617
 40
0.9159389734
 40
0.9204108618
 40
0.9244941666
 40
0.9283163801
 40
0.9320325536
 40
0.9358111391
 40
0.9398130253
 40
0.9441743229
 40
0.9489992396
 40
0.9543635654
 40
0.9603213096
 40
0.9669108
 40
0.9741591581
 40
0.982083768
 40
0.9906952153
 40
1.0
 40
1.0
 40
1.0
 40
1.0
 10
5.3934210802
 20
3.4808170836
 30
0.0
 10
5.3798870521
 20
3.4808171016
 30
0.0
 10
5.3530138748
 20
3.4810935288
 30
0.0
 10
5.3132034055
 20
3.4823290068
 30
0.0
 10
5.2745720403
 20
3.4843498909
 30
0.0
 10
5.2376787625
 20
3.4871021243
 30
0.0
 10
5.2030531591
 20
3.4905154163
 30
0.0
 10
5.1758652656
 20
3.4939188339
 30
0.0
 10
5.1556242155
 20
3.4969354879
 30
0.0
 10
5.1416772969
 20
3.4992544735
 30
0.0
 10
5.1286348938
 20
3.5016737425
 30
0.0
 10
5.1165415337
 20
3.5041813348
 30
0.0
 10
5.105438112
 20
3.5067651776
 30
0.0
 10
5.0953618292
 20
3.5094131772
 30
0.0
 10
5.0863455698
 20
3.5121132124
 30
0.0
 10
5.0784188636
 20
3.5148538025
 30
0.0
 10
5.0725393553
 20
3.5172420262
 30
0.0
 10
5.0684182055
 20
3.5191860671
 30
0.0
 10
5.0657320684
 20
3.5205932599
 30
0.0
 10
5.0633355704
 20
3.5220031601
 30
0.0
 10
5.0612304783
 20
3.5234149666
 30
0.0
 10
5.0594180764
 20
3.5248279849
 30
0.0
 10
5.0578991934
 20
3.526241915
 30
0.0
 10
5.0566748189
 20
3.5276573226
 30
0.0
 10
5.0557469159
 20
3.5290757476
 30
0.0
 10
5.0551197595
 20
3.5304990576
 30
0.0
 10
5.054799687
 20
3.5319265746
 30
0.0
 10
5.0547931631
 20
3.5333524939
 30
0.0
 10
5.0551011574
 20
3.534767129
 30
0.0
 10
5.0557182508
 20
3.5361633629
 30
0.0
 10
5.0566376093
 20
3.5375396423
 30
0.0
 10
5.0578542283
 20
3.5388979994
 30
0.0
 10
5.0593659839
 20
3.5402403897
 30
0.0
 10
5.0611719546
 20
3.5415678221
 30
0.0
 10
5.063271575
 20
3.5428804584
 30
0.0
 10
5.0656640447
 20
3.5441777177
 30
0.0
 10
5.0683477473
 20
3.5454591414
 30
0.0
 10
5.0713205193
 20
3.546724069
 30
0.0
 10
5.0734124081
 20
3.5475247231
 30
0.0
 10
5.0745047949
 20
3.5479238465
 30
0.0
  0
SPLINE
  5
2B8
100
AcDbEntity
  8
0
100
AcDbSpline
 62
7
  6
CONTINUOUS
 70
0
 71
3
 72
9
 73
5
 74
0
 42
0.0000001
 43
0.0000001
 44
0.0000000001
 40
0.0
 40
0.0
 40
0.0
 40
0.0
 40
0.4711933025
 40
1.0
 40
1.0
 40
1.0
 40
1.0
 10
5.0745047949
 20
3.5479238465
 30
0.0
 10
5.0766815835
 20
3.5487191759
 30
0.0
 10
5.0813522716
 20
3.5502684179
 30
0.0
 10
5.0860856376
 20
3.5516096057
 30
0.0
 10
5.0885995686
 20
3.5522765635
 30
0.0
  0
SPLINE
  5
2B9
100
AcDbEntity
  8
0
100
AcDbSpline
 62
7
  6
CONTINUOUS
 70
0
 71
3
 72
20
 73
16
 74
0
 42
0.0000001
 43
0.0000001
 44
0.0000000001
 40
0.0
 40
0.0
 40
0.0
 40
0.0
 40
0.0370495871
 40
0.0785890703
 40
0.1244680646
 40
0.1745012605
 40
0.2284757475
 40
0.286151889
 40
0.3472667581
 40
0.4115376106
 40
0.4786614739
 40
0.5483193717
 40
0.6938868226
 40
0.8454277307
 40
1.0
 40
1.0
 40
1.0
 40
1.0
 10
5.0885995686
 20
3.5522765635
 30
0.0
 10
5.0922560031
 20
3.5532466328
 30
0.0
 10
5.1000622874
 20
3.5551160115
 30
0.0
 10
5.1125207205
 20
3.5576352662
 30
0.0
 10
5.1263523177
 20
3.5600223638
 30
0.0
 10
5.1414919177
 20
3.5622681584
 30
0.0
 10
5.1578679127
 20
3.5643641416
 30
0.0
 10
5.1754019504
 20
3.5663027471
 30
0.0
 10
5.1940095964
 20
3.5680771684
 30
0.0
 10
5.21360066
 20
3.5696811035
 30
0.0
 10
5.2340797589
 20
3.5711092569
 30
0.0
 10
5.2628599053
 20
3.5727970426
 30
0.0
 10
5.3002761784
 20
3.5744108769
 30
0.0
 10
5.3463823673
 20
3.575567735
 30
0.0
 10
5.3776385607
 20
3.5758250773
 30
0.0
 10
5.3934210802
 20
3.5758250811
 30
0.0
  0
SPLINE
  5
2BA
100
AcDbEntity
  8
0
100
AcDbSpline
 62
7
  6
CONTINUOUS
 70
0
 71
3
 72
14
 73
10
 74
0
 42
0.0000001
 43
0.0000001
 44
0.0000000001
 40
0.0
 40
0.0
 40
0.0
 40
0.0
 40
0.3197154855
 40
0.4645617977
 40
0.5979413699
 40
0.7189679533
 40
0.8268150026
 40
0.9207092588
 40
1.0
 40
1.0
 40
1.0
 40
1.0
 10
3.2062173327
 20
3.6091825915
 30
0.0
 10
3.1955832172
 20
3.6109065398
 30
0.0
 10
3.1801456827
 20
3.61350298
 30
0.0
 10
3.1603202724
 20
3.6170945436
 30
0.0
 10
3.1471063691
 20
3.6196209069
 30
0.0
 10
3.1351445408
 20
3.6220531016
 30
0.0
 10
3.124518948
 20
3.6243750803
 30
0.0
 10
3.1153071068
 20
3.6265714563
 30
0.0
 10
3.1096660249
 20
3.6280701371
 30
0.0
 10
3.107098632
 20
3.6288095027
 30
0.0
  0
LINE
  5
2BB
100
AcDbEntity
  8
0
100
AcDbLine
 62
7
  6
CONTINUOUS
 10
3.107098632
 20
3.6288095027
 11
3.0987000029
 21
3.6315359695
  0
SPLINE
  5
2BC
100
AcDbEntity
  8
0
100
AcDbSpline
 62
7
  6
CONTINUOUS
 70
0
 71
3
 72
27
 73
23
 74
0
 42
0.0000001
 43
0.0000001
 44
0.0000000001
 40
0.0
 40
0.0
 40
0.0
 40
0.0
 40
0.1055226528
 40
0.1986320236
 40
0.2794042047
 40
0.3480118236
 40
0.4048164983
 40
0.450573826
 40
0.4697701711
 40
0.4868780306
 40
0.5023347345
 40
0.5167308598
 40
0.5307932702
 40
0.5453010269
 40
0.5609686939
 40
0.5783701403
 40
0.6198729875
 40
0.6719583707
 40
0.7356119814
 40
0.8113408562
 40
0.8994194558
 40
1.0
 40
1.0
 40
1.0
 40
1.0
 10
3.0987000029
 20
3.6315359695
 30
0.0
 10
3.0981699092
 20
3.6317369894
 30
0.0
 10
3.0971771854
 20
3.6321291642
 30
0.0
 10
3.0958019732
 20
3.6327320608
 30
0.0
 10
3.0946347908
 20
3.6333121525
 30
0.0
 10
3.0936758061
 20
3.6338690777
 30
0.0
 10
3.0929252364
 20
3.6344027362
 30
0.0
 10
3.0924452163
 20
3.6348531373
 30
0.0
 10
3.0921797646
 20
3.6352065826
 30
0.0
 10
3.092045433
 20
3.6354514067
 30
0.0
 10
3.0919646108
 20
3.6356921237
 30
0.0
 10
3.0919388504
 20
3.6359287482
 30
0.0
 10
3.0919694956
 20
3.6361598337
 30
0.0
 10
3.0920562398
 20
3.6363832914
 30
0.0
 10
3.0921974031
 20
3.6365982674
 30
0.0
 10
3.0924730371
 20
3.6368912063
 30
0.0
 10
3.0929688729
 20
3.6372323647
 30
0.0
 10
3.0937350009
 20
3.6375922659
 30
0.0
 10
3.0947090876
 20
3.6379277129
 30
0.0
 10
3.0958917359
 20
3.6382383798
 30
0.0
 10
3.0972837075
 20
3.63852403
 30
0.0
 10
3.0982844303
 20
3.6386865767
 30
0.0
 10
3.0988190731
 20
3.6387650899
 30
0.0
  0
SPLINE
  5
2BD
100
AcDbEntity
  8
0
100
AcDbSpline
 62
7
  6
CONTINUOUS
 70
0
 71
3
 72
11
 73
7
 74
0
 42
0.0000001
 43
0.0000001
 44
0.0000000001
 40
0.0
 40
0.0
 40
0.0
 40
0.0
 40
0.2016105316
 40
0.4356844913
 40
0.7019345868
 40
1.0
 40
1.0
 40
1.0
 40
1.0
 10
3.0988190731
 20
3.6387650899
 30
0.0
 10
3.0997428118
 20
3.6389007426
 30
0.0
 10
3.1017466634
 20
3.6391420973
 30
0.0
 10
3.1049858191
 20
3.6394194814
 30
0.0
 10
3.1086770047
 20
3.6396378856
 30
0.0
 10
3.1112885647
 20
3.6397380176
 30
0.0
 10
3.1126682533
 20
3.6397798491
 30
0.0
  0
SPLINE
  5
2BE
100
AcDbEntity
  8
0
100
AcDbSpline
 62
7
  6
CONTINUOUS
 70
0
 71
3
 72
21
 73
17
 74
0
 42
0.0000001
 43
0.0000001
 44
0.0000000001
 40
0.0
 40
0.0
 40
0.0
 40
0.0
 40
0.0161245614
 40
0.0339462742
 40
0.0744944015
 40
0.1212271151
 40
0.1736402767
 40
0.2311677101
 40
0.2931853385
 40
0.3590183209
 40
0.4279572957
 40
0.5721534345
 40
0.719654528
 40
0.8642642157
 40
0.9336260724
 40
1.0
 40
1.0
 40
1.0
 40
1.0
 10
3.1126682533
 20
3.6397798491
 30
0.0
 10
3.1144189401
 20
3.6398329291
 30
0.0
 10
3.1181057491
 20
3.6399072981
 30
0.0
 10
3.126197665
 20
3.6399447745
 30
0.0
 10
3.1376139324
 20
3.6397713449
 30
0.0
 10
3.1527798745
 20
3.6392622747
 30
0.0
 10
3.1697789921
 20
3.6384446535
 30
0.0
 10
3.1884243045
 20
3.6373248231
 30
0.0
 10
3.208511189
 20
3.6359114069
 30
0.0
 10
3.2298199771
 20
3.6342167391
 30
0.0
 10
3.2600058609
 20
3.6315606375
 30
0.0
 10
3.2989862412
 20
3.6276611324
 30
0.0
 10
3.3460694379
 20
3.6222385322
 30
0.0
 10
3.3850031701
 20
3.6171402077
 30
0.0
 10
3.4151420622
 20
3.6127832179
 30
0.0
 10
3.4297137392
 20
3.610533763
 30
0.0
 10
3.4368328967
 20
3.609394699
 30
0.0
  0
LINE
  5
2BF
100
AcDbEntity
  8
0
100
AcDbLine
 62
7
  6
CONTINUOUS
 10
3.4368328967
 20
3.609394699
 11
3.4381556461
 21
3.6091825915
  0
LINE
  5
2C0
100
AcDbEntity
  8
0
100
AcDbLine
 62
7
  6
CONTINUOUS
 10
4.8931118749
 20
3.8981588304
 11
4.8539737595
 21
3.9073160699
  0
LINE
  5
2C1
100
AcDbEntity
  8
0
100
AcDbLine
 62
7
  6
CONTINUOUS
 10
7.3486865142
 20
3.6091825915
 11
7.3500064618
 21
3.6093942505
  0
SPLINE
  5
2C2
100
AcDbEntity
  8
0
100
AcDbSpline
 62
7
  6
CONTINUOUS
 70
0
 71
3
 72
21
 73
17
 74
0
 42
0.0000001
 43
0.0000001
 44
0.0000000001
 40
0.0
 40
0.0
 40
0.0
 40
0.0
 40
0.0660817548
 40
0.1351171182
 40
0.2790309621
 40
0.4259120736
 40
0.5696897856
 40
0.6385305057
 40
0.7043589049
 40
0.7664771412
 40
0.8242209143
 40
0.8769736095
 40
0.9241750353
 40
0.9653232107
 40
0.9834941172
 40
1.0
 40
1.0
 40
1.0
 40
1.0
 10
7.3500064618
 20
3.6093942505
 30
0.0
 10
7.3570649751
 20
3.6105236206
 30
0.0
 10
7.3715101563
 20
3.6127542292
 30
0.0
 10
7.4013831771
 20
3.617076472
 30
0.0
 10
7.4399786803
 20
3.6221387951
 30
0.0
 10
7.486679095
 20
3.6275324007
 30
0.0
 10
7.5253742281
 20
3.6314204704
 30
0.0
 10
7.5553776102
 20
3.6340778569
 30
0.0
 10
7.5765968835
 20
3.6357800786
 30
0.0
 10
7.5966332283
 20
3.6372067649
 30
0.0
 10
7.6152711453
 20
3.6383456679
 30
0.0
 10
7.6323095465
 20
3.6391880232
 30
0.0
 10
7.647564072
 20
3.639727377
 30
0.0
 10
7.6590859524
 20
3.639931031
 30
0.0
 10
7.667288405
 20
3.6399216554
 30
0.0
 10
7.6710392491
 20
3.6398623996
 30
0.0
 10
7.6728241782
 20
3.6398173079
 30
0.0
  0
SPLINE
  5
2C3
100
AcDbEntity
  8
0
100
AcDbSpline
 62
7
  6
CONTINUOUS
 70
0
 71
3
 72
11
 73
7
 74
0
 42
0.0000001
 43
0.0000001
 44
0.0000000001
 40
0.0
 40
0.0
 40
0.0
 40
0.0
 40
0.2961733407
 40
0.5618106944
 40
0.7965275393
 40
1.0
 40
1.0
 40
1.0
 40
1.0
 10
7.6728241782
 20
3.6398173079
 30
0.0
 10
7.6742506043
 20
3.6397812729
 30
0.0
 10
7.6769559488
 20
3.6396924122
 30
0.0
 10
7.6807884623
 20
3.63949176
 30
0.0
 10
7.6841696742
 20
3.639231686
 30
0.0
 10
7.6862689582
 20
3.6390031482
 30
0.0
 10
7.687240723
 20
3.6388742678
 30
0.0
  0
SPLINE
  5
2C4
100
AcDbEntity
  8
0
100
AcDbSpline
 62
7
  6
CONTINUOUS
 70
0
 71
3
 72
27
 73
23
 74
0
 42
0.0000001
 43
0.0000001
 44
0.0000000001
 40
0.0
 40
0.0
 40
0.0
 40
0.0
 40
0.1059226909
 40
0.1993056395
 40
0.2802605837
 40
0.3489942838
 40
0.4058887178
 40
0.451675602
 40
0.4708578641
 40
0.4879372618
 40
0.5033580238
 40
0.5177176339
 40
0.5317482577
 40
0.5462305589
 40
0.5618763741
 40
0.5792539209
 40
0.6206857793
 40
0.6726780103
 40
0.7362339235
 40
0.8118357191
 40
0.8997199577
 40
1.0
 40
1.0
 40
1.0
 40
1.0
 10
7.687240723
 20
3.6388742678
 30
0.0
 10
7.6878077685
 20
3.6387990634
 30
0.0
 10
7.6888728853
 20
3.6386427784
 30
0.0
 10
7.6903616034
 20
3.6383676394
 30
0.0
 10
7.6916400042
 20
3.6380671023
 30
0.0
 10
7.6927083559
 20
3.6377415984
 30
0.0
 10
7.6935666904
 20
3.6373914756
 30
0.0
 10
7.6941405498
 20
3.6370609815
 30
0.0
 10
7.69448137
 20
3.6367760296
 30
0.0
 10
7.6946685581
 20
3.636567418
 30
0.0
 10
7.6948022112
 20
3.6363506009
 30
0.0
 10
7.6948808675
 20
3.6361252321
 30
0.0
 10
7.6949029637
 20
3.6358924694
 30
0.0
 10
7.6948684453
 20
3.6356544529
 30
0.0
 10
7.6947788692
 20
3.635412385
 30
0.0
 10
7.6945756021
 20
3.6350636466
 30
0.0
 10
7.6941684033
 20
3.6346176719
 30
0.0
 10
7.6935012346
 20
3.6340919473
 30
0.0
 10
7.6926252092
 20
3.6335429972
 30
0.0
 10
7.6915400373
 20
3.6329707717
 30
0.0
 10
7.6902454636
 20
3.6323753574
 30
0.0
 10
7.6893054098
 20
3.6319889159
 30
0.0
 10
7.6888014938
 20
3.63179059
 30
0.0
  0
LINE
  5
2C5
100
AcDbEntity
  8
0
100
AcDbLine
 62
7
  6
CONTINUOUS
 10
7.6888014938
 20
3.63179059
 11
7.6807187773
 21
3.6290933683
  0
SPLINE
  5
2C6
100
AcDbEntity
  8
0
100
AcDbSpline
 62
7
  6
CONTINUOUS
 70
0
 71
3
 72
16
 73
12
 74
0
 42
0.0000001
 43
0.0000001
 44
0.0000000001
 40
0.0
 40
0.0
 40
0.0
 40
0.0
 40
0.0370328181
 40
0.0778929943
 40
0.1708332149
 40
0.2781599601
 40
0.3990824746
 40
0.5327421325
 40
0.6782041585
 40
0.8344051892
 40
1.0
 40
1.0
 40
1.0
 40
1.0
 10
7.6807187773
 20
3.6290933683
 30
0.0
 10
7.6795096509
 20
3.6287376007
 30
0.0
 10
7.6769581295
 20
3.6280174057
 30
0.0
 10
7.671336361
 20
3.62653333
 30
0.0
 10
7.6633572481
 20
3.624610779
 30
0.0
 10
7.6526812216
 20
3.6222596505
 30
0.0
 10
7.640613048
 20
3.6197931397
 30
0.0
 10
7.6272414928
 20
3.6172277928
 30
0.0
 10
7.6126638208
 20
3.6145808237
 30
0.0
 10
7.596993429
 20
3.6118715671
 30
0.0
 10
7.5861880718
 20
3.6100844808
 30
0.0
 10
7.5806248277
 20
3.6091825915
 30
0.0
  0
SPLINE
  5
2C7
100
AcDbEntity
  8
0
100
AcDbSpline
 62
7
  6
CONTINUOUS
 70
0
 71
3
 72
26
 73
22
 74
0
 42
0.0000001
 43
0.0000001
 44
0.0000000001
 40
0.0
 40
0.0
 40
0.0
 40
0.0
 40
0.0116085828
 40
0.0246896431
 40
0.0392822749
 40
0.0554053784
 40
0.0730638149
 40
0.0922526481
 40
0.112958138
 40
0.1351610569
 40
0.1839496849
 40
0.2383658562
 40
0.2980922358
 40
0.3627593239
 40
0.4319509766
 40
0.5052082931
 40
0.5820320893
 40
0.6618866662
 40
0.7442104121
 40
0.8284095384
 40
1.0
 40
1.0
 40
1.0
 40
1.0
 10
5.6948073305
 20
3.5516086733
 30
0.0
 10
5.6938605571
 20
3.5508933057
 30
0.0
 10
5.691768152
 20
3.549475305
 30
0.0
 10
5.6882816787
 20
3.5474778961
 30
0.0
 10
5.6842682367
 20
3.5454889239
 30
0.0
 10
5.6797339765
 20
3.543512067
 30
0.0
 10
5.6746855347
 20
3.5415509636
 30
0.0
 10
5.6691308826
 20
3.5396097023
 30
0.0
 10
5.6630789367
 20
3.5376921348
 30
0.0
 10
5.6540729763
 20
3.535090371
 30
0.0
 10
5.6416380897
 20
3.5319582421
 30
0.0
 10
5.6253505611
 20
3.5284659528
 30
0.0
 10
5.6073700825
 20
3.5251672535
 30
0.0
 10
5.5878192661
 20
3.522096845
 30
0.0
 10
5.5668328769
 20
3.5192891389
 30
0.0
 10
5.5445582168
 20
3.5167770734
 30
0.0
 10
5.5211542964
 20
3.5145916457
 30
0.0
 10
5.4967905709
 20
3.5127609783
 30
0.0
 10
5.4716460287
 20
3.5113096483
 30
0.0
 10
5.4371113043
 20
3.5098984894
 30
0.0
 10
5.4109613153
 20
3.5094781726
 30
0.0
 10
5.3934210802
 20
3.5094781408
 30
0.0
  0
LINE
  5
2C8
100
AcDbEntity
  8
0
100
AcDbLine
 62
7
  6
CONTINUOUS
 10
7.1094900274
 20
3.5707685888
 11
7.1108585128
 21
3.570988186
  0
LINE
  5
2C9
100
AcDbEntity
  8
0
100
AcDbLine
 62
7
  6
CONTINUOUS
 10
7.1108585128
 20
3.570988186
 11
7.3486865142
 21
3.6091825915
  0
SPLINE
  5
2CA
100
AcDbEntity
  8
0
100
AcDbSpline
 62
7
  6
CONTINUOUS
 70
0
 71
3
 72
49
 73
45
 74
0
 42
0.0000001
 43
0.0000001
 44
0.0000000001
 40
0.0
 40
0.0
 40
0.0
 40
0.0
 40
0.0882275664
 40
0.1819808264
 40
0.2789418767
 40
0.3767628375
 40
0.473025149
 40
0.5653352128
 40
0.6513665393
 40
0.6913368275
 40
0.7289302952
 40
0.7639066372
 40
0.7960428601
 40
0.8251347695
 40
0.8510042283
 40
0.8734936622
 40
0.8834331173
 40
0.8924839511
 40
0.9006356258
 40
0.9078835219
 40
0.9142263135
 40
0.9196671937
 40
0.9242182888
 40
0.9279115246
 40
0.9294567046
 40
0.9308173328
 40
0.9320140303
 40
0.9330772595
 40
0.9340503859
 40
0.9349896343
 40
0.9359571044
 40
0.9370095978
 40
0.9381914305
 40
0.9395339162
 40
0.9410582764
 40
0.9427788183
 40
0.9468429264
 40
0.9517743473
 40
0.9575914125
 40
0.9643006672
 40
0.9719025642
 40
0.980393279
 40
0.9897631487
 40
1.0
 40
1.0
 40
1.0
 40
1.0
 10
7.3434973169
 20
3.5707685888
 30
0.0
 10
7.3324542354
 20
3.5689810957
 30
0.0
 10
7.3096541494
 20
3.5654311762
 30
0.0
 10
7.2746542197
 20
3.5603356132
 30
0.0
 10
7.2384035954
 20
3.5553980389
 30
0.0
 10
7.201793693
 20
3.5507523257
 30
0.0
 10
7.1657258806
 20
3.5465319035
 30
0.0
 10
7.1311003617
 20
3.542865227
 30
0.0
 10
7.10353676
 20
3.540308097
 30
0.0
 10
7.0828596738
 20
3.5386521873
 30
0.0
 10
7.0686252871
 20
3.5376479401
 30
0.0
 10
7.055372234
 20
3.5368590309
 30
0.0
 10
7.0431867652
 20
3.5362922261
 30
0.0
 10
7.0321478729
 20
3.5359524255
 30
0.0
 10
7.0223274461
 20
3.5358414637
 30
0.0
 10
7.0149349533
 20
3.5359426825
 30
0.0
 10
7.0096794948
 20
3.5361542374
 30
0.0
 10
7.0062441051
 20
3.5363635674
 30
0.0
 10
7.003154954
 20
3.5366294618
 30
0.0
 10
7.0004163476
 20
3.5369507852
 30
0.0
 10
6.9980319009
 20
3.5373263204
 30
0.0
 10
6.9960040247
 20
3.537754556
 30
0.0
 10
6.9943349708
 20
3.5382346516
 30
0.0
 10
6.9931795835
 20
3.5387002622
 30
0.0
 10
6.992449569
 20
3.5391116564
 30
0.0
 10
6.992025536
 20
3.5394151615
 30
0.0
 10
6.9916915497
 20
3.539732871
 30
0.0
 10
6.9914484123
 20
3.540066395
 30
0.0
 10
6.9912989075
 20
3.54041698
 30
0.0
 10
6.9912470364
 20
3.540782821
 30
0.0
 10
6.9912933858
 20
3.5411590835
 30
0.0
 10
6.9914346371
 20
3.5415427631
 30
0.0
 10
6.9916676174
 20
3.5419341506
 30
0.0
 10
6.9919910333
 20
3.5423345057
 30
0.0
 10
6.9924046029
 20
3.5427447942
 30
0.0
 10
6.9931169447
 20
3.5433389778
 30
0.0
 10
6.9942488478
 20
3.5440965049
 30
0.0
 10
6.995895206
 20
3.5450029627
 30
0.0
 10
6.9978974514
 20
3.5459494525
 30
0.0
 10
7.0002527855
 20
3.5469338828
 30
0.0
 10
7.0029585285
 20
3.5479539708
 30
0.0
 10
7.006010732
 20
3.5490073294
 30
0.0
 10
7.0094044898
 20
3.550091956
 30
0.0
 10
7.0117867391
 20
3.5508032897
 30
0.0
 10
7.0130333231
 20
3.5511649303
 30
0.0
  0
SPLINE
  5
2CB
100
AcDbEntity
  8
0
100
AcDbSpline
 62
7
  6
CONTINUOUS
 70
0
 71
3
 72
14
 73
10
 74
0
 42
0.0000001
 43
0.0000001
 44
0.0000000001
 40
0.0
 40
0.0
 40
0.0
 40
0.0
 40
0.0869198082
 40
0.1860223908
 40
0.2967193866
 40
0.4183878479
 40
0.5503448583
 40
0.6918781474
 40
1.0
 40
1.0
 40
1.0
 40
1.0
 10
7.0130333231
 20
3.5511649303
 30
0.0
 10
7.0157735831
 20
3.551959894
 30
0.0
 10
7.021667031
 20
3.5535621031
 30
0.0
 10
7.0311248162
 20
3.5558929441
 30
0.0
 10
7.0417374561
 20
3.5582963396
 30
0.0
 10
7.053441767
 20
3.5607546904
 30
0.0
 10
7.0661707625
 20
3.5632531523
 30
0.0
 10
7.0849467813
 20
3.5667144219
 30
0.0
 10
7.0995033375
 20
3.5691660337
 30
0.0
 10
7.1094900274
 20
3.5707685888
 30
0.0
  0
LINE
  5
2CC
100
AcDbEntity
  8
0
100
AcDbLine
 62
7
  6
CONTINUOUS
 10
7.5806248277
 20
3.6091825915
 11
7.3434973169
 21
3.5707685888
  0
LINE
  5
2CD
100
AcDbEntity
  8
0
100
AcDbLine
 62
7
  6
CONTINUOUS
 10
6.3081414624
 20
3.447453059
 11
6.3136967661
 21
3.4473462792
  0
SPLINE
  5
2CE
100
AcDbEntity
  8
0
100
AcDbSpline
 62
7
  6
CONTINUOUS
 70
0
 71
3
 72
11
 73
7
 74
0
 42
0.0000001
 43
0.0000001
 44
0.0000000001
 40
0.0
 40
0.0
 40
0.0
 40
0.0
 40
0.2109431223
 40
0.4498674128
 40
0.7140642403
 40
1.0
 40
1.0
 40
1.0
 40
1.0
 10
6.7563062911
 20
3.4969022604
 30
0.0
 10
6.7504390704
 20
3.4956245576
 30
0.0
 10
6.7378994428
 20
3.4930230583
 30
0.0
 10
6.7179431338
 20
3.4891587255
 30
0.0
 10
6.6958485792
 20
3.4851141116
 30
0.0
 10
6.6804218028
 20
3.4824197591
 30
0.0
 10
6.672399121
 20
3.4810458135
 30
0.0
  0
LINE
  5
2CF
100
AcDbEntity
  8
0
100
AcDbLine
 62
7
  6
CONTINUOUS
 10
4.385351362
 20
3.4622871712
 11
4.5334367524
 21
3.4390071456
  0
LINE
  5
2D0
100
AcDbEntity
  8
0
100
AcDbLine
 62
7
  6
CONTINUOUS
 10
4.5334367524
 20
3.4390071456
 11
4.5342094827
 21
3.4388861492
  0
SPLINE
  5
2D1
100
AcDbEntity
  8
0
100
AcDbSpline
 62
7
  6
CONTINUOUS
 70
0
 71
3
 72
12
 73
8
 74
0
 42
0.0000001
 43
0.0000001
 44
0.0000000001
 40
0.0
 40
0.0
 40
0.0
 40
0.0
 40
0.0861628122
 40
0.1838371282
 40
0.4129788513
 40
0.6857061438
 40
1.0
 40
1.0
 40
1.0
 40
1.0
 10
4.2852777814
 20
3.4531325436
 30
0.0
 10
4.2902868701
 20
3.4530126975
 30
0.0
 10
4.3009747382
 20
3.4527764508
 30
0.0
 10
4.3249856422
 20
3.4523077036
 30
0.0
 10
4.3598455399
 20
3.4517353864
 30
0.0
 10
4.4073023225
 20
3.4510761286
 30
0.0
 10
4.4414361829
 20
3.4506637153
 30
0.0
 10
4.4597117343
 20
3.4504542201
 30
0.0
  0
SPLINE
  5
2D2
100
AcDbEntity
  8
0
100
AcDbSpline
 62
7
  6
CONTINUOUS
 70
0
 71
3
 72
10
 73
6
 74
0
 42
0.0000001
 43
0.0000001
 44
0.0000000001
 40
0.0
 40
0.0
 40
0.0
 40
0.0
 40
0.2094714809
 40
0.446357883
 40
1.0
 40
1.0
 40
1.0
 40
1.0
 10
4.2899501473
 20
3.4571016465
 30
0.0
 10
4.2965059778
 20
3.4568609398
 30
0.0
 10
4.3104770538
 20
3.4563862493
 30
0.0
 10
4.341781027
 20
3.4554442862
 30
0.0
 10
4.3665310322
 20
3.4548153917
 30
0.0
 10
4.3838651791
 20
3.4544044633
 30
0.0
  0
LINE
  5
2D3
100
AcDbEntity
  8
0
100
AcDbLine
 62
7
  6
CONTINUOUS
 10
4.2855139009
 20
3.453936043
 11
4.1144430394
 21
3.4810458135
  0
SPLINE
  5
2D4
100
AcDbEntity
  8
0
100
AcDbSpline
 62
7
  6
CONTINUOUS
 70
0
 71
3
 72
11
 73
7
 74
0
 42
0.0000001
 43
0.0000001
 44
0.0000000001
 40
0.0
 40
0.0
 40
0.0
 40
0.0
 40
0.2859094582
 40
0.5500976458
 40
0.7890449014
 40
1.0
 40
1.0
 40
1.0
 40
1.0
 10
4.1144430394
 20
3.4810458135
 30
0.0
 10
4.1064205894
 20
3.4824197242
 30
0.0
 10
4.0909938151
 20
3.4851140576
 30
0.0
 10
4.068898202
 20
3.4891588784
 30
0.0
 10
4.048939899
 20
3.4930236079
 30
0.0
 10
4.0363985117
 20
3.4956255095
 30
0.0
 10
4.0305306014
 20
3.4969034312
 30
0.0
  0
LINE
  5
2D5
100
AcDbEntity
  8
0
100
AcDbLine
 62
7
  6
CONTINUOUS
 10
6.672399121
 20
3.4810458135
 11
6.5013282595
 21
3.453936043
  0
SPLINE
  5
2D6
100
AcDbEntity
  8
0
100
AcDbSpline
 62
7
  6
CONTINUOUS
 70
0
 71
3
 72
26
 73
22
 74
0
 42
0.0000001
 43
0.0000001
 44
0.0000000001
 40
0.0
 40
0.0
 40
0.0
 40
0.0
 40
0.1715812
 40
0.2557813233
 40
0.3381083517
 40
0.4179683393
 40
0.4947958857
 40
0.568055607
 40
0.6372493192
 40
0.701917943
 40
0.7616450158
 40
0.8160607457
 40
0.864847818
 40
0.8870496307
 40
0.9077541685
 40
0.9269420174
 40
0.944599387
 40
0.9607216359
 40
0.9753129306
 40
0.9883928493
 40
1.0
 40
1.0
 40
1.0
 40
1.0
 10
5.3934210802
 20
3.5094781408
 30
0.0
 10
5.375881324
 20
3.5094781694
 30
0.0
 10
5.349731483
 20
3.5098984873
 30
0.0
 10
5.3151963445
 20
3.5113096246
 30
0.0
 10
5.290050144
 20
3.5127610779
 30
0.0
 10
5.2656845026
 20
3.5145919251
 30
0.0
 10
5.2422787877
 20
3.5167775999
 30
0.0
 10
5.2200027116
 20
3.5192899397
 30
0.0
 10
5.1990151741
 20
3.5220979505
 30
0.0
 10
5.1794634331
 20
3.5251687029
 30
0.0
 10
5.1614823391
 20
3.5284677682
 30
0.0
 10
5.1451945717
 20
3.5319604306
 30
0.0
 10
5.1327597377
 20
3.5350928775
 30
0.0
 10
5.1237539845
 20
3.5376949298
 30
0.0
 10
5.1177022507
 20
3.5396126982
 30
0.0
 10
5.1121478345
 20
3.5415541834
 30
0.0
 10
5.1070996699
 20
3.5435155791
 30
0.0
 10
5.102565734
 20
3.5454926818
 30
0.0
 10
5.0985527279
 20
3.5474820413
 30
0.0
 10
5.0950667795
 20
3.5494797797
 30
0.0
 10
5.0929748012
 20
3.5508980747
 30
0.0
 10
5.0920283
 20
3.5516136121
 30
0.0
  0
SPLINE
  5
2D7
100
AcDbEntity
  8
0
100
AcDbSpline
 62
7
  6
CONTINUOUS
 70
0
 71
3
 72
17
 73
13
 74
0
 42
0.0000001
 43
0.0000001
 44
0.0000000001
 40
0.0
 40
0.0
 40
0.0
 40
0.0
 40
0.1714676
 40
0.3322599855
 40
0.4807736505
 40
0.6157734876
 40
0.7361475945
 40
0.8408849989
 40
0.8870923961
 40
0.9290656128
 40
0.9667261877
 40
1.0
 40
1.0
 40
1.0
 40
1.0
 10
4.1018086934
 20
3.4622871712
 30
0.0
 10
4.0944839118
 20
3.4634529098
 30
0.0
 10
4.0802962307
 20
3.4657488814
 30
0.0
 10
4.0597880157
 20
3.4691989946
 30
0.0
 10
4.040859798
 20
3.4725296004
 30
0.0
 10
4.0236820854
 20
3.4757163594
 30
0.0
 10
4.0084009186
 20
3.4787392622
 30
0.0
 10
3.9969239039
 20
3.4811956001
 30
0.0
 10
3.9887951153
 20
3.4830829628
 30
0.0
 10
3.9835099039
 20
3.4843864515
 30
0.0
 10
3.9787881898
 20
3.4856355917
 30
0.0
 10
3.9758389655
 20
3.4864835607
 30
0.0
 10
3.9744618808
 20
3.4869021042
 30
0.0
  0
SPLINE
  5
2D8
100
AcDbEntity
  8
0
100
AcDbSpline
 62
7
  6
CONTINUOUS
 70
0
 71
3
 72
12
 73
8
 74
0
 42
0.0000001
 43
0.0000001
 44
0.0000000001
 40
0.0
 40
0.0
 40
0.0
 40
0.0
 40
0.3245251842
 40
0.5992278903
 40
0.8241626563
 40
0.918146014
 40
1.0
 40
1.0
 40
1.0
 40
1.0
 10
3.9744618808
 20
3.4869021042
 30
0.0
 10
3.9732793683
 20
3.4872615105
 30
0.0
 10
3.9711040724
 20
3.4879532685
 30
0.0
 10
3.9681504612
 20
3.489017349
 30
0.0
 10
3.9660652132
 20
3.4898963829
 30
0.0
 10
3.9647012745
 20
3.4905825677
 30
0.0
 10
3.9641204873
 20
3.4909171382
 30
0.0
 10
3.9638569185
 20
3.4910835989
 30
0.0
  0
SPLINE
  5
2D9
100
AcDbEntity
  8
0
100
AcDbSpline
 62
7
  6
CONTINUOUS
 70
0
 71
3
 72
19
 73
15
 74
0
 42
0.0000001
 43
0.0000001
 44
0.0000000001
 40
0.0
 40
0.0
 40
0.0
 40
0.0
 40
0.1671177513
 40
0.2984776494
 40
0.3525274212
 40
0.4003145268
 40
0.443660621
 40
0.4849844797
 40
0.5270605351
 40
0.572530728
 40
0.6235165007
 40
0.681541343
 40
0.8223631122
 40
1.0
 40
1.0
 40
1.0
 40
1.0
 10
3.9638569185
 20
3.4910835989
 30
0.0
 10
3.9635652499
 20
3.4912678063
 30
0.0
 10
3.9630583486
 20
3.4916198332
 30
0.0
 10
3.9625253358
 20
3.4921241427
 30
0.0
 10
3.9622493463
 20
3.4925207431
 30
0.0
 10
3.9621222715
 20
3.4927942391
 30
0.0
 10
3.9620630467
 20
3.4930638731
 30
0.0
 10
3.9620744601
 20
3.4933284055
 30
0.0
 10
3.9621570157
 20
3.4935843926
 30
0.0
 10
3.9623082304
 20
3.493829735
 30
0.0
 10
3.9625256973
 20
3.4940650535
 30
0.0
 10
3.9629297417
 20
3.4943878752
 30
0.0
 10
3.9636176773
 20
3.4947599264
 30
0.0
 10
3.9642329986
 20
3.4949937727
 30
0.0
 10
3.9645806392
 20
3.4951103987
 30
0.0
  0
SPLINE
  5
2DA
100
AcDbEntity
  8
0
100
AcDbSpline
 62
7
  6
CONTINUOUS
 70
0
 71
3
 72
14
 73
10
 74
0
 42
0.0000001
 43
0.0000001
 44
0.0000000001
 40
0.0
 40
0.0
 40
0.0
 40
0.0
 40
0.0754724685
 40
0.1649115367
 40
0.2685140275
 40
0.3863799245
 40
0.5185395239
 40
0.6649318433
 40
1.0
 40
1.0
 40
1.0
 40
1.0
 10
3.9645806392
 20
3.4951103987
 30
0.0
 10
3.9650046245
 20
3.4952526366
 30
0.0
 10
3.9659461908
 20
3.495518292
 30
0.0
 10
3.9675016499
 20
3.4958556726
 30
0.0
 10
3.969318392
 20
3.4961643819
 30
0.0
 10
3.9713953792
 20
3.4964438744
 30
0.0
 10
3.9737312513
 20
3.4966936985
 30
0.0
 10
3.9773544407
 20
3.4970007957
 30
0.0
 10
3.9802033602
 20
3.4971623385
 30
0.0
 10
3.982186762
 20
3.4972520372
 30
0.0
  0
SPLINE
  5
2DB
100
AcDbEntity
  8
0
100
AcDbSpline
 62
7
  6
CONTINUOUS
 70
0
 71
3
 72
23
 73
19
 74
0
 42
0.0000001
 43
0.0000001
 44
0.0000000001
 40
0.0
 40
0.0
 40
0.0
 40
0.0
 40
0.0147963075
 40
0.0314069187
 40
0.049785635
 40
0.0698804155
 40
0.1149985937
 40
0.1662485309
 40
0.223049014
 40
0.2847423731
 40
0.350623523
 40
0.41993381
 40
0.5656545284
 40
0.7153127187
 40
0.7895181082
 40
0.8622248333
 40
0.9326671307
 40
1.0
 40
1.0
 40
1.0
 40
1.0
 10
3.982186762
 20
3.4972520372
 30
0.0
 10
3.9841774169
 20
3.497342064
 30
0.0
 10
3.9884051193
 20
3.4974832068
 30
0.0
 10
3.9951093589
 20
3.4975907403
 30
0.0
 10
4.0025279933
 20
3.4976060168
 30
0.0
 10
4.0137853677
 20
3.4974983708
 30
0.0
 10
4.0294660804
 20
3.4971111844
 30
0.0
 10
4.0500786378
 20
3.4963012044
 30
0.0
 10
4.072909359
 20
3.4951311708
 30
0.0
 10
4.0976936786
 20
3.4936088656
 30
0.0
 10
4.1241437867
 20
3.4917441008
 30
0.0
 10
4.1618586825
 20
3.4887678508
 30
0.0
 10
4.2107728182
 20
3.4843131673
 30
0.0
 10
4.2602674613
 20
3.4790277801
 30
0.0
 10
4.2999250648
 20
3.4742782848
 30
0.0
 10
4.3289567727
 20
3.4705303629
 30
0.0
 10
4.3570326685
 20
3.4666186949
 30
0.0
 10
4.3753810835
 20
3.4638551638
 30
0.0
 10
4.3843390577
 20
3.4624466031
 30
0.0
  0
LINE
  5
2DC
100
AcDbEntity
  8
0
100
AcDbLine
 62
7
  6
CONTINUOUS
 10
4.3843390577
 20
3.4624466031
 11
4.385351362
 21
3.4622871712
  0
LINE
  5
2DD
100
AcDbEntity
  8
0
100
AcDbLine
 62
7
  6
CONTINUOUS
 10
4.2493560971
 20
3.438886149
 11
4.1018086934
 21
3.4622871712
  0
LINE
  5
2DE
100
AcDbEntity
  8
0
100
AcDbLine
 62
7
  6
CONTINUOUS
 10
6.6850334669
 20
3.4622871712
 11
6.5374860619
 21
3.4388861487
  0
LINE
  5
2DF
100
AcDbEntity
  8
0
100
AcDbLine
 62
7
  6
CONTINUOUS
 10
6.4014907984
 20
3.4622871712
 11
6.40250584
 21
3.4624470332
  0
SPLINE
  5
2E0
100
AcDbEntity
  8
0
100
AcDbSpline
 62
7
  6
CONTINUOUS
 70
0
 71
3
 72
23
 73
19
 74
0
 42
0.0000001
 43
0.0000001
 44
0.0000000001
 40
0.0
 40
0.0
 40
0.0
 40
0.0
 40
0.0677320372
 40
0.1386190227
 40
0.2118000809
 40
0.2864795011
 40
0.4369759156
 40
0.5832513384
 40
0.652687774
 40
0.7185677281
 40
0.7801184847
 40
0.8366217621
 40
0.8874100656
 40
0.9318964345
 40
0.9516105549
 40
0.9695657572
 40
0.9857106707
 40
1.0
 40
1.0
 40
1.0
 40
1.0
 10
6.40250584
 20
3.4624470332
 30
0.0
 10
6.4115566324
 20
3.463870175
 30
0.0
 10
6.430098975
 20
3.4666616837
 30
0.0
 10
6.4584758757
 20
3.4706104337
 30
0.0
 10
6.4878233523
 20
3.4743917574
 30
0.0
 10
6.5278972139
 20
3.4791781461
 30
0.0
 10
6.5778633296
 20
3.4844930493
 30
0.0
 10
6.6272001614
 20
3.4889590716
 30
0.0
 10
6.6651750149
 20
3.4919290756
 30
0.0
 10
6.6917408716
 20
3.4937796995
 30
0.0
 10
6.7165764225
 20
3.4952798339
 30
0.0
 10
6.7393874799
 20
3.4964196733
 30
0.0
 10
6.7599042557
 20
3.4971915641
 30
0.0
 10
6.7754556473
 20
3.4975401071
 30
0.0
 10
6.7865686977
 20
3.4976114532
 30
0.0
 10
6.7938481638
 20
3.4975681041
 30
0.0
 10
6.8003925427
 20
3.4974308171
 30
0.0
 10
6.8045064644
 20
3.4972669672
 30
0.0
 10
6.8064366548
 20
3.497164789
 30
0.0
  0
SPLINE
  5
2E1
100
AcDbEntity
  8
0
100
AcDbSpline
 62
7
  6
CONTINUOUS
 70
0
 71
3
 72
11
 73
7
 74
0
 42
0.0000001
 43
0.0000001
 44
0.0000000001
 40
0.0
 40
0.0
 40
0.0
 40
0.0
 40
0.3108697182
 40
0.5813403797
 40
0.8110596976
 40
1.0
 40
1.0
 40
1.0
 40
1.0
 10
6.8064366548
 20
3.497164789
 30
0.0
 10
6.8078841186
 20
3.4970881648
 30
0.0
 10
6.8105896686
 20
3.4969182731
 30
0.0
 10
6.8143568542
 20
3.4965793361
 30
0.0
 10
6.8175452142
 20
3.4961750056
 30
0.0
 10
6.8194684094
 20
3.4958303851
 30
0.0
 10
6.8203279129
 20
3.4956370889
 30
0.0
  0
SPLINE
  5
2E2
100
AcDbEntity
  8
0
100
AcDbSpline
 62
7
  6
CONTINUOUS
 70
0
 71
3
 72
22
 73
18
 74
0
 42
0.0000001
 43
0.0000001
 44
0.0000000001
 40
0.0
 40
0.0
 40
0.0
 40
0.0
 40
0.1992207188
 40
0.2827029143
 40
0.3557621688
 40
0.4188374102
 40
0.472632064
 40
0.5183046687
 40
0.5577721361
 40
0.5939587437
 40
0.6305702158
 40
0.6711841166
 40
0.7184679327
 40
0.7741297134
 40
0.839213791
 40
0.9143662709
 40
1.0
 40
1.0
 40
1.0
 40
1.0
 10
6.8203279129
 20
3.4956370889
 30
0.0
 10
6.82090572
 20
3.4955071442
 30
0.0
 10
6.8217214485
 20
3.4952989212
 30
0.0
 10
6.8227218302
 20
3.4949540298
 30
0.0
 10
6.8233237371
 20
3.494699463
 30
0.0
 10
6.8238228909
 20
3.4944334646
 30
0.0
 10
6.8242199141
 20
3.4941552267
 30
0.0
 10
6.8245152669
 20
3.4938626928
 30
0.0
 10
6.8247072579
 20
3.4935519901
 30
0.0
 10
6.8247883376
 20
3.4932217698
 30
0.0
 10
6.824752976
 20
3.4928804352
 30
0.0
 10
6.8246073769
 20
3.4925357354
 30
0.0
 10
6.8243584083
 20
3.4921862016
 30
0.0
 10
6.8240075911
 20
3.4918285956
 30
0.0
 10
6.8235546057
 20
3.4914611715
 30
0.0
 10
6.8229989205
 20
3.4910832189
 30
0.0
 10
6.8225869951
 20
3.490840186
 30
0.0
 10
6.8223647499
 20
3.4907160371
 30
0.0
  0
SPLINE
  5
2E3
100
AcDbEntity
  8
0
100
AcDbSpline
 62
7
  6
CONTINUOUS
 70
0
 71
3
 72
12
 73
8
 74
0
 42
0.0000001
 43
0.0000001
 44
0.0000000001
 40
0.0
 40
0.0
 40
0.0
 40
0.0
 40
0.084660623
 40
0.180748011
 40
0.4075203153
 40
0.6806374086
 40
1.0
 40
1.0
 40
1.0
 40
1.0
 10
6.8223647499
 20
3.4907160371
 30
0.0
 10
6.8220599647
 20
3.4905457804
 30
0.0
 10
6.8213975028
 20
3.4902032346
 30
0.0
 10
6.819870387
 20
3.4895008884
 30
0.0
 10
6.8175820802
 20
3.4885997957
 30
0.0
 10
6.8143844799
 20
3.487507682
 30
0.0
 10
6.8120468996
 20
3.48679554
 30
0.0
 10
6.8107827524
 20
3.4864263448
 30
0.0
  0
SPLINE
  5
2E4
100
AcDbEntity
  8
0
100
AcDbSpline
 62
7
  6
CONTINUOUS
 70
0
 71
3
 72
17
 73
13
 74
0
 42
0.0000001
 43
0.0000001
 44
0.0000000001
 40
0.0
 40
0.0
 40
0.0
 40
0.0
 40
0.0345593035
 40
0.0733189825
 40
0.1162029504
 40
0.1631317285
 40
0.2687567486
 40
0.3893124511
 40
0.5238352252
 40
0.6712942239
 40
0.8305258721
 40
1.0
 40
1.0
 40
1.0
 40
1.0
 10
6.8107827524
 20
3.4864263448
 30
0.0
 10
6.8093662373
 20
3.4860126504
 30
0.0
 10
6.8063495241
 20
3.4851742913
 30
0.0
 10
6.8015442602
 20
3.4839366348
 30
0.0
 10
6.7962073527
 20
3.4826481266
 30
0.0
 10
6.7880712312
 20
3.4807909202
 30
0.0
 10
6.7766611814
 20
3.4783773414
 30
0.0
 10
6.7615471511
 20
3.475410529
 30
0.0
 10
6.744644062
 20
3.4722899526
 30
0.0
 10
6.7260874037
 20
3.469034257
 30
0.0
 10
6.7060358732
 20
3.4656659336
 30
0.0
 10
6.6921801045
 20
3.4634245545
 30
0.0
 10
6.6850334669
 20
3.4622871712
 30
0.0
  0
LINE
  5
2E5
100
AcDbEntity
  8
0
100
AcDbLine
 62
7
  6
CONTINUOUS
 10
6.252632678
 20
3.4388861493
 11
6.2534051308
 21
3.4390071022
  0
LINE
  5
2E6
100
AcDbEntity
  8
0
100
AcDbLine
 62
7
  6
CONTINUOUS
 10
6.2534051308
 20
3.4390071022
 11
6.4014907984
 21
3.4622871712
  0
LINE
  5
2E7
100
AcDbEntity
  8
0
100
AcDbLine
 62
7
  6
CONTINUOUS
 10
3.4433448434
 20
3.5707685888
 11
3.2062173327
 21
3.6091825915
  0
SPLINE
  5
2E8
100
AcDbEntity
  8
0
100
AcDbSpline
 62
7
  6
CONTINUOUS
 70
0
 71
3
 72
19
 73
15
 74
0
 42
0.0000001
 43
0.0000001
 44
0.0000000001
 40
0.0
 40
0.0
 40
0.0
 40
0.0
 40
0.1537313897
 40
0.3045674922
 40
0.4495565194
 40
0.5860247599
 40
0.650252254
 40
0.7114140194
 40
0.7692289369
 40
0.8234462464
 40
0.8738284695
 40
0.9201632242
 40
0.9622733888
 40
1.0
 40
1.0
 40
1.0
 40
1.0
 10
5.3934210802
 20
3.5758250811
 30
0.0
 10
5.4090024088
 20
3.5758250247
 30
0.0
 10
5.4398722188
 20
3.5755737772
 30
0.0
 10
5.4854248943
 20
3.5744463086
 30
0.0
 10
5.5292024204
 20
3.5725825255
 30
0.0
 10
5.5641739885
 20
3.5703985796
 30
0.0
 10
5.590629405
 20
3.5682690657
 30
0.0
 10
5.6091176586
 20
3.566537972
 30
0.0
 10
5.6265700292
 20
3.5646457747
 30
0.0
 10
5.6429046548
 20
3.5625997441
 30
0.0
 10
5.658045589
 20
3.5604068537
 30
0.0
 10
5.671923171
 20
3.5580744842
 30
0.0
 10
5.6844737142
 20
3.5556127171
 30
0.0
 10
5.6923597736
 20
3.553788954
 30
0.0
 10
5.6960647186
 20
3.5528431937
 30
0.0
  0
SPLINE
  5
2E9
100
AcDbEntity
  8
0
100
AcDbSpline
 62
7
  6
CONTINUOUS
 70
0
 71
3
 72
47
 73
43
 74
0
 42
0.0000001
 43
0.0000001
 44
0.0000000001
 40
0.0
 40
0.0
 40
0.0
 40
0.0
 40
0.02394775
 40
0.0347933084
 40
0.0448816716
 40
0.0542138002
 40
0.0627955395
 40
0.0706366812
 40
0.0777524234
 40
0.0841657809
 40
0.0899123192
 40
0.0950454919
 40
0.0996418448
 40
0.1038092204
 40
0.107693146
 40
0.1114735575
 40
0.1153446346
 40
0.119487168
 40
0.1240491419
 40
0.1291403565
 40
0.1348377531
 40
0.1411945953
 40
0.1482474309
 40
0.1560199157
 40
0.1645272844
 40
0.1737792031
 40
0.1837802114
 40
0.2060284745
 40
0.2182721912
 40
0.2312540397
 40
0.2594000642
 40
0.2903896616
 40
0.3241259462
 40
0.3604957617
 40
0.3993711981
 40
0.4406119145
 40
0.4840657555
 40
0.5769463285
 40
0.6765890074
 40
0.7814324325
 40
0.8898133198
 40
1.0
 40
1.0
 40
1.0
 40
1.0
 10
5.6960647186
 20
3.5528431937
 30
0.0
 10
5.6990964918
 20
3.5520692738
 30
0.0
 10
5.7034819586
 20
3.5508634785
 30
0.0
 10
5.7090710341
 20
3.5490862608
 30
0.0
 10
5.7128029917
 20
3.547776174
 30
0.0
 10
5.7162121005
 20
3.5464455474
 30
0.0
 10
5.7192957569
 20
3.5450955652
 30
0.0
 10
5.7220517259
 20
3.5437272522
 30
0.0
 10
5.7244779874
 20
3.5423414927
 30
0.0
 10
5.7265728039
 20
3.540938681
 30
0.0
 10
5.7283349734
 20
3.5395186786
 30
0.0
 10
5.7297639493
 20
3.5380808186
 30
0.0
 10
5.7308582017
 20
3.5366228473
 30
0.0
 10
5.7316132604
 20
3.5351417492
 30
0.0
 10
5.7320197504
 20
3.5336371085
 30
0.0
 10
5.732068756
 20
3.5321168209
 30
0.0
 10
5.7317602186
 20
3.5305940328
 30
0.0
 10
5.7311026788
 20
3.5290772149
 30
0.0
 10
5.7301048911
 20
3.527567209
 30
0.0
 10
5.7287720959
 20
3.5260614478
 30
0.0
 10
5.727106649
 20
3.5245576793
 30
0.0
 10
5.7251095867
 20
3.5230551567
 30
0.0
 10
5.7227819375
 20
3.5215542647
 30
0.0
 10
5.7201253493
 20
3.5200557417
 30
0.0
 10
5.7171418423
 20
3.5185608369
 30
0.0
 10
5.7138338328
 20
3.51707099
 30
0.0
 10
5.7088132536
 20
3.5150198952
 30
0.0
 10
5.7033317374
 20
3.513073659
 30
0.0
 10
5.6974201392
 20
3.5111945346
 30
0.0
 10
5.6907312398
 20
3.5092208931
 30
0.0
 10
5.6816196156
 20
3.5068116289
 30
0.0
 10
5.6697985043
 20
3.5040649465
 30
0.0
 10
5.6568587443
 20
3.5014049373
 30
0.0
 10
5.6428500842
 20
3.4988461035
 30
0.0
 10
5.627826618
 20
3.4964030141
 30
0.0
 10
5.6118468436
 20
3.4940899421
 30
0.0
 10
5.5888334752
 20
3.4911324039
 30
0.0
 10
5.5581676145
 20
3.4878885877
 30
0.0
 10
5.5194331093
 20
3.4848001418
 30
0.0
 10
5.47861378
 20
3.4825243997
 30
0.0
 10
5.4363768622
 20
3.481129493
 30
0.0
 10
5.4078179819
 20
3.4808171048
 30
0.0
 10
5.3934210802
 20
3.4808170836
 30
0.0
  0
LINE
  5
2EA
100
AcDbEntity
  8
0
100
AcDbLine
 62
7
  6
CONTINUOUS
 10
4.8535564508
 20
3.8981642594
 11
4.8539737595
 21
3.9073160699
  0
LINE
  5
2EB
100
AcDbEntity
  8
0
100
AcDbLine
 62
7
  6
CONTINUOUS
 10
5.9328684008
 20
3.9073160699
 11
5.9332857096
 21
3.8981642591
  0
LINE
  5
2EC
100
AcDbEntity
  8
0
100
AcDbLine
 62
7
  6
CONTINUOUS
 10
3.4621476106
 20
3.5989065522
 11
3.4390553765
 21
3.6026444203
  0
LINE
  5
2ED
100
AcDbEntity
  8
0
100
AcDbLine
 62
7
  6
CONTINUOUS
 10
3.4390553765
 20
3.6026444203
 11
3.4358047082
 21
3.6031706469
  0
LINE
  5
2EE
100
AcDbEntity
  8
0
100
AcDbLine
 62
7
  6
CONTINUOUS
 10
3.4358047082
 20
3.6031706469
 11
3.2638336449
 21
3.6310259945
  0
LINE
  5
2EF
100
AcDbEntity
  8
0
100
AcDbLine
 62
7
  6
CONTINUOUS
 10
7.522992452
 20
3.6310233909
 11
7.3510374627
 21
3.6031706486
  0
LINE
  5
2F0
100
AcDbEntity
  8
0
100
AcDbLine
 62
7
  6
CONTINUOUS
 10
7.3510374627
 20
3.6031706486
 11
7.3469225262
 21
3.6025045141
  0
LINE
  5
2F1
100
AcDbEntity
  8
0
100
AcDbLine
 62
7
  6
CONTINUOUS
 10
7.3469225262
 20
3.6025045141
 11
7.3246945498
 21
3.5989065522
  0
SPLINE
  5
2F2
100
AcDbEntity
  8
0
100
AcDbSpline
 62
7
  6
CONTINUOUS
 70
0
 71
3
 72
15
 73
11
 74
0
 42
0.0000001
 43
0.0000001
 44
0.0000000001
 40
0.0
 40
0.0
 40
0.0
 40
0.0
 40
0.1172177243
 40
0.2410074536
 40
0.3691904743
 40
0.4996717637
 40
0.6302261846
 40
0.7586144183
 40
0.8826045146
 40
1.0
 40
1.0
 40
1.0
 40
1.0
 10
7.3246945498
 20
3.5989065522
 30
0.0
 10
7.3167141591
 20
3.5974240461
 30
0.0
 10
7.300288451
 20
3.5944696119
 30
0.0
 10
7.2750841608
 20
3.5901872155
 30
0.0
 10
7.2489355964
 20
3.5859856062
 30
0.0
 10
7.2222883564
 20
3.5819412874
 30
0.0
 10
7.1955920673
 20
3.5781323625
 30
0.0
 10
7.1693063124
 20
3.5746363004
 30
0.0
 10
7.1438895959
 20
3.5715281639
 30
0.0
 10
7.127274064
 20
3.5697007268
 30
0.0
 10
7.11918708
 20
3.5688730009
 30
0.0
  0
SPLINE
  5
2F3
100
AcDbEntity
  8
0
100
AcDbSpline
 62
7
  6
CONTINUOUS
 70
0
 71
3
 72
14
 73
10
 74
0
 42
0.0000001
 43
0.0000001
 44
0.0000000001
 40
0.0
 40
0.0
 40
0.0
 40
0.0
 40
0.3055970905
 40
0.4463865701
 40
0.5780110879
 40
0.699804217
 40
0.8111246647
 40
0.9113781263
 40
1.0
 40
1.0
 40
1.0
 40
1.0
 10
3.6773521329
 20
3.5707685888
 30
0.0
 10
3.6870772778
 20
3.5692080043
 30
0.0
 10
3.7012662157
 20
3.5668210842
 30
0.0
 10
3.7195898245
 20
3.5634568516
 30
0.0
 10
3.7320605597
 20
3.5610240382
 30
0.0
 10
3.7435697402
 20
3.5586274191
 30
0.0
 10
3.7540554166
 20
3.5562805758
 30
0.0
 10
3.7634587171
 20
3.5539995273
 30
0.0
 10
3.7693422757
 20
3.5524336802
 30
0.0
 10
3.7720909184
 20
3.5516567675
 30
0.0
  0
SPLINE
  5
2F4
100
AcDbEntity
  8
0
100
AcDbSpline
 62
7
  6
CONTINUOUS
 70
0
 71
3
 72
51
 73
47
 74
0
 42
0.0000001
 43
0.0000001
 44
0.0000000001
 40
0.0
 40
0.0
 40
0.0
 40
0.0
 40
0.0106267305
 40
0.020384548
 40
0.02926003
 40
0.0372422711
 40
0.0443258185
 40
0.0505087709
 40
0.0557942042
 40
0.0601948865
 40
0.0620739895
 40
0.0637476477
 40
0.0652266534
 40
0.0665269853
 40
0.0676725021
 40
0.0686983475
 40
0.0696534298
 40
0.070598161
 40
0.0726853444
 40
0.0739328496
 40
0.075353116
 40
0.0769647031
 40
0.0787802062
 40
0.0830537791
 40
0.0882171132
 40
0.0942868652
 40
0.1012692205
 40
0.1091648928
 40
0.1179699745
 40
0.1276741185
 40
0.1382647828
 40
0.149728521
 40
0.1752114508
 40
0.2039660644
 40
0.2358161341
 40
0.2705551961
 40
0.3079607925
 40
0.3477889787
 40
0.3897815283
 40
0.4336667018
 40
0.5259727416
 40
0.6223484111
 40
0.7203662824
 40
0.8175689584
 40
0.9115680133
 40
1.0
 40
1.0
 40
1.0
 40
1.0
 10
3.7720909184
 20
3.5516567675
 30
0.0
 10
3.773393614
 20
3.5512885564
 30
0.0
 10
3.7758873415
 20
3.5505637857
 30
0.0
 10
3.7794476127
 20
3.549459322
 30
0.0
 10
3.7826639737
 20
3.548385599
 30
0.0
 10
3.785531167
 20
3.54734468
 30
0.0
 10
3.7880448769
 20
3.5463389966
 30
0.0
 10
3.7902018681
 20
3.5453708974
 30
0.0
 10
3.7919988704
 20
3.5444425506
 30
0.0
 10
3.7932550781
 20
3.543667798
 30
0.0
 10
3.7940667955
 20
3.5430603007
 30
0.0
 10
3.7945512672
 20
3.5426395155
 30
0.0
 10
3.7949443636
 20
3.542229143
 30
0.0
 10
3.7952460701
 20
3.5418285768
 30
0.0
 10
3.7954559078
 20
3.5414367453
 30
0.0
 10
3.7955720295
 20
3.5410523684
 30
0.0
 10
3.7955906019
 20
3.5406759336
 30
0.0
 10
3.7954785995
 20
3.5401742967
 30
0.0
 10
3.7951512214
 20
3.5397135308
 30
0.0
 10
3.7946925518
 20
3.5393180476
 30
0.0
 10
3.7942364713
 20
3.5390163496
 30
0.0
 10
3.7936893286
 20
3.5387287382
 30
0.0
 10
3.7927871755
 20
3.5383413171
 30
0.0
 10
3.7914188503
 20
3.5379046272
 30
0.0
 10
3.7894937503
 20
3.5374565817
 30
0.0
 10
3.7872060909
 20
3.5370617003
 30
0.0
 10
3.7845587795
 20
3.5367212301
 30
0.0
 10
3.7815547919
 20
3.536436689
 30
0.0
 10
3.7781984628
 20
3.5362092559
 30
0.0
 10
3.7744950929
 20
3.5360394056
 30
0.0
 10
3.7704507419
 20
3.5359276363
 30
0.0
 10
3.7643952306
 20
3.5358543328
 30
0.0
 10
3.7560250043
 20
3.5359251103
 30
0.0
 10
3.7450622905
 20
3.5362381176
 30
0.0
 10
3.7329282334
 20
3.5367820877
 30
0.0
 10
3.7197024366
 20
3.5375514589
 30
0.0
 10
3.7054723241
 20
3.5385402296
 30
0.0
 10
3.6903313368
 20
3.5397392035
 30
0.0
 10
3.6743787545
 20
3.5411379076
 30
0.0
 10
3.6517820532
 20
3.5432895734
 30
0.0
 10
3.6223180754
 20
3.5463971822
 30
0.0
 10
3.5860411031
 20
3.5506304098
 30
0.0
 10
3.5491887421
 20
3.5552986376
 30
0.0
 10
3.5126809875
 20
3.5602654204
 30
0.0
 10
3.4774292257
 20
3.5653941148
 30
0.0
 10
3.4544654106
 20
3.5689685584
 30
0.0
 10
3.4433448434
 20
3.5707685888
 30
0.0
  0
LINE
  5
2F5
100
AcDbEntity
  8
0
100
AcDbLine
 62
7
  6
CONTINUOUS
 10
5.9328684008
 20
3.9073160699
 11
5.8937294764
 21
3.898158606
  0
LINE
  5
2F6
100
AcDbEntity
  8
0
100
AcDbLine
 62
7
  6
CONTINUOUS
 10
6.3094482165
 20
3.4476683722
 11
6.3136967661
 21
3.4473462792
  0
SPLINE
  5
2F7
100
AcDbEntity
  8
0
100
AcDbSpline
 62
7
  6
CONTINUOUS
 70
0
 71
3
 72
17
 73
13
 74
0
 42
0.0000001
 43
0.0000001
 44
0.0000000001
 40
0.0
 40
0.0
 40
0.0
 40
0.0
 40
0.0411906086
 40
0.0840875551
 40
0.1773469802
 40
0.2288341169
 40
0.2838347263
 40
0.4045621385
 40
0.5389608056
 40
0.6849710458
 40
0.8398257577
 40
1.0
 40
1.0
 40
1.0
 40
1.0
 10
3.2062173327
 20
3.6091825915
 30
0.0
 10
3.206674742
 20
3.6091696195
 30
0.0
 10
3.2076127132
 20
3.6092285083
 30
0.0
 10
3.2095381491
 20
3.6096789867
 30
0.0
 10
3.2114308149
 20
3.6106242559
 30
0.0
 10
3.213216685
 20
3.6119444435
 30
0.0
 10
3.2150851277
 20
3.6136482554
 30
0.0
 10
3.2172931789
 20
3.6163144363
 30
0.0
 10
3.2196334833
 20
3.6201197104
 30
0.0
 10
3.2216707993
 20
3.624515885
 30
0.0
 10
3.2233429072
 20
3.6293650735
 30
0.0
 10
3.22417082
 20
3.6327713392
 30
0.0
 10
3.2245145189
 20
3.6345172321
 30
0.0
  0
SPLINE
  5
2F8
100
AcDbEntity
  8
0
100
AcDbSpline
 62
7
  6
CONTINUOUS
 70
0
 71
3
 72
18
 73
14
 74
0
 42
0.0000001
 43
0.0000001
 44
0.0000000001
 40
0.0
 40
0.0
 40
0.0
 40
0.0
 40
0.040497636
 40
0.082818587
 40
0.1755039188
 40
0.2270581544
 40
0.2823427012
 40
0.3414297312
 40
0.4042233422
 40
0.5398638073
 40
0.6868042269
 40
0.8417000602
 40
1.0
 40
1.0
 40
1.0
 40
1.0
 10
3.4433448434
 20
3.5707685888
 30
0.0
 10
3.4438332367
 20
3.5707529504
 30
0.0
 10
3.4448372601
 20
3.5708186979
 30
0.0
 10
3.4469011932
 20
3.5713306946
 30
0.0
 10
3.4489197732
 20
3.5724071457
 30
0.0
 10
3.4508114118
 20
3.5738991465
 30
0.0
 10
3.4522476706
 20
3.5752996219
 30
0.0
 10
3.453634866
 20
3.5769293631
 30
0.0
 10
3.4554520396
 20
3.5794533525
 30
0.0
 10
3.4575077902
 20
3.5830936861
 30
0.0
 10
3.459544401
 20
3.587974651
 30
0.0
 10
3.4611379149
 20
3.5933024163
 30
0.0
 10
3.4618690558
 20
3.5970169297
 30
0.0
 10
3.4621476106
 20
3.5989065522
 30
0.0
  0
SPLINE
  5
2F9
100
AcDbEntity
  8
0
100
AcDbSpline
 62
7
  6
CONTINUOUS
 70
0
 71
3
 72
17
 73
13
 74
0
 42
0.0000001
 43
0.0000001
 44
0.0000000001
 40
0.0
 40
0.0
 40
0.0
 40
0.0
 40
0.041190601
 40
0.0840875374
 40
0.1773469429
 40
0.2288340732
 40
0.2838346794
 40
0.4045620974
 40
0.5389607718
 40
0.6849710258
 40
0.8398257561
 40
1.0
 40
1.0
 40
1.0
 40
1.0
 10
7.5806248277
 20
3.6091825915
 30
0.0
 10
7.5801674181
 20
3.6091696195
 30
0.0
 10
7.5792294464
 20
3.6092285083
 30
0.0
 10
7.5773040095
 20
3.6096789872
 30
0.0
 10
7.5754113428
 20
3.6106242574
 30
0.0
 10
7.573625472
 20
3.6119444463
 30
0.0
 10
7.5717570283
 20
3.61364826
 30
0.0
 10
7.5695489763
 20
3.6163144438
 30
0.0
 10
7.5672086711
 20
3.6201197217
 30
0.0
 10
7.565171355
 20
3.6245159008
 30
0.0
 10
7.5634992474
 20
3.629365094
 30
0.0
 10
7.5626713352
 20
3.6327713628
 30
0.0
 10
7.5623276367
 20
3.6345172572
 30
0.0
  0
SPLINE
  5
2FA
100
AcDbEntity
  8
0
100
AcDbSpline
 62
7
  6
CONTINUOUS
 70
0
 71
3
 72
18
 73
14
 74
0
 42
0.0000001
 43
0.0000001
 44
0.0000000001
 40
0.0
 40
0.0
 40
0.0
 40
0.0
 40
0.0404976372
 40
0.0828185933
 40
0.1755039398
 40
0.2270581822
 40
0.2823427336
 40
0.3414297647
 40
0.4042233779
 40
0.5398638447
 40
0.6868042555
 40
0.841700069
 40
1.0
 40
1.0
 40
1.0
 40
1.0
 10
7.3434973169
 20
3.5707685888
 30
0.0
 10
7.3430089237
 20
3.5707529504
 30
0.0
 10
7.3420049002
 20
3.570818698
 30
0.0
 10
7.3399409668
 20
3.5713306949
 30
0.0
 10
7.3379223865
 20
3.572407146
 30
0.0
 10
7.3360307477
 20
3.5738991472
 30
0.0
 10
7.3345944889
 20
3.5752996227
 30
0.0
 10
7.3332072935
 20
3.5769293639
 30
0.0
 10
7.33139012
 20
3.5794533535
 30
0.0
 10
7.3293343693
 20
3.5830936871
 30
0.0
 10
7.3272977589
 20
3.5879746517
 30
0.0
 10
7.3257042451
 20
3.5933024167
 30
0.0
 10
7.3249731045
 20
3.5970169298
 30
0.0
 10
7.3246945498
 20
3.5989065522
 30
0.0
  0
SPLINE
  5
2FB
100
AcDbEntity
  8
0
100
AcDbSpline
 62
7
  6
CONTINUOUS
 70
0
 71
3
 72
18
 73
14
 74
0
 42
0.0000001
 43
0.0000001
 44
0.0000000001
 40
0.0
 40
0.0
 40
0.0
 40
0.0
 40
0.0404014679
 40
0.0825567012
 40
0.1272440561
 40
0.175055488
 40
0.2264140044
 40
0.2815287747
 40
0.4029685601
 40
0.5385700709
 40
0.6858455432
 40
0.8413340096
 40
1.0
 40
1.0
 40
1.0
 40
1.0
 10
4.1018086934
 20
3.4622871712
 30
0.0
 10
4.102134833
 20
3.4622678514
 30
0.0
 10
4.1028066428
 20
3.4622947827
 30
0.0
 10
4.1038150438
 20
3.4625223872
 30
0.0
 10
4.1048283249
 20
3.46293279
 30
0.0
 10
4.1058354969
 20
3.4635220265
 30
0.0
 10
4.1068257859
 20
3.4642857422
 30
0.0
 10
4.1081566302
 20
3.4655649554
 30
0.0
 10
4.1097153026
 20
3.4675673857
 30
0.0
 10
4.11133188
 20
3.4704190636
 30
0.0
 10
4.1127031084
 20
3.4736964115
 30
0.0
 10
4.1137695436
 20
3.4772784207
 30
0.0
 10
4.1142584526
 20
3.4797760891
 30
0.0
 10
4.1144430394
 20
3.4810458135
 30
0.0
  0
SPLINE
  5
2FC
100
AcDbEntity
  8
0
100
AcDbSpline
 62
7
  6
CONTINUOUS
 70
0
 71
3
 72
18
 73
14
 74
0
 42
0.0000001
 43
0.0000001
 44
0.0000000001
 40
0.0
 40
0.0
 40
0.0
 40
0.0
 40
0.0404014689
 40
0.0825566966
 40
0.1272440414
 40
0.1750554626
 40
0.2264139694
 40
0.2815287294
 40
0.4029685011
 40
0.5385700134
 40
0.6858455046
 40
0.8413339998
 40
1.0
 40
1.0
 40
1.0
 40
1.0
 10
6.6850334669
 20
3.4622871712
 30
0.0
 10
6.6847073274
 20
3.4622678514
 30
0.0
 10
6.6840355176
 20
3.4622947826
 30
0.0
 10
6.6830271166
 20
3.4625223869
 30
0.0
 10
6.6820138356
 20
3.4629327895
 30
0.0
 10
6.6810066639
 20
3.4635220259
 30
0.0
 10
6.680016375
 20
3.4642857415
 30
0.0
 10
6.6786855308
 20
3.4655649543
 30
0.0
 10
6.6771268583
 20
3.4675673843
 30
0.0
 10
6.6755102807
 20
3.4704190623
 30
0.0
 10
6.6741390521
 20
3.4736964106
 30
0.0
 10
6.6730726168
 20
3.4772784203
 30
0.0
 10
6.6725837077
 20
3.479776089
 30
0.0
 10
6.6723991209
 20
3.4810458135
 30
0.0
  0
ENDSEC
  0
SECTION
  2
OBJECTS
  0
DICTIONARY
  5
C
100
AcDbDictionary
280
0
281
1
  3
ACAD_GROUP
350
D
  3
ACAD_MLINESTYLE
350
17
  3
ACAD_LAYOUT
350
1A
  3
ACAD_PLOTSETTINGS
350
19
  3
ACAD_PLOTSTYLENAME
350
E
  0
DICTIONARY
  5
D
102
{ACAD_REACTORS
330
C
102
}
100
AcDbDictionary
280
0
281
1
  0
ACDBDICTIONARYWDFLT
  5
E
102
{ACAD_REACTORS
330
C
102
}
100
AcDbDictionary
281
1
  3
Normal
350
F
100
AcDbDictionaryWithDefault
340
F
  0
DICTIONARY
  5
17
102
{ACAD_REACTORS
330
C
102
}
100
AcDbDictionary
280
0
281
1
  3
Standard
350
18
  0
DICTIONARY
  5
19
102
{ACAD_REACTORS
330
C
102
}
100
AcDbDictionary
281
1
  0
DICTIONARY
  5
1A
102
{ACAD_REACTORS
330
C
102
}
100
AcDbDictionary
281
1
  3
Model
350
2FD
  3
Layout1
350
2FE
  0
ACDBPLACEHOLDER
  5
F
102
{ACAD_REACTORS
330
E
102
}
  0
MLINESTYLE
  5
18
102
{ACAD_REACTORS
330
17
102
}
100
AcDbMlineStyle
  2
STANDARD
 70
0
  3

 62
256
 51
90.0
 52
90.0
 71
2
 49
0.5
 62
256
  6
BYLAYER
 49
-0.5
 62
256
  6
BYLAYER
  0
LAYOUT
  5
2FD
102
{ACAD_REACTORS
330
1A
102
}
100
AcDbPlotSettings
  1

  2
none_device
  4
ANSI_A_(11.00_x_8.50_Inches)
  6

 40
0.0
 41
0.0
 42
0.0
 43
0.0
 44
279.4
 45
215.9
 46
0.0
 47
0.0
 48
0.0
 49
0.0
140
0.0
141
0.0
142
1.0
143
1.0
 70
1024
 72
0
 73
0
 74
0
  7

 75
0
147
1.0
148
0.0
149
0.0
100
AcDbLayout
  1
Model
 70
0
 71
0
 10
0.0
 20
0.0
 11
11.0
 21
8.5
 12
0.0
 22
0.0
 32
0.0
 14
0.0
 24
0.0
 34
0.0
 15
0.0
 25
0.0
 35
0.0
146
0.0
 13
0.0
 23
0.0
 33
0.0
 16
1.0
 26
0.0
 36
0.0
 17
0.0
 27
1.0
 37
0.0
 76
0
330
204
345
0
346
0
  0
LAYOUT
  5
2FE
102
{ACAD_REACTORS
330
1A
102
}
100
AcDbPlotSettings
  1

  2
none_device
  4
ANSI_A_(11.00_x_8.50_Inches)
  6

 40
0.0
 41
0.0
 42
0.0
 43
0.0
 44
279.4
 45
215.9
 46
0.0
 47
0.0
 48
0.0
 49
0.0
140
0.0
141
0.0
142
1.0
143
1.0
 70
0
 72
0
 73
0
 74
0
  7

 75
0
147
1.0
148
0.0
149
0.0
100
AcDbLayout
  1
Layout1
 70
0
 71
1
 10
0.0
 20
0.0
 11
11.0
 21
8.5
 12
0.0
 22
0.0
 32
0.0
 14
0.0
 24
0.0
 34
0.0
 15
0.0
 25
0.0
 35
0.0
146
0.0
 13
0.0
 23
0.0
 33
0.0
 16
1.0
 26
0.0
 36
0.0
 17
0.0
 27
1.0
 37
0.0
 76
0
330
205
345
0
346
0
  0
ENDSEC
  0
EOF
