  0
SECTION
  2
HEADER
  9
$ACADVER
  1
AC1015
  9
$DWGCODEPAGE
  3
ANSI_1252
  9
$EXTMAX
 10
11.6929133858
 20
8.2677165354
 30
0.0
  9
$EXTMIN
 10
0.0
 20
0.0
 30
0.0
  9
$LIMMIN
 10
0.0
 20
0.0
  9
$LIMMAX
 10
11.6929133858
 20
8.2677165354
  9
$VIEWCTR
 10
5.8464566929
 20
4.1338582677
  9
$VIEWSIZE
 40
8.2677165354
  9
$CLAYER
  8
0
  9
$LTSCALE
 40
0.6431102362
  9
$CELTYPE
  6
BYLAYER
  9
$DIMSCALE
 40
1.0
  9
$DIMASZ
 40
0.1875
  9
$DIMEXO
 40
0.0730807087
  9
$DIMDLI
 40
0.4443307087
  9
$DIMEXE
 40
0.2104724409
  9
$DIMCEN
 40
0.1052362205
  9
$DIMLFAC
 40
1.0
  9
$DIMBLK
  1
_CLOSED
  9
$DIMTXT
 40
0.15625
  9
$DIMTOL
 70
0
  9
$DIMLIM
 70
0
  9
$DIMTFAC
 40
1.0
  9
$PDMODE
 70
3
  9
$PDSIZE
 40
0.3125
  9
$HANDSEED
  5
43A
  9
$TILEMODE
 70
1
  9
$MEASUREMENT
 70
0
  9
$INSUNITS
 70
1
  0
ENDSEC
  0
SECTION
  2
CLASSES
  0
CLASS
  1
ACDBDICTIONARYWDFLT
  2
AcDbDictionaryWithDefault
  3
AutoCAD 2000
 90
0
280
0
281
0
  0
CLASS
  1
ACDBPLACEHOLDER
  2
AcDbPlaceHolder
  3
AutoCAD 2000
 90
0
280
0
281
0
  0
CLASS
  1
LAYOUT
  2
AcDbLayout
  3
AutoCAD 2000
 90
0
280
0
281
0
  0
ENDSEC
  0
SECTION
  2
TABLES
  0
TABLE
  2
VPORT
  5
8
100
AcDbSymbolTable
 70
2
  0
VPORT
  5
1F4
100
AcDbSymbolTableRecord
100
AcDbViewportTableRecord
  2
*ACTIVE
 70
0
 10
0.0
 20
0.0
 11
1.0
 21
1.0
 12
5.8464566929
 22
4.1338582677
 13
0.0
 23
0.0
 14
1.0
 24
1.0
 15
0.0
 25
0.0
 16
0.0
 26
0.0
 36
1.0
 17
0.0
 27
0.0
 37
0.0
 40
8.2677165354
 41
1.4142857143
 42
50.0
 43
0.0
 44
0.0
 50
0.0
 51
0.0
 71
0
 72
100
 73
1
 74
1
 75
0
 76
0
 77
0
 78
0
  0
ENDTAB
  0
TABLE
  2
LTYPE
  5
5
100
AcDbSymbolTable
 70
6
  0
LTYPE
  5
14
100
AcDbSymbolTableRecord
100
AcDbLinetypeTableRecord
  2
BYBLOCK
 70
0
  3

 72
65
 73
0
 40
0.0
  0
LTYPE
  5
15
100
AcDbSymbolTableRecord
100
AcDbLinetypeTableRecord
  2
BYLAYER
 70
0
  3

 72
65
 73
0
 40
0.0
  0
LTYPE
  5
16
100
AcDbSymbolTableRecord
100
AcDbLinetypeTableRecord
  2
CONTINUOUS
 70
64
  3
Solid line
 72
65
 73
0
 40
0.0
  0
LTYPE
  5
1F5
100
AcDbSymbolTableRecord
100
AcDbLinetypeTableRecord
  2
CENTER
 70
64
  3
____ _ ____ _ ____ _ ____ _ ____ _ ____ _ ____
 72
65
 73
4
 40
0.6
 49
0.375
 74
0
 49
-0.075
 74
0
 49
0.075
 74
0
 49
-0.075
 74
0
  0
LTYPE
  5
1F6
100
AcDbSymbolTableRecord
100
AcDbLinetypeTableRecord
  2
HIDDEN
 70
64
  3
- - - - - - - - - - - - - - - - - - - -
 72
65
 73
2
 40
0.2
 49
0.1
 74
0
 49
-0.1
 74
0
  0
LTYPE
  5
1F7
100
AcDbSymbolTableRecord
100
AcDbLinetypeTableRecord
  2
PHANTOM
 70
64
  3
_____ _ _ _____ _ _ _____ _ _ _____
 72
65
 73
6
 40
0.8
 49
0.45
 74
0
 49
-0.05
 74
0
 49
0.1
 74
0
 49
-0.05
 74
0
 49
0.1
 74
0
 49
-0.05
 74
0
  0
LTYPE
  5
1F8
100
AcDbSymbolTableRecord
100
AcDbLinetypeTableRecord
  2
DOT
 70
64
  3
. . . . . . . . . . . . . . . . . . . .
 72
65
 73
2
 40
0.2
 49
0.1
 74
0
 49
-0.1
 74
0
  0
LTYPE
  5
1F9
100
AcDbSymbolTableRecord
100
AcDbLinetypeTableRecord
  2
DASHED
 70
64
  3
- - - - - - - - - - - - - - - - - - - -
 72
65
 73
2
 40
0.2
 49
0.1
 74
0
 49
-0.1
 74
0
  0
ENDTAB
  0
TABLE
  2
LAYER
  5
2
100
AcDbSymbolTable
 70
36
  0
LAYER
  5
10
100
AcDbSymbolTableRecord
100
AcDbLayerTableRecord
  2
0
 70
0
 62
7
  6
CONTINUOUS
370
-3
390
F
  0
LAYER
  5
1FA
100
AcDbSymbolTableRecord
100
AcDbLayerTableRecord
  2
DEFAULT_1
 70
0
 62
7
  6
CENTER
370
-3
390
F
  0
LAYER
  5
1FB
100
AcDbSymbolTableRecord
100
AcDbLayerTableRecord
  2
DEFAULT_2
 70
0
 62
8
  6
HIDDEN
370
-3
390
F
  0
LAYER
  5
1FC
100
AcDbSymbolTableRecord
100
AcDbLayerTableRecord
  2
DEFAULT_3
 70
0
 62
7
  6
PHANTOM
370
-3
390
F
  0
LAYER
  5
1FD
100
AcDbSymbolTableRecord
100
AcDbLayerTableRecord
  2
280
 70
0
 62
7
  6
CONTINUOUS
370
-3
390
F
  0
LAYER
  5
1FE
100
AcDbSymbolTableRecord
100
AcDbLayerTableRecord
  2
284
 70
0
 62
7
  6
CONTINUOUS
370
-3
390
F
  0
LAYER
  5
1FF
100
AcDbSymbolTableRecord
100
AcDbLayerTableRecord
  2
289
 70
0
 62
7
  6
CONTINUOUS
370
-3
390
F
  0
LAYER
  5
200
100
AcDbSymbolTableRecord
100
AcDbLayerTableRecord
  2
5-011
 70
0
 62
7
  6
CONTINUOUS
370
-3
390
F
  0
LAYER
  5
201
100
AcDbSymbolTableRecord
100
AcDbLayerTableRecord
  2
50275
 70
0
 62
7
  6
CONTINUOUS
370
-3
390
F
  0
LAYER
  5
202
100
AcDbSymbolTableRecord
100
AcDbLayerTableRecord
  2
50276
 70
0
 62
7
  6
CONTINUOUS
370
-3
390
F
  0
LAYER
  5
203
100
AcDbSymbolTableRecord
100
AcDbLayerTableRecord
  2
50277
 70
0
 62
7
  6
CONTINUOUS
370
-3
390
F
  0
LAYER
  5
204
100
AcDbSymbolTableRecord
100
AcDbLayerTableRecord
  2
50278
 70
0
 62
7
  6
CONTINUOUS
370
-3
390
F
  0
LAYER
  5
205
100
AcDbSymbolTableRecord
100
AcDbLayerTableRecord
  2
50279
 70
0
 62
7
  6
CONTINUOUS
370
-3
390
F
  0
LAYER
  5
206
100
AcDbSymbolTableRecord
100
AcDbLayerTableRecord
  2
50287-1
 70
0
 62
7
  6
CONTINUOUS
370
-3
390
F
  0
LAYER
  5
207
100
AcDbSymbolTableRecord
100
AcDbLayerTableRecord
  2
50303
 70
0
 62
7
  6
CONTINUOUS
370
-3
390
F
  0
LAYER
  5
208
100
AcDbSymbolTableRecord
100
AcDbLayerTableRecord
  2
50304
 70
0
 62
7
  6
CONTINUOUS
370
-3
390
F
  0
LAYER
  5
209
100
AcDbSymbolTableRecord
100
AcDbLayerTableRecord
  2
50305
 70
0
 62
7
  6
CONTINUOUS
370
-3
390
F
  0
LAYER
  5
20A
100
AcDbSymbolTableRecord
100
AcDbLayerTableRecord
  2
50306
 70
0
 62
7
  6
CONTINUOUS
370
-3
390
F
  0
LAYER
  5
20B
100
AcDbSymbolTableRecord
100
AcDbLayerTableRecord
  2
50307
 70
0
 62
7
  6
CONTINUOUS
370
-3
390
F
  0
LAYER
  5
20C
100
AcDbSymbolTableRecord
100
AcDbLayerTableRecord
  2
6-289
 70
0
 62
7
  6
CONTINUOUS
370
-3
390
F
  0
LAYER
  5
20D
100
AcDbSymbolTableRecord
100
AcDbLayerTableRecord
  2
91173
 70
0
 62
7
  6
CONTINUOUS
370
-3
390
F
  0
LAYER
  5
20E
100
AcDbSymbolTableRecord
100
AcDbLayerTableRecord
  2
91182
 70
0
 62
7
  6
CONTINUOUS
370
-3
390
F
  0
LAYER
  5
20F
100
AcDbSymbolTableRecord
100
AcDbLayerTableRecord
  2
92253
 70
0
 62
7
  6
CONTINUOUS
370
-3
390
F
  0
LAYER
  5
210
100
AcDbSymbolTableRecord
100
AcDbLayerTableRecord
  2
ALL_ASSEMBLY_MEMBERS
 70
0
 62
7
  6
CONTINUOUS
370
-3
390
F
  0
LAYER
  5
211
100
AcDbSymbolTableRecord
100
AcDbLayerTableRecord
  2
ALL_ASSEMBLY_MEMBERS_1
 70
0
 62
7
  6
CONTINUOUS
370
-3
390
F
  0
LAYER
  5
212
100
AcDbSymbolTableRecord
100
AcDbLayerTableRecord
  2
ALL_ASSEMBLY_MEMBERS_2
 70
0
 62
7
  6
CONTINUOUS
370
-3
390
F
  0
LAYER
  5
213
100
AcDbSymbolTableRecord
100
AcDbLayerTableRecord
  2
ALL_ASSEMBLY_MEMBERS_3
 70
0
 62
7
  6
CONTINUOUS
370
-3
390
F
  0
LAYER
  5
214
100
AcDbSymbolTableRecord
100
AcDbLayerTableRecord
  2
ALL_ASSEMBLY_MEMBERS_4
 70
0
 62
7
  6
CONTINUOUS
370
-3
390
F
  0
LAYER
  5
215
100
AcDbSymbolTableRecord
100
AcDbLayerTableRecord
  2
COLOR24
 70
0
 62
7
  6
CONTINUOUS
370
-3
390
F
  0
LAYER
  5
216
100
AcDbSymbolTableRecord
100
AcDbLayerTableRecord
  2
COLOR3
 70
0
 62
7
  6
CONTINUOUS
370
-3
390
F
  0
LAYER
  5
217
100
AcDbSymbolTableRecord
100
AcDbLayerTableRecord
  2
DEFAULT_COORDINATE_SYSTEM
 70
0
 62
7
  6
CONTINUOUS
370
-3
390
F
  0
LAYER
  5
218
100
AcDbSymbolTableRecord
100
AcDbLayerTableRecord
  2
DEFAULT_DATUM_AXES
 70
0
 62
7
  6
CONTINUOUS
370
-3
390
F
  0
LAYER
  5
219
100
AcDbSymbolTableRecord
100
AcDbLayerTableRecord
  2
DEFAULT_DATUM_CURVES
 70
0
 62
7
  6
CONTINUOUS
370
-3
390
F
  0
LAYER
  5
21A
100
AcDbSymbolTableRecord
100
AcDbLayerTableRecord
  2
DEFAULT_DATUM_PLANES
 70
0
 62
7
  6
CONTINUOUS
370
-3
390
F
  0
LAYER
  5
21B
100
AcDbSymbolTableRecord
100
AcDbLayerTableRecord
  2
INTF_50275
 70
0
 62
7
  6
CONTINUOUS
370
-3
390
F
  0
LAYER
  5
21C
100
AcDbSymbolTableRecord
100
AcDbLayerTableRecord
  2
INTF_50276
 70
0
 62
7
  6
CONTINUOUS
370
-3
390
F
  0
LAYER
  5
21D
100
AcDbSymbolTableRecord
100
AcDbLayerTableRecord
  2
INTF_50277
 70
0
 62
7
  6
CONTINUOUS
370
-3
390
F
  0
LAYER
  5
21E
100
AcDbSymbolTableRecord
100
AcDbLayerTableRecord
  2
INTF_50278
 70
0
 62
7
  6
CONTINUOUS
370
-3
390
F
  0
LAYER
  5
21F
100
AcDbSymbolTableRecord
100
AcDbLayerTableRecord
  2
INTF_50279
 70
0
 62
7
  6
CONTINUOUS
370
-3
390
F
  0
LAYER
  5
220
100
AcDbSymbolTableRecord
100
AcDbLayerTableRecord
  2
INTF_50303
 70
0
 62
7
  6
CONTINUOUS
370
-3
390
F
  0
LAYER
  5
221
100
AcDbSymbolTableRecord
100
AcDbLayerTableRecord
  2
INTF_50304
 70
0
 62
7
  6
CONTINUOUS
370
-3
390
F
  0
LAYER
  5
222
100
AcDbSymbolTableRecord
100
AcDbLayerTableRecord
  2
INTF_50305
 70
0
 62
7
  6
CONTINUOUS
370
-3
390
F
  0
LAYER
  5
223
100
AcDbSymbolTableRecord
100
AcDbLayerTableRecord
  2
INTF_50306
 70
0
 62
7
  6
CONTINUOUS
370
-3
390
F
  0
LAYER
  5
224
100
AcDbSymbolTableRecord
100
AcDbLayerTableRecord
  2
INTF_50307
 70
0
 62
7
  6
CONTINUOUS
370
-3
390
F
  0
LAYER
  5
225
100
AcDbSymbolTableRecord
100
AcDbLayerTableRecord
  2
INTF_91173
 70
0
 62
7
  6
CONTINUOUS
370
-3
390
F
  0
LAYER
  5
226
100
AcDbSymbolTableRecord
100
AcDbLayerTableRecord
  2
INTF_91182
 70
0
 62
7
  6
CONTINUOUS
370
-3
390
F
  0
LAYER
  5
227
100
AcDbSymbolTableRecord
100
AcDbLayerTableRecord
  2
INTF_92253
 70
0
 62
7
  6
CONTINUOUS
370
-3
390
F
  0
ENDTAB
  0
TABLE
  2
STYLE
  5
3
100
AcDbSymbolTable
 70
1
  0
STYLE
  5
11
100
AcDbSymbolTableRecord
100
AcDbTextStyleTableRecord
  2
STANDARD
 70
0
 40
0.0
 41
0.8
 50
0.0
 71
0
 42
0.2
  3
txt
  4

  0
STYLE
  5
228
100
AcDbSymbolTableRecord
100
AcDbTextStyleTableRecord
  2
TEXTSTYLE_1
 70
0
 40
0.0
 41
0.8
 50
0.0
 71
0
 42
0.2
  3
gdt
  4

  0
ENDTAB
  0
TABLE
  2
VIEW
  5
6
100
AcDbSymbolTable
 70
0
  0
ENDTAB
  0
TABLE
  2
UCS
  5
7
100
AcDbSymbolTable
 70
0
  0
ENDTAB
  0
TABLE
  2
APPID
  5
9
100
AcDbSymbolTable
 70
1
  0
APPID
  5
229
100
AcDbSymbolTableRecord
100
AcDbRegAppTableRecord
  2
ACAD
 70
0
  0
ENDTAB
  0
TABLE
  2
BLOCK_RECORD
  5
1
100
AcDbSymbolTable
 70
0
  0
BLOCK_RECORD
  5
22A
100
AcDbSymbolTableRecord
100
AcDbBlockTableRecord
  2
*Model_Space
  0
BLOCK_RECORD
  5
22B
100
AcDbSymbolTableRecord
100
AcDbBlockTableRecord
  2
*Paper_Space
  0
ENDTAB
  0
TABLE
  2
DIMSTYLE
  5
A
100
AcDbSymbolTable
 70
1
100
AcDbDimStyleTable
 71
0
  0
DIMSTYLE
105
22C
100
AcDbSymbolTableRecord
100
AcDbDimStyleTableRecord
  2
STANDARD
 70
0
  3

  4

 40
1.0
 41
0.1875
 42
0.0625
 43
0.38
 44
0.18
 45
0.0
 46
0.0
 47
0.01
 48
0.01
140
0.15625
141
0.09
142
0.0
143
25.4
144
1.0
145
0.0
146
1.0
147
0.09
 71
0.0
 72
0.0
 73
1
 74
1
 75
0
 76
0
 77
0
 78
4
170
0
171
2
172
0
173
0
174
0
175
0
176
0
177
0
178
0
270
2
271
2
272
2
273
2
274
2
275
0
280
0
281
0
282
0
283
1
284
4
285
0
286
0
287
3
288
0
340
11
  0
ENDTAB
  0
ENDSEC
  0
SECTION
  2
BLOCKS
  0
BLOCK
  5
20
100
AcDbEntity
  8
0
100
AcDbBlockBegin
  2
*Model_Space
 70
0
 10
0.0
 20
0.0
 30
0.0
  3
*Model_Space
  1

  0
ENDBLK
  5
21
100
AcDbEntity
  8
0
100
AcDbBlockEnd
  0
BLOCK
  5
1C
100
AcDbEntity
  8
0
100
AcDbBlockBegin
  2
*Paper_Space
 70
0
 10
0.0
 20
0.0
 30
0.0
  3
*Paper_Space
  1

  0
ENDBLK
  5
1D
100
AcDbEntity
  8
0
100
AcDbBlockEnd
  0
ENDSEC
  0
SECTION
  2
ENTITIES
  0
LINE
  5
22D
100
AcDbEntity
  8
0
100
AcDbLine
 62
7
  6
CONTINUOUS
 10
5.2931637274
 20
6.0934119478
 11
5.2762674922
 21
6.0849063356
  0
LINE
  5
22E
100
AcDbEntity
  8
0
100
AcDbLine
 62
7
  6
CONTINUOUS
 10
5.4417681495
 20
6.1846533831
 11
5.4110214751
 21
6.1703166902
  0
LINE
  5
22F
100
AcDbEntity
  8
0
100
AcDbLine
 62
7
  6
CONTINUOUS
 10
5.2986293654
 20
6.0957744145
 11
5.2932815877
 21
6.0934629955
  0
LINE
  5
230
100
AcDbEntity
  8
0
100
AcDbLine
 62
7
  6
CONTINUOUS
 10
5.3621002787
 20
6.1465412188
 11
5.3478043722
 21
6.1408681836
  0
LINE
  5
231
100
AcDbEntity
  8
0
100
AcDbLine
 62
7
  6
CONTINUOUS
 10
5.5301638203
 20
6.2067069152
 11
5.5167719542
 21
6.202187026
  0
LINE
  5
232
100
AcDbEntity
  8
0
100
AcDbLine
 62
7
  6
CONTINUOUS
 10
5.3839341144
 20
6.153722217
 11
5.3623204075
 21
6.1466139397
  0
LINE
  5
233
100
AcDbEntity
  8
0
100
AcDbLine
 62
7
  6
CONTINUOUS
 10
5.2762674922
 20
6.0849063356
 11
5.2469915304
 21
6.0622194376
  0
LINE
  5
234
100
AcDbEntity
  8
0
100
AcDbLine
 62
7
  6
CONTINUOUS
 10
5.2189212009
 20
6.0133683047
 11
5.2149566307
 21
6.0106900815
  0
LINE
  5
235
100
AcDbEntity
  8
0
100
AcDbLine
 62
7
  6
CONTINUOUS
 10
5.3478043722
 20
6.1408681836
 11
5.3176990024
 21
6.1206573544
  0
LINE
  5
236
100
AcDbEntity
  8
0
100
AcDbLine
 62
7
  6
CONTINUOUS
 10
5.5167719542
 20
6.202187026
 11
5.5001627582
 21
6.192710081
  0
LINE
  5
237
100
AcDbEntity
  8
0
100
AcDbLine
 62
7
  6
CONTINUOUS
 10
5.2469915304
 20
6.0622194376
 11
5.2261559387
 21
6.0336524783
  0
LINE
  5
238
100
AcDbEntity
  8
0
100
AcDbLine
 62
7
  6
CONTINUOUS
 10
5.1611809567
 20
5.9035604977
 11
5.153700154
 21
5.8933671414
  0
LINE
  5
239
100
AcDbEntity
  8
0
100
AcDbLine
 62
7
  6
CONTINUOUS
 10
5.3176990024
 20
6.1206573544
 11
5.2972407462
 21
6.0939624803
  0
LWPOLYLINE
  5
23A
100
AcDbEntity
  8
0
100
AcDbPolyline
 62
7
  6
CONTINUOUS
 90
4
 70
0
 10
5.2149566307
 20
6.0106900815
 10
5.1832308818
 20
5.9754706393
 10
5.1648342883
 20
5.9334644872
 10
5.160481976
 20
5.8978390591
  0
LWPOLYLINE
  5
23B
100
AcDbEntity
  8
0
100
AcDbPolyline
 62
7
  6
CONTINUOUS
 90
3
 70
0
 10
5.4110214751
 20
6.1703166902
 10
5.3897034107
 20
6.1491347052
 10
5.3782286866
 20
6.1268204197
  0
LINE
  5
23C
100
AcDbEntity
  8
0
100
AcDbLine
 62
7
  6
CONTINUOUS
 10
5.5001627582
 20
6.192710081
 11
5.4886069469
 21
6.1820132884
  0
LWPOLYLINE
  5
23D
100
AcDbEntity
  8
0
100
AcDbPolyline
 62
6
  6
CONTINUOUS
 90
5
 70
0
 10
4.6266381808
 20
1.4564913688
 10
4.6368610043
 20
1.3320509184
 10
4.6673006893
 20
1.1922914601
 10
4.7178359257
 20
1.0561039786
 10
4.7670025201
 20
0.9616130777
  0
LINE
  5
23E
100
AcDbEntity
  8
0
100
AcDbLine
 62
9
  6
CONTINUOUS
 10
4.62663755
 20
1.4564913158
 11
4.6266387027
 21
1.4564308206
  0
LWPOLYLINE
  5
23F
100
AcDbEntity
  8
0
100
AcDbPolyline
 62
7
  6
CONTINUOUS
 90
3
 70
0
 10
5.2261559387
 20
6.0336524783
 10
5.2136230192
 20
5.9985136906
 10
5.2106167969
 20
5.9676381868
  0
LWPOLYLINE
  5
240
100
AcDbEntity
  8
0
100
AcDbPolyline
 62
7
  6
CONTINUOUS
 90
3
 70
0
 10
5.2972407462
 20
6.0939624803
 10
5.2856417912
 20
6.0625677675
 10
5.2818037137
 20
6.0256826319
  0
LWPOLYLINE
  5
241
100
AcDbEntity
  8
0
100
AcDbPolyline
 62
7
  6
CONTINUOUS
 90
3
 70
0
 10
5.153700154
 20
5.8933671414
 10
5.1383964476
 20
5.8536579332
 10
5.1346264714
 20
5.8206001136
  0
LINE
  5
242
100
AcDbEntity
  8
0
100
AcDbLine
 62
6
  6
CONTINUOUS
 10
4.6378389191
 20
1.6222668176
 11
4.6266387027
 21
1.4564308206
  0
LINE
  5
243
100
AcDbEntity
  8
0
100
AcDbLine
 62
9
  6
CONTINUOUS
 10
6.2955113725
 20
2.2376558053
 11
6.2955067677
 21
2.2376607484
  0
LINE
  5
244
100
AcDbEntity
  8
0
100
AcDbLine
 62
6
  6
CONTINUOUS
 10
6.2955113725
 20
2.2376558053
 11
6.2555540621
 21
2.2807388801
  0
LINE
  5
245
100
AcDbEntity
  8
0
100
AcDbLine
 62
6
  6
CONTINUOUS
 10
6.2555540621
 20
2.2807388801
 11
6.255876274
 21
2.2803869975
  0
LWPOLYLINE
  5
246
100
AcDbEntity
  8
0
100
AcDbPolyline
 62
6
  6
CONTINUOUS
 90
3
 70
0
 10
6.255876274
 20
2.2803869975
 10
6.2247419421
 20
2.3149244841
 10
6.2144188216
 20
2.326489366
  0
LINE
  5
247
100
AcDbEntity
  8
0
100
AcDbLine
 62
6
  6
CONTINUOUS
 10
5.2287715318
 20
2.907501928
 11
5.231376797
 21
2.8729138143
  0
LINE
  5
248
100
AcDbEntity
  8
0
100
AcDbLine
 62
7
  6
CONTINUOUS
 10
5.1038345099
 20
6.7996076638
 11
5.1038345099
 21
6.7830966483
  0
LINE
  5
249
100
AcDbEntity
  8
0
100
AcDbLine
 62
7
  6
CONTINUOUS
 10
5.1038345099
 20
6.4262327974
 11
5.1038345099
 21
6.4097217831
  0
LINE
  5
24A
100
AcDbEntity
  8
0
100
AcDbLine
 62
7
  6
CONTINUOUS
 10
5.1313345099
 20
6.3078414214
 11
5.1313345099
 21
6.2242790321
  0
LINE
  5
24B
100
AcDbEntity
  8
0
100
AcDbLine
 62
7
  6
CONTINUOUS
 10
5.1338345099
 20
6.3251945982
 11
5.1338345099
 21
6.6046647234
  0
LINE
  5
24C
100
AcDbEntity
  8
0
100
AcDbLine
 62
7
  6
CONTINUOUS
 10
5.1346212818
 20
5.8206000747
 11
5.1346212818
 21
3.6994009627
  0
LINE
  5
24D
100
AcDbEntity
  8
0
100
AcDbLine
 62
7
  6
CONTINUOUS
 10
5.1523345099
 20
5.9083382032
 11
5.1523345099
 21
6.3329898886
  0
LINE
  5
24E
100
AcDbEntity
  8
0
100
AcDbLine
 62
7
  6
CONTINUOUS
 10
5.1604916412
 20
5.8977854851
 11
5.1604916412
 21
3.7765863732
  0
LINE
  5
24F
100
AcDbEntity
  8
0
100
AcDbLine
 62
6
  6
CONTINUOUS
 10
6.3330343215
 20
2.1956706887
 11
6.2955067678
 21
2.2376607483
  0
LINE
  5
250
100
AcDbEntity
  8
0
100
AcDbLine
 62
9
  6
CONTINUOUS
 10
6.2144098273
 20
2.3264994656
 11
6.2144188216
 21
2.326489366
  0
LINE
  5
251
100
AcDbEntity
  8
0
100
AcDbLine
 62
9
  6
CONTINUOUS
 10
6.3034231738
 20
2.2269707572
 11
6.3855620709
 21
2.130286006
  0
LWPOLYLINE
  5
252
100
AcDbEntity
  8
0
100
AcDbPolyline
 62
6
  6
CONTINUOUS
 90
3
 70
0
 10
6.2144098273
 20
2.3264994656
 10
6.1786316216
 20
2.3694170691
 10
6.137778908
 20
2.4263821607
  0
LWPOLYLINE
  5
253
100
AcDbEntity
  8
0
100
AcDbPolyline
 62
6
  6
CONTINUOUS
 90
3
 70
0
 10
6.3855620569
 20
2.1302860248
 10
6.3778145752
 20
2.1404873395
 10
6.3330343215
 20
2.1956706887
  0
LINE
  5
254
100
AcDbEntity
  8
0
100
AcDbLine
 62
9
  6
CONTINUOUS
 10
6.3855620709
 20
2.130286006
 11
6.3856704992
 21
2.1301417212
  0
LINE
  5
255
100
AcDbEntity
  8
0
100
AcDbLine
 62
9
  6
CONTINUOUS
 10
6.3034231737
 20
2.2269707574
 11
6.2955113725
 21
2.2376558053
  0
LINE
  5
256
100
AcDbEntity
  8
0
100
AcDbLine
 62
6
  6
CONTINUOUS
 10
5.1112115947
 20
3.5134789273
 11
5.2316895635
 21
2.8704566064
  0
LINE
  5
257
100
AcDbEntity
  8
0
100
AcDbLine
 62
6
  6
CONTINUOUS
 10
5.231376797
 20
2.8729138143
 11
5.2327639242
 21
2.8647224986
  0
LINE
  5
258
100
AcDbEntity
  8
0
100
AcDbLine
 62
6
  6
CONTINUOUS
 10
5.2314567049
 20
2.8724964354
 11
5.2341466359
 21
2.8489327835
  0
LINE
  5
259
100
AcDbEntity
  8
0
100
AcDbLine
 62
7
  6
CONTINUOUS
 10
5.1604819705
 20
3.77669152
 11
5.1637455871
 21
3.7474920169
  0
LINE
  5
25A
100
AcDbEntity
  8
0
100
AcDbLine
 62
7
  6
CONTINUOUS
 10
5.2106167705
 20
3.8463900352
 11
5.2110155168
 21
3.8344951741
  0
LINE
  5
25B
100
AcDbEntity
  8
0
100
AcDbLine
 62
6
  6
CONTINUOUS
 10
5.2341466359
 20
2.8489327835
 11
5.2355772634
 21
2.8041159174
  0
LINE
  5
25C
100
AcDbEntity
  8
0
100
AcDbLine
 62
7
  6
CONTINUOUS
 10
5.2818037132
 20
3.9044911908
 11
5.2818307708
 21
3.9011317476
  0
LINE
  5
25D
100
AcDbEntity
  8
0
100
AcDbLine
 62
7
  6
CONTINUOUS
 10
5.2106068362
 20
5.9676405656
 11
5.2106068302
 21
3.8464183644
  0
LINE
  5
25E
100
AcDbEntity
  8
0
100
AcDbLine
 62
7
  6
CONTINUOUS
 10
5.2818179272
 20
6.0257044728
 11
5.2818179271
 21
3.9045091355
  0
LINE
  5
25F
100
AcDbEntity
  8
0
100
AcDbLine
 62
7
  6
CONTINUOUS
 10
5.3717643725
 20
6.0819956699
 11
5.3717643725
 21
3.9607965579
  0
LINE
  5
260
100
AcDbEntity
  8
0
100
AcDbLine
 62
6
  6
CONTINUOUS
 10
5.2355772634
 20
2.8041159174
 11
5.2329692859
 21
2.7593579752
  0
LINE
  5
261
100
AcDbEntity
  8
0
100
AcDbLine
 62
6
  6
CONTINUOUS
 10
5.2349120501
 20
2.7812842933
 11
5.2340655699
 21
2.7703134009
  0
LINE
  5
262
100
AcDbEntity
  8
0
100
AcDbLine
 62
6
  6
CONTINUOUS
 10
5.2334170209
 20
2.7632218909
 11
5.2349121417
 21
2.7812850151
  0
LINE
  5
263
100
AcDbEntity
  8
0
100
AcDbLine
 62
9
  6
CONTINUOUS
 10
5.2329654297
 20
2.7593195737
 11
5.2329692859
 21
2.7593579752
  0
LINE
  5
264
100
AcDbEntity
  8
0
100
AcDbLine
 62
6
  6
CONTINUOUS
 10
5.2329654298
 20
2.7593195742
 11
5.2322359157
 21
2.7524684094
  0
LINE
  5
265
100
AcDbEntity
  8
0
100
AcDbLine
 62
6
  6
CONTINUOUS
 10
5.2340655699
 20
2.7703134009
 11
5.2334170209
 21
2.7632218909
  0
LINE
  5
266
100
AcDbEntity
  8
0
100
AcDbLine
 62
6
  6
CONTINUOUS
 10
5.2329692859
 20
2.7593579752
 11
5.2301805079
 21
2.7365432536
  0
LINE
  5
267
100
AcDbEntity
  8
0
100
AcDbLine
 62
9
  6
CONTINUOUS
 10
5.2329692859
 20
2.7593579752
 11
5.2334170209
 21
2.7632218909
  0
LINE
  5
268
100
AcDbEntity
  8
0
100
AcDbLine
 62
6
  6
CONTINUOUS
 10
6.255876274
 20
2.2803869975
 11
6.2642417008
 21
2.2679308015
  0
LINE
  5
269
100
AcDbEntity
  8
0
100
AcDbLine
 62
6
  6
CONTINUOUS
 10
6.137778908
 20
2.4263821607
 11
6.107962438
 21
2.4751479875
  0
LINE
  5
26A
100
AcDbEntity
  8
0
100
AcDbLine
 62
9
  6
CONTINUOUS
 10
6.1079503704
 20
2.4751692863
 11
6.107962438
 21
2.4751479875
  0
LWPOLYLINE
  5
26B
100
AcDbEntity
  8
0
100
AcDbPolyline
 62
6
  6
CONTINUOUS
 90
3
 70
0
 10
6.1079503704
 20
2.4751692863
 10
6.0899667444
 20
2.508401374
 10
6.0692530819
 20
2.551171627
  0
LINE
  5
26C
100
AcDbEntity
  8
0
100
AcDbLine
 62
7
  6
CONTINUOUS
 10
5.2110155168
 20
3.8344951741
 11
5.2145538939
 21
3.8086426551
  0
LINE
  5
26D
100
AcDbEntity
  8
0
100
AcDbLine
 62
7
  6
CONTINUOUS
 10
5.4774001391
 20
6.120076643
 11
5.4774001391
 21
3.9988775311
  0
LINE
  5
26E
100
AcDbEntity
  8
0
100
AcDbLine
 62
7
  6
CONTINUOUS
 10
5.5920798315
 20
6.136836826
 11
5.5920798315
 21
4.015637714
  0
LINE
  5
26F
100
AcDbEntity
  8
0
100
AcDbLine
 62
9
  6
CONTINUOUS
 10
5.6213345099
 20
0.4954652694
 11
5.6213345099
 21
1.755840631
  0
LINE
  5
270
100
AcDbEntity
  8
0
100
AcDbLine
 62
6
  6
CONTINUOUS
 10
5.6213345099
 20
1.7558406401
 11
5.6213345099
 21
2.279944222
  0
LINE
  5
271
100
AcDbEntity
  8
0
100
AcDbLine
 62
9
  6
CONTINUOUS
 10
5.6213345099
 20
2.279944222
 11
5.6213345099
 21
3.9643477721
  0
LINE
  5
272
100
AcDbEntity
  8
0
100
AcDbLine
 62
6
  6
CONTINUOUS
 10
5.2301805079
 20
2.7365432536
 11
5.2254315229
 21
2.7078082463
  0
LINE
  5
273
100
AcDbEntity
  8
0
100
AcDbLine
 62
6
  6
CONTINUOUS
 10
5.2254315232
 20
2.7078082477
 11
5.2249447942
 21
2.7050193813
  0
LINE
  5
274
100
AcDbEntity
  8
0
100
AcDbLine
 62
6
  6
CONTINUOUS
 10
5.2255582313
 20
2.7084715601
 11
5.2254315232
 21
2.7078082477
  0
LWPOLYLINE
  5
275
100
AcDbEntity
  8
0
100
AcDbPolyline
 62
6
  6
CONTINUOUS
 90
4
 70
0
 10
5.225558231
 20
2.7084715587
 10
5.2182687695
 20
2.6762826212
 10
5.2035942702
 20
2.627225168
 10
5.1863092642
 20
2.5810851509
  0
LINE
  5
276
100
AcDbEntity
  8
0
100
AcDbLine
 62
9
  6
CONTINUOUS
 10
5.1863021762
 20
2.5810678263
 11
5.1808748923
 21
2.5604295872
  0
LINE
  5
277
100
AcDbEntity
  8
0
100
AcDbLine
 62
6
  6
CONTINUOUS
 10
6.0692530819
 20
2.551171627
 11
6.0563668437
 21
2.5810678263
  0
LINE
  5
278
100
AcDbEntity
  8
0
100
AcDbLine
 62
9
  6
CONTINUOUS
 10
6.0563597557
 20
2.5810851509
 11
6.0563668437
 21
2.5810678263
  0
LWPOLYLINE
  5
279
100
AcDbEntity
  8
0
100
AcDbPolyline
 62
6
  6
CONTINUOUS
 90
3
 70
0
 10
6.0563597557
 20
2.5810851509
 10
6.0390747496
 20
2.627225168
 10
6.0244002503
 20
2.6762826212
  0
LINE
  5
27A
100
AcDbEntity
  8
0
100
AcDbLine
 62
9
  6
CONTINUOUS
 10
6.107962438
 20
2.4751479875
 11
6.115954162
 21
2.452786392
  0
LINE
  5
27B
100
AcDbEntity
  8
0
100
AcDbLine
 62
6
  6
CONTINUOUS
 10
6.0104331041
 20
2.7524684094
 11
6.0097035901
 21
2.7593195742
  0
LINE
  5
27C
100
AcDbEntity
  8
0
100
AcDbLine
 62
9
  6
CONTINUOUS
 10
6.0097035901
 20
2.7593195737
 11
6.0096997339
 21
2.7593579752
  0
LINE
  5
27D
100
AcDbEntity
  8
0
100
AcDbLine
 62
7
  6
CONTINUOUS
 10
5.7085977029
 20
6.1312231147
 11
5.7085977029
 21
4.0100240028
  0
LINE
  5
27E
100
AcDbEntity
  8
0
100
AcDbLine
 62
7
  6
CONTINUOUS
 10
5.819632507
 20
6.1035882394
 11
5.819632507
 21
3.9823891275
  0
LINE
  5
27F
100
AcDbEntity
  8
0
100
AcDbLine
 62
9
  6
CONTINUOUS
 10
5.1347065819
 20
2.4751479875
 11
5.1267148579
 21
2.452786392
  0
LINE
  5
280
100
AcDbEntity
  8
0
100
AcDbLine
 62
9
  6
CONTINUOUS
 10
5.1863092642
 20
2.5810851509
 11
5.1863021762
 21
2.5810678263
  0
LINE
  5
281
100
AcDbEntity
  8
0
100
AcDbLine
 62
6
  6
CONTINUOUS
 10
5.1863021762
 20
2.5810678263
 11
5.1734159379
 21
2.551171627
  0
LWPOLYLINE
  5
282
100
AcDbEntity
  8
0
100
AcDbPolyline
 62
6
  6
CONTINUOUS
 90
3
 70
0
 10
5.1734159379
 20
2.551171627
 10
5.1527022754
 20
2.508401374
 10
5.1347186495
 20
2.4751692863
  0
LINE
  5
283
100
AcDbEntity
  8
0
100
AcDbLine
 62
9
  6
CONTINUOUS
 10
6.0563668437
 20
2.5810678263
 11
6.0617941275
 21
2.5604295872
  0
LINE
  5
284
100
AcDbEntity
  8
0
100
AcDbLine
 62
6
  6
CONTINUOUS
 10
6.0244002503
 20
2.6762826212
 11
6.0171107888
 21
2.7084715587
  0
LINE
  5
285
100
AcDbEntity
  8
0
100
AcDbLine
 62
6
  6
CONTINUOUS
 10
6.0171107885
 20
2.7084715601
 11
6.0172374966
 21
2.7078082477
  0
LINE
  5
286
100
AcDbEntity
  8
0
100
AcDbLine
 62
6
  6
CONTINUOUS
 10
6.0172374966
 20
2.7078082477
 11
6.0177242256
 21
2.7050193813
  0
LINE
  5
287
100
AcDbEntity
  8
0
100
AcDbLine
 62
6
  6
CONTINUOUS
 10
6.0172374969
 20
2.7078082463
 11
6.0124885119
 21
2.7365432536
  0
LINE
  5
288
100
AcDbEntity
  8
0
100
AcDbLine
 62
9
  6
CONTINUOUS
 10
6.0096997339
 20
2.7593579752
 11
6.009251999
 21
2.7632218909
  0
LINE
  5
289
100
AcDbEntity
  8
0
100
AcDbLine
 62
6
  6
CONTINUOUS
 10
6.0124885119
 20
2.7365432536
 11
6.0098660762
 21
2.7593382668
  0
LINE
  5
28A
100
AcDbEntity
  8
0
100
AcDbLine
 62
6
  6
CONTINUOUS
 10
6.0094171606
 20
2.7632403784
 11
6.0086034499
 21
2.7703134009
  0
LINE
  5
28B
100
AcDbEntity
  8
0
100
AcDbLine
 62
6
  6
CONTINUOUS
 10
6.009251999
 20
2.7632218909
 11
6.0077568781
 21
2.7812850151
  0
LINE
  5
28C
100
AcDbEntity
  8
0
100
AcDbLine
 62
6
  6
CONTINUOUS
 10
6.0086034499
 20
2.7703134009
 11
6.0077569697
 21
2.7812842933
  0
LINE
  5
28D
100
AcDbEntity
  8
0
100
AcDbLine
 62
7
  6
CONTINUOUS
 10
5.9164448887
 20
6.0796592699
 11
5.9182217994
 21
6.0556698457
  0
LINE
  5
28E
100
AcDbEntity
  8
0
100
AcDbLine
 62
6
  6
CONTINUOUS
 10
6.0096997339
 20
2.7593579752
 11
6.0070917565
 21
2.8041159174
  0
LINE
  5
28F
100
AcDbEntity
  8
0
100
AcDbLine
 62
7
  6
CONTINUOUS
 10
5.9182075187
 20
6.0556686009
 11
5.9182075187
 21
3.934469489
  0
LINE
  5
290
100
AcDbEntity
  8
0
100
AcDbLine
 62
7
  6
CONTINUOUS
 10
5.9988421174
 20
5.9983788866
 11
5.9988421174
 21
3.8771797747
  0
LINE
  5
291
100
AcDbEntity
  8
0
100
AcDbLine
 62
7
  6
CONTINUOUS
 10
6.0599873576
 20
5.9339765661
 11
6.0599874092
 21
3.8127100303
  0
LINE
  5
292
100
AcDbEntity
  8
0
100
AcDbLine
 62
7
  6
CONTINUOUS
 10
6.0903345099
 20
6.3329898886
 11
6.0903345099
 21
5.9083383033
  0
LINE
  5
293
100
AcDbEntity
  8
0
100
AcDbLine
 62
7
  6
CONTINUOUS
 10
6.098282133
 20
5.8598535692
 11
6.0982821489
 21
3.7386170845
  0
LINE
  5
294
100
AcDbEntity
  8
0
100
AcDbLine
 62
7
  6
CONTINUOUS
 10
6.1088345099
 20
6.6046647234
 11
6.1088345099
 21
6.3251791198
  0
LINE
  5
295
100
AcDbEntity
  8
0
100
AcDbLine
 62
7
  6
CONTINUOUS
 10
6.1113201076
 20
5.7808064397
 11
6.111320137
 21
3.6917954022
  0
LINE
  5
296
100
AcDbEntity
  8
0
100
AcDbLine
 62
7
  6
CONTINUOUS
 10
6.1113345099
 20
6.3078414214
 11
6.1113345099
 21
6.2242790321
  0
LINE
  5
297
100
AcDbEntity
  8
0
100
AcDbLine
 62
7
  6
CONTINUOUS
 10
6.1388345099
 20
6.7996076638
 11
6.1388345099
 21
6.7830966876
  0
LINE
  5
298
100
AcDbEntity
  8
0
100
AcDbLine
 62
7
  6
CONTINUOUS
 10
6.1388345099
 20
6.4262327607
 11
6.1388345099
 21
6.4097217831
  0
LINE
  5
299
100
AcDbEntity
  8
0
100
AcDbLine
 62
6
  6
CONTINUOUS
 10
6.0070917565
 20
2.8041159174
 11
6.0085223839
 21
2.8489327835
  0
LINE
  5
29A
100
AcDbEntity
  8
0
100
AcDbLine
 62
6
  6
CONTINUOUS
 10
6.013897488
 20
2.907501928
 11
6.0112922228
 21
2.8729138143
  0
LWPOLYLINE
  5
29B
100
AcDbEntity
  8
0
100
AcDbPolyline
 62
7
  6
CONTINUOUS
 90
3
 70
0
 10
5.9967378614
 20
3.8480275347
 10
5.9987055264
 20
3.8698233828
 10
5.9988439114
 20
3.8770834154
  0
LINE
  5
29C
100
AcDbEntity
  8
0
100
AcDbLine
 62
6
  6
CONTINUOUS
 10
6.0085223839
 20
2.8489327835
 11
6.0112123149
 21
2.8724964354
  0
LINE
  5
29D
100
AcDbEntity
  8
0
100
AcDbLine
 62
7
  6
CONTINUOUS
 10
6.095951091
 20
3.7182200517
 11
6.0982938275
 21
3.7386391473
  0
LINE
  5
29E
100
AcDbEntity
  8
0
100
AcDbLine
 62
7
  6
CONTINUOUS
 10
5.9956310287
 20
3.8409017874
 11
5.9967378614
 21
3.8480275347
  0
LWPOLYLINE
  5
29F
100
AcDbEntity
  8
0
100
AcDbPolyline
 62
7
  6
CONTINUOUS
 90
3
 70
0
 10
6.056551725
 20
3.7786679597
 10
6.0566563221
 20
3.7789967835
 10
6.0599818512
 20
3.8128183942
  0
LINE
  5
2A0
100
AcDbEntity
  8
0
100
AcDbLine
 62
9
  6
CONTINUOUS
 10
5.1347186495
 20
2.4751692863
 11
5.1347065819
 21
2.4751479875
  0
LWPOLYLINE
  5
2A1
100
AcDbEntity
  8
0
100
AcDbPolyline
 62
6
  6
CONTINUOUS
 90
4
 70
0
 10
5.1347065819
 20
2.4751479875
 10
5.1048901118
 20
2.4263821607
 10
5.0640373983
 20
2.3694170691
 10
5.0282591925
 20
2.3264994656
  0
LWPOLYLINE
  5
2A2
100
AcDbEntity
  8
0
100
AcDbPolyline
 62
6
  6
CONTINUOUS
 90
4
 70
0
 10
4.856999051
 20
2.130142427
 10
4.7712350274
 20
1.9995959237
 10
4.685164817
 20
1.8108263015
 10
4.6378389191
 20
1.6222668176
  0
LINE
  5
2A3
100
AcDbEntity
  8
0
100
AcDbLine
 62
6
  6
CONTINUOUS
 10
4.9867927458
 20
2.2803869975
 11
4.978427319
 21
2.2679308015
  0
LWPOLYLINE
  5
2A4
100
AcDbEntity
  8
0
100
AcDbPolyline
 62
7
  6
CONTINUOUS
 90
3
 70
0
 10
5.9988439115
 20
5.9982806321
 10
5.9959235746
 20
6.0296332727
 10
5.9833764642
 20
6.0652384094
  0
LWPOLYLINE
  5
2A5
100
AcDbEntity
  8
0
100
AcDbPolyline
 62
7
  6
CONTINUOUS
 90
3
 70
0
 10
6.1113057352
 20
5.7808064382
 10
6.1087578475
 20
5.8081992633
 10
6.0982821489
 20
5.8398871286
  0
LINE
  5
2A6
100
AcDbEntity
  8
0
100
AcDbLine
 62
6
  6
CONTINUOUS
 10
6.0112922228
 20
2.8729138143
 11
6.0099050956
 21
2.8647224986
  0
LINE
  5
2A7
100
AcDbEntity
  8
0
100
AcDbLine
 62
6
  6
CONTINUOUS
 10
6.0109794563
 20
2.8704566064
 11
6.1314574251
 21
3.5134789273
  0
LINE
  5
2A8
100
AcDbEntity
  8
0
100
AcDbLine
 62
9
  6
CONTINUOUS
 10
4.9392458461
 20
2.2269707574
 11
4.9471576473
 21
2.2376558053
  0
LINE
  5
2A9
100
AcDbEntity
  8
0
100
AcDbLine
 62
9
  6
CONTINUOUS
 10
4.8571073937
 20
2.1302865979
 11
4.8569990655
 21
2.1301424464
  0
LINE
  5
2AA
100
AcDbEntity
  8
0
100
AcDbLine
 62
9
  6
CONTINUOUS
 10
4.939245846
 20
2.2269707572
 11
4.8571073937
 21
2.1302865979
  0
LINE
  5
2AB
100
AcDbEntity
  8
0
100
AcDbLine
 62
9
  6
CONTINUOUS
 10
5.0282591925
 20
2.3264994656
 11
5.0282501982
 21
2.326489366
  0
LWPOLYLINE
  5
2AC
100
AcDbEntity
  8
0
100
AcDbPolyline
 62
6
  6
CONTINUOUS
 90
4
 70
0
 10
4.9471622516
 20
2.2376607478
 10
4.9096365722
 20
2.1956728752
 10
4.8648578646
 20
2.1404917963
 10
4.8571073937
 20
2.1302865979
  0
LWPOLYLINE
  5
2AD
100
AcDbEntity
  8
0
100
AcDbPolyline
 62
6
  6
CONTINUOUS
 90
3
 70
0
 10
5.0282501982
 20
2.326489366
 10
4.9975120649
 20
2.2922214972
 10
4.9867927458
 20
2.2803869975
  0
LINE
  5
2AE
100
AcDbEntity
  8
0
100
AcDbLine
 62
6
  6
CONTINUOUS
 10
4.9871149577
 20
2.2807388801
 11
4.9867927458
 21
2.2803869975
  0
LINE
  5
2AF
100
AcDbEntity
  8
0
100
AcDbLine
 62
6
  6
CONTINUOUS
 10
4.9871149577
 20
2.2807388801
 11
4.9471576473
 21
2.2376558053
  0
LINE
  5
2B0
100
AcDbEntity
  8
0
100
AcDbLine
 62
9
  6
CONTINUOUS
 10
4.9471576473
 20
2.2376558053
 11
4.9471622517
 21
2.2376607479
  0
LINE
  5
2B1
100
AcDbEntity
  8
0
100
AcDbLine
 62
7
  6
CONTINUOUS
 10
5.9164448887
 20
6.0796592699
 11
5.9124760308
 21
6.0972630446
  0
LINE
  5
2B2
100
AcDbEntity
  8
0
100
AcDbLine
 62
7
  6
CONTINUOUS
 10
6.0599818624
 20
5.9339774444
 11
6.0552174083
 21
5.9716891698
  0
LINE
  5
2B3
100
AcDbEntity
  8
0
100
AcDbLine
 62
7
  6
CONTINUOUS
 10
6.0982937891
 20
5.8598544711
 11
6.0938409465
 21
5.895626814
  0
LWPOLYLINE
  5
2B4
100
AcDbEntity
  8
0
100
AcDbPolyline
 62
6
  6
CONTINUOUS
 90
5
 70
0
 10
6.6160303172
 20
1.4564308213
 10
6.60482953
 20
1.6222705422
 10
6.5575015464
 20
1.8108338919
 10
6.4714276414
 20
1.999607096
 10
6.3856704992
 20
2.1301417212
  0
LINE
  5
2B5
100
AcDbEntity
  8
0
100
AcDbLine
 62
9
  6
CONTINUOUS
 10
6.6160314699
 20
1.4564913158
 11
6.6160303172
 21
1.4564308213
  0
LINE
  5
2B6
100
AcDbEntity
  8
0
100
AcDbLine
 62
6
  6
CONTINUOUS
 10
6.6058080155
 20
1.3320509184
 11
6.6160308391
 21
1.4564913688
  0
LWPOLYLINE
  5
2B7
100
AcDbEntity
  8
0
100
AcDbPolyline
 62
7
  6
CONTINUOUS
 90
3
 70
0
 10
6.0552174083
 20
5.9716891698
 10
6.0363718154
 20
6.0128022986
 10
6.0040117737
 20
6.0463072812
  0
LWPOLYLINE
  5
2B8
100
AcDbEntity
  8
0
100
AcDbPolyline
 62
7
  6
CONTINUOUS
 90
3
 70
0
 10
5.9124760308
 20
6.0972630446
 10
5.9003238474
 20
6.1245818124
 10
5.8793339907
 20
6.14820192
  0
LINE
  5
2B9
100
AcDbEntity
  8
0
100
AcDbLine
 62
7
  6
CONTINUOUS
 10
6.0938409465
 20
5.895626814
 11
6.0761153559
 21
5.9370916904
  0
LINE
  5
2BA
100
AcDbEntity
  8
0
100
AcDbLine
 62
7
  6
CONTINUOUS
 10
5.9833764642
 20
6.0652384094
 11
5.9632232697
 21
6.0924001012
  0
LWPOLYLINE
  5
2BB
100
AcDbEntity
  8
0
100
AcDbPolyline
 62
7
  6
CONTINUOUS
 90
3
 70
0
 10
5.80928256
 20
6.1603772606
 10
5.8055529972
 20
6.166058527
 10
5.7898649544
 20
6.1821432859
  0
LINE
  5
2BC
100
AcDbEntity
  8
0
100
AcDbLine
 62
7
  6
CONTINUOUS
 10
6.0761153559
 20
5.9370916904
 11
6.0566816669
 21
5.9600992341
  0
LWPOLYLINE
  5
2BD
100
AcDbEntity
  8
0
100
AcDbPolyline
 62
7
  6
CONTINUOUS
 90
3
 70
0
 10
5.7898649544
 20
6.1821432859
 10
5.7688317248
 20
6.1940315692
 10
5.7580795068
 20
6.1976211331
  0
LINE
  5
2BE
100
AcDbEntity
  8
0
100
AcDbLine
 62
7
  6
CONTINUOUS
 10
5.6885544162
 20
6.2027187136
 11
5.6867427229
 21
6.2037445654
  0
LINE
  5
2BF
100
AcDbEntity
  8
0
100
AcDbLine
 62
7
  6
CONTINUOUS
 10
5.8793339907
 20
6.14820192
 11
5.8502875484
 21
6.1647036112
  0
LINE
  5
2C0
100
AcDbEntity
  8
0
100
AcDbLine
 62
7
  6
CONTINUOUS
 10
6.0040117737
 20
6.0463072812
 11
5.9862432417
 21
6.0571033088
  0
LINE
  5
2C1
100
AcDbEntity
  8
0
100
AcDbLine
 62
7
  6
CONTINUOUS
 10
5.6997741869
 20
6.1949220709
 11
5.6885167358
 21
6.2027400442
  0
LINE
  5
2C2
100
AcDbEntity
  8
0
100
AcDbLine
 62
7
  6
CONTINUOUS
 10
5.9632232697
 20
6.0924001012
 11
5.9339483239
 21
6.1139185464
  0
LWPOLYLINE
  5
2C3
100
AcDbEntity
  8
0
100
AcDbPolyline
 62
6
  6
CONTINUOUS
 90
4
 70
0
 10
6.4756664997
 20
0.9616130777
 10
6.5248330941
 20
1.0561039786
 10
6.5753683305
 20
1.1922914601
 10
6.6058080155
 20
1.3320509184
  0
LINE
  5
2C4
100
AcDbEntity
  8
0
100
AcDbLine
 62
7
  6
CONTINUOUS
 10
5.5301638203
 20
6.2067069152
 11
5.5302416372
 21
6.2067266907
  0
LINE
  5
2C5
100
AcDbEntity
  8
0
100
AcDbLine
 62
9
  6
CONTINUOUS
 10
5.5302416372
 20
6.2067266907
 11
5.5338944585
 21
6.2075752657
  0
LINE
  5
2C6
100
AcDbEntity
  8
0
100
AcDbLine
 62
7
  6
CONTINUOUS
 10
5.835232169
 20
6.1694802941
 11
5.8219361987
 21
6.1732803129
  0
LINE
  5
2C7
100
AcDbEntity
  8
0
100
AcDbLine
 62
7
  6
CONTINUOUS
 10
5.8403219267
 20
6.1680254884
 11
5.8406039273
 21
6.1679443817
  0
LINE
  5
2C8
100
AcDbEntity
  8
0
100
AcDbLine
 62
7
  6
CONTINUOUS
 10
5.8427786371
 20
6.1672952766
 11
5.8406039273
 21
6.1679443817
  0
LINE
  5
2C9
100
AcDbEntity
  8
0
100
AcDbLine
 62
7
  6
CONTINUOUS
 10
5.8421810666
 20
6.1674773658
 11
5.8427790993
 21
6.167294462
  0
LINE
  5
2CA
100
AcDbEntity
  8
0
100
AcDbLine
 62
7
  6
CONTINUOUS
 10
5.8502875484
 20
6.1647036112
 11
5.8430786493
 21
6.1672022585
  0
LINE
  5
2CB
100
AcDbEntity
  8
0
100
AcDbLine
 62
7
  6
CONTINUOUS
 10
5.9169265978
 20
6.1216251337
 11
5.8958843582
 21
6.1295776166
  0
LINE
  5
2CC
100
AcDbEntity
  8
0
100
AcDbLine
 62
7
  6
CONTINUOUS
 10
5.9339483239
 20
6.1139185464
 11
5.917026235
 21
6.1215874087
  0
ARC
  5
2CD
100
AcDbEntity
  8
0
100
AcDbCircle
 62
9
  6
CONTINUOUS
 10
5.4857424231
 20
-0.7087460648
 40
2.4536603224
100
AcDbArc
 50
102.2081490811
 51
103.785593022
  0
ARC
  5
2CE
100
AcDbEntity
  8
0
100
AcDbCircle
 62
9
  6
CONTINUOUS
 10
5.7569265967
 20
-0.7087460648
 40
2.4536603224
100
AcDbArc
 50
76.214406978
 51
77.7918509189
  0
ARC
  5
2CF
100
AcDbEntity
  8
0
100
AcDbCircle
 62
6
  6
CONTINUOUS
 10
4.3601664565
 20
2.9072176938
 40
0.8911224798
100
AcDbArc
 50
329.3396552203
 51
330.8490499593
  0
ARC
  5
2D0
100
AcDbEntity
  8
0
100
AcDbCircle
 62
6
  6
CONTINUOUS
 10
4.4032448941
 20
2.8848998564
 40
0.8426065385
100
AcDbArc
 50
332.0151047874
 51
337.3518023327
  0
ARC
  5
2D1
100
AcDbEntity
  8
0
100
AcDbCircle
 62
6
  6
CONTINUOUS
 10
4.4253532263
 20
2.8749765062
 40
0.8183842325
100
AcDbArc
 50
337.3965353788
 51
338.8929027469
  0
ARC
  5
2D2
100
AcDbEntity
  8
0
100
AcDbCircle
 62
9
  6
CONTINUOUS
 10
5.4631616216
 20
1.5446820436
 40
0.8068300645
100
AcDbArc
 50
180.0317109932
 51
191.8628408753
  0
ARC
  5
2D3
100
AcDbEntity
  8
0
100
AcDbCircle
 62
9
  6
CONTINUOUS
 10
5.7795074008
 20
1.5446820434
 40
0.8068300619
100
AcDbArc
 50
348.1371616613
 51
359.9682890193
  0
ARC
  5
2D4
100
AcDbEntity
  8
0
100
AcDbCircle
 62
6
  6
CONTINUOUS
 10
4.4339741916
 20
2.8657357811
 40
0.8066112279
100
AcDbArc
 50
316.3489419209
 51
317.7842712412
  0
ARC
  5
2D5
100
AcDbEntity
  8
0
100
AcDbCircle
 62
6
  6
CONTINUOUS
 10
4.4412562089
 20
2.8595609647
 40
0.7970690764
100
AcDbArc
 50
317.7612853276
 51
329.3136591075
  0
ARC
  5
2D6
100
AcDbEntity
  8
0
100
AcDbCircle
 62
9
  6
CONTINUOUS
 10
4.5835880063
 20
2.8284812727
 40
0.6531321288
100
AcDbArc
 50
349.4122169812
 51
350.8887682821
  0
ARC
  5
2D7
100
AcDbEntity
  8
0
100
AcDbCircle
 62
9
  6
CONTINUOUS
 10
4.5925620803
 20
2.8270382343
 40
0.6440427752
100
AcDbArc
 50
350.889103854
 51
351.5520591552
  0
ARC
  5
2D8
100
AcDbEntity
  8
0
100
AcDbCircle
 62
9
  6
CONTINUOUS
 10
4.6037272488
 20
2.8254086352
 40
0.6327593466
100
AcDbArc
 50
351.5494906901
 51
352.6497442833
  0
ARC
  5
2D9
100
AcDbEntity
  8
0
100
AcDbCircle
 62
9
  6
CONTINUOUS
 10
4.6187028643
 20
2.8235156344
 40
0.6176646125
100
AcDbArc
 50
352.6461772369
 51
354.037396527
  0
ARC
  5
2DA
100
AcDbEntity
  8
0
100
AcDbCircle
 62
9
  6
CONTINUOUS
 10
4.6273917386
 20
2.8225940873
 40
0.6089270162
100
AcDbArc
 50
354.0387107225
 51
354.4023306354
  0
ARC
  5
2DB
100
AcDbEntity
  8
0
100
AcDbCircle
 62
6
  6
CONTINUOUS
 10
4.7273436178
 20
2.8213206032
 40
0.5088224005
100
AcDbArc
 50
4.443411731
 51
5.8230903447
  0
ARC
  5
2DC
100
AcDbEntity
  8
0
100
AcDbCircle
 62
6
  6
CONTINUOUS
 10
4.7466319493
 20
2.8233482738
 40
0.4894278806
100
AcDbArc
 50
5.8160350748
 51
9.9001685616
  0
ARC
  5
2DD
100
AcDbEntity
  8
0
100
AcDbCircle
 62
6
  6
CONTINUOUS
 10
5.1052179839
 20
2.0771123337
 40
0.240453955
100
AcDbArc
 50
104.5464583953
 51
106.9429315756
  0
ARC
  5
2DE
100
AcDbEntity
  8
0
100
AcDbCircle
 62
6
  6
CONTINUOUS
 10
6.137451036
 20
2.0771123337
 40
0.240453955
100
AcDbArc
 50
73.0570684244
 51
75.4535416047
  0
ARC
  5
2DF
100
AcDbEntity
  8
0
100
AcDbCircle
 62
6
  6
CONTINUOUS
 10
5.5696861437
 20
3.4363750157
 40
0.5176167137
100
AcDbArc
 50
121.4930696333
 51
121.6604500644
  0
ARC
  5
2E0
100
AcDbEntity
  8
0
100
AcDbCircle
 62
6
  6
CONTINUOUS
 10
5.5258759306
 20
3.4958063263
 40
0.4436797899
100
AcDbArc
 50
131.700012742
 51
132.8956381218
  0
ARC
  5
2E1
100
AcDbEntity
  8
0
100
AcDbCircle
 62
6
  6
CONTINUOUS
 10
5.5150749344
 20
3.5071414176
 40
0.4280239463
100
AcDbArc
 50
132.8692203932
 51
137.0777291548
  0
ARC
  5
2E2
100
AcDbEntity
  8
0
100
AcDbCircle
 62
6
  6
CONTINUOUS
 10
5.4947385873
 20
3.5256115558
 40
0.4005539459
100
AcDbArc
 50
137.0314002027
 51
142.916637358
  0
ARC
  5
2E3
100
AcDbEntity
  8
0
100
AcDbCircle
 62
6
  6
CONTINUOUS
 10
5.4776535832
 20
3.5385696378
 40
0.3791108137
100
AcDbArc
 50
142.9220136671
 51
145.8177309933
  0
ARC
  5
2E4
100
AcDbEntity
  8
0
100
AcDbCircle
 62
6
  6
CONTINUOUS
 10
5.4392028994
 20
3.5611455517
 40
0.3344558327
100
AcDbArc
 50
155.6440206573
 51
157.0219012067
  0
ARC
  5
2E5
100
AcDbEntity
  8
0
100
AcDbCircle
 62
9
  6
CONTINUOUS
 10
5.4841245102
 20
5.9820686466
 40
0.3380710913
100
AcDbArc
 50
142.2790853742
 51
149.0798630294
  0
ARC
  5
2E6
100
AcDbEntity
  8
0
100
AcDbCircle
 62
9
  6
CONTINUOUS
 10
5.431457698
 20
6.0062025454
 40
0.2801484083
100
AcDbArc
 50
184.9032570883
 51
191.7862292258
  0
ARC
  5
2E7
100
AcDbEntity
  8
0
100
AcDbCircle
 62
7
  6
CONTINUOUS
 10
5.4868510166
 20
5.9956976383
 40
0.278975319
100
AcDbArc
 50
151.199942402
 51
151.9346900171
  0
ARC
  5
2E8
100
AcDbEntity
  8
0
100
AcDbCircle
 62
7
  6
CONTINUOUS
 10
5.4853413403
 20
5.9965035873
 40
0.2772639816
100
AcDbArc
 50
151.9348780642
 51
152.4949028491
  0
ARC
  5
2E9
100
AcDbEntity
  8
0
100
AcDbCircle
 62
7
  6
CONTINUOUS
 10
5.4273046907
 20
5.8803215657
 40
0.2759713294
100
AcDbArc
 50
176.1572936337
 51
177.6836649348
  0
ARC
  5
2EA
100
AcDbEntity
  8
0
100
AcDbCircle
 62
7
  6
CONTINUOUS
 10
5.4833606043
 20
5.9975321549
 40
0.275032108
100
AcDbArc
 50
152.4943924514
 51
153.892491114
  0
ARC
  5
2EB
100
AcDbEntity
  8
0
100
AcDbCircle
 62
9
  6
CONTINUOUS
 10
5.4616194991
 20
6.0023377463
 40
0.2656088419
100
AcDbArc
 50
158.6672956012
 51
164.9041043279
  0
ARC
  5
2EC
100
AcDbEntity
  8
0
100
AcDbCircle
 62
9
  6
CONTINUOUS
 10
5.4676006809
 20
6.0947294448
 40
0.0935522922
100
AcDbArc
 50
95.5499951508
 51
104.0812658561
  0
ARC
  5
2ED
100
AcDbEntity
  8
0
100
AcDbCircle
 62
7
  6
CONTINUOUS
 10
5.4669780011
 20
6.0949286379
 40
0.0931998227
100
AcDbArc
 50
100.9963880096
 51
103.7476805257
  0
ARC
  5
2EE
100
AcDbEntity
  8
0
100
AcDbCircle
 62
7
  6
CONTINUOUS
 10
5.4667363012
 20
6.0959349196
 40
0.0921649302
100
AcDbArc
 50
103.7503932953
 51
105.718264882
  0
ARC
  5
2EF
100
AcDbEntity
  8
0
100
AcDbCircle
 62
9
  6
CONTINUOUS
 10
5.4693169361
 20
6.0971567877
 40
0.0910335311
100
AcDbArc
 50
75.2548670775
 51
77.3065832301
  0
ARC
  5
2F0
100
AcDbEntity
  8
0
100
AcDbCircle
 62
9
  6
CONTINUOUS
 10
5.3898182439
 20
6.0629939316
 40
0.0880252052
100
AcDbArc
 50
106.9281502725
 51
108.2030771987
  0
ARC
  5
2F1
100
AcDbEntity
  8
0
100
AcDbCircle
 62
9
  6
CONTINUOUS
 10
5.3273596984
 20
6.0145911097
 40
0.0859191015
100
AcDbArc
 50
109.7949863622
 51
113.3676845381
  0
ARC
  5
2F2
100
AcDbEntity
  8
0
100
AcDbCircle
 62
7
  6
CONTINUOUS
 10
5.4812583032
 20
6.1145474032
 40
0.0772266717
100
AcDbArc
 50
78.2646768468
 51
83.8735166885
  0
ARC
  5
2F3
100
AcDbEntity
  8
0
100
AcDbCircle
 62
7
  6
CONTINUOUS
 10
5.4080180006
 20
6.0805739292
 40
0.0770108614
100
AcDbArc
 50
98.7230168391
 51
108.2239316792
  0
ARC
  5
2F4
100
AcDbEntity
  8
0
100
AcDbCircle
 62
7
  6
CONTINUOUS
 10
5.4415618022
 20
6.2187386468
 40
0.3109755181
100
AcDbArc
 50
158.4448728479
 51
160.6676424751
  0
ARC
  5
2F5
100
AcDbEntity
  8
0
100
AcDbCircle
 62
7
  6
CONTINUOUS
 10
5.4410352754
 20
6.229623816
 40
0.3104139512
100
AcDbArc
 50
199.4871325075
 51
201.5572538675
  0
ARC
  5
2F6
100
AcDbEntity
  8
0
100
AcDbCircle
 62
7
  6
CONTINUOUS
 10
5.4363905216
 20
6.2205573256
 40
0.3054937558
100
AcDbArc
 50
160.668428758
 51
164.1240468433
  0
ARC
  5
2F7
100
AcDbEntity
  8
0
100
AcDbCircle
 62
7
  6
CONTINUOUS
 10
5.4315159102
 20
6.2219943031
 40
0.3004119914
100
AcDbArc
 50
164.1333329322
 51
165.4682718947
  0
ARC
  5
2F8
100
AcDbEntity
  8
0
100
AcDbCircle
 62
7
  6
CONTINUOUS
 10
5.4284611756
 20
6.3077044318
 40
0.2971299862
100
AcDbArc
 50
174.6088344875
 51
176.9848114524
  0
ARC
  5
2F9
100
AcDbEntity
  8
0
100
AcDbCircle
 62
7
  6
CONTINUOUS
 10
5.4270871717
 20
6.307787025
 40
0.2957535402
100
AcDbArc
 50
176.986788512
 51
177.469317815
  0
ARC
  5
2FA
100
AcDbEntity
  8
0
100
AcDbCircle
 62
7
  6
CONTINUOUS
 10
5.4260301653
 20
6.3078302607
 40
0.2946956556
100
AcDbArc
 50
177.468641629
 51
179.997830109
  0
ARC
  5
2FB
100
AcDbEntity
  8
0
100
AcDbCircle
 62
7
  6
CONTINUOUS
 10
5.4222601492
 20
6.2240937272
 40
0.2909256983
100
AcDbArc
 50
165.4111272638
 51
179.9635054949
  0
ARC
  5
2FC
100
AcDbEntity
  8
0
100
AcDbCircle
 62
9
  6
CONTINUOUS
 10
5.4189923182
 20
6.3077890296
 40
0.2876586847
100
AcDbArc
 50
176.87909109
 51
177.4031896676
  0
ARC
  5
2FD
100
AcDbEntity
  8
0
100
AcDbCircle
 62
9
  6
CONTINUOUS
 10
5.4179957065
 20
6.3078309596
 40
0.2866611968
100
AcDbArc
 50
177.4025367025
 51
179.9979089732
  0
ARC
  5
2FE
100
AcDbEntity
  8
0
100
AcDbCircle
 62
7
  6
CONTINUOUS
 10
5.5601405852
 20
5.8603507536
 40
0.4140580259
100
AcDbArc
 50
135.7474721184
 51
145.420906666
  0
ARC
  5
2FF
100
AcDbEntity
  8
0
100
AcDbCircle
 62
7
  6
CONTINUOUS
 10
5.5513646463
 20
5.8667320762
 40
0.4032108289
100
AcDbArc
 50
145.4597415222
 51
146.0490024262
  0
ARC
  5
300
100
AcDbEntity
  8
0
100
AcDbCircle
 62
7
  6
CONTINUOUS
 10
5.5554781171
 20
5.8004150012
 40
0.3975423874
100
AcDbArc
 50
127.7188716944
 51
128.4105738049
  0
ARC
  5
301
100
AcDbEntity
  8
0
100
AcDbCircle
 62
7
  6
CONTINUOUS
 10
5.545288069
 20
5.8706836295
 40
0.3959633527
100
AcDbArc
 50
146.0322470212
 51
150.7931624944
  0
ARC
  5
302
100
AcDbEntity
  8
0
100
AcDbCircle
 62
7
  6
CONTINUOUS
 10
5.5526705325
 20
5.8039455588
 40
0.3930315863
100
AcDbArc
 50
128.4096327631
 51
129.2198419411
  0
ARC
  5
303
100
AcDbEntity
  8
0
100
AcDbCircle
 62
7
  6
CONTINUOUS
 10
5.5403657056
 20
5.8734790545
 40
0.3903027352
100
AcDbArc
 50
150.7987540638
 51
151.4836168988
  0
ARC
  5
304
100
AcDbEntity
  8
0
100
AcDbCircle
 62
7
  6
CONTINUOUS
 10
5.536509513
 20
5.875491016
 40
0.3859538497
100
AcDbArc
 50
151.4727630313
 51
158.1424137029
  0
ARC
  5
305
100
AcDbEntity
  8
0
100
AcDbCircle
 62
7
  6
CONTINUOUS
 10
5.5461810901
 20
5.8117694415
 40
0.3828669737
100
AcDbArc
 50
129.2077930143
 51
131.9507743044
  0
ARC
  5
306
100
AcDbEntity
  8
0
100
AcDbCircle
 62
7
  6
CONTINUOUS
 10
5.5335317764
 20
5.8767162275
 40
0.3827340301
100
AcDbArc
 50
158.1466831677
 51
159.0586434827
  0
ARC
  5
307
100
AcDbEntity
  8
0
100
AcDbCircle
 62
7
  6
CONTINUOUS
 10
5.5131770637
 20
5.8338964811
 40
0.3750343236
100
AcDbArc
 50
137.888315378
 51
138.2645082519
  0
ARC
  5
308
100
AcDbEntity
  8
0
100
AcDbCircle
 62
7
  6
CONTINUOUS
 10
5.5249192046
 20
5.8797357011
 40
0.3736138585
100
AcDbArc
 50
159.0190450932
 51
177.0793906182
  0
ARC
  5
309
100
AcDbEntity
  8
0
100
AcDbCircle
 62
7
  6
CONTINUOUS
 10
5.5376425131
 20
5.8212275147
 40
0.3701248525
100
AcDbArc
 50
131.9464924348
 51
134.1433906371
  0
ARC
  5
30A
100
AcDbEntity
  8
0
100
AcDbCircle
 62
7
  6
CONTINUOUS
 10
5.5044028612
 20
5.8415848554
 40
0.3633687058
100
AcDbArc
 50
138.2481634562
 51
143.8730368117
  0
ARC
  5
30B
100
AcDbEntity
  8
0
100
AcDbCircle
 62
9
  6
CONTINUOUS
 10
5.5400250864
 20
5.9474443923
 40
0.3622196511
100
AcDbArc
 50
132.1937421012
 51
133.8540785252
  0
ARC
  5
30C
100
AcDbEntity
  8
0
100
AcDbCircle
 62
7
  6
CONTINUOUS
 10
5.5572779225
 20
5.9890440443
 40
0.3163392978
100
AcDbArc
 50
133.3177952872
 51
137.3404357787
  0
ARC
  5
30D
100
AcDbEntity
  8
0
100
AcDbCircle
 62
9
  6
CONTINUOUS
 10
5.4995777038
 20
5.9826466978
 40
0.3084930189
100
AcDbArc
 50
143.887983988
 51
147.8262016968
  0
ARC
  5
30E
100
AcDbEntity
  8
0
100
AcDbCircle
 62
7
  6
CONTINUOUS
 10
5.5497245109
 20
5.996140703
 40
0.3059756024
100
AcDbArc
 50
137.3592237483
 51
139.4525503439
  0
ARC
  5
30F
100
AcDbEntity
  8
0
100
AcDbCircle
 62
7
  6
CONTINUOUS
 10
5.5080367025
 20
5.9821926895
 40
0.3041162007
100
AcDbArc
 50
143.6723294231
 51
144.8862466561
  0
ARC
  5
310
100
AcDbEntity
  8
0
100
AcDbCircle
 62
7
  6
CONTINUOUS
 10
5.5039144214
 20
5.9851030253
 40
0.299070097
100
AcDbArc
 50
144.8880754491
 51
146.0297469612
  0
ARC
  5
311
100
AcDbEntity
  8
0
100
AcDbCircle
 62
9
  6
CONTINUOUS
 10
5.4897063352
 20
5.9889978929
 40
0.2967556105
100
AcDbArc
 50
147.8492716004
 51
150.1077451202
  0
ARC
  5
312
100
AcDbEntity
  8
0
100
AcDbCircle
 62
7
  6
CONTINUOUS
 10
5.499789742
 20
5.9878909765
 40
0.2940915835
100
AcDbArc
 50
146.0311905115
 51
147.2490132303
  0
ARC
  5
313
100
AcDbEntity
  8
0
100
AcDbCircle
 62
7
  6
CONTINUOUS
 10
5.4932821528
 20
5.9920546792
 40
0.2863659912
100
AcDbArc
 50
147.2452644957
 51
151.1811112849
  0
ARC
  5
314
100
AcDbEntity
  8
0
100
AcDbCircle
 62
7
  6
CONTINUOUS
 10
5.5537497128
 20
6.1117891919
 40
0.097806626
100
AcDbArc
 50
89.8778417674
 51
99.9667463086
  0
ARC
  5
315
100
AcDbEntity
  8
0
100
AcDbCircle
 62
9
  6
CONTINUOUS
 10
5.5539494985
 20
6.1124489997
 40
0.0972143052
100
AcDbArc
 50
84.5716253107
 51
94.751204137
  0
ARC
  5
316
100
AcDbEntity
  8
0
100
AcDbCircle
 62
7
  6
CONTINUOUS
 10
5.5532278786
 20
6.1149375734
 40
0.0946154465
100
AcDbArc
 50
99.985489874
 51
104.0859394034
  0
ARC
  5
317
100
AcDbEntity
  8
0
100
AcDbCircle
 62
7
  6
CONTINUOUS
 10
5.5525065269
 20
6.1179323595
 40
0.0915351525
100
AcDbArc
 50
104.1042169996
 51
105.5826684535
  0
ARC
  5
318
100
AcDbEntity
  8
0
100
AcDbCircle
 62
7
  6
CONTINUOUS
 10
5.5520540389
 20
6.1195549358
 40
0.0898506647
100
AcDbArc
 50
105.5826772688
 51
107.0043713435
  0
ARC
  5
319
100
AcDbEntity
  8
0
100
AcDbCircle
 62
7
  6
CONTINUOUS
 10
5.6213360722
 20
5.6458606949
 40
0.5677562744
100
AcDbArc
 50
88.6898517527
 51
92.4895258871
  0
ARC
  5
31A
100
AcDbEntity
  8
0
100
AcDbCircle
 62
7
  6
CONTINUOUS
 10
5.621272348
 20
5.6475196007
 40
0.5660961665
100
AcDbArc
 50
92.490375405
 51
92.7529521979
  0
ARC
  5
31B
100
AcDbEntity
  8
0
100
AcDbCircle
 62
7
  6
CONTINUOUS
 10
5.6210710395
 20
5.6505508934
 40
0.5630587062
100
AcDbArc
 50
92.7473062073
 51
96.8455450176
  0
ARC
  5
31C
100
AcDbEntity
  8
0
100
AcDbCircle
 62
7
  6
CONTINUOUS
 10
5.621628776
 20
5.6507627433
 40
0.5628446809
100
AcDbArc
 50
83.3029314138
 51
85.7898873555
  0
ARC
  5
31D
100
AcDbEntity
  8
0
100
AcDbCircle
 62
7
  6
CONTINUOUS
 10
5.621963849
 20
5.6538127916
 40
0.5597763685
100
AcDbArc
 50
83.0878007562
 51
83.3005864928
  0
ARC
  5
31E
100
AcDbEntity
  8
0
100
AcDbCircle
 62
7
  6
CONTINUOUS
 10
5.6221836696
 20
5.6556000427
 40
0.5579756526
100
AcDbArc
 50
81.8575748785
 51
83.0881222024
  0
ARC
  5
31F
100
AcDbEntity
  8
0
100
AcDbCircle
 62
7
  6
CONTINUOUS
 10
5.6225597896
 20
5.658302822
 40
0.5552468484
100
AcDbArc
 50
81.6730744003
 51
81.8564936706
  0
ARC
  5
320
100
AcDbEntity
  8
0
100
AcDbCircle
 62
9
  6
CONTINUOUS
 10
5.6213369606
 20
5.7781166782
 40
0.5531267249
100
AcDbArc
 50
90.0003892772
 51
91.2156278627
  0
ARC
  5
321
100
AcDbEntity
  8
0
100
AcDbCircle
 62
7
  6
CONTINUOUS
 10
5.6233475977
 20
5.6634328284
 40
0.5500568332
100
AcDbArc
 50
77.5384255322
 51
81.67688358
  0
ARC
  5
322
100
AcDbEntity
  8
0
100
AcDbCircle
 62
9
  6
CONTINUOUS
 10
5.6216216246
 20
5.7827193112
 40
0.5485241677
100
AcDbArc
 50
80.1025271394
 51
90.0301269617
  0
ARC
  5
323
100
AcDbEntity
  8
0
100
AcDbCircle
 62
7
  6
CONTINUOUS
 10
5.6179212177
 20
5.6705846624
 40
0.5427714343
100
AcDbArc
 50
99.774148859
 51
103.6563115019
  0
ARC
  5
324
100
AcDbEntity
  8
0
100
AcDbCircle
 62
7
  6
CONTINUOUS
 10
5.6160932275
 20
5.6783029015
 40
0.5348398127
100
AcDbArc
 50
103.6612332569
 51
103.9681490406
  0
ARC
  5
325
100
AcDbEntity
  8
0
100
AcDbCircle
 62
7
  6
CONTINUOUS
 10
5.6157725344
 20
5.6795932247
 40
0.5335102346
100
AcDbArc
 50
103.9681760144
 51
104.2592198772
  0
ARC
  5
326
100
AcDbEntity
  8
0
100
AcDbCircle
 62
7
  6
CONTINUOUS
 10
5.6138000172
 20
5.6870386824
 40
0.5258083183
100
AcDbArc
 50
104.25073556
 51
107.0769299337
  0
ARC
  5
327
100
AcDbEntity
  8
0
100
AcDbCircle
 62
9
  6
CONTINUOUS
 10
5.6213530541
 20
5.7964941865
 40
0.5241483461
100
AcDbArc
 50
80.4231270699
 51
91.1895128679
  0
ARC
  5
328
100
AcDbEntity
  8
0
100
AcDbCircle
 62
7
  6
CONTINUOUS
 10
5.6201915701
 20
5.7980355338
 40
0.5225844394
100
AcDbArc
 50
81.1293616308
 51
91.0657041205
  0
ARC
  5
329
100
AcDbEntity
  8
0
100
AcDbCircle
 62
7
  6
CONTINUOUS
 10
5.6308394792
 20
5.6938172176
 40
0.5187494181
100
AcDbArc
 50
70.1965627426
 51
74.5164060905
  0
ARC
  5
32A
100
AcDbEntity
  8
0
100
AcDbCircle
 62
7
  6
CONTINUOUS
 10
5.6109290716
 20
5.6964211991
 40
0.5159963956
100
AcDbArc
 50
107.0781355756
 51
108.2660506425
  0
ARC
  5
32B
100
AcDbEntity
  8
0
100
AcDbCircle
 62
7
  6
CONTINUOUS
 10
5.6225627027
 20
5.8156671317
 40
0.5047982344
100
AcDbArc
 50
80.1856783845
 51
81.0866742247
  0
ARC
  5
32C
100
AcDbEntity
  8
0
100
AcDbCircle
 62
7
  6
CONTINUOUS
 10
5.6362470567
 20
5.7094474955
 40
0.502211494
100
AcDbArc
 50
68.9597743429
 51
70.1728698117
  0
ARC
  5
32D
100
AcDbEntity
  8
0
100
AcDbCircle
 62
7
  6
CONTINUOUS
 10
5.6381872376
 20
5.7145294175
 40
0.4967718209
100
AcDbArc
 50
68.1613912602
 51
68.9581939941
  0
ARC
  5
32E
100
AcDbEntity
  8
0
100
AcDbCircle
 62
7
  6
CONTINUOUS
 10
5.6411939762
 20
5.7219952722
 40
0.4887232638
100
AcDbArc
 50
65.9406674742
 51
68.1629988441
  0
ARC
  5
32F
100
AcDbEntity
  8
0
100
AcDbCircle
 62
7
  6
CONTINUOUS
 10
5.6213340908
 20
5.8303380692
 40
0.4856619275
100
AcDbArc
 50
89.4617843117
 51
91.2346847541
  0
ARC
  5
330
100
AcDbEntity
  8
0
100
AcDbCircle
 62
7
  6
CONTINUOUS
 10
5.5985733627
 20
5.7288937732
 40
0.4812421313
100
AcDbArc
 50
111.3663979212
 51
115.9171683128
  0
ARC
  5
331
100
AcDbEntity
  8
0
100
AcDbCircle
 62
7
  6
CONTINUOUS
 10
5.6447568663
 20
5.730135915
 40
0.479837326
100
AcDbArc
 50
65.7046835538
 51
65.9328537873
  0
ARC
  5
332
100
AcDbEntity
  8
0
100
AcDbCircle
 62
7
  6
CONTINUOUS
 10
5.5921472751
 20
5.7423026782
 40
0.4663731505
100
AcDbArc
 50
115.9271013062
 51
116.8660539606
  0
ARC
  5
333
100
AcDbEntity
  8
0
100
AcDbCircle
 62
7
  6
CONTINUOUS
 10
5.5866874327
 20
5.752859827
 40
0.454488157
100
AcDbArc
 50
116.8534857569
 51
119.6799115433
  0
ARC
  5
334
100
AcDbEntity
  8
0
100
AcDbCircle
 62
7
  6
CONTINUOUS
 10
5.581288465
 20
5.7623784371
 40
0.4435450189
100
AcDbArc
 50
119.6828215841
 51
120.6371203721
  0
ARC
  5
335
100
AcDbEntity
  8
0
100
AcDbCircle
 62
7
  6
CONTINUOUS
 10
5.5783725114
 20
5.8424879902
 40
0.439582065
100
AcDbArc
 50
126.8079020461
 51
135.7380951015
  0
ARC
  5
336
100
AcDbEntity
  8
0
100
AcDbCircle
 62
7
  6
CONTINUOUS
 10
5.6213345099
 20
6.6046647234
 40
0.9794250637
100
AcDbArc
 50
300.1512835012
 51
240.1717734548
  0
ARC
  5
337
100
AcDbEntity
  8
0
100
AcDbCircle
 62
9
  6
CONTINUOUS
 10
5.6213345099
 20
6.6046647234
 40
0.7622057121
100
AcDbArc
 50
308.0629627261
 51
231.8919502471
  0
ARC
  5
338
100
AcDbEntity
  8
0
100
AcDbCircle
 62
9
  6
CONTINUOUS
 10
5.6213345099
 20
6.6046647234
 40
0.7298140957
100
AcDbArc
 50
310.2161919197
 51
229.7838052043
  0
ARC
  5
339
100
AcDbEntity
  8
0
100
AcDbCircle
 62
7
  6
CONTINUOUS
 10
5.6213345099
 20
6.6046647234
 40
0.619
100
AcDbArc
 50
322.5140817629
 51
217.4860800246
  0
ARC
  5
33A
100
AcDbEntity
  8
0
100
AcDbCircle
 62
7
  6
CONTINUOUS
 10
5.6213345099
 20
6.6046647234
 40
0.593
100
AcDbArc
 50
325.9741967027
 51
214.0263477947
  0
ARC
  5
33B
100
AcDbEntity
  8
0
100
AcDbCircle
 62
9
  6
CONTINUOUS
 10
5.6213345099
 20
6.6046647234
 40
0.5632512627
100
AcDbArc
 50
330.3673468395
 51
345.260331478
  0
ARC
  5
33C
100
AcDbEntity
  8
0
100
AcDbCircle
 62
9
  6
CONTINUOUS
 10
5.6213345099
 20
6.6046647234
 40
0.5632512627
100
AcDbArc
 50
194.739668522
 51
209.7229994023
  0
ARC
  5
33D
100
AcDbEntity
  8
0
100
AcDbCircle
 62
9
  6
CONTINUOUS
 10
5.6213345099
 20
6.6046647234
 40
0.5632512627
100
AcDbArc
 50
14.739668522
 51
165.260331478
  0
ARC
  5
33E
100
AcDbEntity
  8
0
100
AcDbCircle
 62
7
  6
CONTINUOUS
 10
5.6213345099
 20
6.6046647234
 40
0.553
100
AcDbArc
 50
198.8985985245
 51
208.352927644
  0
ARC
  5
33F
100
AcDbEntity
  8
0
100
AcDbCircle
 62
7
  6
CONTINUOUS
 10
5.6213345099
 20
6.6046647234
 40
0.553
100
AcDbArc
 50
331.8281172222
 51
341.1014014755
  0
ARC
  5
340
100
AcDbEntity
  8
0
100
AcDbCircle
 62
7
  6
CONTINUOUS
 10
5.6213345099
 20
6.6046647234
 40
0.553
100
AcDbArc
 50
18.8985985245
 51
161.1014014755
  0
ARC
  5
341
100
AcDbEntity
  8
0
100
AcDbCircle
 62
7
  6
CONTINUOUS
 10
5.6213345099
 20
6.6046647234
 40
0.5475
100
AcDbArc
 50
333.2759079805
 51
206.7031578002
  0
ARC
  5
342
100
AcDbEntity
  8
0
100
AcDbCircle
 62
9
  6
CONTINUOUS
 10
5.6213345099
 20
6.6046647234
 40
0.5175
100
AcDbArc
 50
341.747412602
 51
198.8758793664
  0
ARC
  5
343
100
AcDbEntity
  8
0
100
AcDbCircle
 62
7
  6
CONTINUOUS
 10
5.6213345099
 20
6.6046647234
 40
0.4875
100
AcDbArc
 50
0.0
 51
180.0
  0
ARC
  5
344
100
AcDbEntity
  8
0
100
AcDbCircle
 62
9
  6
CONTINUOUS
 10
5.6495826054
 20
6.133905567
 40
0.0790825629
100
AcDbArc
 50
60.5066482119
 51
62.097146557
  0
ARC
  5
345
100
AcDbEntity
  8
0
100
AcDbCircle
 62
9
  6
CONTINUOUS
 10
5.7848342791
 20
4.7222570108
 40
2.9709187567
100
AcDbArc
 50
266.8452244416
 51
267.8384794444
  0
ARC
  5
346
100
AcDbEntity
  8
0
100
AcDbCircle
 62
6
  6
CONTINUOUS
 10
5.6987243813
 20
3.4740273268
 40
0.4719883177
100
AcDbArc
 50
52.6483594601
 51
53.1119047893
  0
ARC
  5
347
100
AcDbEntity
  8
0
100
AcDbCircle
 62
6
  6
CONTINUOUS
 10
5.7022389194
 20
3.478619036
 40
0.466205956
100
AcDbArc
 50
50.9556378239
 51
52.6493411305
  0
ARC
  5
348
100
AcDbEntity
  8
0
100
AcDbCircle
 62
6
  6
CONTINUOUS
 10
5.7072340648
 20
3.4848170077
 40
0.4582456979
100
AcDbArc
 50
49.5941333792
 51
50.9525474807
  0
ARC
  5
349
100
AcDbEntity
  8
0
100
AcDbCircle
 62
6
  6
CONTINUOUS
 10
5.7201392051
 20
3.4997134162
 40
0.4385374497
100
AcDbArc
 50
42.5237294271
 51
49.6164855673
  0
ARC
  5
34A
100
AcDbEntity
  8
0
100
AcDbCircle
 62
6
  6
CONTINUOUS
 10
5.7390393117
 20
3.5178065788
 40
0.4123794121
100
AcDbArc
 50
40.7776932093
 51
42.4459068866
  0
ARC
  5
34B
100
AcDbEntity
  8
0
100
AcDbCircle
 62
6
  6
CONTINUOUS
 10
5.7491702938
 20
3.5265174992
 40
0.3990184054
100
AcDbArc
 50
37.0811343273
 51
40.780632087
  0
ARC
  5
34C
100
AcDbEntity
  8
0
100
AcDbCircle
 62
6
  6
CONTINUOUS
 10
5.7686828222
 20
3.5412774317
 40
0.3745522194
100
AcDbArc
 50
30.8499992127
 51
37.0795697595
  0
ARC
  5
34D
100
AcDbEntity
  8
0
100
AcDbCircle
 62
9
  6
CONTINUOUS
 10
5.9855351846
 20
3.7767974104
 40
0.0933326311
100
AcDbArc
 50
78.9431848409
 51
82.2363902847
  0
ARC
  5
34E
100
AcDbEntity
  8
0
100
AcDbCircle
 62
7
  6
CONTINUOUS
 10
5.6582598112
 20
5.7570820982
 40
0.4496903368
100
AcDbArc
 50
58.3418327629
 51
62.4281496342
  0
ARC
  5
34F
100
AcDbEntity
  8
0
100
AcDbCircle
 62
7
  6
CONTINUOUS
 10
5.6871555176
 20
5.7871216562
 40
0.4382150082
100
AcDbArc
 50
51.7022116459
 51
55.2220786705
  0
ARC
  5
350
100
AcDbEntity
  8
0
100
AcDbCircle
 62
7
  6
CONTINUOUS
 10
5.6664923968
 20
5.7708431645
 40
0.4336561704
100
AcDbArc
 50
57.9096066314
 51
58.3134306157
  0
ARC
  5
351
100
AcDbEntity
  8
0
100
AcDbCircle
 62
7
  6
CONTINUOUS
 10
5.6676411422
 20
5.7726767451
 40
0.4314924622
100
AcDbArc
 50
57.6460307604
 51
57.9094908549
  0
ARC
  5
352
100
AcDbEntity
  8
0
100
AcDbCircle
 62
7
  6
CONTINUOUS
 10
5.6721852676
 20
5.779770734
 40
0.4230679786
100
AcDbArc
 50
54.3912718656
 51
57.6517662909
  0
ARC
  5
353
100
AcDbEntity
  8
0
100
AcDbCircle
 62
7
  6
CONTINUOUS
 10
5.6793865145
 20
5.8575658493
 40
0.4182532747
100
AcDbArc
 50
38.0458640599
 51
44.9902769162
  0
ARC
  5
354
100
AcDbEntity
  8
0
100
AcDbCircle
 62
7
  6
CONTINUOUS
 10
5.6856433879
 20
5.862667168
 40
0.4101820057
100
AcDbArc
 50
37.3407569177
 51
38.0233306469
  0
ARC
  5
355
100
AcDbEntity
  8
0
100
AcDbCircle
 62
7
  6
CONTINUOUS
 10
5.6863020498
 20
5.8631711231
 40
0.4093526657
100
AcDbArc
 50
37.134600943
 51
37.3405957501
  0
ARC
  5
356
100
AcDbEntity
  8
0
100
AcDbCircle
 62
7
  6
CONTINUOUS
 10
5.7054555818
 20
5.809715066
 40
0.40914241
100
AcDbArc
 50
46.1605306428
 51
51.7525777785
  0
ARC
  5
357
100
AcDbEntity
  8
0
100
AcDbCircle
 62
7
  6
CONTINUOUS
 10
5.6868093933
 20
5.8635547074
 40
0.4087166357
100
AcDbArc
 50
36.6702825014
 51
37.1346678289
  0
ARC
  5
358
100
AcDbEntity
  8
0
100
AcDbCircle
 62
7
  6
CONTINUOUS
 10
5.6811040059
 20
5.792426222
 40
0.407586024
100
AcDbArc
 50
52.6385453163
 51
54.374743831
  0
ARC
  5
359
100
AcDbEntity
  8
0
100
AcDbCircle
 62
7
  6
CONTINUOUS
 10
5.690418092
 20
5.8662006217
 40
0.4042419878
100
AcDbArc
 50
31.9246641897
 51
36.6749454247
  0
ARC
  5
35A
100
AcDbEntity
  8
0
100
AcDbCircle
 62
7
  6
CONTINUOUS
 10
5.6961477985
 20
5.8698919049
 40
0.397426982
100
AcDbArc
 50
31.2210004545
 51
31.9098056797
  0
ARC
  5
35B
100
AcDbEntity
  8
0
100
AcDbCircle
 62
7
  6
CONTINUOUS
 10
5.6667797154
 20
5.9149646208
 40
0.3932222944
100
AcDbArc
 50
61.1116818221
 51
63.0959665971
  0
ARC
  5
35C
100
AcDbEntity
  8
0
100
AcDbCircle
 62
7
  6
CONTINUOUS
 10
5.7178898478
 20
5.8228373215
 40
0.3910650926
100
AcDbArc
 50
44.8263537207
 51
46.1428944076
  0
ARC
  5
35D
100
AcDbEntity
  8
0
100
AcDbCircle
 62
7
  6
CONTINUOUS
 10
5.7045789617
 20
5.8747515108
 40
0.3876979964
100
AcDbArc
 50
21.911887548
 51
31.2526859097
  0
ARC
  5
35E
100
AcDbEntity
  8
0
100
AcDbCircle
 62
7
  6
CONTINUOUS
 10
5.7093749508
 20
5.876817609
 40
0.3824774691
100
AcDbArc
 50
20.915497351
 51
21.8928518931
  0
ARC
  5
35F
100
AcDbEntity
  8
0
100
AcDbCircle
 62
7
  6
CONTINUOUS
 10
5.7304156655
 20
5.8348700662
 40
0.3736987069
100
AcDbArc
 50
39.3424358903
 51
44.8717403631
  0
ARC
  5
360
100
AcDbEntity
  8
0
100
AcDbCircle
 62
7
  6
CONTINUOUS
 10
5.7183552968
 20
5.8798545313
 40
0.3730048862
100
AcDbArc
 50
4.6548308373
 51
20.9721912504
  0
ARC
  5
361
100
AcDbEntity
  8
0
100
AcDbCircle
 62
7
  6
CONTINUOUS
 10
5.7392826135
 20
5.8422678382
 40
0.3621514354
100
AcDbArc
 50
38.9407598551
 51
39.326617201
  0
ARC
  5
362
100
AcDbEntity
  8
0
100
AcDbCircle
 62
7
  6
CONTINUOUS
 10
5.7290592939
 20
5.8439378956
 40
0.3370406154
100
AcDbArc
 50
38.2853039099
 51
40.792099557
  0
ARC
  5
363
100
AcDbEntity
  8
0
100
AcDbCircle
 62
7
  6
CONTINUOUS
 10
5.6996950135
 20
5.9630560251
 40
0.3348331137
100
AcDbArc
 50
49.0012826214
 51
50.4147799775
  0
ARC
  5
364
100
AcDbEntity
  8
0
100
AcDbCircle
 62
7
  6
CONTINUOUS
 10
5.7036653702
 20
5.9676048465
 40
0.3287952867
100
AcDbArc
 50
47.4774280256
 51
49.0034270786
  0
ARC
  5
365
100
AcDbEntity
  8
0
100
AcDbCircle
 62
9
  6
CONTINUOUS
 10
5.7328803613
 20
5.9751872582
 40
0.3211386594
100
AcDbArc
 50
36.4209532765
 51
39.2758996278
  0
ARC
  5
366
100
AcDbEntity
  8
0
100
AcDbCircle
 62
7
  6
CONTINUOUS
 10
5.7154437152
 20
5.979929531
 40
0.3117512994
100
AcDbArc
 50
40.9069208937
 51
47.5418923755
  0
ARC
  5
367
100
AcDbEntity
  8
0
100
AcDbCircle
 62
7
  6
CONTINUOUS
 10
5.6817177293
 20
6.157221457
 40
0.0966443123
100
AcDbArc
 50
151.4798882904
 51
153.5985462845
  0
ARC
  5
368
100
AcDbEntity
  8
0
100
AcDbCircle
 62
7
  6
CONTINUOUS
 10
5.7329817187
 20
6.1046905804
 40
0.0962675201
100
AcDbArc
 50
83.8437385018
 51
84.5998717224
  0
ARC
  5
369
100
AcDbEntity
  8
0
100
AcDbCircle
 62
9
  6
CONTINUOUS
 10
5.732615673
 20
6.1050667083
 40
0.0959890368
100
AcDbArc
 50
79.6790638783
 51
89.9497723882
  0
ARC
  5
36A
100
AcDbEntity
  8
0
100
AcDbCircle
 62
7
  6
CONTINUOUS
 10
5.7330883103
 20
6.1054357333
 40
0.095515237
100
AcDbArc
 50
77.2631795677
 51
83.8593747195
  0
ARC
  5
36B
100
AcDbEntity
  8
0
100
AcDbCircle
 62
7
  6
CONTINUOUS
 10
5.7336124136
 20
6.107771059
 40
0.0931218259
100
AcDbArc
 50
74.7671251413
 51
77.2609216503
  0
ARC
  5
36C
100
AcDbEntity
  8
0
100
AcDbCircle
 62
7
  6
CONTINUOUS
 10
5.7202251194
 20
6.128080573
 40
0.0751005943
100
AcDbArc
 50
106.6306497927
 51
109.993347493
  0
ARC
  5
36D
100
AcDbEntity
  8
0
100
AcDbCircle
 62
9
  6
CONTINUOUS
 10
5.7415153282
 20
5.9695336953
 40
0.3592067665
100
AcDbArc
 50
35.2396918283
 51
41.0238929719
  0
ARC
  5
36E
100
AcDbEntity
  8
0
100
AcDbCircle
 62
9
  6
CONTINUOUS
 10
5.7554463967
 20
5.9797921956
 40
0.3419096634
100
AcDbArc
 50
34.4340221372
 51
35.1826523097
  0
ARC
  5
36F
100
AcDbEntity
  8
0
100
AcDbCircle
 62
9
  6
CONTINUOUS
 10
5.7434561324
 20
5.9828854545
 40
0.3080580733
100
AcDbArc
 50
32.8778367997
 51
36.4366537404
  0
ARC
  5
370
100
AcDbEntity
  8
0
100
AcDbCircle
 62
9
  6
CONTINUOUS
 10
5.7490393168
 20
5.9865354843
 40
0.3013877328
100
AcDbArc
 50
32.4241154043
 51
32.8712639299
  0
ARC
  5
371
100
AcDbEntity
  8
0
100
AcDbCircle
 62
9
  6
CONTINUOUS
 10
5.7502081497
 20
5.9872787664
 40
0.3000025836
100
AcDbArc
 50
32.1491929313
 51
32.4239819269
  0
ARC
  5
372
100
AcDbEntity
  8
0
100
AcDbCircle
 62
9
  6
CONTINUOUS
 10
5.7597382252
 20
5.9929727734
 40
0.2889039797
100
AcDbArc
 50
25.6787441388
 51
32.1988287051
  0
ARC
  5
373
100
AcDbEntity
  8
0
100
AcDbCircle
 62
9
  6
CONTINUOUS
 10
5.7425859995
 20
5.9931485781
 40
0.2864005673
100
AcDbArc
 50
30.7475342599
 51
34.475977876
  0
ARC
  5
374
100
AcDbEntity
  8
0
100
AcDbCircle
 62
9
  6
CONTINUOUS
 10
5.7478602146
 20
5.9963222403
 40
0.2802452046
100
AcDbArc
 50
30.1030523468
 51
30.7411839198
  0
ARC
  5
375
100
AcDbEntity
  8
0
100
AcDbCircle
 62
9
  6
CONTINUOUS
 10
5.8127616267
 20
6.0059765749
 40
0.2785844777
100
AcDbArc
 50
348.2636696167
 51
355.1157946224
  0
ARC
  5
376
100
AcDbEntity
  8
0
100
AcDbCircle
 62
9
  6
CONTINUOUS
 10
5.7757086009
 20
6.000453838
 40
0.2712692007
100
AcDbArc
 50
16.9439515645
 51
25.716369934
  0
ARC
  5
377
100
AcDbEntity
  8
0
100
AcDbCircle
 62
9
  6
CONTINUOUS
 10
5.7851642283
 20
6.0035872131
 40
0.2613109724
100
AcDbArc
 50
16.3699935598
 51
16.8909677367
  0
ARC
  5
378
100
AcDbEntity
  8
0
100
AcDbCircle
 62
7
  6
CONTINUOUS
 10
5.8009842827
 20
6.2298669186
 40
0.3111073073
100
AcDbArc
 50
338.445054562
 51
340.5105718542
  0
ARC
  5
379
100
AcDbEntity
  8
0
100
AcDbCircle
 62
7
  6
CONTINUOUS
 10
5.8018064046
 20
6.2189992716
 40
0.3102294769
100
AcDbArc
 50
19.3296946613
 51
21.5578015768
  0
ARC
  5
37A
100
AcDbEntity
  8
0
100
AcDbCircle
 62
7
  6
CONTINUOUS
 10
5.8073701996
 20
6.2209037023
 40
0.3043489457
100
AcDbArc
 50
15.8694380256
 51
19.3380831195
  0
ARC
  5
37B
100
AcDbEntity
  8
0
100
AcDbCircle
 62
7
  6
CONTINUOUS
 10
5.8115702535
 20
6.2221076342
 40
0.2999797567
100
AcDbArc
 50
14.5320566924
 51
15.8676124403
  0
ARC
  5
37C
100
AcDbEntity
  8
0
100
AcDbCircle
 62
7
  6
CONTINUOUS
 10
5.8145463995
 20
6.3077293327
 40
0.2967905915
100
AcDbArc
 50
3.0142370359
 51
5.3929060581
  0
ARC
  5
37D
100
AcDbEntity
  8
0
100
AcDbCircle
 62
7
  6
CONTINUOUS
 10
5.8155820074
 20
6.3077870723
 40
0.2957533802
100
AcDbArc
 50
2.5306676868
 51
3.0136164764
  0
ARC
  5
37E
100
AcDbEntity
  8
0
100
AcDbCircle
 62
7
  6
CONTINUOUS
 10
5.8166381558
 20
6.3078302741
 40
0.2946963543
100
AcDbArc
 50
0.0021672869
 51
2.5313430504
  0
ARC
  5
37F
100
AcDbEntity
  8
0
100
AcDbCircle
 62
7
  6
CONTINUOUS
 10
5.8204081272
 20
6.2240936625
 40
0.2909264418
100
AcDbArc
 50
0.0365071537
 51
14.5901790837
  0
ARC
  5
380
100
AcDbEntity
  8
0
100
AcDbCircle
 62
9
  6
CONTINUOUS
 10
5.8245880507
 20
6.3078383544
 40
0.2867464592
100
AcDbArc
 50
0.0006128202
 51
2.5994272118
  0
ARC
  5
381
100
AcDbEntity
  8
0
100
AcDbCircle
 62
9
  6
CONTINUOUS
 10
5.8140823953
 20
6.0743682073
 40
0.0972572282
100
AcDbArc
 50
88.9264752331
 51
97.6711042626
  0
ARC
  5
382
100
AcDbEntity
  8
0
100
AcDbCircle
 62
9
  6
CONTINUOUS
 10
5.8153089591
 20
6.0803917914
 40
0.0911334922
100
AcDbArc
 50
74.0698568603
 51
78.826036248
  0
ARC
  5
383
100
AcDbEntity
  8
0
100
AcDbCircle
 62
6
  6
CONTINUOUS
 10
6.8825025633
 20
2.9072176938
 40
0.8911224798
100
AcDbArc
 50
209.1509500407
 51
210.6603447797
  0
ARC
  5
384
100
AcDbEntity
  8
0
100
AcDbCircle
 62
6
  6
CONTINUOUS
 10
6.8394241257
 20
2.8848998564
 40
0.8426065385
100
AcDbArc
 50
202.6481976673
 51
207.9848952126
  0
ARC
  5
385
100
AcDbEntity
  8
0
100
AcDbCircle
 62
6
  6
CONTINUOUS
 10
6.8173157936
 20
2.8749765062
 40
0.8183842325
100
AcDbArc
 50
201.1070972531
 51
202.6034646212
  0
ARC
  5
386
100
AcDbEntity
  8
0
100
AcDbCircle
 62
6
  6
CONTINUOUS
 10
6.801412811
 20
2.8595609647
 40
0.7970690764
100
AcDbArc
 50
210.6863408925
 51
222.2387146724
  0
ARC
  5
387
100
AcDbEntity
  8
0
100
AcDbCircle
 62
9
  6
CONTINUOUS
 10
6.6590810135
 20
2.8284812727
 40
0.6531321288
100
AcDbArc
 50
189.1112317179
 51
190.5877830189
  0
ARC
  5
388
100
AcDbEntity
  8
0
100
AcDbCircle
 62
9
  6
CONTINUOUS
 10
6.6501069395
 20
2.8270382343
 40
0.6440427752
100
AcDbArc
 50
188.4479408448
 51
189.110896146
  0
ARC
  5
389
100
AcDbEntity
  8
0
100
AcDbCircle
 62
9
  6
CONTINUOUS
 10
6.6389417711
 20
2.8254086352
 40
0.6327593466
100
AcDbArc
 50
187.3502557167
 51
188.4505093099
  0
ARC
  5
38A
100
AcDbEntity
  8
0
100
AcDbCircle
 62
9
  6
CONTINUOUS
 10
6.6239661555
 20
2.8235156344
 40
0.6176646125
100
AcDbArc
 50
185.962603473
 51
187.3538227631
  0
ARC
  5
38B
100
AcDbEntity
  8
0
100
AcDbCircle
 62
9
  6
CONTINUOUS
 10
6.6152772809
 20
2.8225940873
 40
0.6089270159
100
AcDbArc
 50
185.5976693645
 51
185.9612892776
  0
ARC
  5
38C
100
AcDbEntity
  8
0
100
AcDbCircle
 62
6
  6
CONTINUOUS
 10
6.515325402
 20
2.8213206032
 40
0.5088224005
100
AcDbArc
 50
174.1769096553
 51
175.556588269
  0
ARC
  5
38D
100
AcDbEntity
  8
0
100
AcDbCircle
 62
6
  6
CONTINUOUS
 10
6.4960370706
 20
2.8233482738
 40
0.4894278806
100
AcDbArc
 50
170.0998314384
 51
174.1839649252
  0
ARC
  5
38E
100
AcDbEntity
  8
0
100
AcDbCircle
 62
7
  6
CONTINUOUS
 10
8.3492370965
 20
4.0190489425
 40
2.757150067
100
AcDbArc
 50
180.0707135921
 51
181.1722418129
  0
SPLINE
  5
38F
100
AcDbEntity
  8
0
100
AcDbSpline
 62
7
  6
CONTINUOUS
 70
0
 71
3
 72
11
 73
7
 74
5
 42
0.0000001
 43
0.0000001
 44
0.0000000001
 12
0.0334022855
 22
0.0943986478
 32
0.0
 13
0.0
 23
0.1001339972
 33
0.0
 40
0.0
 40
0.0
 40
0.0
 40
0.0
 40
0.2526092906
 40
0.5029927973
 40
0.7518924485
 40
1.0
 40
1.0
 40
1.0
 40
1.0
 10
6.0942660954
 20
6.1260712782
 30
0.0
 10
6.0970786713
 20
6.1340199367
 30
0.0
 10
6.1020329389
 20
6.1500850813
 30
0.0
 10
6.1073916144
 20
6.1746328726
 30
0.0
 10
6.1106158992
 20
6.1993998237
 30
0.0
 10
6.1113345099
 20
6.2159976985
 30
0.0
 10
6.1113345099
 20
6.2242790321
 30
0.0
 11
6.0942660954
 21
6.1260712782
 31
0.0
 11
6.1017094554
 21
6.1502461037
 31
0.0
 11
6.107048996
 21
6.1747428288
 31
0.0
 11
6.110261803
 21
6.1994582006
 31
0.0
 11
6.1113345099
 21
6.2242790321
 31
0.0
  0
SPLINE
  5
390
100
AcDbEntity
  8
0
100
AcDbSpline
 62
7
  6
CONTINUOUS
 70
0
 71
3
 72
11
 73
7
 74
5
 42
0.0000001
 43
0.0000001
 44
0.0000000001
 12
0.0
 22
-0.1001340517
 32
0.0
 13
0.0334023242
 23
-0.094398692
 33
0.0
 40
0.0
 40
0.0
 40
0.0
 40
0.0
 40
0.2481075726
 40
0.4970072632
 40
0.7473907484
 40
1.0
 40
1.0
 40
1.0
 40
1.0
 10
5.1313345099
 20
6.2242790321
 30
0.0
 10
5.1313345099
 20
6.2159976933
 30
0.0
 10
5.1320531229
 20
6.1993998075
 30
0.0
 10
5.1352774108
 20
6.1746328417
 30
0.0
 10
5.1406360906
 20
6.1500850381
 30
0.0
 10
5.1455903637
 20
6.1340198876
 30
0.0
 10
5.1484029424
 20
6.1260712267
 30
0.0
 11
5.1313345099
 21
6.2242790321
 31
0.0
 11
5.132407219
 21
6.199458185
 31
0.0
 11
5.1356200298
 21
6.1747427961
 31
0.0
 11
5.140959575
 21
6.1502460602
 31
0.0
 11
5.1484029424
 21
6.1260712267
 31
0.0
  0
SPLINE
  5
391
100
AcDbEntity
  8
0
100
AcDbSpline
 62
7
  6
CONTINUOUS
 70
0
 71
3
 72
13
 73
9
 74
7
 42
0.0000001
 43
0.0000001
 44
0.0000000001
 12
-0.1964942762
 22
-0.0617482301
 32
0.0
 13
-0.1359805208
 23
-0.1547001696
 33
0.0
 40
0.0
 40
0.0
 40
0.0
 40
0.0
 40
0.1315005268
 40
0.2614817875
 40
0.5159939791
 40
0.6403233351
 40
0.7624866784
 40
1.0
 40
1.0
 40
1.0
 40
1.0
 10
5.4880215402
 20
6.3039408885
 30
0.0
 10
5.4794085066
 20
6.3012342469
 30
0.0
 10
5.4624389908
 20
6.2953312593
 30
0.0
 10
5.4297534899
 20
6.2816299345
 30
0.0
 10
5.3988381842
 20
6.2651134955
 30
0.0
 10
5.370268995
 20
6.2459138243
 30
0.0
 10
5.3440336954
 20
6.2254894768
 30
0.0
 10
5.326228262
 20
6.2082019509
 30
0.0
 10
5.3154625336
 20
6.1959541671
 30
0.0
 11
5.4880215402
 21
6.3039408885
 31
0.0
 11
5.4624430826
 21
6.2950338791
 31
0.0
 11
5.4377555113
 21
6.2846770835
 31
0.0
 11
5.3915670546
 21
6.2598853918
 31
0.0
 11
5.3703222807
 21
6.2455877365
 31
0.0
 11
5.3504812173
 21
6.2301137019
 31
0.0
 11
5.3154625336
 21
6.1959541671
 31
0.0
  0
SPLINE
  5
392
100
AcDbEntity
  8
0
100
AcDbSpline
 62
7
  6
CONTINUOUS
 70
0
 71
3
 72
15
 73
11
 74
9
 42
0.0000001
 43
0.0000001
 44
0.0000000001
 12
-0.3338095259
 22
-0.0061430867
 32
0.0
 13
-0.2481684296
 23
-0.2233359972
 33
0.0
 40
0.0
 40
0.0
 40
0.0
 40
0.0
 40
0.1304936223
 40
0.260595735
 40
0.3894993837
 40
0.51665784
 40
0.6416258827
 40
0.7640569845
 40
0.8836417587
 40
1.0
 40
1.0
 40
1.0
 40
1.0
 10
5.610472036
 20
6.3205295786
 30
0.0
 10
5.5959520313
 20
6.3202623674
 30
0.0
 10
5.5669639337
 20
6.3185365486
 30
0.0
 10
5.5240007823
 20
6.3124407789
 30
0.0
 10
5.482050432
 20
6.3028772645
 30
0.0
 10
5.4416003754
 20
6.289980099
 30
0.0
 10
5.4030925845
 20
6.2738788453
 30
0.0
 10
5.3669337272
 20
6.2547641159
 30
0.0
 10
5.3335448021
 20
6.2328440468
 30
0.0
 10
5.313077951
 20
6.2163089049
 30
0.0
 10
5.3034524703
 20
6.207646577
 30
0.0
 11
5.610472036
 21
6.3205295786
 31
0.0
 11
5.566981434
 21
6.3179440437
 31
0.0
 11
5.5239777299
 21
6.3118263295
 31
0.0
 11
5.4820213682
 21
6.302244655
 31
0.0
 11
5.4415827466
 21
6.2893198435
 31
0.0
 11
5.4031018703
 21
6.2731954404
 31
0.0
 11
5.3669853786
 21
6.2540535304
 31
0.0
 11
5.3336334855
 21
6.2321063103
 31
0.0
 11
5.3034524703
 21
6.207646577
 31
0.0
  0
SPLINE
  5
393
100
AcDbEntity
  8
0
100
AcDbSpline
 62
7
  6
CONTINUOUS
 70
0
 71
3
 72
9
 73
5
 74
3
 42
0.0000001
 43
0.0000001
 44
0.0000000001
 12
-0.0443906678
 22
-0.0414859871
 32
0.0
 13
-0.0359928573
 23
-0.0489503089
 33
0.0
 40
0.0
 40
0.0
 40
0.0
 40
0.0
 40
0.2541633347
 40
1.0
 40
1.0
 40
1.0
 40
1.0
 10
5.3034524703
 20
6.207646577
 30
0.0
 10
5.2996916436
 20
6.2041318381
 30
0.0
 10
5.2852027291
 20
6.1899788293
 30
0.0
 10
5.2719760975
 20
6.1745214795
 30
0.0
 10
5.2630278332
 20
6.1623518345
 30
0.0
 11
5.3034524703
 21
6.207646577
 31
0.0
 11
5.2924080841
 21
6.1968532271
 31
0.0
 11
5.2630278332
 21
6.1623518345
 31
0.0
  0
SPLINE
  5
394
100
AcDbEntity
  8
0
100
AcDbSpline
 62
7
  6
CONTINUOUS
 70
0
 71
3
 72
9
 73
5
 74
3
 42
0.0000001
 43
0.0000001
 44
0.0000000001
 12
-0.0524610229
 22
0.0433824826
 32
0.0
 13
-0.0596026097
 23
0.0328896281
 33
0.0
 40
0.0
 40
0.0
 40
0.0
 40
0.0
 40
0.2454483971
 40
1.0
 40
1.0
 40
1.0
 40
1.0
 10
5.9130591138
 20
6.2211044211
 30
0.0
 10
5.9087669558
 20
6.2246538081
 30
0.0
 10
5.8909255354
 20
6.2386825816
 30
0.0
 10
5.8717380124
 20
6.2509832224
 30
0.0
 10
5.8567469308
 20
6.2592555296
 30
0.0
 11
5.9130591138
 21
6.2211044211
 31
0.0
 11
5.8999275639
 21
6.2314363768
 31
0.0
 11
5.8567469308
 21
6.2592555296
 31
0.0
  0
SPLINE
  5
395
100
AcDbEntity
  8
0
100
AcDbSpline
 62
7
  6
CONTINUOUS
 70
0
 71
3
 72
10
 73
6
 74
4
 42
0.0000001
 43
0.0000001
 44
0.0000000001
 12
-0.128721757
 22
0.0653343323
 32
0.0
 13
-0.1429269383
 23
0.0202424307
 33
0.0
 40
0.0
 40
0.0
 40
0.0
 40
0.0
 40
0.4921976769
 40
0.7448013288
 40
1.0
 40
1.0
 40
1.0
 40
1.0
 10
5.8447118156
 20
6.2656267666
 30
0.0
 10
5.8235929657
 20
6.2763459022
 30
0.0
 10
5.790118633
 20
6.2897618989
 30
0.0
 10
5.7435863259
 20
6.3021227049
 30
0.0
 10
5.7195146121
 20
6.3065090602
 30
0.0
 10
5.7073563572
 20
6.3082310073
 30
0.0
 11
5.8447118156
 21
6.2656267666
 31
0.0
 11
5.7788336947
 21
6.2922392521
 31
0.0
 11
5.7435975808
 21
6.3016228238
 31
0.0
 11
5.7073563572
 21
6.3082310073
 31
0.0
  0
SPLINE
  5
396
100
AcDbEntity
  8
0
100
AcDbSpline
 62
7
  6
CONTINUOUS
 70
0
 71
3
 72
9
 73
5
 74
3
 42
0.0000001
 43
0.0000001
 44
0.0000000001
 12
0.0258206844
 22
0.0011230048
 32
0.0
 13
0.024853669
 23
-0.0070897123
 33
0.0
 40
0.0
 40
0.0
 40
0.0
 40
0.0
 40
0.5023814812
 40
1.0
 40
1.0
 40
1.0
 40
1.0
 10
5.7963588066
 20
6.1763638834
 30
0.0
 10
5.8006827512
 20
6.1765519424
 30
0.0
 10
5.8093348057
 20
6.1761845423
 30
0.0
 10
5.8178136916
 20
6.174456932
 30
0.0
 10
5.8219362402
 20
6.1732809413
 30
0.0
 11
5.7963588066
 21
6.1763638834
 31
0.0
 11
5.8093323096
 21
6.1758394928
 31
0.0
 11
5.8219362402
 21
6.1732809413
 31
0.0
  0
SPLINE
  5
397
100
AcDbEntity
  8
0
100
AcDbSpline
 62
7
  6
CONTINUOUS
 70
0
 71
3
 72
9
 73
5
 74
3
 42
0.0000001
 43
0.0000001
 44
0.0000000001
 12
0.019439501
 22
0.0058106072
 32
0.0
 13
0.0202680034
 23
0.0009302664
 33
0.0
 40
0.0
 40
0.0
 40
0.0
 40
0.0
 40
0.2502640419
 40
1.0
 40
1.0
 40
1.0
 40
1.0
 10
5.6987312563
 20
6.2000396803
 30
0.0
 10
5.7003529257
 20
6.2005244089
 30
0.0
 10
5.7068958652
 20
6.2022465705
 30
0.0
 10
5.7136506975
 20
6.2031377668
 30
0.0
 10
5.7187159145
 20
6.2033702516
 30
0.0
 11
5.6987312563
 21
6.2000396803
 31
0.0
 11
5.7036411219
 21
6.2013343541
 31
0.0
 11
5.7187159145
 21
6.2033702516
 31
0.0
  0
SPLINE
  5
398
100
AcDbEntity
  8
0
100
AcDbSpline
 62
7
  6
CONTINUOUS
 70
0
 71
3
 72
9
 73
5
 74
3
 42
0.0000001
 43
0.0000001
 44
0.0000000001
 12
0.0213274161
 22
0.0128024827
 32
0.0
 13
0.0241786609
 23
0.0058441936
 33
0.0
 40
0.0
 40
0.0
 40
0.0
 40
0.0
 40
0.4990090038
 40
1.0
 40
1.0
 40
1.0
 40
1.0
 10
5.596801246
 20
6.2033659471
 30
0.0
 10
5.6003487702
 20
6.2054954651
 30
0.0
 10
5.6078290765
 20
6.2091657856
 30
0.0
 10
5.6157655267
 20
6.2116710507
 30
0.0
 10
5.6198032905
 20
6.2126470135
 30
0.0
 11
5.596801246
 21
6.2033659471
 31
0.0
 11
5.607927835
 21
6.2088684006
 31
0.0
 11
5.6198032905
 21
6.2126470135
 31
0.0
  0
SPLINE
  5
399
100
AcDbEntity
  8
0
100
AcDbSpline
 62
7
  6
CONTINUOUS
 70
0
 71
3
 72
9
 73
5
 74
3
 42
0.0000001
 43
0.0000001
 44
0.0000000001
 12
0.0143791345
 22
-0.0050057829
 32
0.0
 13
0.0132488217
 23
-0.0075024061
 33
0.0
 40
0.0
 40
0.0
 40
0.0
 40
0.0
 40
0.250410002
 40
1.0
 40
1.0
 40
1.0
 40
1.0
 10
5.6727162648
 20
6.2100866079
 30
0.0
 10
5.6739164912
 20
6.2096687752
 30
0.0
 10
5.6786731547
 20
6.2078982324
 30
0.0
 10
5.683276963
 20
6.2057110055
 30
0.0
 10
5.6865873578
 20
6.2038364293
 30
0.0
 11
5.6727162648
 21
6.2100866079
 31
0.0
 11
5.6762891386
 21
6.2087559237
 31
0.0
 11
5.6865873578
 21
6.2038364293
 31
0.0
  0
SPLINE
  5
39A
100
AcDbEntity
  8
0
100
AcDbSpline
 62
7
  6
CONTINUOUS
 70
0
 71
3
 72
37
 73
33
 74
31
 42
0.0000001
 43
0.0000001
 44
0.0000000001
 12
-0.1236361644
 22
1.3101623806
 32
0.0
 13
-0.12362735
 23
-1.3101632124
 33
0.0
 40
0.0
 40
0.0
 40
0.0
 40
0.0
 40
0.0274342097
 40
0.0412424963
 40
0.0551250408
 40
0.0831633831
 40
0.1116757542
 40
0.1703893504
 40
0.231781627
 40
0.2635366789
 40
0.2959430502
 40
0.3289466957
 40
0.3624781733
 40
0.430717228
 40
0.4652649863
 40
0.4999305155
 40
0.5345959685
 40
0.5691435944
 40
0.6373820759
 40
0.6709132071
 40
0.703916386
 40
0.7363222656
 40
0.7680768198
 40
0.7991504839
 40
0.8295349327
 40
0.8592464897
 40
0.8883252468
 40
0.9168372114
 40
0.9448752204
 40
0.9587576474
 40
0.9725658619
 40
1.0
 40
1.0
 40
1.0
 40
1.0
 10
6.1100232797
 20
6.3356232111
 30
0.0
 10
6.1088926596
 20
6.347604301
 30
0.0
 10
6.1060960259
 20
6.3655360843
 30
0.0
 10
6.1002526765
 20
6.3890109208
 30
0.0
 10
6.0929496472
 20
6.4123543113
 30
0.0
 10
6.0811461195
 20
6.4409886458
 30
0.0
 10
6.0567191309
 20
6.4853597846
 30
0.0
 10
6.0160869742
 20
6.5369889471
 30
0.0
 10
5.9651726721
 20
6.580559808
 30
0.0
 10
5.9189547228
 20
6.6106119683
 30
0.0
 10
5.8813312173
 20
6.6307504603
 30
0.0
 10
5.8414875101
 20
6.6480806731
 30
0.0
 10
5.7855427578
 20
6.6673395627
 30
0.0
 10
5.7268899979
 20
6.6802773003
 30
0.0
 10
5.666909434
 20
6.6867850223
 30
0.0
 10
5.6213298704
 20
6.6884320217
 30
0.0
 10
5.5757503717
 20
6.6867844712
 30
0.0
 10
5.5157702978
 20
6.6802755769
 30
0.0
 10
5.4571180727
 20
6.6673371282
 30
0.0
 10
5.4011743436
 20
6.6480780303
 30
0.0
 10
5.3613306746
 20
6.6307469161
 30
0.0
 10
5.3237107735
 20
6.6106100552
 30
0.0
 10
5.288644372
 20
6.5878075716
 30
0.0
 10
5.2564317572
 20
6.5625324179
 30
0.0
 10
5.2273587372
 20
6.5349812157
 30
0.0
 10
5.2016973855
 20
6.5053704601
 30
0.0
 10
5.1796719591
 20
6.4739546333
 30
0.0
 10
5.1615205669
 20
6.4409846572
 30
0.0
 10
5.1497186629
 20
6.4123521967
 30
0.0
 10
5.1424157145
 20
6.3890087637
 30
0.0
 10
5.1365725974
 20
6.3655340485
 30
0.0
 10
5.1337760914
 20
6.347602288
 30
0.0
 10
5.1326455548
 20
6.3356212219
 30
0.0
 11
6.1100232797
 21
6.3356232111
 31
0.0
 11
6.1044750876
 21
6.3712973041
 31
0.0
 11
6.1000881093
 21
6.3889312706
 31
0.0
 11
6.0946367084
 21
6.4063681753
 31
0.0
 11
6.0806092023
 21
6.4404957334
 31
0.0
 11
6.0625464392
 21
6.4733837529
 31
0.0
 11
6.0150435345
 21
6.5343224416
 31
0.0
 11
5.9539072686
 21
6.5871388611
 31
0.0
 11
5.9188943114
 21
6.6099516321
 31
0.0
 11
5.8813138352
 21
6.6301112246
 31
0.0
 11
5.8414970643
 21
6.6474601159
 31
0.0
 11
5.7997823459
 21
6.6618497536
 31
0.0
 11
5.7121170569
 21
6.6813201291
 31
0.0
 11
5.666919386
 21
6.6862364128
 31
0.0
 11
5.6213298381
 21
6.6878823074
 31
0.0
 11
5.5757404128
 21
6.6862358006
 31
0.0
 11
5.5305430044
 21
6.6813187147
 31
0.0
 11
5.4428787222
 21
6.6618472854
 31
0.0
 11
5.4011646001
 21
6.6474573168
 31
0.0
 11
5.3613486433
 21
6.6301080944
 31
0.0
 11
5.3237690548
 21
6.6099482159
 31
0.0
 11
5.2887568679
 21
6.5871354622
 31
0.0
 11
5.2566129489
 21
6.5618578422
 31
0.0
 11
5.2276223032
 21
6.5343192109
 31
0.0
 11
5.2020479765
 21
6.5047429298
 31
0.0
 11
5.1801208348
 21
6.4733809255
 31
0.0
 11
5.1620585745
 21
6.4404932402
 31
0.0
 11
5.1480315365
 21
6.4063659639
 31
0.0
 11
5.1425803102
 21
6.3889291666
 31
0.0
 11
5.13819348
 21
6.3712952609
 31
0.0
 11
5.1326455548
 21
6.3356212219
 31
0.0
  0
SPLINE
  5
39B
100
AcDbEntity
  8
0
100
AcDbSpline
 62
7
  6
CONTINUOUS
 70
0
 71
3
 72
22
 73
18
 74
16
 42
0.0000001
 43
0.0000001
 44
0.0000000001
 12
0.5739302504
 22
0.4301856038
 32
0.0
 13
0.5068479169
 23
-0.5075044583
 33
0.0
 40
0.0
 40
0.0
 40
0.0
 40
0.0
 40
0.0616240791
 40
0.1236133901
 40
0.1859735216
 40
0.248678482
 40
0.3116800475
 40
0.3749070396
 40
0.4382676846
 40
0.5016568078
 40
0.5649693806
 40
0.6281041409
 40
0.7534014046
 40
0.8155910445
 40
0.8774084717
 40
0.9388662154
 40
1.0
 40
1.0
 40
1.0
 40
1.0
 10
5.3150039386
 20
6.1944388202
 30
0.0
 10
5.3267932463
 20
6.2032754174
 30
0.0
 10
5.3513241039
 20
6.2198544716
 30
0.0
 10
5.390392916
 20
6.2412078091
 30
0.0
 10
5.4314788904
 20
6.2590253956
 30
0.0
 10
5.4742083106
 20
6.2732060734
 30
0.0
 10
5.5182008164
 20
6.2836984373
 30
0.0
 10
5.5630789904
 20
6.290439951
 30
0.0
 10
5.6084556388
 20
6.2934084489
 30
0.0
 10
5.6539410403
 20
6.2925873967
 30
0.0
 10
5.6991505913
 20
6.2879736479
 30
0.0
 10
5.7583542612
 20
6.2768510689
 30
0.0
 10
5.8157002022
 20
6.2582507789
 30
0.0
 10
5.8694716795
 20
6.2323845486
 30
0.0
 10
5.9075501127
 20
6.2095285364
 30
0.0
 10
5.9430698786
 20
6.183299845
 30
0.0
 10
5.9648579152
 20
6.1636072725
 30
0.0
 10
5.9751864257
 20
6.1532653831
 30
0.0
 11
5.3150039386
 21
6.1944388202
 31
0.0
 11
5.3516088806
 21
6.2192125413
 31
0.0
 11
5.3906107466
 21
6.240560607
 31
0.0
 11
5.4316381091
 21
6.2583752975
 31
0.0
 11
5.4743174221
 21
6.2725622763
 31
0.0
 11
5.5182698982
 21
6.2830577775
 31
0.0
 11
5.5631149651
 21
6.2898057137
 31
0.0
 11
5.6084635535
 21
6.2927762662
 31
0.0
 11
5.6539223081
 21
6.2919533024
 31
0.0
 11
5.6990985816
 21
6.2873391718
 31
0.0
 11
5.7436007745
 21
6.278962195
 31
0.0
 11
5.8290408155
 21
6.2510938326
 31
0.0
 11
5.8692284592
 21
6.2317382993
 31
0.0
 11
5.9072302927
 21
6.2088953945
 31
0.0
 11
5.9426736582
 21
6.1826867222
 31
0.0
 11
5.9751864257
 21
6.1532653831
 31
0.0
  0
SPLINE
  5
39C
100
AcDbEntity
  8
0
100
AcDbSpline
 62
7
  6
CONTINUOUS
 70
0
 71
3
 72
9
 73
5
 74
3
 42
0.0000001
 43
0.0000001
 44
0.0000000001
 12
0.0291958977
 22
0.0073099153
 32
0.0
 13
0.0299236689
 23
-0.0032263514
 33
0.0
 40
0.0
 40
0.0
 40
0.0
 40
0.0
 40
0.4977324677
 40
1.0
 40
1.0
 40
1.0
 40
1.0
 10
5.4595964285
 20
6.1891782001
 30
0.0
 10
5.4644403439
 20
6.1903909942
 30
0.0
 10
5.4743960259
 20
6.1920065098
 30
0.0
 10
5.4844903207
 20
6.1918731756
 30
0.0
 10
5.4895002165
 20
6.1913330118
 30
0.0
 11
5.4595964285
 21
6.1891782001
 31
0.0
 11
5.4743852159
 21
6.1915659275
 31
0.0
 11
5.4895002165
 21
6.1913330118
 31
0.0
  0
SPLINE
  5
39D
100
AcDbEntity
  8
0
100
AcDbSpline
 62
7
  6
CONTINUOUS
 70
0
 71
3
 72
9
 73
5
 74
3
 42
0.0000001
 43
0.0000001
 44
0.0000000001
 12
0.0245717345
 22
-0.0035067085
 32
0.0
 13
0.0224173069
 23
-0.0106551159
 33
0.0
 40
0.0
 40
0.0
 40
0.0
 40
0.0
 40
0.5005552001
 40
1.0
 40
1.0
 40
1.0
 40
1.0
 10
5.5730673135
 20
6.2103865032
 30
0.0
 10
5.57716715
 20
6.2098014028
 30
0.0
 10
5.5852883432
 20
6.2080678679
 30
0.0
 10
5.5930691769
 20
6.2051398278
 30
0.0
 10
5.596801246
 20
6.2033659471
 30
0.0
 11
5.5730673135
 21
6.2103865032
 31
0.0
 11
5.585212082
 21
6.2077666531
 31
0.0
 11
5.596801246
 21
6.2033659471
 31
0.0
  0
SPLINE
  5
39E
100
AcDbEntity
  8
0
100
AcDbSpline
 62
7
  6
CONTINUOUS
 70
0
 71
3
 72
15
 73
11
 74
9
 42
0.0000001
 43
0.0000001
 44
0.0000000001
 12
-0.1718308104
 22
0.2690237507
 32
0.0
 13
-0.3145453757
 23
0.0544133482
 33
0.0
 40
0.0
 40
0.0
 40
0.0
 40
0.0
 40
0.1129167587
 40
0.2293573698
 40
0.349515632
 40
0.4733714973
 40
0.6007416964
 40
0.7312783363
 40
0.8645265454
 40
1.0
 40
1.0
 40
1.0
 40
1.0
 10
5.9746130372
 20
6.1529195919
 30
0.0
 10
5.9681455112
 20
6.1630453552
 30
0.0
 10
5.9536336984
 20
6.1827626761
 30
0.0
 10
5.9280517771
 20
6.2098698633
 30
0.0
 10
5.8986367761
 20
6.2346083703
 30
0.0
 10
5.8657830804
 20
6.2566971399
 30
0.0
 10
5.8298857383
 20
6.27585094
 30
0.0
 10
5.7914027719
 20
6.2918666362
 30
0.0
 10
5.7507949563
 20
6.3045360207
 30
0.0
 10
5.7228126754
 20
6.3106206185
 30
0.0
 10
5.7086084925
 20
6.3130778066
 30
0.0
 11
5.9746130372
 21
6.1529195919
 31
0.0
 11
5.9533051475
 21
6.1819921497
 31
0.0
 11
5.9278417839
 21
6.2090700808
 31
0.0
 11
5.898532768
 21
6.2338129365
 31
0.0
 11
5.8657539944
 21
6.2559199493
 31
0.0
 11
5.8299097014
 21
6.2751116414
 31
0.0
 11
5.7914547425
 21
6.2911605199
 31
0.0
 11
5.7508611908
 21
6.3038648402
 31
0.0
 11
5.7086084925
 21
6.3130778066
 31
0.0
  0
SPLINE
  5
39F
100
AcDbEntity
  8
0
100
AcDbSpline
 62
7
  6
CONTINUOUS
 70
0
 71
3
 72
21
 73
17
 74
15
 42
0.0000001
 43
0.0000001
 44
0.0000000001
 12
0.1117971541
 22
0.4225390152
 32
0.0
 13
0.4213990226
 23
0.1160201997
 33
0.0
 40
0.0
 40
0.0
 40
0.0
 40
0.0
 40
0.0557943518
 40
0.1121761629
 40
0.169273061
 40
0.2271987342
 40
0.345810805
 40
0.4066788787
 40
0.4686075775
 40
0.5316076821
 40
0.5956695632
 40
0.660770744
 40
0.7268758419
 40
0.7939287577
 40
0.8618610114
 40
1.0
 40
1.0
 40
1.0
 40
1.0
 10
5.1435711195
 20
6.3949450529
 30
0.0
 10
5.1456503361
 20
6.402803483
 30
0.0
 10
5.1504821083
 20
6.4184384325
 30
0.0
 10
5.159634007
 20
6.4413651862
 30
0.0
 10
5.1706803964
 20
6.4637906754
 30
0.0
 10
5.188006116
 20
6.4931201896
 30
0.0
 10
5.2088891036
 20
6.5208688641
 30
0.0
 10
5.2328052954
 20
6.5466821029
 30
0.0
 10
5.2525004413
 20
6.5652831328
 30
0.0
 10
5.273706897
 20
6.5828734873
 30
0.0
 10
5.2963349093
 20
6.5993892915
 30
0.0
 10
5.3202942093
 20
6.6147600508
 30
0.0
 10
5.3454896331
 20
6.6289175433
 30
0.0
 10
5.3718146538
 20
6.6418125234
 30
0.0
 10
5.4084690887
 20
6.6573362089
 30
0.0
 10
5.4370428671
 20
6.6667888285
 30
0.0
 10
5.4564467453
 20
6.6721311329
 30
0.0
 11
5.1435711195
 21
6.3949450529
 31
0.0
 11
5.1507618671
 21
6.4182473219
 31
0.0
 11
5.1598861362
 21
6.4411392309
 31
0.0
 11
5.1709022201
 21
6.4635320836
 31
0.0
 11
5.1837681791
 21
6.4853374105
 31
0.0
 11
5.2148390134
 21
6.5268377796
 31
0.0
 11
5.232909439
 21
6.5463631485
 31
0.0
 11
5.2525773653
 21
6.5649597612
 31
0.0
 11
5.2737609693
 21
6.5825519913
 31
0.0
 11
5.2963696558
 21
6.5990702272
 31
0.0
 11
5.3203126321
 21
6.6144449942
 31
0.0
 11
5.3454948126
 21
6.6286108301
 31
0.0
 11
5.3718092163
 21
6.641513391
 31
0.0
 11
5.3991468186
 21
6.653100243
 31
0.0
 11
5.4564467453
 21
6.6721311329
 31
0.0
  0
SPLINE
  5
3A0
100
AcDbEntity
  8
0
100
AcDbSpline
 62
7
  6
CONTINUOUS
 70
0
 71
3
 72
29
 73
25
 74
23
 42
0.0000001
 43
0.0000001
 44
0.0000000001
 12
0.7430359423
 22
0.2045737502
 32
0.0
 13
0.1971731755
 23
-0.7450339386
 33
0.0
 40
0.0
 40
0.0
 40
0.0
 40
0.0
 40
0.0666271498
 40
0.1339493897
 40
0.2016605775
 40
0.2694412252
 40
0.3369720042
 40
0.4039378337
 40
0.4700471322
 40
0.5350312269
 40
0.5670378893
 40
0.598682884
 40
0.6299446336
 40
0.6608056426
 40
0.7212637394
 40
0.7508684074
 40
0.7800485905
 40
0.8088109633
 40
0.8371664305
 40
0.8651296854
 40
0.8927204806
 40
0.9468800592
 40
0.9735522194
 40
1.0
 40
1.0
 40
1.0
 40
1.0
 10
5.4564467453
 20
6.6721311329
 30
0.0
 10
5.4729488676
 20
6.6766745215
 30
0.0
 10
5.5065366357
 20
6.6843793181
 30
0.0
 10
5.5578819439
 20
6.6916823087
 30
0.0
 10
5.6099525136
 20
6.6947573168
 30
0.0
 10
5.6621521869
 20
6.6935447835
 30
0.0
 10
5.7138873051
 20
6.6880800068
 30
0.0
 10
5.7645678827
 20
6.6784049527
 30
0.0
 10
5.8136155902
 20
6.6646445302
 30
0.0
 10
5.8528689098
 20
6.6498155347
 30
0.0
 10
5.882916633
 20
6.6360381755
 30
0.0
 10
5.9045928199
 20
6.6248531561
 30
0.0
 10
5.9254573133
 20
6.6127943858
 30
0.0
 10
5.9519227749
 20
6.5957126729
 30
0.0
 10
5.9767452218
 20
6.576925192
 30
0.0
 10
5.9996233443
 20
6.5565366924
 30
0.0
 10
6.0155766803
 20
6.5406667178
 30
0.0
 10
6.0303973666
 20
6.5241633127
 30
0.0
 10
6.0440458934
 20
6.5070760526
 30
0.0
 10
6.0564828727
 20
6.489452461
 30
0.0
 10
6.0712989
 20
6.4654611085
 30
0.0
 10
6.0836892769
 20
6.4404123161
 30
0.0
 10
6.0934093527
 20
6.4146077767
 30
0.0
 10
6.0973550087
 20
6.4015307427
 30
0.0
 10
6.099093273
 20
6.3949625779
 30
0.0
 11
5.4564467453
 21
6.6721311329
 31
0.0
 11
5.506490359
 21
6.6836332426
 31
0.0
 11
5.5578543338
 21
6.6909616117
 31
0.0
 11
5.6099472747
 21
6.6940411225
 31
0.0
 11
5.6621706217
 21
6.6928287908
 31
0.0
 11
5.7139258085
 21
6.6873454738
 31
0.0
 11
5.764615921
 21
6.6776476477
 31
0.0
 11
5.813661821
 21
6.66385147
 31
0.0
 11
5.8604972244
 21
6.6461125938
 31
0.0
 11
5.8829172776
 21
6.6358265742
 31
0.0
 11
5.9045869631
 21
6.6246367363
 31
0.0
 11
5.9254424905
 21
6.6125737644
 31
0.0
 11
5.9454218527
 21
6.5996700099
 31
0.0
 11
5.9825342866
 21
6.5714978139
 31
0.0
 11
5.9995611223
 21
6.5563106902
 31
0.0
 11
6.0154987054
 21
6.5404445553
 31
0.0
 11
6.0303032849
 21
6.5239464885
 31
0.0
 11
6.0439346537
 21
6.5068659974
 31
0.0
 11
6.0563526183
 21
6.4892525994
 31
0.0
 11
6.0675176256
 21
6.4711559042
 31
0.0
 11
6.0859714268
 21
6.4337169502
 31
0.0
 11
6.0932110262
 21
6.414478221
 31
0.0
 11
6.099093273
 21
6.3949625779
 31
0.0
  0
SPLINE
  5
3A1
100
AcDbEntity
  8
0
100
AcDbSpline
 62
7
  6
CONTINUOUS
 70
0
 71
3
 72
22
 73
18
 74
16
 42
0.0000001
 43
0.0000001
 44
0.0000000001
 12
0.0
 22
-0.1477843023
 32
0.0
 13
-0.0929157046
 23
-0.1149211549
 33
0.0
 40
0.0
 40
0.0
 40
0.0
 40
0.0
 40
0.1256469143
 40
0.251296577
 40
0.3769372805
 40
0.5025587305
 40
0.6281139896
 40
0.6908749899
 40
0.7535370899
 40
0.7847921188
 40
0.8159820834
 40
0.847111052
 40
0.878195965
 40
0.9092638038
 40
0.9401584231
 40
0.9704954887
 40
1.0
 40
1.0
 40
1.0
 40
1.0
 10
6.1941514738
 20
6.6046647234
 30
0.0
 10
6.1941514738
 20
6.5984751762
 30
0.0
 10
6.1939346986
 20
6.586094813
 30
0.0
 10
6.1929466681
 20
6.5675487465
 30
0.0
 10
6.1912598948
 20
6.5490533614
 30
0.0
 10
6.1888076155
 20
6.5306478538
 30
0.0
 10
6.1860294362
 20
6.5154258639
 30
0.0
 10
6.1832636826
 20
6.5033737302
 30
0.0
 10
6.1812709
 20
6.4959149055
 30
0.0
 10
6.1794888962
 20
6.4900147331
 30
0.0
 10
6.1780526298
 20
6.4856340782
 30
0.0
 10
6.1764961025
 20
6.4813033762
 30
0.0
 10
6.1747992748
 20
6.4770319335
 30
0.0
 10
6.1729514875
 20
6.4728360223
 30
0.0
 10
6.1709302506
 20
6.4687604684
 30
0.0
 10
6.1686778394
 20
6.4648950602
 30
0.0
 10
6.1669640165
 20
6.4624883053
 30
0.0
 10
6.1660502057
 20
6.4613580745
 30
0.0
 11
6.1941514738
 21
6.6046647234
 31
0.0
 11
6.1938242222
 21
6.5860989658
 31
0.0
 11
6.1928301608
 21
6.5675565448
 31
0.0
 11
6.1911321086
 21
6.5490666291
 31
0.0
 11
6.1886600691
 21
6.5306670713
 31
0.0
 11
6.1852920524
 21
6.5124202068
 31
0.0
 11
6.183209233
 21
6.5033820007
 31
0.0
 11
6.1808076822
 21
6.4944383467
 31
0.0
 11
6.1794706804
 21
6.4900170786
 31
0.0
 11
6.1780311584
 21
6.4856382402
 31
0.0
 11
6.1764716022
 21
6.4813102828
 31
0.0
 11
6.174773029
 21
6.4770419788
 31
0.0
 11
6.1729162682
 21
6.4728428322
 31
0.0
 11
6.1708724451
 21
6.4687600921
 31
0.0
 11
6.16859849
 21
6.464896223
 31
0.0
 11
6.1660502057
 21
6.4613580745
 31
0.0
  0
SPLINE
  5
3A2
100
AcDbEntity
  8
0
100
AcDbSpline
 62
7
  6
CONTINUOUS
 70
0
 71
3
 72
22
 73
18
 74
16
 42
0.0000001
 43
0.0000001
 44
0.0000000001
 12
-0.0929157011
 22
0.1149211505
 32
0.0
 13
0.0
 23
0.1477842967
 33
0.0
 40
0.0
 40
0.0
 40
0.0
 40
0.0
 40
0.0295052984
 40
0.0598433121
 40
0.0907368253
 40
0.1218008607
 40
0.1528839029
 40
0.1840127531
 40
0.2152035571
 40
0.2464595271
 40
0.3091226957
 40
0.3718833453
 40
0.4974389556
 40
0.623061065
 40
0.7487022462
 40
0.8743525406
 40
1.0
 40
1.0
 40
1.0
 40
1.0
 10
5.0766188141
 20
6.4613580745
 30
0.0
 10
5.0757049789
 20
6.4624883355
 30
0.0
 10
5.0739912011
 20
6.4648952339
 30
0.0
 10
5.071738931
 20
6.4687607548
 30
0.0
 10
5.0697177196
 20
6.4728360944
 30
0.0
 10
5.0678696374
 20
6.4770315114
 30
0.0
 10
5.0661729224
 20
6.4813026971
 30
0.0
 10
5.0646165108
 20
6.4856333795
 30
0.0
 10
5.0631802495
 20
6.4900141209
 30
0.0
 10
5.0613981101
 20
6.4959143992
 30
0.0
 10
5.0594054247
 20
6.5033733352
 30
0.0
 10
5.0566395523
 20
6.5154254932
 30
0.0
 10
5.0538614678
 20
6.5306475367
 30
0.0
 10
5.0514091626
 20
6.5490531112
 30
0.0
 10
5.0497223755
 20
6.5675485826
 30
0.0
 10
5.048734323
 20
6.5860947287
 30
0.0
 10
5.048517546
 20
6.5984751496
 30
0.0
 10
5.048517546
 20
6.6046647234
 30
0.0
 11
5.0766188141
 21
6.4613580745
 31
0.0
 11
5.0740705572
 21
6.4648963859
 31
0.0
 11
5.0717966514
 21
6.4687604464
 31
0.0
 11
5.0697528193
 21
6.472842999
 31
0.0
 11
5.0678959906
 21
6.4770415007
 31
0.0
 11
5.0661974674
 21
6.4813095268
 31
0.0
 11
5.0646379867
 21
6.4856374927
 31
0.0
 11
5.0631984504
 21
6.4900164568
 31
0.0
 11
5.0618613699
 21
6.4944378463
 31
0.0
 11
5.0594598207
 21
6.5033816638
 31
0.0
 11
5.0573769858
 21
6.5124198128
 31
0.0
 11
5.0540089943
 21
6.530666734
 31
0.0
 11
5.05153695
 21
6.5490663888
 31
0.0
 11
5.049838882
 21
6.5675563732
 31
0.0
 11
5.0488448026
 21
6.586098886
 31
0.0
 11
5.048517546
 21
6.6046647234
 31
0.0
  0
SPLINE
  5
3A3
100
AcDbEntity
  8
0
100
AcDbSpline
 62
7
  6
CONTINUOUS
 70
0
 71
3
 72
9
 73
5
 74
3
 42
0.0000001
 43
0.0000001
 44
0.0000000001
 12
0.004366128
 22
-0.0127534342
 32
0.0
 13
0.0062952391
 23
-0.0119198626
 33
0.0
 40
0.0
 40
0.0
 40
0.0
 40
0.0
 40
0.2489512502
 40
1.0
 40
1.0
 40
1.0
 40
1.0
 10
6.1445240947
 20
6.7837782583
 30
0.0
 10
6.1448864124
 20
6.7827199305
 30
0.0
 10
6.1464268881
 20
6.7784982419
 30
0.0
 10
6.1483062777
 20
6.7744014726
 30
0.0
 10
6.1498822882
 20
6.77141734
 30
0.0
 11
6.1445240947
 21
6.7837782583
 31
0.0
 11
6.1456744239
 21
6.7806256833
 31
0.0
 11
6.1498822882
 21
6.77141734
 31
0.0
  0
SPLINE
  5
3A4
100
AcDbEntity
  8
0
100
AcDbSpline
 62
7
  6
CONTINUOUS
 70
0
 71
3
 72
9
 73
5
 74
3
 42
0.0000001
 43
0.0000001
 44
0.0000000001
 12
0.007124865
 22
-0.0134907365
 32
0.0
 13
0.0088793451
 23
-0.0124064864
 33
0.0
 40
0.0
 40
0.0
 40
0.0
 40
0.0
 40
0.245378482
 40
1.0
 40
1.0
 40
1.0
 40
1.0
 10
6.1498822882
 20
6.77141734
 30
0.0
 10
6.150465051
 20
6.7703138945
 30
0.0
 10
6.1529321794
 20
6.7658656207
 30
0.0
 10
6.1557343662
 20
6.7616085096
 30
0.0
 10
6.1579678812
 20
6.7584877758
 30
0.0
 11
6.1498822882
 21
6.77141734
 31
0.0
 11
6.1516959855
 21
6.7681423832
 31
0.0
 11
6.1579678812
 21
6.7584877758
 31
0.0
  0
LINE
  5
3A5
100
AcDbEntity
  8
0
100
AcDbLine
 62
7
  6
CONTINUOUS
 10
6.1579678812
 20
6.7584877758
 11
6.1660502057
 21
6.7479713723
  0
SPLINE
  5
3A6
100
AcDbEntity
  8
0
100
AcDbSpline
 62
7
  6
CONTINUOUS
 70
0
 71
3
 72
22
 73
18
 74
16
 42
0.0000001
 43
0.0000001
 44
0.0000000001
 12
0.0929156928
 22
-0.1149211402
 32
0.0
 13
0.0
 23
-0.1477842834
 33
0.0
 40
0.0
 40
0.0
 40
0.0
 40
0.0
 40
0.0295055098
 40
0.059843785
 40
0.0907370118
 40
0.1218000392
 40
0.1528825786
 40
0.1840113838
 40
0.2152023983
 40
0.246458616
 40
0.3091220829
 40
0.3718826292
 40
0.4974383242
 40
0.6230606148
 40
0.7487019211
 40
0.8743523934
 40
1.0
 40
1.0
 40
1.0
 40
1.0
 10
6.1660502057
 20
6.7479713723
 30
0.0
 10
6.1669640473
 20
6.7468411034
 30
0.0
 10
6.1686778094
 20
6.7444341633
 30
0.0
 10
6.1709300296
 20
6.7405686044
 30
0.0
 10
6.1729512221
 20
6.7364933152
 30
0.0
 10
6.1747993749
 20
6.7322980264
 30
0.0
 10
6.1764960587
 20
6.7280269098
 30
0.0
 10
6.1780524431
 20
6.723696236
 30
0.0
 10
6.179488711
 20
6.7193154761
 30
0.0
 10
6.1812708939
 20
6.7134151724
 30
0.0
 10
6.1832635536
 20
6.7059562073
 30
0.0
 10
6.186029465
 20
6.6939040458
 30
0.0
 10
6.1888075306
 20
6.6786819911
 30
0.0
 10
6.1912598489
 20
6.660276401
 30
0.0
 10
6.1929466148
 20
6.6417809051
 30
0.0
 10
6.1939346764
 20
6.6232347396
 30
0.0
 10
6.1941514738
 20
6.6108543039
 30
0.0
 10
6.1941514738
 20
6.6046647234
 30
0.0
 11
6.1660502057
 21
6.7479713723
 31
0.0
 11
6.1685984503
 21
6.7444330141
 31
0.0
 11
6.170872332
 21
6.740568895
 31
0.0
 11
6.1729161551
 21
6.7364863858
 31
0.0
 11
6.1747729945
 21
6.732288052
 31
0.0
 11
6.1764715029
 21
6.7280201004
 31
0.0
 11
6.1780309667
 21
6.723692136
 31
0.0
 11
6.1794705135
 21
6.719313143
 31
0.0
 11
6.1808076202
 21
6.7148917237
 31
0.0
 11
6.1832091731
 21
6.7059478624
 31
0.0
 11
6.1852920163
 21
6.6969097318
 31
0.0
 11
6.188660009
 21
6.6786627998
 31
0.0
 11
6.1911320559
 21
6.66026312
 31
0.0
 11
6.1928301132
 21
6.6417731177
 31
0.0
 11
6.1938242005
 21
6.6232305806
 31
0.0
 11
6.1941514738
 21
6.6046647234
 31
0.0
  0
SPLINE
  5
3A7
100
AcDbEntity
  8
0
100
AcDbSpline
 62
7
  6
CONTINUOUS
 70
0
 71
3
 72
9
 73
5
 74
3
 42
0.0000001
 43
0.0000001
 44
0.0000000001
 12
-0.0092039757
 22
-0.0113837754
 32
0.0
 13
-0.0084061065
 23
-0.0119850275
 33
0.0
 40
0.0
 40
0.0
 40
0.0
 40
0.0
 40
0.2551940422
 40
1.0
 40
1.0
 40
1.0
 40
1.0
 10
6.1660502057
 20
6.4613580745
 30
0.0
 10
6.1652672725
 20
6.4603897173
 30
0.0
 10
6.1622166196
 20
6.4565815513
 30
0.0
 10
6.1592597226
 20
6.4526950706
 30
0.0
 10
6.1571727499
 20
6.4497195639
 30
0.0
 11
6.1660502057
 21
6.4613580745
 31
0.0
 11
6.1637163613
 21
6.4584409746
 31
0.0
 11
6.1571727499
 21
6.4497195639
 31
0.0
  0
SPLINE
  5
3A8
100
AcDbEntity
  8
0
100
AcDbSpline
 62
7
  6
CONTINUOUS
 70
0
 71
3
 72
9
 73
5
 74
3
 42
0.0000001
 43
0.0000001
 44
0.0000000001
 12
-0.0079748943
 22
-0.0113702256
 32
0.0
 13
-0.0064849523
 23
-0.0122811385
 33
0.0
 40
0.0
 40
0.0
 40
0.0
 40
0.0
 40
0.2546667603
 40
1.0
 40
1.0
 40
1.0
 40
1.0
 10
6.1571727499
 20
6.4497195639
 30
0.0
 10
6.1564957697
 20
6.4487543578
 30
0.0
 10
6.1538859411
 20
6.4449310035
 30
0.0
 10
6.151490417
 20
6.4409575711
 30
0.0
 10
6.1498792668
 20
6.4379063908
 30
0.0
 11
6.1571727499
 21
6.4497195639
 31
0.0
 11
6.1551803953
 21
6.4467972619
 31
0.0
 11
6.1498792668
 21
6.4379063908
 31
0.0
  0
SPLINE
  5
3A9
100
AcDbEntity
  8
0
100
AcDbSpline
 62
7
  6
CONTINUOUS
 70
0
 71
3
 72
9
 73
5
 74
3
 42
0.0000001
 43
0.0000001
 44
0.0000000001
 12
-0.0062913189
 22
-0.0119144376
 32
0.0
 13
-0.0043639813
 23
-0.0127471638
 33
0.0
 40
0.0
 40
0.0
 40
0.0
 40
0.0
 40
0.2518173789
 40
1.0
 40
1.0
 40
1.0
 40
1.0
 10
6.1498792668
 20
6.4379063908
 30
0.0
 10
6.149351179
 20
6.4369063033
 30
0.0
 10
6.147327858
 20
6.4328964126
 30
0.0
 10
6.1456124463
 20
6.4287302573
 30
0.0
 10
6.1445240947
 20
6.4255511885
 30
0.0
 11
6.1498792668
 21
6.4379063908
 31
0.0
 11
6.1483516894
 21
6.4348768739
 31
0.0
 11
6.1445240947
 21
6.4255511885
 31
0.0
  0
SPLINE
  5
3AA
100
AcDbEntity
  8
0
100
AcDbSpline
 62
7
  6
CONTINUOUS
 70
0
 71
3
 72
9
 73
5
 74
3
 42
0.0000001
 43
0.0000001
 44
0.0000000001
 12
0.0092276051
 22
-0.011413001
 32
0.0
 13
0.0084245606
 23
-0.0120179893
 33
0.0
 40
0.0
 40
0.0
 40
0.0
 40
0.0
 40
0.2552078938
 40
1.0
 40
1.0
 40
1.0
 40
1.0
 10
5.0766188141
 20
6.4613580745
 30
0.0
 10
5.0774038
 20
6.4603871785
 30
0.0
 10
5.0804622213
 20
6.456569188
 30
0.0
 10
5.0834263123
 20
6.452672391
 30
0.0
 10
5.0855178277
 20
6.4496887565
 30
0.0
 11
5.0766188141
 21
6.4613580745
 31
0.0
 11
5.0789587227
 21
6.4584332831
 31
0.0
 11
5.0855178277
 21
6.4496887565
 31
0.0
  0
SPLINE
  5
3AB
100
AcDbEntity
  8
0
100
AcDbSpline
 62
7
  6
CONTINUOUS
 70
0
 71
3
 72
9
 73
5
 74
3
 42
0.0000001
 43
0.0000001
 44
0.0000000001
 12
0.0079386424
 22
-0.0113248067
 32
0.0
 13
0.0064605272
 23
-0.0122284454
 33
0.0
 40
0.0
 40
0.0
 40
0.0
 40
0.0
 40
0.2546468714
 40
1.0
 40
1.0
 40
1.0
 40
1.0
 10
5.0855178277
 20
6.4496887565
 30
0.0
 10
5.0861916779
 20
6.4487274809
 30
0.0
 10
5.0887897535
 20
6.4449195069
 30
0.0
 10
5.091175075
 20
6.4409626445
 30
0.0
 10
5.0927801997
 20
6.4379244745
 30
0.0
 11
5.0855178277
 21
6.4496887565
 31
0.0
 11
5.0875010655
 21
6.4467784489
 31
0.0
 11
5.0927801997
 21
6.4379244745
 31
0.0
  0
SPLINE
  5
3AC
100
AcDbEntity
  8
0
100
AcDbSpline
 62
7
  6
CONTINUOUS
 70
0
 71
3
 72
9
 73
5
 74
3
 42
0.0000001
 43
0.0000001
 44
0.0000000001
 12
0.0063034488
 22
-0.0119311285
 32
0.0
 13
0.0043705965
 23
-0.0127664866
 33
0.0
 40
0.0
 40
0.0
 40
0.0
 40
0.0
 40
0.2518224687
 40
1.0
 40
1.0
 40
1.0
 40
1.0
 10
5.0927801997
 20
6.4379244745
 30
0.0
 10
5.0933093164
 20
6.4369229657
 30
0.0
 10
5.0953364926
 20
6.4329073944
 30
0.0
 10
5.0970549311
 20
6.4287350547
 30
0.0
 10
5.0981449251
 20
6.4255511885
 30
0.0
 11
5.0927801997
 21
6.4379244745
 31
0.0
 11
5.0943107149
 21
6.4348906022
 31
0.0
 11
5.0981449251
 21
6.4255511885
 31
0.0
  0
SPLINE
  5
3AD
100
AcDbEntity
  8
0
100
AcDbSpline
 62
7
  6
CONTINUOUS
 70
0
 71
3
 72
22
 73
18
 74
16
 42
0.0000001
 43
0.0000001
 44
0.0000000001
 12
-0.0
 22
0.1477842845
 32
0.0
 13
0.0929156934
 23
0.114921141
 33
0.0
 40
0.0
 40
0.0
 40
0.0
 40
0.0
 40
0.1256471048
 40
0.2512969954
 40
0.3769378612
 40
0.5025595456
 40
0.6281149092
 40
0.6908757838
 40
0.7535382762
 40
0.784793627
 40
0.8159838577
 40
0.8471127554
 40
0.8781970044
 40
0.9092635418
 40
0.9401578074
 40
0.9704952161
 40
1.0
 40
1.0
 40
1.0
 40
1.0
 10
5.048517546
 20
6.6046647234
 30
0.0
 10
5.048517546
 20
6.6108542792
 30
0.0
 10
5.0487343412
 20
6.6232346615
 30
0.0
 10
5.0497223821
 20
6.6417807532
 30
0.0
 10
5.0514091367
 20
6.6602761691
 30
0.0
 10
5.0538614328
 20
6.6786816964
 30
0.0
 10
5.0566395888
 20
6.6939037007
 30
0.0
 10
5.0594053888
 20
6.7059558402
 30
0.0
 10
5.061398137
 20
6.7134147036
 30
0.0
 10
5.0631801993
 20
6.7193149082
 30
0.0
 10
5.0646164745
 20
6.723695586
 30
0.0
 10
5.0661729696
 20
6.7280262742
 30
0.0
 10
5.0678697606
 20
6.7322976247
 30
0.0
 10
5.0697176404
 20
6.7364933697
 30
0.0
 10
5.0717388489
 20
6.7405688618
 30
0.0
 10
5.0739911933
 20
6.7444343216
 30
0.0
 10
5.0757049949
 20
6.7468411312
 30
0.0
 10
5.0766188141
 20
6.7479713723
 30
0.0
 11
5.048517546
 21
6.6046647234
 31
0.0
 11
5.0488448144
 21
6.6232305067
 31
0.0
 11
5.0498388848
 21
6.6417729586
 31
0.0
 11
5.0515369285
 21
6.6602628969
 31
0.0
 11
5.0540089731
 21
6.6786624868
 31
0.0
 11
5.0573769907
 21
6.6969093646
 31
0.0
 11
5.0594598187
 21
6.7059475485
 31
0.0
 11
5.0618613736
 21
6.7148912602
 31
0.0
 11
5.0631984107
 21
6.7193125668
 31
0.0
 11
5.0646379471
 21
6.7236914413
 31
0.0
 11
5.0661974841
 21
6.7280193939
 31
0.0
 11
5.0678960408
 21
6.7322875982
 31
0.0
 11
5.0697528162
 21
6.7364865275
 31
0.0
 11
5.0717966254
 21
6.7405692155
 31
0.0
 11
5.0740705469
 21
6.7444331625
 31
0.0
 11
5.0766188141
 21
6.7479713723
 31
0.0
  0
SPLINE
  5
3AE
100
AcDbEntity
  8
0
100
AcDbSpline
 62
7
  6
CONTINUOUS
 70
0
 71
3
 72
9
 73
5
 74
3
 42
0.0000001
 43
0.0000001
 44
0.0000000001
 12
0.0092039718
 22
0.0113837706
 32
0.0
 13
0.0084061026
 23
0.0119850227
 33
0.0
 40
0.0
 40
0.0
 40
0.0
 40
0.0
 40
0.2551940391
 40
1.0
 40
1.0
 40
1.0
 40
1.0
 10
5.0766188141
 20
6.7479713723
 30
0.0
 10
5.077401747
 20
6.7489397291
 30
0.0
 10
5.0804523987
 20
6.7527478934
 30
0.0
 10
5.0834092947
 20
6.7566343723
 30
0.0
 10
5.0854962665
 20
6.7596098777
 30
0.0
 11
5.0766188141
 21
6.7479713723
 31
0.0
 11
5.0789526575
 21
6.750888471
 31
0.0
 11
5.0854962665
 21
6.7596098777
 31
0.0
  0
SPLINE
  5
3AF
100
AcDbEntity
  8
0
100
AcDbSpline
 62
7
  6
CONTINUOUS
 70
0
 71
3
 72
9
 73
5
 74
3
 42
0.0000001
 43
0.0000001
 44
0.0000000001
 12
0.0079748941
 22
0.011370226
 32
0.0
 13
0.0064849533
 23
0.0122811382
 33
0.0
 40
0.0
 40
0.0
 40
0.0
 40
0.0
 40
0.2546667596
 40
1.0
 40
1.0
 40
1.0
 40
1.0
 10
5.0854962665
 20
6.7596098777
 30
0.0
 10
5.0861732466
 20
6.7605750839
 30
0.0
 10
5.0887830751
 20
6.7643984384
 30
0.0
 10
5.0911785987
 20
6.7683718711
 30
0.0
 10
5.0927897492
 20
6.7714230513
 30
0.0
 11
5.0854962665
 21
6.7596098777
 31
0.0
 11
5.087488621
 21
6.7625321799
 31
0.0
 11
5.0927897492
 21
6.7714230513
 31
0.0
  0
SPLINE
  5
3B0
100
AcDbEntity
  8
0
100
AcDbSpline
 62
7
  6
CONTINUOUS
 70
0
 71
3
 72
9
 73
5
 74
3
 42
0.0000001
 43
0.0000001
 44
0.0000000001
 12
0.0062913226
 22
0.0119144423
 32
0.0
 13
0.0043639832
 23
0.0127471693
 33
0.0
 40
0.0
 40
0.0
 40
0.0
 40
0.0
 40
0.2518173867
 40
1.0
 40
1.0
 40
1.0
 40
1.0
 10
5.0927897492
 20
6.7714230513
 30
0.0
 10
5.0933178373
 20
6.7724231392
 30
0.0
 10
5.0953411597
 20
6.7764330314
 30
0.0
 10
5.097056573
 20
6.7805991882
 30
0.0
 10
5.0981449251
 20
6.7837782583
 30
0.0
 11
5.0927897492
 21
6.7714230513
 31
0.0
 11
5.0943173277
 21
6.7744525694
 31
0.0
 11
5.0981449251
 21
6.7837782583
 31
0.0
  0
SPLINE
  5
3B1
100
AcDbEntity
  8
0
100
AcDbSpline
 62
9
  6
CONTINUOUS
 70
0
 71
3
 72
39
 73
35
 74
33
 42
0.0000001
 43
0.0000001
 44
0.0000000001
 12
0.0
 22
1.357632394
 32
0.0
 13
0.0
 23
-1.357632394
 33
0.0
 40
0.0
 40
0.0
 40
0.0
 40
0.0
 40
0.0269925891
 40
0.054192328
 40
0.0817404582
 40
0.1097850634
 40
0.1384533857
 40
0.1678360771
 40
0.1979931306
 40
0.2289555366
 40
0.2931961196
 40
0.3097404355
 40
0.3264516973
 40
0.3603204576
 40
0.3947076533
 40
0.4294995489
 40
0.4997352533
 40
0.5349532365
 40
0.570032104
 40
0.6048370438
 40
0.6392455608
 40
0.6731437331
 40
0.706425178
 40
0.7389974707
 40
0.7707989654
 40
0.8017920442
 40
0.831973785
 40
0.8613827528
 40
0.8900863233
 40
0.9181749462
 40
0.932029726
 40
0.9457761898
 40
0.9730003948
 40
1.0
 40
1.0
 40
1.0
 40
1.0
 10
6.1088345099
 20
6.4525936115
 30
0.0
 10
6.1088345099
 20
6.4648089492
 30
0.0
 10
6.1072510704
 20
6.4893614169
 30
0.0
 10
6.1001889741
 20
6.5257679522
 30
0.0
 10
6.0884782347
 20
6.5614594833
 30
0.0
 10
6.0722699425
 20
6.5960737078
 30
0.0
 10
6.0517124129
 20
6.6292700717
 30
0.0
 10
6.0270327454
 20
6.6607420319
 30
0.0
 10
5.9984569814
 20
6.6901869338
 30
0.0
 10
5.9550405447
 20
6.726813209
 30
0.0
 10
5.9118282554
 20
6.7537441168
 30
0.0
 10
5.872131259
 20
6.773002397
 30
0.0
 10
5.8442589323
 20
6.7851049246
 30
0.0
 10
5.8080612401
 20
6.7982079618
 30
0.0
 10
5.7630358421
 20
6.8105405532
 30
0.0
 10
5.7010283007
 20
6.8224411568
 30
0.0
 10
5.6374507932
 20
6.8272278651
 30
0.0
 10
5.573853743
 20
6.8248631593
 30
0.0
 10
5.5265421371
 20
6.8195238697
 30
0.0
 10
5.4801390537
 20
6.8106572741
 30
0.0
 10
5.435075973
 20
6.7983585518
 30
0.0
 10
5.3917899115
 20
6.782722635
 30
0.0
 10
5.3506888586
 20
6.7639253055
 30
0.0
 10
5.3121849636
 20
6.7421175666
 30
0.0
 10
5.2766467177
 20
6.7175231182
 30
0.0
 10
5.2444112641
 20
6.6903781747
 30
0.0
 10
5.2157969079
 20
6.6609243786
 30
0.0
 10
5.1910666286
 20
6.6294397744
 30
0.0
 10
5.1704841469
 20
6.5962055616
 30
0.0
 10
5.1568719518
 20
6.5671868677
 30
0.0
 10
5.1482877405
 20
6.543476796
 30
0.0
 10
5.1412988211
 20
6.5196557933
 30
0.0
 10
5.1354218298
 20
6.4893771903
 30
0.0
 10
5.1338345099
 20
6.4648121243
 30
0.0
 10
5.1338345099
 20
6.4525936115
 30
0.0
 11
6.1088345099
 21
6.4525936115
 31
0.0
 11
6.1064883858
 21
6.4891644468
 31
0.0
 11
6.0994751609
 21
6.5254196012
 31
0.0
 11
6.0878534689
 21
6.5609683532
 31
0.0
 11
6.0717461973
 21
6.5954677071
 31
0.0
 11
6.0513023247
 21
6.6285871224
 31
0.0
 11
6.0267280091
 21
6.6600098277
 31
0.0
 11
5.998256137
 21
6.6894311745
 31
0.0
 11
5.9661594658
 21
6.7165750956
 31
0.0
 11
5.8923386682
 21
6.7630182103
 31
0.0
 11
5.8721328159
 21
6.7728276193
 31
0.0
 11
5.8513237658
 21
6.7818673901
 31
0.0
 11
5.8080986304
 21
6.7975476331
 31
0.0
 11
5.7630787746
 21
6.8099055355
 31
0.0
 11
5.7166939963
 21
6.8188251891
 31
0.0
 11
5.6216130144
 21
6.8260392862
 31
0.0
 11
5.5738330062
 21
6.8242613799
 31
0.0
 11
5.5265106985
 21
6.8189074787
 31
0.0
 11
5.4801009544
 21
6.8100239648
 31
0.0
 11
5.4350425277
 21
6.7976972893
 31
0.0
 11
5.3917676357
 21
6.7820371551
 31
0.0
 11
5.3506951972
 21
6.763205115
 31
0.0
 11
5.3122376409
 21
6.7413755279
 31
0.0
 11
5.2767632653
 21
6.7167660421
 31
0.0
 11
5.2446138714
 21
6.6896199947
 31
0.0
 11
5.2161000421
 21
6.660192622
 31
0.0
 11
5.1914839681
 21
6.6287572966
 31
0.0
 11
5.1710060023
 21
6.5956026911
 31
0.0
 11
5.154854263
 21
6.5610581528
 31
0.0
 11
5.1484565042
 21
6.5433699246
 31
0.0
 11
5.1432060617
 21
6.5254610677
 31
0.0
 11
5.1361841196
 21
6.4891737679
 31
0.0
 11
5.1338345099
 21
6.4525936115
 31
0.0
  0
SPLINE
  5
3B2
100
AcDbEntity
  8
0
100
AcDbSpline
 62
9
  6
CONTINUOUS
 70
0
 71
3
 72
41
 73
37
 74
35
 42
0.0000001
 43
0.0000001
 44
0.0000000001
 12
-0.0605528267
 22
1.3347410295
 32
0.0
 13
-0.0727409317
 23
-1.3341323088
 33
0.0
 40
0.0
 40
0.0
 40
0.0
 40
0.0
 40
0.0269537207
 40
0.0541527318
 40
0.0817350266
 40
0.1098375274
 40
0.1385727689
 40
0.1680184559
 40
0.1982257476
 40
0.2292186314
 40
0.2609908968
 40
0.2935066985
 40
0.3267040023
 40
0.3604965685
 40
0.4294162639
 40
0.4643656079
 40
0.4994556037
 40
0.5345539206
 40
0.5695251849
 40
0.6042404985
 40
0.638582893
 40
0.6724433053
 40
0.7057197308
 40
0.7221133297
 40
0.7383284914
 40
0.7543585858
 40
0.7701981318
 40
0.8012803213
 40
0.831569615
 40
0.846429521
 40
0.8611041883
 40
0.8899202478
 40
0.9181074649
 40
0.9457656876
 40
0.9730192453
 40
1.0
 40
1.0
 40
1.0
 40
1.0
 10
6.1110394545
 20
6.320843167
 30
0.0
 10
6.1104954132
 20
6.3328352459
 30
0.0
 10
6.1078903783
 20
6.3568862474
 30
0.0
 10
6.0995122081
 20
6.3924007736
 30
0.0
 10
6.0867252244
 20
6.4271237182
 30
0.0
 10
6.0696726316
 20
6.4607244842
 30
0.0
 10
6.0485091107
 20
6.4928919902
 30
0.0
 10
6.0234493245
 20
6.5233428668
 30
0.0
 10
5.9947181903
 20
6.551797725
 30
0.0
 10
5.9625840029
 20
6.5780082067
 30
0.0
 10
5.9273382027
 20
6.601742477
 30
0.0
 10
5.8893006557
 20
6.6227835618
 30
0.0
 10
5.8488189236
 20
6.6409450945
 30
0.0
 10
5.7917342675
 20
6.6612253282
 30
0.0
 10
5.7316799311
 20
6.6749120379
 30
0.0
 10
5.6701487669
 20
6.6819100533
 30
0.0
 10
5.6233150246
 20
6.6837730178
 30
0.0
 10
5.5764654469
 20
6.6821981574
 30
0.0
 10
5.530021351
 20
6.6772124116
 30
0.0
 10
5.4844079032
 20
6.6688441721
 30
0.0
 10
5.4400323407
 20
6.6571831609
 30
0.0
 10
5.3973047243
 20
6.642312212
 30
0.0
 10
5.363217231
 20
6.6272984628
 30
0.0
 10
5.3371523527
 20
6.6138042685
 30
0.0
 10
5.3183534498
 20
6.6030266037
 30
0.0
 10
5.3002503287
 20
6.5915717078
 30
0.0
 10
5.2772421591
 20
6.5755367959
 30
0.0
 10
5.2503872568
 20
6.5539740706
 30
0.0
 10
5.2260383934
 20
6.5302282873
 30
0.0
 10
5.2084293387
 20
6.510218688
 30
0.0
 10
5.1922894001
 20
6.4898379665
 30
0.0
 10
5.174490201
 20
6.4632546003
 30
0.0
 10
5.1570945784
 20
6.4297118456
 30
0.0
 10
5.1439524546
 20
6.3950182489
 30
0.0
 10
5.135245455
 20
6.3595105031
 30
0.0
 10
5.1324144707
 20
6.3354487224
 30
0.0
 10
5.131760269
 20
6.3234500902
 30
0.0
 11
6.1110394545
 21
6.320843167
 31
0.0
 11
6.107172375
 21
6.3566481826
 31
0.0
 11
6.098852349
 21
6.3920239327
 31
0.0
 11
6.086153501
 21
6.4266200199
 31
0.0
 11
6.0691990459
 21
6.460122398
 31
0.0
 11
6.048140653
 21
6.4922254995
 31
0.0
 11
6.0231791977
 21
6.5226357104
 31
0.0
 11
5.9945397126
 21
6.5510740694
 31
0.0
 11
5.9624817522
 21
6.5772862246
 31
0.0
 11
5.9272949162
 21
6.6010350119
 31
0.0
 11
5.8892988247
 21
6.6221003591
 31
0.0
 11
5.8488440856
 21
6.6402886419
 31
0.0
 11
5.8063079384
 21
6.6554300869
 31
0.0
 11
5.7165607542
 21
6.6760458387
 31
0.0
 11
5.670164817
 21
6.6813337249
 31
0.0
 11
5.6233177184
 21
6.6831993012
 31
0.0
 11
5.5764488694
 21
6.6816230294
 31
0.0
 11
5.5299915135
 21
6.6766235334
 31
0.0
 11
5.4843717018
 21
6.6682406804
 31
0.0
 11
5.4399996198
 21
6.6565537805
 31
0.0
 11
5.3972802164
 21
6.6416596944
 31
0.0
 11
5.3566056995
 21
6.6237049595
 31
0.0
 11
5.3371568499
 21
6.6136294955
 31
0.0
 11
5.3183635969
 21
6.6028499331
 31
0.0
 11
5.3002672405
 21
6.5913933211
 31
0.0
 11
5.2829076879
 21
6.5792880745
 31
0.0
 11
5.2505586173
 21
6.5532453388
 31
0.0
 11
5.2216193382
 21
6.5249551534
 31
0.0
 11
5.2085074906
 21
6.5100460397
 31
0.0
 11
5.1963409797
 21
6.4946703608
 31
0.0
 11
5.1749582288
 21
6.4626524551
 31
0.0
 11
5.1576591461
 21
6.4291992395
 31
0.0
 11
5.144610473
 21
6.3946251194
 31
0.0
 11
5.1359576837
 21
6.3592542534
 31
0.0
 11
5.131760269
 21
6.3234500902
 31
0.0
  0
SPLINE
  5
3B3
100
AcDbEntity
  8
0
100
AcDbSpline
 62
9
  6
CONTINUOUS
 70
0
 71
3
 72
14
 73
10
 74
8
 42
0.0000001
 43
0.0000001
 44
0.0000000001
 12
0.0639628985
 22
-0.0255919027
 32
0.0
 13
0.0001491161
 23
-0.0688924933
 33
0.0
 40
0.0
 40
0.0
 40
0.0
 40
0.0
 40
0.2745867048
 40
0.4054348161
 40
0.5315019573
 40
0.6530963328
 40
0.7710334124
 40
0.8862804937
 40
1.0
 40
1.0
 40
1.0
 40
1.0
 10
6.0579382942
 20
3.7895723432
 30
0.0
 10
6.063792748
 20
3.7872299444
 30
0.0
 10
6.072105175
 20
3.7827740744
 30
0.0
 10
6.0815825566
 20
3.7750402688
 30
0.0
 10
6.0875181849
 20
3.7686454494
 30
0.0
 10
6.0922376382
 20
3.7616602646
 30
0.0
 10
6.0956809461
 20
3.7542360323
 30
0.0
 10
6.0977969523
 20
3.7465178735
 30
0.0
 10
6.098288177
 20
3.7412497293
 30
0.0
 10
6.0982938295
 20
3.7386382558
 30
0.0
 11
6.0579382942
 21
3.7895723432
 31
0.0
 11
6.0745554218
 21
3.7805321981
 31
0.0
 11
6.0815245455
 21
3.7748145016
 31
0.0
 11
6.0874103928
 21
3.7684279718
 31
0.0
 11
6.0920871229
 21
3.7614780334
 31
0.0
 11
6.0954919711
 21
3.7541008653
 31
0.0
 11
6.0975768894
 21
3.7464398215
 31
0.0
 11
6.0982938295
 21
3.7386382558
 31
0.0
  0
SPLINE
  5
3B4
100
AcDbEntity
  8
0
100
AcDbSpline
 62
9
  6
CONTINUOUS
 70
0
 71
3
 72
16
 73
12
 74
10
 42
0.0000001
 43
0.0000001
 44
0.0000000001
 12
0.0841311096
 22
-0.0164410564
 32
0.0
 13
0.0000608483
 23
-0.0857225072
 33
0.0
 40
0.0
 40
0.0
 40
0.0
 40
0.0
 40
0.1410708581
 40
0.2784495792
 40
0.4109797559
 40
0.537995151
 40
0.6596105751
 40
0.776316799
 40
0.8331873972
 40
0.8892728831
 40
1.0
 40
1.0
 40
1.0
 40
1.0
 10
6.0034347307
 20
3.8683975538
 30
0.0
 10
6.00739088
 20
3.8676244358
 30
0.0
 10
6.0151110976
 20
3.865590807
 30
0.0
 10
6.0260019654
 20
3.8611069435
 30
0.0
 10
6.0358133468
 20
3.8553314305
 30
0.0
 10
6.0442403761
 20
3.8483526434
 30
0.0
 10
6.0510730337
 20
3.840391847
 30
0.0
 10
6.0553427516
 20
3.8330522061
 30
0.0
 10
6.0577531789
 20
3.8269365138
 30
0.0
 10
6.0594613102
 20
3.8207683693
 30
0.0
 10
6.059979606
 20
3.8159814297
 30
0.0
 10
6.0599818519
 20
3.8128174943
 30
0.0
 11
6.0034347307
 21
3.8683975538
 31
0.0
 11
6.0151258444
 21
3.8653060627
 31
0.0
 11
6.0260059001
 21
3.8607994903
 31
0.0
 11
6.0357730592
 21
3.8549968292
 31
0.0
 11
6.0441387253
 21
3.8480279027
 31
0.0
 11
6.0509018267
 21
3.8400941222
 31
0.0
 11
6.0558968098
 21
3.8314259497
 31
0.0
 11
6.0576795534
 21
3.8268885118
 31
0.0
 11
6.0589586361
 21
3.8222539903
 31
0.0
 11
6.0599818519
 21
3.8128174943
 31
0.0
  0
SPLINE
  5
3B5
100
AcDbEntity
  8
0
100
AcDbSpline
 62
9
  6
CONTINUOUS
 70
0
 71
3
 72
19
 73
15
 74
13
 42
0.0000001
 43
0.0000001
 44
0.0000000001
 12
0.1098450804
 22
0.0063397561
 32
0.0
 13
0.0001805509
 23
-0.1100277311
 33
0.0
 40
0.0
 40
0.0
 40
0.0
 40
0.0
 40
0.1400109263
 40
0.2785123098
 40
0.4131483014
 40
0.542218776
 40
0.6044564668
 40
0.6650233671
 40
0.7239168102
 40
0.7812244115
 40
0.8371743062
 40
0.8920709758
 40
0.9462322173
 40
1.0
 40
1.0
 40
1.0
 40
1.0
 10
5.9182217994
 20
3.9344707337
 30
0.0
 10
5.9233483032
 20
3.9347666121
 30
0.0
 10
5.9336106057
 20
3.9345296746
 30
0.0
 10
5.9485806265
 20
3.9318282869
 30
0.0
 10
5.9625521388
 20
3.9268784167
 30
0.0
 10
5.9729851376
 20
3.920886592
 30
0.0
 10
5.980257082
 20
3.9151690397
 30
0.0
 10
5.9850623828
 20
3.9105340891
 30
0.0
 10
5.9892269246
 20
3.9055478822
 30
0.0
 10
5.9926906291
 20
3.9002504972
 30
0.0
 10
5.9954101706
 20
3.8946974505
 30
0.0
 10
5.9973740669
 20
3.8889556577
 30
0.0
 10
5.9985675137
 20
3.8830879258
 30
0.0
 10
5.9988406162
 20
3.8791250915
 30
0.0
 10
5.9988438521
 20
3.8771531091
 30
0.0
 11
5.9182217994
 21
3.9344707337
 31
0.0
 11
5.9336230929
 21
3.934128054
 31
0.0
 11
5.9486155521
 21
3.9313979078
 31
0.0
 11
5.9625579149
 21
3.9263922508
 31
0.0
 11
5.9748511596
 21
3.9192820826
 31
0.0
 11
5.9802288423
 21
3.9150425066
 31
0.0
 11
5.9850179791
 21
3.9104085343
 31
0.0
 11
5.9891616304
 21
3.9054266145
 31
0.0
 11
5.9926034867
 21
3.9001434221
 31
0.0
 11
5.9953065861
 21
3.8946125828
 31
0.0
 11
5.9972564731
 21
3.8888958072
 31
0.0
 11
5.9984399583
 21
3.8830552608
 31
0.0
 11
5.9988438521
 21
3.8771531091
 31
0.0
  0
SPLINE
  5
3B6
100
AcDbEntity
  8
0
100
AcDbSpline
 62
9
  6
CONTINUOUS
 70
0
 71
3
 72
9
 73
5
 74
3
 42
0.0000001
 43
0.0000001
 44
0.0000000001
 12
0.0182129242
 22
-0.002948173
 32
0.0
 13
0.0172586643
 23
-0.0065223339
 33
0.0
 40
0.0
 40
0.0
 40
0.0
 40
0.0
 40
0.2531288279
 40
1.0
 40
1.0
 40
1.0
 40
1.0
 10
5.8991089803
 20
6.1263475266
 30
0.0
 10
5.900645719
 20
6.1260987707
 30
0.0
 10
5.9066915607
 20
6.1249685987
 30
0.0
 10
5.9126299316
 20
6.1232489148
 30
0.0
 10
5.9169265978
 20
6.1216251337
 30
0.0
 11
5.8991089803
 21
6.1263475266
 31
0.0
 11
5.9036995865
 21
6.12548884
 31
0.0
 11
5.9169265978
 21
6.1216251337
 31
0.0
  0
SPLINE
  5
3B7
100
AcDbEntity
  8
0
100
AcDbSpline
 62
7
  6
CONTINUOUS
 70
0
 71
3
 72
13
 73
9
 74
7
 42
0.0000001
 43
0.0000001
 44
0.0000000001
 12
-0.1504107321
 22
-0.052897676
 32
0.0
 13
-0.1159903288
 23
-0.1093974226
 33
0.0
 40
0.0
 40
0.0
 40
0.0
 40
0.0
 40
0.2587603468
 40
0.5122031802
 40
0.6366791609
 40
0.7595071446
 40
0.8806226518
 40
1.0
 40
1.0
 40
1.0
 40
1.0
 10
5.4764307882
 20
6.2999945964
 30
0.0
 10
5.4634573438
 20
6.2954319894
 30
0.0
 10
5.4381850199
 20
6.2851874924
 30
0.0
 10
5.4081602717
 20
6.269453913
 30
0.0
 10
5.3856061038
 20
6.2553067897
 30
0.0
 10
5.3695878285
 20
6.2440284596
 30
0.0
 10
5.3544307008
 20
6.2320496446
 30
0.0
 10
5.3448706719
 20
6.2235529656
 30
0.0
 10
5.3402551326
 20
6.2191997742
 30
0.0
 11
5.4764307882
 21
6.2999945964
 31
0.0
 11
5.4382078981
 21
6.2844652872
 31
0.0
 11
5.4024382747
 21
6.2656651945
 31
0.0
 11
5.3856297837
 21
6.2551123266
 31
0.0
 11
5.3696222241
 21
6.2438302295
 31
0.0
 11
5.354478134
 21
6.2318483921
 31
0.0
 11
5.3402551326
 21
6.2191997742
 31
0.0
  0
SPLINE
  5
3B8
100
AcDbEntity
  8
0
100
AcDbSpline
 62
7
  6
CONTINUOUS
 70
0
 71
3
 72
11
 73
7
 74
5
 42
0.0000001
 43
0.0000001
 44
0.0000000001
 12
-0.0203255955
 22
0.1723803232
 32
0.0
 13
-0.1090940696
 23
0.1350058875
 33
0.0
 40
0.0
 40
0.0
 40
0.0
 40
0.0
 40
0.2425773234
 40
0.488950989
 40
0.7409127366
 40
1.0
 40
1.0
 40
1.0
 40
1.0
 10
6.0894276039
 20
5.912734421
 30
0.0
 10
6.0877840944
 20
5.9266729402
 30
0.0
 10
6.0823413374
 20
5.9545611645
 30
0.0
 10
6.0679589726
 20
5.9950977862
 30
0.0
 10
6.0475605372
 20
6.034037816
 30
0.0
 10
6.03038426
 20
6.0582265685
 30
0.0
 10
6.020962632
 20
6.0698860038
 30
0.0
 11
6.0894276039
 21
5.912734421
 31
0.0
 11
6.0813871012
 21
5.9540648126
 31
0.0
 11
6.0671515071
 21
5.9943900326
 31
0.0
 11
6.0469228091
 21
6.0331646918
 31
0.0
 11
6.020962632
 21
6.0698860038
 31
0.0
  0
SPLINE
  5
3B9
100
AcDbEntity
  8
0
100
AcDbSpline
 62
7
  6
CONTINUOUS
 70
0
 71
3
 72
9
 73
5
 74
3
 42
0.0000001
 43
0.0000001
 44
0.0000000001
 12
-0.0766312491
 22
0.0532580696
 32
0.0
 13
-0.0853932005
 23
0.0376400267
 33
0.0
 40
0.0
 40
0.0
 40
0.0
 40
0.0
 40
0.4938433169
 40
1.0
 40
1.0
 40
1.0
 40
1.0
 10
5.9371120871
 20
6.14705791
 30
0.0
 10
5.924497477
 20
6.1558249572
 30
0.0
 10
5.8980299166
 20
6.172277679
 30
0.0
 10
5.8701147446
 20
6.186116298
 30
0.0
 10
5.8557072982
 20
6.1924668817
 30
0.0
 11
5.9371120871
 21
6.14705791
 31
0.0
 11
5.8980027761
 21
6.17143756
 31
0.0
 11
5.8557072982
 21
6.1924668817
 31
0.0
  0
SPLINE
  5
3BA
100
AcDbEntity
  8
0
100
AcDbSpline
 62
7
  6
CONTINUOUS
 70
0
 71
3
 72
9
 73
5
 74
3
 42
0.0000001
 43
0.0000001
 44
0.0000000001
 12
-0.087500602
 22
0.0385689373
 32
0.0
 13
-0.0928466856
 23
0.0228781825
 33
0.0
 40
0.0
 40
0.0
 40
0.0
 40
0.0
 40
0.4956746787
 40
1.0
 40
1.0
 40
1.0
 40
1.0
 10
5.8557072982
 20
6.1924668817
 30
0.0
 10
5.8412500206
 20
6.1988394302
 30
0.0
 10
5.8114857867
 20
6.21037597
 30
0.0
 10
5.7808386778
 20
6.2192909871
 30
0.0
 10
5.7652303663
 20
6.2231370027
 30
0.0
 11
5.8557072982
 21
6.1924668817
 31
0.0
 11
5.8115263499
 21
6.2096320807
 31
0.0
 11
5.7652303663
 21
6.2231370027
 31
0.0
  0
SPLINE
  5
3BB
100
AcDbEntity
  8
0
100
AcDbSpline
 62
7
  6
CONTINUOUS
 70
0
 71
3
 72
17
 73
13
 74
11
 42
0.0000001
 43
0.0000001
 44
0.0000000001
 12
-0.4957803863
 22
0.122164341
 32
0.0
 13
-0.3973260941
 23
-0.3207090465
 33
0.0
 40
0.0
 40
0.0
 40
0.0
 40
0.0
 40
0.2559724039
 40
0.3850048085
 40
0.5132218928
 40
0.5767331128
 40
0.6396744596
 40
0.7019357548
 40
0.7634183934
 40
0.8240387024
 40
0.8837221962
 40
1.0
 40
1.0
 40
1.0
 40
1.0
 10
5.7652303663
 20
6.2231370027
 30
0.0
 10
5.7229283338
 20
6.2335605694
 30
0.0
 10
5.6572657484
 20
6.2421033073
 30
0.0
 10
5.5698528205
 20
6.239440723
 30
0.0
 10
5.5156480921
 20
6.2319224129
 30
0.0
 10
5.4733389595
 20
6.2224209571
 30
0.0
 10
5.4424240543
 20
6.213640428
 30
0.0
 10
5.4123871379
 20
6.2032229755
 30
0.0
 10
5.3833778001
 20
6.1912127188
 30
0.0
 10
5.3555317683
 20
6.1776761972
 30
0.0
 10
5.3204586967
 20
6.1578627309
 30
0.0
 10
5.2958084755
 20
6.140651194
 30
0.0
 10
5.280408407
 20
6.1282207461
 30
0.0
 11
5.7652303663
 21
6.2231370027
 31
0.0
 11
5.6356549523
 21
6.240260855
 31
0.0
 11
5.5698002809
 21
6.2382552747
 31
0.0
 11
5.5049583453
 21
6.2292165026
 31
0.0
 11
5.4733181125
 21
6.2221056111
 31
0.0
 11
5.4424051353
 21
6.2133153437
 31
0.0
 11
5.4123730032
 21
6.2028868735
 31
0.0
 11
5.3833711504
 21
6.1908680201
 31
0.0
 11
5.3555388767
 21
6.1773228138
 31
0.0
 11
5.3290139657
 21
6.1623177103
 31
0.0
 11
5.280408407
 21
6.1282207461
 31
0.0
  0
SPLINE
  5
3BC
100
AcDbEntity
  8
0
100
AcDbSpline
 62
7
  6
CONTINUOUS
 70
0
 71
3
 72
9
 73
5
 74
3
 42
0.0000001
 43
0.0000001
 44
0.0000000001
 12
-0.0486333334
 22
-0.0392552873
 32
0.0
 13
-0.0419106198
 23
-0.0463646271
 33
0.0
 40
0.0
 40
0.0
 40
0.0
 40
0.0
 40
0.5051632389
 40
1.0
 40
1.0
 40
1.0
 40
1.0
 10
5.280408407
 20
6.1282207461
 30
0.0
 10
5.2722191496
 20
6.1216106367
 30
0.0
 10
5.2564865547
 20
6.1079193368
 30
0.0
 10
5.2418749097
 20
6.0930338584
 30
0.0
 10
5.2349619379
 20
6.0853862177
 30
0.0
 11
5.280408407
 21
6.1282207461
 31
0.0
 11
5.2566101475
 21
6.1074732116
 31
0.0
 11
5.2349619379
 21
6.0853862177
 31
0.0
  0
SPLINE
  5
3BD
100
AcDbEntity
  8
0
100
AcDbSpline
 62
7
  6
CONTINUOUS
 70
0
 71
3
 72
13
 73
9
 74
7
 42
0.0000001
 43
0.0000001
 44
0.0000000001
 12
-0.1000289287
 22
-0.1372953376
 32
0.0
 13
-0.0113826482
 23
-0.169488146
 33
0.0
 40
0.0
 40
0.0
 40
0.0
 40
0.0
 40
0.1300261502
 40
0.2582373256
 40
0.5097727044
 40
0.6336664531
 40
0.756566471
 40
1.0
 40
1.0
 40
1.0
 40
1.0
 10
5.2109054079
 20
6.0558185157
 30
0.0
 10
5.206569949
 20
6.0498678544
 30
0.0
 10
5.1983311147
 20
6.0377716489
 30
0.0
 10
5.1836836994
 20
6.0128826214
 30
0.0
 10
5.1717234515
 20
5.9868740576
 30
0.0
 10
5.1627353031
 20
5.9601042656
 30
0.0
 10
5.1558249312
 20
5.9332020047
 30
0.0
 10
5.1528774415
 20
5.9125695371
 30
0.0
 10
5.1519538021
 20
5.8988165046
 30
0.0
 11
5.2109054079
 21
6.0558185157
 31
0.0
 11
5.1984808078
 21
6.0375568487
 31
0.0
 11
5.187443015
 21
6.0187818187
 31
0.0
 11
5.1696547334
 21
5.9799323062
 31
0.0
 11
5.1629624523
 21
5.9599788588
 31
0.0
 11
5.1577734666
 21
5.9397569812
 31
0.0
 11
5.1519538021
 21
5.8988165046
 31
0.0
  0
SPLINE
  5
3BE
100
AcDbEntity
  8
0
100
AcDbSpline
 62
9
  6
CONTINUOUS
 70
0
 71
3
 72
22
 73
18
 74
16
 42
0.0000001
 43
0.0000001
 44
0.0000000001
 12
-0.0179518886
 22
0.1208614267
 32
0.0
 13
-0.1182723638
 23
-0.0306822869
 33
0.0
 40
0.0
 40
0.0
 40
0.0
 40
0.0
 40
0.0529231221
 40
0.1067393954
 40
0.1617814824
 40
0.218291618
 40
0.2764515162
 40
0.3364042824
 40
0.3981750842
 40
0.4616404771
 40
0.5265992907
 40
0.5928089005
 40
0.6600152339
 40
0.7279520292
 40
0.796293757
 40
0.864679227
 40
1.0
 40
1.0
 40
1.0
 40
1.0
 10
5.9182217994
 20
6.0556698457
 30
0.0
 10
5.9179051094
 20
6.057801967
 30
0.0
 10
5.9169431435
 20
6.0620601903
 30
0.0
 10
5.9145937529
 20
6.068237229
 30
0.0
 10
5.9113737537
 20
6.0741749306
 30
0.0
 10
5.9073264308
 20
6.079799885
 30
0.0
 10
5.9024948262
 20
6.0850420504
 30
0.0
 10
5.8969212894
 20
6.0898216988
 30
0.0
 10
5.8906845281
 20
6.0940878304
 30
0.0
 10
5.8838736999
 20
6.0978040566
 30
0.0
 10
5.8765753754
 20
6.1009277538
 30
0.0
 10
5.8688773014
 20
6.1034176861
 30
0.0
 10
5.860866953
 20
6.1052271853
 30
0.0
 10
5.8526421236
 20
6.1063268274
 30
0.0
 10
5.8443049237
 20
6.1067246039
 30
0.0
 10
5.8332241763
 20
6.1063226504
 30
0.0
 10
5.8249808376
 20
6.1049761492
 30
0.0
 10
5.819645935
 20
6.1035921657
 30
0.0
 11
5.9182217994
 21
6.0556698457
 31
0.0
 11
5.9168066172
 21
6.061979629
 31
0.0
 11
5.9144798678
 21
6.0681298861
 31
0.0
 11
5.9112834781
 21
6.074047212
 31
0.0
 11
5.9072593753
 21
6.0796582018
 31
0.0
 11
5.902449486
 21
6.0848894505
 31
0.0
 11
5.8968980791
 21
6.089669033
 31
0.0
 11
5.890676645
 21
6.0939422294
 31
0.0
 11
5.8838742367
 21
6.0976654194
 31
0.0
 11
5.8765801997
 21
6.1007951681
 31
0.0
 11
5.8688838799
 21
6.1032880404
 31
0.0
 11
5.8608747166
 21
6.1051008827
 31
0.0
 11
5.8526477828
 21
6.1062074411
 31
0.0
 11
5.8443068825
 21
6.1066076554
 31
0.0
 11
5.8359565709
 21
6.1063037188
 31
0.0
 11
5.819645935
 21
6.1035921657
 31
0.0
  0
SPLINE
  5
3BF
100
AcDbEntity
  8
0
100
AcDbSpline
 62
9
  6
CONTINUOUS
 70
0
 71
3
 72
9
 73
5
 74
3
 42
0.0000001
 43
0.0000001
 44
0.0000000001
 12
0.0171705469
 22
-0.0003090406
 32
0.0
 13
0.0168471716
 23
-0.0033310653
 33
0.0
 40
0.0
 40
0.0
 40
0.0
 40
0.0
 40
0.2512192361
 40
1.0
 40
1.0
 40
1.0
 40
1.0
 10
5.8159045528
 20
6.1716083645
 30
0.0
 10
5.81734241
 20
6.1715824855
 30
0.0
 10
5.8230628555
 20
6.1713547674
 30
0.0
 10
5.8287646419
 20
6.1706291075
 30
0.0
 10
5.8329695879
 20
6.169797695
 30
0.0
 11
5.8159045528
 21
6.1716083645
 31
0.0
 11
5.8202154043
 21
6.1714366455
 31
0.0
 11
5.8329695879
 21
6.169797695
 31
0.0
  0
SPLINE
  5
3C0
100
AcDbEntity
  8
0
100
AcDbSpline
 62
9
  6
CONTINUOUS
 70
0
 71
3
 72
22
 73
18
 74
16
 42
0.0000001
 43
0.0000001
 44
0.0000000001
 12
0.1182723638
 22
0.0306822869
 32
0.0
 13
0.0179518886
 23
-0.1208614267
 33
0.0
 40
0.0
 40
0.0
 40
0.0
 40
0.0
 40
0.135320773
 40
0.203706243
 40
0.2720479708
 40
0.3399847661
 40
0.4071910995
 40
0.4734007093
 40
0.5383595229
 40
0.6018249158
 40
0.6635957176
 40
0.7235484838
 40
0.781708382
 40
0.8382185176
 40
0.8932606046
 40
0.9470768779
 40
1.0
 40
1.0
 40
1.0
 40
1.0
 10
5.819645935
 20
3.9823930537
 30
0.0
 10
5.8249808376
 20
3.9837770373
 30
0.0
 10
5.8332241763
 20
3.9851235384
 30
0.0
 10
5.8443049237
 20
3.9855254919
 30
0.0
 10
5.8526421236
 20
3.9851277154
 30
0.0
 10
5.860866953
 20
3.9840280734
 30
0.0
 10
5.8688773014
 20
3.9822185741
 30
0.0
 10
5.8765753754
 20
3.9797286419
 30
0.0
 10
5.8838736999
 20
3.9766049446
 30
0.0
 10
5.8906845281
 20
3.9728887185
 30
0.0
 10
5.8969212894
 20
3.9686225869
 30
0.0
 10
5.9024948262
 20
3.9638429384
 30
0.0
 10
5.9073264308
 20
3.958600773
 30
0.0
 10
5.9113737537
 20
3.9529758187
 30
0.0
 10
5.9145937529
 20
3.9470381171
 30
0.0
 10
5.9169431435
 20
3.9408610783
 30
0.0
 10
5.9179051094
 20
3.9366028551
 30
0.0
 10
5.9182217994
 20
3.9344707337
 30
0.0
 11
5.819645935
 21
3.9823930537
 31
0.0
 11
5.8359565709
 21
3.9851046068
 31
0.0
 11
5.8443068825
 21
3.9854085434
 31
0.0
 11
5.8526477828
 21
3.9850083291
 31
0.0
 11
5.8608747166
 21
3.9839017708
 31
0.0
 11
5.8688838799
 21
3.9820889284
 31
0.0
 11
5.8765801997
 21
3.9795960562
 31
0.0
 11
5.8838742367
 21
3.9764663075
 31
0.0
 11
5.890676645
 21
3.9727431174
 31
0.0
 11
5.8968980791
 21
3.9684699211
 31
0.0
 11
5.902449486
 21
3.9636903385
 31
0.0
 11
5.9072593753
 21
3.9584590899
 31
0.0
 11
5.9112834781
 21
3.9528481001
 31
0.0
 11
5.9144798678
 21
3.9469307741
 31
0.0
 11
5.9168066172
 21
3.940780517
 31
0.0
 11
5.9182217994
 21
3.9344707337
 31
0.0
  0
SPLINE
  5
3C1
100
AcDbEntity
  8
0
100
AcDbSpline
 62
7
  6
CONTINUOUS
 70
0
 71
3
 72
9
 73
5
 74
3
 42
0.0000001
 43
0.0000001
 44
0.0000000001
 12
0.0
 22
-0.0414611171
 32
0.0
 13
-0.0071569994
 23
-0.0408387266
 33
0.0
 40
0.0
 40
0.0
 40
0.0
 40
0.0
 40
0.4759084249
 40
1.0
 40
1.0
 40
1.0
 40
1.0
 10
5.9182217994
 20
3.9344707337
 30
0.0
 10
5.9182217994
 20
3.9278935021
 30
0.0
 10
5.917497569
 20
3.9140686793
 30
0.0
 10
5.9155876195
 20
3.9003652765
 30
0.0
 10
5.9143373118
 20
3.8932308657
 30
0.0
 11
5.9182217994
 21
3.9344707337
 31
0.0
 11
5.9172639125
 21
3.9147623031
 31
0.0
 11
5.9143373118
 21
3.8932308657
 31
0.0
  0
SPLINE
  5
3C2
100
AcDbEntity
  8
0
100
AcDbSpline
 62
9
  6
CONTINUOUS
 70
0
 71
3
 72
22
 73
18
 74
16
 42
0.0000001
 43
0.0000001
 44
0.0000000001
 12
0.1122939495
 22
0.0560956382
 32
0.0
 13
0.0559803406
 23
-0.1123514717
 33
0.0
 40
0.0
 40
0.0
 40
0.0
 40
0.0
 40
0.1273195045
 40
0.1927142288
 40
0.2588061882
 40
0.3252662492
 40
0.391780506
 40
0.4580463516
 40
0.5237384536
 40
0.5885258052
 40
0.6520985797
 40
0.7141986404
 40
0.7746809192
 40
0.8334933659
 40
0.8906138132
 40
0.9460749968
 40
1.0
 40
1.0
 40
1.0
 40
1.0
 10
5.7086094344
 20
4.0100303638
 30
0.0
 10
5.7133751711
 20
4.0124110534
 30
0.0
 10
5.7209740424
 20
4.0152886612
 30
0.0
 10
5.7315222622
 20
4.0177707664
 30
0.0
 10
5.7397288745
 20
4.0189700888
 30
0.0
 10
5.7480533491
 20
4.0194677217
 30
0.0
 10
5.7563974694
 20
4.0192369315
 30
0.0
 10
5.7646578289
 20
4.0182883443
 30
0.0
 10
5.7727358624
 20
4.0166505999
 30
0.0
 10
5.7805328458
 20
4.014347175
 30
0.0
 10
5.7879508203
 20
4.0114033191
 30
0.0
 10
5.794890907
 20
4.0078383717
 30
0.0
 10
5.8012615499
 20
4.0036873003
 30
0.0
 10
5.8069976499
 20
3.9990188388
 30
0.0
 10
5.8120354991
 20
3.9938926734
 30
0.0
 10
5.8163106019
 20
3.9883710478
 30
0.0
 10
5.8186396883
 20
3.9844125715
 30
0.0
 10
5.819645935
 20
3.9823930537
 30
0.0
 11
5.7086094344
 21
4.0100303638
 31
0.0
 11
5.7235273588
 21
4.0157640271
 31
0.0
 11
5.7315166595
 21
4.017649212
 31
0.0
 11
5.7397254413
 21
4.0188505752
 31
0.0
 11
5.7480531458
 21
4.0193460741
 31
0.0
 11
5.7563992104
 21
4.0191159912
 31
0.0
 11
5.7646630262
 21
4.0181676439
 31
0.0
 11
5.7727439542
 21
4.0165257908
 31
0.0
 11
5.7805413548
 21
4.0142154814
 31
0.0
 11
5.7879545883
 21
4.0112617653
 31
0.0
 11
5.7948832389
 21
4.0076899268
 31
0.0
 11
5.8012402974
 21
4.0035393474
 31
0.0
 11
5.8069595364
 21
3.998871259
 31
0.0
 11
5.8119765157
 21
3.993748773
 31
0.0
 11
5.8162267952
 21
3.9882350007
 31
0.0
 11
5.819645935
 21
3.9823930537
 31
0.0
  0
SPLINE
  5
3C3
100
AcDbEntity
  8
0
100
AcDbSpline
 62
7
  6
CONTINUOUS
 70
0
 71
3
 72
9
 73
5
 74
3
 42
0.0000001
 43
0.0000001
 44
0.0000000001
 12
0.0
 22
-0.0482890829
 32
0.0
 13
-0.0060616305
 23
-0.0479071202
 33
0.0
 40
0.0
 40
0.0
 40
0.0
 40
0.0
 40
0.4701908405
 40
1.0
 40
1.0
 40
1.0
 40
1.0
 10
5.819645935
 20
3.9823930537
 30
0.0
 10
5.819645935
 20
3.9748246922
 30
0.0
 10
5.8190023353
 20
3.9587262348
 30
0.0
 10
5.8173662449
 20
3.9427044557
 30
0.0
 10
5.8162957424
 20
3.934243912
 30
0.0
 11
5.819645935
 21
3.9823930537
 31
0.0
 11
5.8188212863
 21
3.9597029498
 31
0.0
 11
5.8162957424
 21
3.934243912
 31
0.0
  0
SPLINE
  5
3C4
100
AcDbEntity
  8
0
100
AcDbSpline
 62
9
  6
CONTINUOUS
 70
0
 71
3
 72
22
 73
18
 74
16
 42
0.0000001
 43
0.0000001
 44
0.0000000001
 12
-0.0559803406
 22
0.1123514717
 32
0.0
 13
-0.1122939495
 23
-0.0560956382
 33
0.0
 40
0.0
 40
0.0
 40
0.0
 40
0.0
 40
0.0539250032
 40
0.1093861868
 40
0.1665066341
 40
0.2253190808
 40
0.2858013596
 40
0.3479014203
 40
0.4114741948
 40
0.4762615464
 40
0.5419536484
 40
0.608219494
 40
0.6747337508
 40
0.7411938118
 40
0.8072857712
 40
0.8726804955
 40
1.0
 40
1.0
 40
1.0
 40
1.0
 10
5.819645935
 20
6.1035921657
 30
0.0
 10
5.8186396883
 20
6.1056116835
 30
0.0
 10
5.8163106019
 20
6.1095701597
 30
0.0
 10
5.8120354991
 20
6.1150917854
 30
0.0
 10
5.8069976499
 20
6.1202179508
 30
0.0
 10
5.8012615499
 20
6.1248864123
 30
0.0
 10
5.794890907
 20
6.1290374836
 30
0.0
 10
5.7879508203
 20
6.1326024311
 30
0.0
 10
5.7805328458
 20
6.135546287
 30
0.0
 10
5.7727358624
 20
6.1378497119
 30
0.0
 10
5.7646578289
 20
6.1394874562
 30
0.0
 10
5.7563974694
 20
6.1404360434
 30
0.0
 10
5.7480533491
 20
6.1406668337
 30
0.0
 10
5.7397288745
 20
6.1401692008
 30
0.0
 10
5.7315222622
 20
6.1389698784
 30
0.0
 10
5.7209740424
 20
6.1364877731
 30
0.0
 10
5.7133751711
 20
6.1336101654
 30
0.0
 10
5.7086094344
 20
6.1312294757
 30
0.0
 11
5.819645935
 21
6.1035921657
 31
0.0
 11
5.8162267952
 21
6.1094341127
 31
0.0
 11
5.8119765157
 21
6.1149478849
 31
0.0
 11
5.8069595364
 21
6.120070371
 31
0.0
 11
5.8012402974
 21
6.1247384594
 31
0.0
 11
5.7948832389
 21
6.1288890388
 31
0.0
 11
5.7879545883
 21
6.1324608772
 31
0.0
 11
5.7805413548
 21
6.1354145934
 31
0.0
 11
5.7727439542
 21
6.1377249027
 31
0.0
 11
5.7646630262
 21
6.1393667558
 31
0.0
 11
5.7563992104
 21
6.1403151032
 31
0.0
 11
5.7480531458
 21
6.140545186
 31
0.0
 11
5.7397254413
 21
6.1400496872
 31
0.0
 11
5.7315166595
 21
6.1388483239
 31
0.0
 11
5.7235273588
 21
6.136963139
 31
0.0
 11
5.7086094344
 21
6.1312294757
 31
0.0
  0
SPLINE
  5
3C5
100
AcDbEntity
  8
0
100
AcDbSpline
 62
9
  6
CONTINUOUS
 70
0
 71
3
 72
9
 73
5
 74
3
 42
0.0000001
 43
0.0000001
 44
0.0000000001
 12
0.0317148121
 22
0.0119386505
 32
0.0
 13
0.0338874549
 23
-0.0000329171
 33
0.0
 40
0.0
 40
0.0
 40
0.0
 40
0.0
 40
0.494765472
 40
1.0
 40
1.0
 40
1.0
 40
1.0
 10
5.6994650299
 20
6.1951677691
 30
0.0
 10
5.7046954946
 20
6.1971367132
 30
0.0
 10
5.7156759892
 20
6.2000805284
 30
0.0
 10
5.7269927831
 20
6.2010612518
 30
0.0
 10
5.7326998206
 20
6.2010557082
 30
0.0
 11
5.6994650299
 21
6.1951677691
 31
0.0
 11
5.7156433575
 21
6.1995691585
 31
0.0
 11
5.7326998206
 21
6.2010557082
 31
0.0
  0
SPLINE
  5
3C6
100
AcDbEntity
  8
0
100
AcDbSpline
 62
9
  6
CONTINUOUS
 70
0
 71
3
 72
9
 73
5
 74
3
 42
0.0000001
 43
0.0000001
 44
0.0000000001
 12
0.0332301599
 22
-0.0036780844
 32
0.0
 13
0.0295458362
 23
-0.0156465778
 33
0.0
 40
0.0
 40
0.0
 40
0.0
 40
0.0
 40
0.5085346634
 40
1.0
 40
1.0
 40
1.0
 40
1.0
 10
5.6547217684
 20
6.21339859
 30
0.0
 10
5.6603546645
 20
6.2127751122
 30
0.0
 10
5.6713501465
 20
6.2105782094
 30
0.0
 10
5.6817509236
 20
6.2063574252
 30
0.0
 10
5.686591175
 20
6.203794175
 30
0.0
 11
5.6547217684
 21
6.21339859
 31
0.0
 11
5.6713840368
 21
6.2100173188
 31
0.0
 11
5.686591175
 21
6.203794175
 31
0.0
  0
SPLINE
  5
3C7
100
AcDbEntity
  8
0
100
AcDbSpline
 62
9
  6
CONTINUOUS
 70
0
 71
3
 72
21
 73
17
 74
15
 42
0.0000001
 43
0.0000001
 44
0.0000000001
 12
-0.0862567513
 22
0.0933530634
 32
0.0
 13
-0.0975030494
 23
-0.0815363535
 33
0.0
 40
0.0
 40
0.0
 40
0.0
 40
0.0
 40
0.115232391
 40
0.1754533007
 40
0.2371786745
 40
0.3002247007
 40
0.3643949958
 40
0.4294381704
 40
0.4950267322
 40
0.5608021894
 40
0.6264019978
 40
0.6914857763
 40
0.755771212
 40
0.8190097959
 40
0.8809564167
 40
1.0
 40
1.0
 40
1.0
 40
1.0
 10
5.7086094344
 20
6.1312294757
 30
0.0
 10
5.7052962439
 20
6.1348152413
 30
0.0
 10
5.6995549681
 20
6.1396630045
 30
0.0
 10
5.6909777211
 20
6.1449137284
 30
0.0
 10
5.6839142648
 20
6.1483417456
 30
0.0
 10
5.6764054048
 20
6.1511483044
 30
0.0
 10
5.6685321015
 20
6.1532812273
 30
0.0
 10
5.6603951244
 20
6.1547225294
 30
0.0
 10
5.6520977487
 20
6.1554718079
 30
0.0
 10
5.6437432677
 20
6.1555230853
 30
0.0
 10
5.6354351202
 20
6.1548723932
 30
0.0
 10
5.6272766153
 20
6.1535104238
 30
0.0
 10
5.6193708507
 20
6.1514457494
 30
0.0
 10
5.6118059736
 20
6.1487226665
 30
0.0
 10
5.6024286237
 20
6.1443304244
 30
0.0
 10
5.5959581668
 20
6.140080682
 30
0.0
 10
5.5920891294
 20
6.1368452221
 30
0.0
 11
5.7086094344
 21
6.1312294757
 31
0.0
 11
5.6974944252
 21
6.1407673523
 31
0.0
 11
5.6909720916
 21
6.1447731338
 31
0.0
 11
5.6839170773
 21
6.1482050077
 31
0.0
 11
5.6764122868
 21
6.1510141216
 31
0.0
 11
5.6685417452
 21
6.1531537842
 31
0.0
 11
5.6604025129
 21
6.1546024273
 31
0.0
 11
5.6521000595
 21
6.1553546907
 31
0.0
 11
5.643739995
 21
6.1554054845
 31
0.0
 11
5.6354279291
 21
6.1547497189
 31
0.0
 11
5.627269377
 21
6.1533825853
 31
0.0
 11
5.6193641622
 21
6.1513161633
 31
0.0
 11
5.6118032868
 21
6.1485887085
 31
0.0
 11
5.6046769941
 21
6.1452407284
 31
0.0
 11
5.5920891294
 21
6.1368452221
 31
0.0
  0
SPLINE
  5
3C8
100
AcDbEntity
  8
0
100
AcDbSpline
 62
9
  6
CONTINUOUS
 70
0
 71
3
 72
9
 73
5
 74
3
 42
0.0000001
 43
0.0000001
 44
0.0000000001
 12
0.0273712936
 22
0.0179522107
 32
0.0
 13
0.0321242327
 23
0.0062851613
 33
0.0
 40
0.0
 40
0.0
 40
0.0
 40
0.0
 40
0.4895268706
 40
1.0
 40
1.0
 40
1.0
 40
1.0
 10
5.5951533725
 20
6.2001951144
 30
0.0
 10
5.5996197004
 20
6.2031244776
 30
0.0
 10
5.6094220943
 20
6.2081070974
 30
0.0
 10
5.6199663753
 20
6.2111600815
 30
0.0
 10
5.6254325612
 20
6.2122295502
 30
0.0
 11
5.5951533725
 21
6.2001951144
 31
0.0
 11
5.6093945541
 21
6.2075403189
 31
0.0
 11
5.6254325612
 21
6.2122295502
 31
0.0
  0
SPLINE
  5
3C9
100
AcDbEntity
  8
0
100
AcDbSpline
 62
9
  6
CONTINUOUS
 70
0
 71
3
 72
9
 73
5
 74
3
 42
0.0000001
 43
0.0000001
 44
0.0000000001
 12
0.0168771792
 22
0.0033020491
 32
0.0
 13
0.0171955667
 23
0.000234923
 33
0.0
 40
0.0
 40
0.0
 40
0.0
 40
0.0
 40
0.2487079679
 40
1.0
 40
1.0
 40
1.0
 40
1.0
 10
5.6254325612
 20
6.2122295502
 30
0.0
 10
5.6268317241
 20
6.2125032988
 30
0.0
 10
5.6324821362
 20
6.2134748217
 30
0.0
 10
5.638220284
 20
6.2139275104
 30
0.0
 10
5.6425265814
 20
6.2139863423
 30
0.0
 11
5.6254325612
 21
6.2122295502
 31
0.0
 11
5.6296477561
 21
6.2129544569
 31
0.0
 11
5.6425265814
 21
6.2139863423
 31
0.0
  0
SPLINE
  5
3CA
100
AcDbEntity
  8
0
100
AcDbSpline
 62
9
  6
CONTINUOUS
 70
0
 71
3
 72
21
 73
17
 74
15
 42
0.0000001
 43
0.0000001
 44
0.0000000001
 12
0.0975030494
 22
0.0815363535
 32
0.0
 13
0.0862567513
 23
-0.0933530634
 33
0.0
 40
0.0
 40
0.0
 40
0.0
 40
0.0
 40
0.1190435833
 40
0.1809902041
 40
0.244228788
 40
0.3085142237
 40
0.3735980022
 40
0.4391978106
 40
0.5049732678
 40
0.5705618296
 40
0.6356050042
 40
0.6997752993
 40
0.7628213255
 40
0.8245466993
 40
0.884767609
 40
1.0
 40
1.0
 40
1.0
 40
1.0
 10
5.5920891294
 20
4.0156461101
 30
0.0
 10
5.5959581668
 20
4.01888157
 30
0.0
 10
5.6024286237
 20
4.0231313124
 30
0.0
 10
5.6118059736
 20
4.0275235545
 30
0.0
 10
5.6193708507
 20
4.0302466375
 30
0.0
 10
5.6272766153
 20
4.0323113118
 30
0.0
 10
5.6354351202
 20
4.0336732812
 30
0.0
 10
5.6437432677
 20
4.0343239734
 30
0.0
 10
5.6520977487
 20
4.0342726959
 30
0.0
 10
5.6603951244
 20
4.0335234174
 30
0.0
 10
5.6685321015
 20
4.0320821153
 30
0.0
 10
5.6764054048
 20
4.0299491924
 30
0.0
 10
5.6839142648
 20
4.0271426336
 30
0.0
 10
5.6909777211
 20
4.0237146165
 30
0.0
 10
5.6995549681
 20
4.0184638925
 30
0.0
 10
5.7052962439
 20
4.0136161293
 30
0.0
 10
5.7086094344
 20
4.0100303638
 30
0.0
 11
5.5920891294
 21
4.0156461101
 31
0.0
 11
5.6046769941
 21
4.0240416164
 31
0.0
 11
5.6118032868
 21
4.0273895965
 31
0.0
 11
5.6193641622
 21
4.0301170513
 31
0.0
 11
5.627269377
 21
4.0321834733
 31
0.0
 11
5.6354279291
 21
4.0335506069
 31
0.0
 11
5.643739995
 21
4.0342063726
 31
0.0
 11
5.6521000595
 21
4.0341555787
 31
0.0
 11
5.6604025129
 21
4.0334033153
 31
0.0
 11
5.6685417452
 21
4.0319546723
 31
0.0
 11
5.6764122868
 21
4.0298150096
 31
0.0
 11
5.6839170773
 21
4.0270058957
 31
0.0
 11
5.6909720916
 21
4.0235740218
 31
0.0
 11
5.6974944252
 21
4.0195682403
 31
0.0
 11
5.7086094344
 21
4.0100303638
 31
0.0
  0
SPLINE
  5
3CB
100
AcDbEntity
  8
0
100
AcDbSpline
 62
7
  6
CONTINUOUS
 70
0
 71
3
 72
9
 73
5
 74
3
 42
0.0000001
 43
0.0000001
 44
0.0000000001
 12
0.0
 22
-0.0520065773
 32
0.0
 13
-0.0029807634
 23
-0.0519210856
 33
0.0
 40
0.0
 40
0.0
 40
0.0
 40
0.0
 40
0.4671395795
 40
1.0
 40
1.0
 40
1.0
 40
1.0
 10
5.7086094344
 20
4.0100303638
 30
0.0
 10
5.7086094344
 20
4.0019322536
 30
0.0
 10
5.7082848374
 20
3.9845963488
 30
0.0
 10
5.7074761589
 20
3.9672778369
 30
0.0
 10
5.7069467152
 20
3.9580556064
 30
0.0
 11
5.7086094344
 21
4.0100303638
 31
0.0
 11
5.7082005342
 21
3.9857394745
 31
0.0
 11
5.7069467152
 21
3.9580556064
 31
0.0
  0
SPLINE
  5
3CC
100
AcDbEntity
  8
0
100
AcDbSpline
 62
9
  6
CONTINUOUS
 70
0
 71
3
 72
21
 73
17
 74
15
 42
0.0000001
 43
0.0000001
 44
0.0000000001
 12
0.072349588
 22
0.1038357661
 32
0.0
 13
0.106116956
 23
-0.0689602847
 33
0.0
 40
0.0
 40
0.0
 40
0.0
 40
0.0
 40
0.1118856499
 40
0.1704774082
 40
0.2307120082
 40
0.2924800425
 40
0.3556505202
 40
0.4200174887
 40
0.4852805165
 40
0.5510984361
 40
0.617117735
 40
0.6829987473
 40
0.7484421221
 40
0.8131601653
 40
0.8768593564
 40
1.0
 40
1.0
 40
1.0
 40
1.0
 10
5.4774064191
 20
3.9988874347
 30
0.0
 10
5.4801047127
 20
4.0027600121
 30
0.0
 10
5.4850187137
 20
4.00813247
 30
0.0
 10
5.4926692681
 20
4.0141630121
 30
0.0
 10
5.4991204939
 20
4.0182434611
 30
0.0
 10
5.506114927
 20
4.021748841
 30
0.0
 10
5.513580027
 20
4.024619888
 30
0.0
 10
5.5214187175
 20
4.0268294871
 30
0.0
 10
5.5295292885
 20
4.0283677225
 30
0.0
 10
5.537810274
 20
4.0292187905
 30
0.0
 10
5.5461597743
 20
4.0293688486
 30
0.0
 10
5.5544760422
 20
4.0287988471
 30
0.0
 10
5.5626550874
 20
4.0275077787
 30
0.0
 10
5.5706029745
 20
4.0255313998
 30
0.0
 10
5.5806411084
 20
4.0220660337
 30
0.0
 10
5.5877333593
 20
4.0184767147
 30
0.0
 10
5.5920891294
 20
4.0156461101
 30
0.0
 11
5.4774064191
 21
3.9988874347
 31
0.0
 11
5.4868732824
 21
4.0094172635
 31
0.0
 11
5.492688796
 21
4.0140176729
 31
0.0
 11
5.4991266872
 21
4.0180998432
 31
0.0
 11
5.5061126986
 21
4.0216073475
 31
0.0
 11
5.5135711064
 21
4.0244857955
 31
0.0
 11
5.5214091446
 21
4.02670447
 31
0.0
 11
5.5295230522
 21
4.028247927
 31
0.0
 11
5.5378088847
 21
4.029100977
 31
0.0
 11
5.5461626979
 21
4.0292484306
 31
0.0
 11
5.5544805954
 21
4.0286753866
 31
0.0
 11
5.5626615644
 21
4.0273842451
 31
0.0
 11
5.5706090613
 21
4.025404223
 31
0.0
 11
5.5782269272
 21
4.022766844
 31
0.0
 11
5.5920891294
 21
4.0156461101
 31
0.0
  0
SPLINE
  5
3CD
100
AcDbEntity
  8
0
100
AcDbSpline
 62
9
  6
CONTINUOUS
 70
0
 71
3
 72
9
 73
5
 74
3
 42
0.0000001
 43
0.0000001
 44
0.0000000001
 12
0.0332462565
 22
-0.0031853114
 32
0.0
 13
0.0298182714
 23
-0.0150442836
 33
0.0
 40
0.0
 40
0.0
 40
0.0
 40
0.0
 40
0.5079745807
 40
1.0
 40
1.0
 40
1.0
 40
1.0
 10
5.5631461016
 20
6.2092273218
 30
0.0
 10
5.5687755193
 20
6.2086879694
 30
0.0
 10
5.5797856112
 20
6.2066507304
 30
0.0
 10
5.5902629233
 20
6.2026625044
 30
0.0
 10
5.5951533725
 20
6.2001951144
 30
0.0
 11
5.5631461016
 21
6.2092273218
 31
0.0
 11
5.5798237354
 21
6.206114809
 31
0.0
 11
5.5951533725
 21
6.2001951144
 31
0.0
  0
SPLINE
  5
3CE
100
AcDbEntity
  8
0
100
AcDbSpline
 62
7
  6
CONTINUOUS
 70
0
 71
3
 72
19
 73
15
 74
13
 42
0.0000001
 43
0.0000001
 44
0.0000000001
 12
-0.0282658801
 22
-0.0569243019
 32
0.0
 13
0.0
 23
-0.0635557718
 33
0.0
 40
0.0
 40
0.0
 40
0.0
 40
0.0
 40
0.0087456185
 40
0.0193318521
 40
0.0459963746
 40
0.0797667997
 40
0.120257848
 40
0.1670328678
 40
0.2196321418
 40
0.3404110293
 40
0.4796125528
 40
0.6363366756
 40
0.8099970288
 40
1.0
 40
1.0
 40
1.0
 40
1.0
 10
5.5951533725
 20
6.2001951144
 30
0.0
 10
5.5950709716
 20
6.2000291684
 30
0.0
 10
5.5949155697
 20
6.1996491617
 30
0.0
 10
5.5946238437
 20
6.1987188292
 30
0.0
 10
5.5943037678
 20
6.1972462129
 30
0.0
 10
5.5939730654
 20
6.1951334987
 30
0.0
 10
5.5936749481
 20
6.1925861148
 30
0.0
 10
5.5934071926
 20
6.1896349773
 30
0.0
 10
5.5930738872
 20
6.1849826785
 30
0.0
 10
5.5927414011
 20
6.1783683474
 30
0.0
 10
5.5924427875
 20
6.1695451849
 30
0.0
 10
5.5922346561
 20
6.1595988239
 30
0.0
 10
5.5921129761
 20
6.1485748267
 30
0.0
 10
5.5920891294
 20
6.1408704839
 30
0.0
 10
5.5920891294
 20
6.1368452221
 30
0.0
 11
5.5951533725
 21
6.2001951144
 31
0.0
 11
5.594937077
 21
6.1996830907
 31
0.0
 11
5.5947313405
 21
6.1990425018
 31
0.0
 11
5.594350264
 21
6.1973912188
 31
0.0
 11
5.594007582
 21
6.1952724465
 31
0.0
 11
5.5937007337
 21
6.1927173659
 31
0.0
 11
5.5934271582
 21
6.1897571582
 31
0.0
 11
5.5931842946
 21
6.1864230042
 31
0.0
 11
5.5927804715
 21
6.1787574382
 31
0.0
 11
5.5924732454
 21
6.169915714
 31
0.0
 11
5.5922577303
 21
6.1599573231
 31
0.0
 11
5.5921307503
 21
6.1489209358
 31
0.0
 11
5.5920891294
 21
6.1368452221
 31
0.0
  0
SPLINE
  5
3CF
100
AcDbEntity
  8
0
100
AcDbSpline
 62
9
  6
CONTINUOUS
 70
0
 71
3
 72
21
 73
17
 74
15
 42
0.0000001
 43
0.0000001
 44
0.0000000001
 12
-0.106116956
 22
0.0689602847
 32
0.0
 13
-0.072349588
 23
-0.1038357661
 33
0.0
 40
0.0
 40
0.0
 40
0.0
 40
0.0
 40
0.1231406436
 40
0.1868398347
 40
0.2515578779
 40
0.3170012527
 40
0.382882265
 40
0.4489015639
 40
0.5147194835
 40
0.5799825113
 40
0.6443494798
 40
0.7075199575
 40
0.7692879918
 40
0.8295225918
 40
0.8881143501
 40
1.0
 40
1.0
 40
1.0
 40
1.0
 10
5.5920891294
 20
6.1368452221
 30
0.0
 10
5.5877333593
 20
6.1396758267
 30
0.0
 10
5.5806411084
 20
6.1432651457
 30
0.0
 10
5.5706029745
 20
6.1467305118
 30
0.0
 10
5.5626550874
 20
6.1487068907
 30
0.0
 10
5.5544760422
 20
6.1499979591
 30
0.0
 10
5.5461597743
 20
6.1505679606
 30
0.0
 10
5.537810274
 20
6.1504179025
 30
0.0
 10
5.5295292885
 20
6.1495668344
 30
0.0
 10
5.5214187175
 20
6.148028599
 30
0.0
 10
5.513580027
 20
6.1458189999
 30
0.0
 10
5.506114927
 20
6.142947953
 30
0.0
 10
5.4991204939
 20
6.1394425731
 30
0.0
 10
5.4926692681
 20
6.1353621241
 30
0.0
 10
5.4850187137
 20
6.1293315819
 30
0.0
 10
5.4801047127
 20
6.1239591241
 30
0.0
 10
5.4774064191
 20
6.1200865467
 30
0.0
 11
5.5920891294
 21
6.1368452221
 31
0.0
 11
5.5782269272
 21
6.143965956
 31
0.0
 11
5.5706090613
 21
6.146603335
 31
0.0
 11
5.5626615644
 21
6.1485833571
 31
0.0
 11
5.5544805954
 21
6.1498744986
 31
0.0
 11
5.5461626979
 21
6.1504475426
 31
0.0
 11
5.5378088847
 21
6.150300089
 31
0.0
 11
5.5295230522
 21
6.149447039
 31
0.0
 11
5.5214091446
 21
6.147903582
 31
0.0
 11
5.5135711064
 21
6.1456849075
 31
0.0
 11
5.5061126986
 21
6.1428064595
 31
0.0
 11
5.4991266872
 21
6.1392989551
 31
0.0
 11
5.492688796
 21
6.1352167848
 31
0.0
 11
5.4868732824
 21
6.1306163754
 31
0.0
 11
5.4774064191
 21
6.1200865467
 31
0.0
  0
SPLINE
  5
3D0
100
AcDbEntity
  8
0
100
AcDbSpline
 62
9
  6
CONTINUOUS
 70
0
 71
3
 72
22
 73
18
 74
16
 42
0.0000001
 43
0.0000001
 44
0.0000000001
 12
-0.1162412258
 22
0.0432549954
 32
0.0
 13
-0.0375879586
 23
-0.1181954423
 33
0.0
 40
0.0
 40
0.0
 40
0.0
 40
0.0
 40
0.1314517095
 40
0.1984389757
 40
0.2657653584
 40
0.3330789415
 40
0.4000528767
 40
0.4663952954
 40
0.5318091046
 40
0.5959998916
 40
0.6587040907
 40
0.7197222029
 40
0.7789861982
 40
0.8365360664
 40
0.892448058
 40
0.9468589502
 40
1.0
 40
1.0
 40
1.0
 40
1.0
 10
5.4774064191
 20
6.1200865467
 30
0.0
 10
5.4723130498
 20
6.1219818611
 30
0.0
 10
5.4643289691
 20
6.1241079267
 30
0.0
 10
5.4534308248
 20
6.1255639528
 30
0.0
 10
5.445093769
 20
6.1259678032
 30
0.0
 10
5.4367539626
 20
6.12566441
 30
0.0
 10
5.4285123463
 20
6.1246363561
 30
0.0
 10
5.4204702539
 20
6.122903786
 30
0.0
 10
5.4127214742
 20
6.1205046063
 30
0.0
 10
5.4053599697
 20
6.1174714743
 30
0.0
 10
5.3984787032
 20
6.1138386489
 30
0.0
 10
5.3921722489
 20
6.1096342441
 30
0.0
 10
5.386526222
 20
6.1049014052
 30
0.0
 10
5.381594836
 20
6.0997148387
 30
0.0
 10
5.3774318223
 20
6.094139753
 30
0.0
 10
5.374091539
 20
6.0882442875
 30
0.0
 10
5.3724330613
 20
6.0841001354
 30
0.0
 10
5.3717672401
 20
6.0820064588
 30
0.0
 11
5.4774064191
 21
6.1200865467
 31
0.0
 11
5.4616680371
 21
6.1243427161
 31
0.0
 11
5.4534332976
 21
6.1254459764
 31
0.0
 11
5.4450926884
 21
6.1258497346
 31
0.0
 11
5.4367495813
 21
6.1255417765
 31
0.0
 11
5.428506972
 21
6.1245121954
 31
0.0
 11
5.4204634788
 21
6.1227779102
 31
0.0
 11
5.4127148964
 21
6.120373147
 31
0.0
 11
5.4053569725
 21
6.1173324203
 31
0.0
 11
5.3984854547
 21
6.1136902444
 31
0.0
 11
5.3921958304
 21
6.1094813455
 31
0.0
 11
5.3865679793
 21
6.1047531482
 31
0.0
 11
5.3816575884
 21
6.0995727602
 31
0.0
 11
5.3775182642
 21
6.0940089821
 31
0.0
 11
5.3742036127
 21
6.0881306148
 31
0.0
 11
5.3717672401
 21
6.0820064588
 31
0.0
  0
SPLINE
  5
3D1
100
AcDbEntity
  8
0
100
AcDbSpline
 62
9
  6
CONTINUOUS
 70
0
 71
3
 72
22
 73
18
 74
16
 42
0.0000001
 43
0.0000001
 44
0.0000000001
 12
0.0375879586
 22
0.1181954423
 32
0.0
 13
0.1162412258
 23
-0.0432549954
 33
0.0
 40
0.0
 40
0.0
 40
0.0
 40
0.0
 40
0.0531410498
 40
0.107551942
 40
0.1634639336
 40
0.2210138018
 40
0.2802777971
 40
0.3412959093
 40
0.4040001084
 40
0.4681908954
 40
0.5336047046
 40
0.5999471233
 40
0.6669210585
 40
0.7342346416
 40
0.8015610243
 40
0.8685482905
 40
1.0
 40
1.0
 40
1.0
 40
1.0
 10
5.3717672401
 20
3.9608073468
 30
0.0
 10
5.3724330613
 20
3.9629010235
 30
0.0
 10
5.374091539
 20
3.9670451756
 30
0.0
 10
5.3774318223
 20
3.972940641
 30
0.0
 10
5.381594836
 20
3.9785157267
 30
0.0
 10
5.386526222
 20
3.9837022932
 30
0.0
 10
5.3921722489
 20
3.9884351322
 30
0.0
 10
5.3984787032
 20
3.9926395369
 30
0.0
 10
5.4053599697
 20
3.9962723623
 30
0.0
 10
5.4127214742
 20
3.9993054943
 30
0.0
 10
5.4204702539
 20
4.001704674
 30
0.0
 10
5.4285123463
 20
4.0034372441
 30
0.0
 10
5.4367539626
 20
4.004465298
 30
0.0
 10
5.445093769
 20
4.0047686913
 30
0.0
 10
5.4534308248
 20
4.0043648408
 30
0.0
 10
5.4643289691
 20
4.0029088148
 30
0.0
 10
5.4723130498
 20
4.0007827491
 30
0.0
 10
5.4774064191
 20
3.9988874347
 30
0.0
 11
5.3717672401
 21
3.9608073468
 31
0.0
 11
5.3742036127
 21
3.9669315028
 31
0.0
 11
5.3775182642
 21
3.9728098702
 31
0.0
 11
5.3816575884
 21
3.9783736482
 31
0.0
 11
5.3865679793
 21
3.9835540362
 31
0.0
 11
5.3921958304
 21
3.9882822335
 31
0.0
 11
5.3984854547
 21
3.9924911324
 31
0.0
 11
5.4053569725
 21
3.9961333083
 31
0.0
 11
5.4127148964
 21
3.9991740351
 31
0.0
 11
5.4204634788
 21
4.0015787982
 31
0.0
 11
5.428506972
 21
4.0033130834
 31
0.0
 11
5.4367495813
 21
4.0043426645
 31
0.0
 11
5.4450926884
 21
4.0046506226
 31
0.0
 11
5.4534332976
 21
4.0042468644
 31
0.0
 11
5.4616680371
 21
4.0031436041
 31
0.0
 11
5.4774064191
 21
3.9988874347
 31
0.0
  0
SPLINE
  5
3D2
100
AcDbEntity
  8
0
100
AcDbSpline
 62
7
  6
CONTINUOUS
 70
0
 71
3
 72
9
 73
5
 74
3
 42
0.0000001
 43
0.0000001
 44
0.0000000001
 12
0.0
 22
-0.0512407772
 32
0.0
 13
0.0048242594
 23
-0.0510131725
 33
0.0
 40
0.0
 40
0.0
 40
0.0
 40
0.0
 40
0.4679767694
 40
1.0
 40
1.0
 40
1.0
 40
1.0
 10
5.4774064191
 20
3.9988874347
 30
0.0
 10
5.4774064191
 20
3.9908942703
 30
0.0
 10
5.4779280436
 20
3.9738129267
 30
0.0
 10
5.4792353705
 20
3.9567777353
 30
0.0
 10
5.4800909099
 20
3.9477310043
 30
0.0
 11
5.4774064191
 21
3.9988874347
 31
0.0
 11
5.478066706
 21
3.9749170337
 31
0.0
 11
5.4800909099
 21
3.9477310043
 31
0.0
  0
SPLINE
  5
3D3
100
AcDbEntity
  8
0
100
AcDbSpline
 62
7
  6
CONTINUOUS
 70
0
 71
3
 72
9
 73
5
 74
3
 42
0.0000001
 43
0.0000001
 44
0.0000000001
 12
0.0
 22
-0.0464860272
 32
0.0
 13
0.0072356196
 23
-0.045919457
 33
0.0
 40
0.0
 40
0.0
 40
0.0
 40
0.0
 40
0.4720607053
 40
1.0
 40
1.0
 40
1.0
 40
1.0
 10
5.3717672401
 20
3.9608073468
 30
0.0
 10
5.3717672401
 20
3.9534926046
 30
0.0
 10
5.3725232993
 20
3.9379937946
 30
0.0
 10
5.3744700907
 20
3.9226077545
 30
0.0
 10
5.3757434134
 20
3.9145268592
 30
0.0
 11
5.3717672401
 21
3.9608073468
 31
0.0
 11
5.3727463961
 21
3.938884976
 31
0.0
 11
5.3757434134
 21
3.9145268592
 31
0.0
  0
SPLINE
  5
3D4
100
AcDbEntity
  8
0
100
AcDbSpline
 62
9
  6
CONTINUOUS
 70
0
 71
3
 72
22
 73
18
 74
16
 42
0.0000001
 43
0.0000001
 44
0.0000000001
 12
-0.1179917756
 22
0.018403637
 32
0.0
 13
-0.0000433083
 23
-0.1194183867
 33
0.0
 40
0.0
 40
0.0
 40
0.0
 40
0.0
 40
0.1385774351
 40
0.208015525
 40
0.2770266827
 40
0.3452595559
 40
0.4124078846
 40
0.4782478838
 40
0.5425867226
 40
0.6052504991
 40
0.6661150395
 40
0.725143185
 40
0.7824522596
 40
0.8382870203
 40
0.8929263102
 40
0.9466975297
 40
1.0
 40
1.0
 40
1.0
 40
1.0
 10
5.3717672401
 20
6.0820064588
 30
0.0
 10
5.3663169076
 20
6.0828565684
 30
0.0
 10
5.3580015701
 20
6.0834087159
 30
0.0
 10
5.3469850205
 20
6.0827648323
 30
0.0
 10
5.3388303182
 20
6.0815963523
 30
0.0
 10
5.3308955029
 20
6.0797514201
 30
0.0
 10
5.3232802015
 20
6.0772313618
 30
0.0
 10
5.3160761032
 20
6.0740718386
 30
0.0
 10
5.3093614065
 20
6.0703268785
 30
0.0
 10
5.3032146782
 20
6.0660445775
 30
0.0
 10
5.2977135009
 20
6.0612741044
 30
0.0
 10
5.2929381688
 20
6.0560595473
 30
0.0
 10
5.2889613099
 20
6.0504554362
 30
0.0
 10
5.285812885
 20
6.0445440719
 30
0.0
 10
5.2835236206
 20
6.0383983405
 30
0.0
 10
5.2821239014
 20
6.0320945241
 30
0.0
 10
5.2818044855
 20
6.0278262409
 30
0.0
 10
5.281803716
 20
6.0257044759
 30
0.0
 11
5.3717672401
 21
6.0820064588
 31
0.0
 11
5.355256908
 21
6.0831326169
 31
0.0
 11
5.3469789021
 21
6.0826478953
 31
0.0
 11
5.3388216044
 21
6.081474908
 31
0.0
 11
5.3308869659
 21
6.079621356
 31
0.0
 11
5.3232760184
 21
6.0770967253
 31
0.0
 11
5.3160775355
 21
6.0739343117
 31
0.0
 11
5.3093715637
 21
6.0701843607
 31
0.0
 11
5.3032379625
 21
6.0658974817
 31
0.0
 11
5.2977565913
 21
6.0611242837
 31
0.0
 11
5.293007162
 21
6.0559154474
 31
0.0
 11
5.2890530434
 21
6.0503295754
 31
0.0
 11
5.2859266609
 21
6.0444402697
 31
0.0
 11
5.2836569932
 21
6.0383228027
 31
0.0
 11
5.2822730186
 21
6.0320524473
 31
0.0
 11
5.281803716
 21
6.0257044759
 31
0.0
  0
SPLINE
  5
3D5
100
AcDbEntity
  8
0
100
AcDbSpline
 62
9
  6
CONTINUOUS
 70
0
 71
3
 72
19
 73
15
 74
13
 42
0.0000001
 43
0.0000001
 44
0.0000000001
 12
-0.100498434
 22
-0.0038883083
 32
0.0
 13
-0.0001147397
 23
-0.1005735602
 33
0.0
 40
0.0
 40
0.0
 40
0.0
 40
0.0
 40
0.1408386378
 40
0.2791257081
 40
0.3467739725
 40
0.4131195879
 40
0.5412836256
 40
0.6633492756
 40
0.722193029
 40
0.7796319159
 40
0.8358362792
 40
0.8910855908
 40
0.9457015299
 40
1.0
 40
1.0
 40
1.0
 40
1.0
 10
5.2818092906
 20
6.0249976704
 30
0.0
 10
5.2770912697
 20
6.024815129
 30
0.0
 10
5.2677546332
 20
6.023757137
 30
0.0
 10
5.2564740732
 20
6.0207642835
 30
0.0
 10
5.2479742463
 20
6.0174120455
 30
0.0
 10
5.2400782793
 20
6.0135332543
 30
0.0
 10
5.2311827939
 20
6.0076383707
 30
0.0
 10
5.2236902432
 20
6.00038028
 30
0.0
 10
5.2188588201
 20
5.9939997829
 30
0.0
 10
5.2158758322
 20
5.9890317199
 30
0.0
 10
5.2135338627
 20
5.9838622722
 30
0.0
 10
5.211857587
 20
5.9785387971
 30
0.0
 10
5.2108469401
 20
5.9731158336
 30
0.0
 10
5.2106188763
 20
5.9694608891
 30
0.0
 10
5.2106167996
 20
5.967640559
 30
0.0
 11
5.2818092906
 21
6.0249976704
 31
0.0
 11
5.2677346317
 21
6.0234035076
 31
0.0
 11
5.2542981081
 21
6.0198127987
 31
0.0
 11
5.2479710811
 21
6.0173111738
 31
0.0
 11
5.2419859088
 21
6.0143613335
 31
0.0
 11
5.2312646318
 21
6.0072056151
 31
0.0
 11
5.2224847229
 21
5.9986249543
 31
0.0
 11
5.2189189735
 21
5.9939016409
 31
0.0
 11
5.2159539836
 21
5.98894375
 31
0.0
 11
5.2136275521
 21
5.9837920057
 31
0.0
 11
5.2119605924
 21
5.978491316
 31
0.0
 11
5.2109562439
 21
5.9730909932
 31
0.0
 11
5.2106167996
 21
5.967640559
 31
0.0
  0
SPLINE
  5
3D6
100
AcDbEntity
  8
0
100
AcDbSpline
 62
9
  6
CONTINUOUS
 70
0
 71
3
 72
17
 73
13
 74
11
 42
0.0000001
 43
0.0000001
 44
0.0000000001
 12
-0.076261431
 22
-0.020742782
 32
0.0
 13
0.0000599762
 23
-0.0790320521
 33
0.0
 40
0.0
 40
0.0
 40
0.0
 40
0.0
 40
0.1406635013
 40
0.2773335421
 40
0.409185956
 40
0.4731793497
 40
0.5358353402
 40
0.6572955171
 40
0.7743790128
 40
0.8880747807
 40
0.9441586786
 40
1.0
 40
1.0
 40
1.0
 40
1.0
 10
5.2104490145
 20
5.9519441744
 30
0.0
 10
5.2068732812
 20
5.9509715903
 30
0.0
 10
5.1999335275
 20
5.9486140237
 30
0.0
 10
5.1902274115
 20
5.9438596914
 30
0.0
 10
5.18292759
 20
5.9389579369
 30
0.0
 10
5.1777354239
 20
5.9345415141
 30
0.0
 10
5.1731071935
 20
5.9299179453
 30
0.0
 10
5.1681956823
 20
5.9236337889
 30
0.0
 10
5.1638092912
 20
5.9154028927
 30
0.0
 10
5.161535519
 20
5.9081413555
 30
0.0
 10
5.1606285006
 20
5.9022587042
 30
0.0
 10
5.1604808615
 20
5.89930749
 30
0.0
 10
5.1604819779
 20
5.8978364053
 30
0.0
 11
5.2104490145
 21
5.9519441744
 31
0.0
 11
5.1999265306
 21
5.9483576119
 31
0.0
 11
5.1902360662
 21
5.943586517
 31
0.0
 11
5.1816036539
 21
5.9377495886
 31
0.0
 11
5.1777548525
 21
5.9344685301
 31
0.0
 11
5.1742541792
 21
5.9309662544
 31
0.0
 11
5.1683626391
 21
5.9233876429
 31
0.0
 11
5.1640359856
 21
5.9152081206
 31
0.0
 11
5.161376282
 21
5.9066251603
 31
0.0
 11
5.1607034312
 21
5.9022441011
 31
0.0
 11
5.1604819779
 21
5.8978364053
 31
0.0
  0
SPLINE
  5
3D7
100
AcDbEntity
  8
0
100
AcDbSpline
 62
9
  6
CONTINUOUS
 70
0
 71
3
 72
14
 73
10
 74
8
 42
0.0000001
 43
0.0000001
 44
0.0000000001
 12
-0.0426162465
 22
-0.0291951216
 32
0.0
 13
-0.0001242101
 23
-0.0516573728
 33
0.0
 40
0.0
 40
0.0
 40
0.0
 40
0.0
 40
0.2685056205
 40
0.3973564716
 40
0.5226593023
 40
0.6448588781
 40
0.76465365
 40
0.8827787194
 40
1.0
 40
1.0
 40
1.0
 40
1.0
 10
5.1597085446
 20
5.8634750662
 30
0.0
 10
5.1558943107
 20
5.8608620481
 30
0.0
 10
5.1505908796
 20
5.8564371552
 30
0.0
 10
5.1447125389
 20
5.8496031693
 30
0.0
 10
5.1410790703
 20
5.8442165232
 30
0.0
 10
5.1382261359
 20
5.8385526847
 30
0.0
 10
5.1361687477
 20
5.8326840194
 30
0.0
 10
5.1349188075
 20
5.8266803353
 30
0.0
 10
5.134631336
 20
5.8226233413
 30
0.0
 10
5.1346264826
 20
5.8206048935
 30
0.0
 11
5.1597085446
 21
5.8634750662
 31
0.0
 11
5.1491079195
 21
5.8545300708
 31
0.0
 11
5.1447766689
 21
5.8494759493
 31
0.0
 11
5.141168818
 21
5.8441018458
 31
0.0
 11
5.1383342216
 21
5.8384615387
 31
0.0
 11
5.1362915163
 21
5.8326200984
 31
0.0
 11
5.135051878
 21
5.8266452937
 31
0.0
 11
5.1346264826
 21
5.8206048935
 31
0.0
  0
SPLINE
  5
3D8
100
AcDbEntity
  8
0
100
AcDbSpline
 62
7
  6
CONTINUOUS
 70
0
 71
3
 72
16
 73
12
 74
10
 42
0.0000001
 43
0.0000001
 44
0.0000000001
 12
0.2183824857
 22
0.2175851488
 32
0.0
 13
0.3082045575
 23
0.0066451337
 33
0.0
 40
0.0
 40
0.0
 40
0.0
 40
0.0
 40
0.1152055282
 40
0.2338558214
 40
0.3557458095
 40
0.4805745607
 40
0.6079573941
 40
0.7373771413
 40
0.8026794095
 40
0.8682691245
 40
1.0
 40
1.0
 40
1.0
 40
1.0
 10
5.3302871848
 20
6.2063163881
 30
0.0
 10
5.3386734747
 20
6.2146720588
 30
0.0
 10
5.3567136923
 20
6.2306384744
 30
0.0
 10
5.3865963389
 20
6.2518036339
 30
0.0
 10
5.4193327509
 20
6.2703132954
 30
0.0
 10
5.4545102817
 20
6.2859564351
 30
0.0
 10
5.4917093146
 20
6.2985365684
 30
0.0
 10
5.5239292202
 20
6.3063152182
 30
0.0
 10
5.5502946697
 20
6.31087518
 30
0.0
 10
5.5770683087
 20
6.3143095789
 30
0.0
 10
5.5973358672
 20
6.3155954472
 30
0.0
 10
5.6108692193
 20
6.315887237
 30
0.0
 11
5.3302871848
 21
6.2063163881
 31
0.0
 11
5.3568371479
 21
6.229905014
 31
0.0
 11
5.3866518465
 21
6.2510938097
 31
0.0
 11
5.4193364434
 21
6.2696317819
 31
0.0
 11
5.4544827528
 21
6.2853027928
 31
0.0
 11
5.4916722419
 21
6.2979124579
 31
0.0
 11
5.5304507858
 21
6.3072931415
 31
0.0
 11
5.5502871548
 21
6.3107254918
 31
0.0
 11
5.5703421261
 21
6.3133015945
 31
0.0
 11
5.6108692193
 21
6.315887237
 31
0.0
  0
SPLINE
  5
3D9
100
AcDbEntity
  8
0
100
AcDbSpline
 62
7
  6
CONTINUOUS
 70
0
 71
3
 72
9
 73
5
 74
3
 42
0.0000001
 43
0.0000001
 44
0.0000000001
 12
0.081900423
 22
-0.0007688507
 32
0.0
 13
0.0805435318
 23
-0.0148664018
 33
0.0
 40
0.0
 40
0.0
 40
0.0
 40
0.0
 40
0.5017885541
 40
1.0
 40
1.0
 40
1.0
 40
1.0
 10
5.625896155
 20
6.3159785694
 30
0.0
 10
5.6395950533
 20
6.3158499692
 30
0.0
 10
5.6668966469
 20
6.3144422988
 30
0.0
 10
5.6939804541
 20
6.3106998778
 30
0.0
 10
5.7073563572
 20
6.3082310073
 30
0.0
 11
5.625896155
 21
6.3159785694
 31
0.0
 11
5.6669394708
 21
6.3138493925
 31
0.0
 11
5.7073563572
 21
6.3082310073
 31
0.0
  0
SPLINE
  5
3DA
100
AcDbEntity
  8
0
100
AcDbSpline
 62
7
  6
CONTINUOUS
 70
0
 71
3
 72
15
 73
11
 74
9
 42
0.0000001
 43
0.0000001
 44
0.0000000001
 12
0.2164814837
 22
0.2044282845
 32
0.0
 13
0.2976720385
 23
0.0068201032
 33
0.0
 40
0.0
 40
0.0
 40
0.0
 40
0.0
 40
0.1156746365
 40
0.2346167583
 40
0.3566584923
 40
0.4815193686
 40
0.6087937482
 40
0.7380073555
 40
0.8686067769
 40
1.0
 40
1.0
 40
1.0
 40
1.0
 10
5.3379098296
 20
6.2108371511
 30
0.0
 10
5.3462569686
 20
6.2187195403
 30
0.0
 10
5.3640917367
 20
6.2337727187
 30
0.0
 10
5.3933990715
 20
6.253724822
 30
0.0
 10
5.4253151985
 20
6.2711569026
 30
0.0
 10
5.4594732708
 20
6.2858602943
 30
0.0
 10
5.4954776128
 20
6.2976885543
 30
0.0
 10
5.5329239577
 20
6.3064842253
 30
0.0
 10
5.5713751725
 20
6.3121744399
 30
0.0
 10
5.5973598784
 20
6.3138362234
 30
0.0
 10
5.6103972413
 20
6.3141349285
 30
0.0
 11
5.3379098296
 21
6.2108371511
 31
0.0
 11
5.3641944062
 21
6.2330943326
 31
0.0
 11
5.3934418671
 21
6.2530645797
 31
0.0
 11
5.4253135103
 21
6.2705186523
 31
0.0
 11
5.459446148
 21
6.285253579
 31
0.0
 11
5.4954413997
 21
6.2971045765
 31
0.0
 11
5.5328895102
 21
6.3059272386
 31
0.0
 11
5.5713552342
 21
6.3116288995
 31
0.0
 11
5.6103972413
 21
6.3141349285
 31
0.0
  0
SPLINE
  5
3DB
100
AcDbEntity
  8
0
100
AcDbSpline
 62
7
  6
CONTINUOUS
 70
0
 71
3
 72
18
 73
14
 74
12
 42
0.0000001
 43
0.0000001
 44
0.0000000001
 12
0.323826909
 22
0.0074193497
 32
0.0
 13
0.2323968967
 23
-0.2256337655
 33
0.0
 40
0.0
 40
0.0
 40
0.0
 40
0.0
 40
0.1312687438
 40
0.2619897926
 40
0.391455728
 40
0.5189944842
 40
0.5818745755
 40
0.6440621972
 40
0.7054978461
 40
0.7661320061
 40
0.8259287772
 40
0.8848592059
 40
1.0
 40
1.0
 40
1.0
 40
1.0
 10
5.6103972413
 20
6.3141349285
 30
0.0
 10
5.6245666918
 20
6.3144595714
 30
0.0
 10
5.6528917147
 20
6.3138511944
 30
0.0
 10
5.6949511648
 20
6.3091580971
 30
0.0
 10
5.7360232166
 20
6.3007667538
 30
0.0
 10
5.7691280231
 20
6.2907232854
 30
0.0
 10
5.7945930662
 20
6.2809303696
 30
0.0
 10
5.8130189968
 20
6.2727863744
 30
0.0
 10
5.8307950857
 20
6.2638341341
 30
0.0
 10
5.8478589163
 20
6.2541000976
 30
0.0
 10
5.8641566234
 20
6.2436206479
 30
0.0
 10
5.8846276157
 20
6.2288242953
 30
0.0
 10
5.8989267066
 20
6.2165412633
 30
0.0
 10
5.907846161
 20
6.2078813797
 30
0.0
 11
5.6103972413
 21
6.3141349285
 31
0.0
 11
5.6529067769
 21
6.3132141289
 31
0.0
 11
5.6949866503
 21
6.3085090392
 31
0.0
 11
5.7360681725
 21
6.300088861
 31
0.0
 11
5.7755905467
 21
6.2880635925
 31
0.0
 11
5.794599254
 21
6.2807486382
 31
0.0
 11
5.8130206324
 21
6.272599665
 31
0.0
 11
5.8307905304
 21
6.2636425299
 31
0.0
 11
5.8478470957
 21
6.2539055843
 31
0.0
 11
5.8641349667
 21
6.2434242211
 31
0.0
 11
5.879599919
 21
6.2322350668
 31
0.0
 11
5.907846161
 21
6.2078813797
 31
0.0
  0
SPLINE
  5
3DC
100
AcDbEntity
  8
0
100
AcDbSpline
 62
9
  6
CONTINUOUS
 70
0
 71
3
 72
11
 73
7
 74
5
 42
0.0000001
 43
0.0000001
 44
0.0000000001
 12
0.011419833
 22
0.1338917345
 32
0.0
 13
0.0690076607
 23
0.1153054722
 33
0.0
 40
0.0
 40
0.0
 40
0.0
 40
0.0
 40
0.245018413
 40
0.4927367391
 40
0.7440612547
 40
1.0
 40
1.0
 40
1.0
 40
1.0
 10
5.1523345099
 20
6.0292052266
 30
0.0
 10
5.1532671997
 20
6.04014054
 30
0.0
 10
5.1564650239
 20
6.0620397498
 30
0.0
 10
5.1651058229
 20
6.0943024244
 30
0.0
 10
5.1775549985
 20
6.125820341
 30
0.0
 10
5.1882113619
 20
6.1459469943
 30
0.0
 10
5.1940986066
 20
6.1557840403
 30
0.0
 11
5.1523345099
 21
6.0292052266
 31
0.0
 11
5.1570716891
 21
6.0617877072
 31
0.0
 11
5.1656635609
 21
6.0939476397
 31
0.0
 11
5.1780415133
 21
6.1253699997
 31
0.0
 11
5.1940986066
 21
6.1557840403
 31
0.0
  0
SPLINE
  5
3DD
100
AcDbEntity
  8
0
100
AcDbSpline
 62
9
  6
CONTINUOUS
 70
0
 71
3
 72
30
 73
26
 74
24
 42
0.0000001
 43
0.0000001
 44
0.0000000001
 12
0.544842649
 22
0.7060924344
 32
0.0
 13
0.5851783937
 23
-0.6730425586
 33
0.0
 40
0.0
 40
0.0
 40
0.0
 40
0.0
 40
0.0563219072
 40
0.1145889616
 40
0.1747966293
 40
0.2368269683
 40
0.3004570625
 40
0.3327916783
 40
0.3654071132
 40
0.3982556873
 40
0.4312881681
 40
0.4644523554
 40
0.4976940755
 40
0.5641730539
 40
0.6303098827
 40
0.6956834898
 40
0.7279726725
 40
0.7599297771
 40
0.7915162771
 40
0.8226974677
 40
0.8534423397
 40
0.8837271465
 40
0.9135357681
 40
0.9428570229
 40
1.0
 40
1.0
 40
1.0
 40
1.0
 10
5.2167101907
 20
6.1889058882
 30
0.0
 10
5.2269390497
 20
6.2021620457
 30
0.0
 10
5.2496826863
 20
6.2276887389
 30
0.0
 10
5.2891009304
 20
6.2617469666
 30
0.0
 10
5.333763452
 20
6.2917219406
 30
0.0
 10
5.3829561571
 20
6.3171296189
 30
0.0
 10
5.4268520197
 20
6.3341061035
 30
0.0
 10
5.4634737866
 20
6.3451072642
 30
0.0
 10
5.4917185483
 20
6.3520570433
 30
0.0
 10
5.5204771984
 20
6.3576302035
 30
0.0
 10
5.5496374876
 20
6.361798377
 30
0.0
 10
5.5790830038
 20
6.3645515203
 30
0.0
 10
5.6185608719
 20
6.3663239681
 30
0.0
 10
5.6679336124
 20
6.3649523667
 30
0.0
 10
5.7264262871
 20
6.3576372123
 30
0.0
 10
5.7740020239
 20
6.3468410571
 30
0.0
 10
5.8108357027
 20
6.3354715698
 30
0.0
 10
5.8375977775
 20
6.3256611161
 30
0.0
 10
5.863499671
 20
6.3145770897
 30
0.0
 10
5.8884412858
 20
6.3022668934
 30
0.0
 10
5.912321194
 20
6.28877449
 30
0.0
 10
5.9350421081
 20
6.2741513374
 30
0.0
 10
5.9565198314
 20
6.2584589061
 30
0.0
 10
5.98314368
 20
6.2363923354
 30
0.0
 10
6.0013675409
 20
6.2181274528
 30
0.0
 10
6.0125138194
 20
6.2053075676
 30
0.0
 11
5.2167101907
 21
6.1889058882
 31
0.0
 11
5.250044855
 21
6.2264824444
 31
0.0
 11
5.289291499
 21
6.2605440276
 31
0.0
 11
5.3338235327
 21
6.2905484669
 31
0.0
 11
5.3829359066
 21
6.3160153569
 31
0.0
 11
5.4358416054
 21
6.3365452093
 31
0.0
 11
5.4634580115
 21
6.3448498792
 31
0.0
 11
5.4917027455
 21
6.3518051842
 31
0.0
 11
5.5204634233
 21
6.35738233
 31
0.0
 11
5.5496268051
 21
6.3615555297
 31
0.0
 11
5.5790760281
 21
6.3643117199
 31
0.0
 11
5.6086932718
 21
6.3656412028
 31
0.0
 11
5.667960539
 21
6.3639938544
 31
0.0
 11
5.7264860486
 21
6.3566456764
 31
0.0
 11
5.7833364369
 21
6.3437063283
 31
0.0
 11
5.8108504074
 21
6.335204596
 31
0.0
 11
5.8376078246
 21
6.3253878482
 31
0.0
 11
5.8635036169
 21
6.3142971282
 31
0.0
 11
5.8884360015
 21
6.3019789884
 31
0.0
 11
5.9123033306
 21
6.2884801317
 31
0.0
 11
5.9350097913
 21
6.2738530453
 31
0.0
 11
5.9564682008
 21
6.2581587706
 31
0.0
 11
5.9765920722
 21
6.2414590393
 31
0.0
 11
6.0125138194
 21
6.2053075676
 31
0.0
  0
SPLINE
  5
3DE
100
AcDbEntity
  8
0
100
AcDbSpline
 62
9
  6
CONTINUOUS
 70
0
 71
3
 72
11
 73
7
 74
5
 42
0.0000001
 43
0.0000001
 44
0.0000000001
 12
0.0876161261
 22
-0.1278008069
 32
0.0
 13
0.0131681506
 23
-0.1543898689
 33
0.0
 40
0.0
 40
0.0
 40
0.0
 40
0.0
 40
0.2573605089
 40
0.5089492336
 40
0.7560925705
 40
1.0
 40
1.0
 40
1.0
 40
1.0
 10
6.0374459228
 20
6.1731273584
 30
0.0
 10
6.044962233
 20
6.1621637315
 30
0.0
 10
6.058571362
 20
6.1395851042
 30
0.0
 10
6.0744608098
 20
6.1037981491
 30
0.0
 10
6.0853632003
 20
6.0669109273
 30
0.0
 10
6.0892639067
 20
6.0417575053
 30
0.0
 10
6.0903345099
 20
6.0292052266
 30
0.0
 11
6.0374459228
 21
6.1731273584
 31
0.0
 11
6.0579807209
 21
6.1389427657
 31
0.0
 11
6.0737502685
 21
6.1032908891
 31
0.0
 11
6.0845727163
 21
6.0665569971
 31
0.0
 11
6.0903345099
 21
6.0292052266
 31
0.0
  0
SPLINE
  5
3DF
100
AcDbEntity
  8
0
100
AcDbSpline
 62
9
  6
CONTINUOUS
 70
0
 71
3
 72
15
 73
11
 74
9
 42
0.0000001
 43
0.0000001
 44
0.0000000001
 12
-0.1953231595
 22
0.2389525213
 32
0.0
 13
-0.3040116399
 23
0.0531635859
 33
0.0
 40
0.0
 40
0.0
 40
0.0
 40
0.0
 40
0.1150217861
 40
0.2331308069
 40
0.3543383267
 40
0.4785463656
 40
0.6055526123
 40
0.735054377
 40
0.8666843266
 40
1.0
 40
1.0
 40
1.0
 40
1.0
 10
5.9814759045
 20
6.1784857936
 30
0.0
 10
5.9739870982
 20
6.1876473755
 30
0.0
 10
5.9577928742
 20
6.2054080819
 30
0.0
 10
5.9305754622
 20
6.2297412396
 30
0.0
 10
5.9003875873
 20
6.2519097154
 30
0.0
 10
5.8675163891
 20
6.2716903478
 30
0.0
 10
5.8322815953
 20
6.2889013549
 30
0.0
 10
5.7950221035
 20
6.3033842964
 30
0.0
 10
5.7560954085
 20
6.3149889227
 30
0.0
 10
5.7294148966
 20
6.3207172304
 30
0.0
 10
5.7159050577
 20
6.3230797435
 30
0.0
 11
5.9814759045
 21
6.1784857936
 31
0.0
 11
5.9575903423
 21
6.2047466226
 31
0.0
 11
5.9304503031
 21
6.229080207
 31
0.0
 11
5.900324203
 21
6.2512557049
 31
0.0
 11
5.8675001927
 21
6.2710561642
 31
0.0
 11
5.8322958032
 21
6.288292184
 31
0.0
 11
5.7950535639
 21
6.3027979116
 31
0.0
 11
5.7561299817
 21
6.3144292861
 31
0.0
 11
5.7159050577
 21
6.3230797435
 31
0.0
  0
SPLINE
  5
3E0
100
AcDbEntity
  8
0
100
AcDbSpline
 62
9
  6
CONTINUOUS
 70
0
 71
3
 72
14
 73
10
 74
8
 42
0.0000001
 43
0.0000001
 44
0.0000000001
 12
-0.3401815165
 22
-0.0072173788
 32
0.0
 13
-0.2520826258
 23
-0.228538628
 33
0.0
 40
0.0
 40
0.0
 40
0.0
 40
0.0
 40
0.2613443749
 40
0.3904258903
 40
0.5176587042
 40
0.6425696451
 40
0.764774945
 40
0.8839742416
 40
1.0
 40
1.0
 40
1.0
 40
1.0
 10
5.6096023125
 20
6.3311189131
 30
0.0
 10
5.5799674705
 20
6.3304901727
 30
0.0
 10
5.5356534169
 20
6.326002749
 30
0.0
 10
5.4783733975
 20
6.3128998968
 30
0.0
 10
5.437128019
 20
6.2997349624
 30
0.0
 10
5.3979132047
 20
6.2833166492
 30
0.0
 10
5.3611426387
 20
6.2638441674
 30
0.0
 10
5.3272374071
 20
6.2415098161
 30
0.0
 10
5.3064933574
 20
6.2246437369
 30
0.0
 10
5.2967439981
 20
6.2158049477
 30
0.0
 11
5.6096023125
 21
6.3311189131
 31
0.0
 11
5.5211398716
 21
6.3220652345
 31
0.0
 11
5.4783287812
 21
6.3122536504
 31
0.0
 11
5.437097471
 21
6.2990560895
 31
0.0
 11
5.3979060225
 21
6.2826108285
 31
0.0
 11
5.3611824584
 21
6.2631072995
 31
0.0
 11
5.3273392752
 21
6.240754834
 31
0.0
 11
5.2967439981
 21
6.2158049477
 31
0.0
  0
SPLINE
  5
3E1
100
AcDbEntity
  8
0
100
AcDbSpline
 62
9
  6
CONTINUOUS
 70
0
 71
3
 72
9
 73
5
 74
3
 42
0.0000001
 43
0.0000001
 44
0.0000000001
 12
-0.0423969333
 22
-0.0407417632
 32
0.0
 13
-0.0346476329
 23
-0.0475071863
 33
0.0
 40
0.0
 40
0.0
 40
0.0
 40
0.0
 40
0.5054583262
 40
1.0
 40
1.0
 40
1.0
 40
1.0
 10
5.2890705835
 20
6.2086433837
 30
0.0
 10
5.2819272892
 20
6.2017789626
 30
0.0
 10
5.2683536289
 20
6.1876030627
 30
0.0
 10
5.256068156
 20
6.172293359
 30
0.0
 10
5.2503565899
 20
6.1644619312
 30
0.0
 11
5.2890705835
 21
6.2086433837
 31
0.0
 11
5.2685345665
 21
6.1871586359
 31
0.0
 11
5.2503565899
 21
6.1644619312
 31
0.0
  0
SPLINE
  5
3E2
100
AcDbEntity
  8
0
100
AcDbSpline
 62
9
  6
CONTINUOUS
 70
0
 71
3
 72
9
 73
5
 74
3
 42
0.0000001
 43
0.0000001
 44
0.0000000001
 12
-0.0209783195
 22
-0.0365029561
 32
0.0
 13
-0.0153071085
 23
-0.0392205064
 33
0.0
 40
0.0
 40
0.0
 40
0.0
 40
0.0
 40
0.2525672926
 40
1.0
 40
1.0
 40
1.0
 40
1.0
 10
5.2324298668
 20
6.1368921497
 30
0.0
 10
5.230663721
 20
6.1338189988
 30
0.0
 10
5.2238921524
 20
6.121525858
 30
0.0
 10
5.2180228617
 20
6.1087332855
 30
0.0
 10
5.2142091838
 20
6.0989617224
 30
0.0
 11
5.2324298668
 21
6.1368921497
 31
0.0
 11
5.2273007241
 21
6.1275774494
 31
0.0
 11
5.2142091838
 21
6.0989617224
 31
0.0
  0
SPLINE
  5
3E3
100
AcDbEntity
  8
0
100
AcDbSpline
 62
9
  6
CONTINUOUS
 70
0
 71
3
 72
16
 73
12
 74
10
 42
0.0000001
 43
0.0000001
 44
0.0000000001
 12
-0.1817095513
 22
0.2648242901
 32
0.0
 13
-0.3166537877
 23
0.0536716355
 33
0.0
 40
0.0
 40
0.0
 40
0.0
 40
0.0
 40
0.1138142515
 40
0.2309828096
 40
0.3516030434
 40
0.4756266383
 40
0.6028682613
 40
0.6676164117
 40
0.733028668
 40
0.86555964
 40
1.0
 40
1.0
 40
1.0
 40
1.0
 10
5.9786841995
 20
6.1552686722
 30
0.0
 10
5.9717904874
 20
6.1653155983
 30
0.0
 10
5.9565158641
 20
6.1848517998
 30
0.0
 10
5.9299864996
 20
6.2116612466
 30
0.0
 10
5.899842287
 20
6.2361043183
 30
0.0
 10
5.8664368463
 20
6.2578844618
 30
0.0
 10
5.8363763381
 20
6.2735273598
 30
0.0
 10
5.8110965981
 20
6.2845156103
 30
0.0
 10
5.7848123761
 20
6.2945423125
 30
0.0
 10
5.7507385775
 20
6.304965031
 30
0.0
 10
5.7227463533
 20
6.3109324083
 30
0.0
 10
5.7085560035
 20
6.3133376196
 30
0.0
 11
5.9786841995
 21
6.1552686722
 31
0.0
 11
5.9562147966
 21
6.1841009781
 31
0.0
 11
5.9297930404
 21
6.2108962432
 31
0.0
 11
5.899738516
 21
6.2353397211
 31
0.0
 11
5.8664016473
 21
6.2571409898
 31
0.0
 11
5.8301713774
 21
6.2760464061
 31
0.0
 11
5.8111023531
 21
6.2843416784
 31
0.0
 11
5.7914750113
 21
6.2918332083
 31
0.0
 11
5.7507805233
 21
6.3043126799
 31
0.0
 11
5.7085560035
 21
6.3133376196
 31
0.0
  0
SPLINE
  5
3E4
100
AcDbEntity
  8
0
100
AcDbSpline
 62
9
  6
CONTINUOUS
 70
0
 71
3
 72
14
 73
10
 74
8
 42
0.0000001
 43
0.0000001
 44
0.0000000001
 12
-0.0001680605
 22
0.0661752224
 32
0.0
 13
-0.0606083052
 23
0.0265673042
 33
0.0
 40
0.0
 40
0.0
 40
0.0
 40
0.0
 40
0.114226297
 40
0.229892547
 40
0.3480971212
 40
0.4697554127
 40
0.5956608826
 40
0.7261928428
 40
1.0
 40
1.0
 40
1.0
 40
1.0
 10
6.0982937913
 20
5.8598535866
 30
0.0
 10
6.0982873924
 20
5.8623732368
 30
0.0
 10
6.0978282333
 20
5.8674532221
 30
0.0
 10
6.0958546234
 20
5.8749078881
 30
0.0
 10
6.0926421718
 20
5.8820983811
 30
0.0
 10
6.0882378992
 20
5.8888955645
 30
0.0
 10
6.0826880835
 20
5.8951615999
 30
0.0
 10
6.0737986835
 20
5.9028018078
 30
0.0
 10
6.0659690671
 20
5.9072994272
 30
0.0
 10
6.0604374046
 20
5.9097241999
 30
0.0
 11
6.0982937913
 21
5.8598535866
 31
0.0
 11
6.0976226788
 21
5.8673827108
 31
0.0
 11
6.0956764626
 21
5.8747854135
 31
0.0
 11
6.0924983065
 21
5.8819329131
 31
0.0
 11
6.0881313747
 21
5.888696428
 31
0.0
 11
6.0826270189
 21
5.8949511686
 31
0.0
 11
6.07609112
 21
5.900598932
 31
0.0
 11
6.0604374046
 21
5.9097241999
 31
0.0
  0
SPLINE
  5
3E5
100
AcDbEntity
  8
0
100
AcDbSpline
 62
9
  6
CONTINUOUS
 70
0
 71
3
 72
11
 73
7
 74
5
 42
0.0000001
 43
0.0000001
 44
0.0000000001
 12
-0.0000396155
 22
0.0348698531
 32
0.0
 13
-0.0228730289
 23
0.0263198172
 33
0.0
 40
0.0
 40
0.0
 40
0.0
 40
0.0
 40
0.2418179603
 40
0.4869863851
 40
0.7389020202
 40
1.0
 40
1.0
 40
1.0
 40
1.0
 10
6.1113057352
 20
5.7808064301
 30
0.0
 10
6.111302542
 20
5.783617149
 30
0.0
 10
6.1107590559
 20
5.7892909575
 30
0.0
 10
6.1083369212
 20
5.7975822245
 30
0.0
 10
6.1043195054
 20
5.8054775817
 30
0.0
 10
6.1007417821
 20
5.8102852432
 30
0.0
 10
6.0987510815
 20
5.8125759269
 30
0.0
 11
6.1113057352
 21
5.7808064301
 31
0.0
 11
6.1105031884
 21
5.7892003135
 31
0.0
 11
6.1081146915
 21
5.7974088672
 31
0.0
 11
6.1041609343
 21
5.8052530465
 31
0.0
 11
6.0987510815
 21
5.8125759269
 31
0.0
  0
SPLINE
  5
3E6
100
AcDbEntity
  8
0
100
AcDbSpline
 62
7
  6
CONTINUOUS
 70
0
 71
3
 72
9
 73
5
 74
3
 42
0.0000001
 43
0.0000001
 44
0.0000000001
 12
-0.0281894489
 22
0.005610948
 32
0.0
 13
-0.0286025568
 23
-0.0028322265
 33
0.0
 40
0.0
 40
0.0
 40
0.0
 40
0.0
 40
0.498766241
 40
1.0
 40
1.0
 40
1.0
 40
1.0
 10
5.6629495798
 20
6.2120886076
 30
0.0
 10
5.6582629313
 20
6.2130214581
 30
0.0
 10
5.6487124477
 20
6.2141759015
 30
0.0
 10
5.639096339
 20
6.2139417463
 30
0.0
 10
5.6343174833
 20
6.2134685438
 30
0.0
 11
5.6629495798
 21
6.2120886076
 31
0.0
 11
5.6487196883
 21
6.2138276143
 31
0.0
 11
5.6343174833
 21
6.2134685438
 31
0.0
  0
SPLINE
  5
3E7
100
AcDbEntity
  8
0
100
AcDbSpline
 62
9
  6
CONTINUOUS
 70
0
 71
3
 72
9
 73
5
 74
3
 42
0.0000001
 43
0.0000001
 44
0.0000000001
 12
0.0264921969
 22
0.0080641478
 32
0.0
 13
0.0276919803
 23
0.0001456191
 33
0.0
 40
0.0
 40
0.0
 40
0.0
 40
0.0
 40
0.4963075325
 40
1.0
 40
1.0
 40
1.0
 40
1.0
 10
5.3641877463
 20
6.1472050612
 30
0.0
 10
5.3685705053
 20
6.1485391603
 30
0.0
 10
5.377618144
 20
6.1505501088
 30
0.0
 10
5.3868564646
 20
6.151256154
 30
0.0
 10
5.3915058786
 20
6.1512806031
 30
0.0
 11
5.3641877463
 21
6.1472050612
 31
0.0
 11
5.3775982967
 21
6.1502138328
 31
0.0
 11
5.3915058786
 21
6.1512806031
 31
0.0
  0
SPLINE
  5
3E8
100
AcDbEntity
  8
0
100
AcDbSpline
 62
9
  6
CONTINUOUS
 70
0
 71
3
 72
9
 73
5
 74
3
 42
0.0000001
 43
0.0000001
 44
0.0000000001
 12
0.0307745627
 22
0.00300786
 32
0.0
 13
0.0301652205
 23
-0.0067956163
 33
0.0
 40
0.0
 40
0.0
 40
0.0
 40
0.0
 40
0.5016387541
 40
1.0
 40
1.0
 40
1.0
 40
1.0
 10
5.4585528384
 20
6.1878431813
 30
0.0
 10
5.4636987429
 20
6.1883461344
 30
0.0
 10
5.4740518173
 20
6.1885251387
 30
0.0
 10
5.4843090495
 20
6.1870943314
 30
0.0
 10
5.4893201085
 20
6.1859654408
 30
0.0
 11
5.4585528384
 21
6.1878431813
 31
0.0
 11
5.4740616317
 21
6.1881206301
 31
0.0
 11
5.4893201085
 21
6.1859654408
 31
0.0
  0
SPLINE
  5
3E9
100
AcDbEntity
  8
0
100
AcDbSpline
 62
9
  6
CONTINUOUS
 70
0
 71
3
 72
17
 73
13
 74
11
 42
0.0000001
 43
0.0000001
 44
0.0000000001
 12
0.0000173735
 22
0.0911169915
 32
0.0
 13
-0.0902818235
 23
0.0123084848
 33
0.0
 40
0.0
 40
0.0
 40
0.0
 40
0.0
 40
0.1099314914
 40
0.22214749
 40
0.3385988779
 40
0.4603004876
 40
0.5233404872
 40
0.5878452159
 40
0.6537779622
 40
0.7210346068
 40
0.8588407615
 40
1.0
 40
1.0
 40
1.0
 40
1.0
 10
6.0599818623
 20
5.9339765667
 30
0.0
 10
6.0599824989
 20
5.9373154423
 30
0.0
 10
6.0592168102
 20
5.944089609
 30
0.0
 10
6.0557283497
 20
5.9538502446
 30
0.0
 10
6.0501036502
 20
5.9629657393
 30
0.0
 10
6.0438811397
 20
5.9697451737
 30
0.0
 10
6.0380722606
 20
5.974611186
 30
0.0
 10
6.0332525773
 20
5.9779859483
 30
0.0
 10
6.0280651133
 20
5.9810221392
 30
0.0
 10
6.0206579385
 20
5.9846265808
 30
0.0
 10
6.0107182477
 20
5.988170885
 30
0.0
 10
6.0023911814
 20
5.9898944993
 30
0.0
 10
5.9981431436
 20
5.9904736514
 30
0.0
 11
6.0599818623
 21
5.9339765667
 31
0.0
 11
6.0588517213
 21
5.9439292345
 31
0.0
 11
6.0554552843
 21
5.9535734261
 31
0.0
 11
6.0499256658
 21
5.9626293789
 31
0.0
 11
6.0424570614
 21
5.9708261922
 31
0.0
 11
6.0380563871
 21
5.974517774
 31
0.0
 11
6.0332457554
 21
5.9778945414
 31
0.0
 11
6.0280641667
 21
5.9809346597
 31
0.0
 11
6.0225559334
 21
5.9836206392
 31
0.0
 11
6.0107368508
 21
5.987860278
 31
0.0
 11
5.9981431436
 21
5.9904736514
 31
0.0
  0
SPLINE
  5
3EA
100
AcDbEntity
  8
0
100
AcDbSpline
 62
9
  6
CONTINUOUS
 70
0
 71
3
 72
38
 73
34
 74
32
 42
0.0000001
 43
0.0000001
 44
0.0000000001
 12
0.4196186028
 22
1.0623376946
 32
0.0
 13
0.4196186028
 23
-1.0623376946
 33
0.0
 40
0.0
 40
0.0
 40
0.0
 40
0.0
 40
0.0271678484
 40
0.054846246
 40
0.0830742352
 40
0.111887444
 40
0.1413153897
 40
0.1713738478
 40
0.2020629074
 40
0.2333678746
 40
0.2652596859
 40
0.2976925251
 40
0.3306114034
 40
0.3639483801
 40
0.3976274278
 40
0.4315688901
 40
0.4656889524
 40
0.4999015348
 40
0.5341171169
 40
0.5682444667
 40
0.6021956244
 40
0.6358869412
 40
0.7021399297
 40
0.7345942449
 40
0.7665045856
 40
0.7978284182
 40
0.8285376835
 40
0.8586163588
 40
0.888065097
 40
0.9168975482
 40
0.9451413732
 40
0.9728291758
 40
1.0
 40
1.0
 40
1.0
 40
1.0
 10
5.1523345099
 20
6.1272978535
 30
0.0
 10
5.1561345548
 20
6.13691833
 30
0.0
 10
5.1647796167
 20
6.1559693063
 30
0.0
 10
5.1805430996
 20
6.1834406938
 30
0.0
 10
5.1991202578
 20
6.2098642217
 30
0.0
 10
5.2203860866
 20
6.2350494908
 30
0.0
 10
5.2441857508
 20
6.2588481367
 30
0.0
 10
5.2703761451
 20
6.2811033434
 30
0.0
 10
5.2987867606
 20
6.3016832603
 30
0.0
 10
5.3292402219
 20
6.3204613746
 30
0.0
 10
5.3615468192
 20
6.3373174109
 30
0.0
 10
5.3954991397
 20
6.3521545432
 30
0.0
 10
5.4308871011
 20
6.3648660032
 30
0.0
 10
5.467480625
 20
6.3753835022
 30
0.0
 10
5.5050487821
 20
6.3836354682
 30
0.0
 10
5.5433536173
 20
6.3895656
 30
0.0
 10
5.5821526427
 20
6.393147122
 30
0.0
 10
5.6212024801
 20
6.3943442178
 30
0.0
 10
5.6602554475
 20
6.3931600553
 30
0.0
 10
5.6990636575
 20
6.3896001478
 30
0.0
 10
5.7373828701
 20
6.3836762742
 30
0.0
 10
5.7872036268
 20
6.3727612657
 30
0.0
 10
5.8353614579
 20
6.3572938938
 30
0.0
 10
5.880969886
 20
6.3373931083
 30
0.0
 10
5.9133020395
 20
6.3205336378
 30
0.0
 10
5.9437780906
 20
6.3017514706
 30
0.0
 10
5.9722146762
 20
6.2811684108
 30
0.0
 10
5.9984233562
 20
6.2588986323
 30
0.0
 10
6.0222453669
 20
6.2350901191
 30
0.0
 10
6.0435296692
 20
6.2098922076
 30
0.0
 10
6.0621146738
 20
6.1834534302
 30
0.0
 10
6.0778859324
 20
6.1559742535
 30
0.0
 10
6.0865340488
 20
6.1369193838
 30
0.0
 10
6.0903345099
 20
6.1272978535
 30
0.0
 11
5.1523345099
 21
6.1272978535
 31
0.0
 11
5.1651315063
 21
6.1555676618
 31
0.0
 11
5.1808434185
 21
6.1830014581
 31
0.0
 11
5.1993643126
 21
6.2093934989
 31
0.0
 11
5.2205712739
 21
6.2345605247
 31
0.0
 11
5.2443201435
 21
6.258347404
 31
0.0
 11
5.2704636396
 21
6.2806021814
 31
0.0
 11
5.2988356713
 21
6.3011876818
 31
0.0
 11
5.3292586497
 21
6.3199757625
 31
0.0
 11
5.3615429838
 21
6.3368475183
 31
0.0
 11
5.3954812942
 21
6.3516977316
 31
0.0
 11
5.4308613484
 21
6.3644268115
 31
0.0
 11
5.4674539556
 21
6.3749576842
 31
0.0
 11
5.5050245465
 21
6.3832206607
 31
0.0
 11
5.5433349187
 21
6.3891613522
 31
0.0
 11
5.5821419363
 21
6.3927461487
 31
0.0
 11
5.621201397
 21
6.3939469914
 31
0.0
 11
5.6602647302
 21
6.3927606955
 31
0.0
 11
5.6990817339
 21
6.3891935588
 31
0.0
 11
5.7374050248
 21
6.3832639227
 31
0.0
 11
5.7749929812
 21
6.3750146803
 31
0.0
 11
5.8470077621
 21
6.3517651749
 31
0.0
 11
5.8809751506
 21
6.3369202329
 31
0.0
 11
5.9132831251
 21
6.3200480212
 31
0.0
 11
5.9437292874
 21
6.301256474
 31
0.0
 11
5.9721258419
 21
6.280665475
 31
0.0
 11
5.9982895568
 21
6.2583988247
 31
0.0
 11
6.022060171
 21
6.2346000963
 31
0.0
 11
6.0432850802
 21
6.2094194534
 31
0.0
 11
6.061816207
 21
6.1830124961
 31
0.0
 11
6.0775349479
 21
6.1555702314
 31
0.0
 11
6.0903345099
 21
6.1272978535
 31
0.0
  0
SPLINE
  5
3EB
100
AcDbEntity
  8
0
100
AcDbSpline
 62
9
  6
CONTINUOUS
 70
0
 71
3
 72
19
 73
15
 74
13
 42
0.0000001
 43
0.0000001
 44
0.0000000001
 12
-0.0001833008
 22
0.1100266278
 32
0.0
 13
-0.1098439835
 23
-0.0063396927
 33
0.0
 40
0.0
 40
0.0
 40
0.0
 40
0.0
 40
0.0537677315
 40
0.1079289795
 40
0.1628256991
 40
0.2187756768
 40
0.2760833837
 40
0.3349769307
 40
0.395543917
 40
0.4577816677
 40
0.5868521794
 40
0.7214880946
 40
0.8599893002
 40
1.0
 40
1.0
 40
1.0
 40
1.0
 10
5.9988438503
 20
5.9983533238
 30
0.0
 10
5.9988405651
 20
6.0003252845
 30
0.0
 10
5.9985673702
 20
6.0042880706
 30
0.0
 10
5.9973738062
 20
6.0101557173
 30
0.0
 10
5.9954098129
 20
6.0158974178
 30
0.0
 10
5.9926901943
 20
6.0214503672
 30
0.0
 10
5.9892264326
 20
6.0267476515
 30
0.0
 10
5.985061858
 20
6.0317337597
 30
0.0
 10
5.9802565455
 20
6.0363686149
 30
0.0
 10
5.9729846134
 20
6.0420860435
 30
0.0
 10
5.9625516754
 20
6.0480777298
 30
0.0
 10
5.9485802876
 20
6.0530274782
 30
0.0
 10
5.933610428
 20
6.0557287954
 30
0.0
 10
5.9233482438
 20
6.0559657206
 30
0.0
 10
5.9182217994
 20
6.0556698457
 30
0.0
 11
5.9988438503
 21
5.9983533238
 31
0.0
 11
5.9984398191
 21
6.0042554012
 31
0.0
 11
5.9972562171
 21
6.0100958639
 31
0.0
 11
5.9953062332
 21
6.0158125486
 31
0.0
 11
5.9926030565
 21
6.0213432918
 31
0.0
 11
5.9891611429
 21
6.0266263856
 31
0.0
 11
5.9850174574
 21
6.0316082076
 31
0.0
 11
5.980228308
 21
6.0362420848
 31
0.0
 11
5.9748506325
 21
6.0404815701
 31
0.0
 11
5.9625574531
 21
6.0475915762
 31
0.0
 11
5.9486152123
 21
6.0525971103
 31
0.0
 11
5.9336229145
 21
6.0553271841
 31
0.0
 11
5.9182217994
 21
6.0556698457
 31
0.0
  0
SPLINE
  5
3EC
100
AcDbEntity
  8
0
100
AcDbSpline
 62
7
  6
CONTINUOUS
 70
0
 71
3
 72
14
 73
10
 74
8
 42
0.0000001
 43
0.0000001
 44
0.0000000001
 12
0.0297708606
 22
-0.0501218638
 32
0.0
 13
-0.0
 23
-0.0582967012
 33
0.0
 40
0.0
 40
0.0
 40
0.0
 40
0.0
 40
0.0970766824
 40
0.2019845433
 40
0.3146737842
 40
0.43523267
 40
0.5639313504
 40
0.7009303385
 40
1.0
 40
1.0
 40
1.0
 40
1.0
 10
5.80928256
 20
6.1603772606
 30
0.0
 10
5.8102459121
 20
6.1587553726
 30
0.0
 10
5.8119960379
 20
6.1552275518
 30
0.0
 10
5.8140991848
 20
6.1494776288
 30
0.0
 10
5.8158501688
 20
6.1431378598
 30
0.0
 10
5.8172651697
 20
6.1362437379
 30
0.0
 10
5.8183480452
 20
6.1288127149
 30
0.0
 10
5.8193919906
 20
6.1178845101
 30
0.0
 10
5.819645935
 20
6.1094037572
 30
0.0
 10
5.819645935
 20
6.1035921657
 30
0.0
 11
5.80928256
 21
6.1603772606
 31
0.0
 11
5.8118357536
 21
6.1553266848
 31
0.0
 11
5.8139710298
 21
6.1495957697
 31
0.0
 11
5.8157403513
 21
6.1432691068
 31
0.0
 11
5.8171688616
 21
6.1363876283
 31
0.0
 11
5.8182652375
 21
6.1289654591
 31
0.0
 11
5.8190379167
 21
6.1210163351
 31
0.0
 11
5.819645935
 21
6.1035921657
 31
0.0
  0
SPLINE
  5
3ED
100
AcDbEntity
  8
0
100
AcDbSpline
 62
7
  6
CONTINUOUS
 70
0
 71
3
 72
19
 73
15
 74
13
 42
0.0000001
 43
0.0000001
 44
0.0000000001
 12
0.0496103992
 22
-0.0422347575
 32
0.0
 13
0.0
 23
-0.065153407
 33
0.0
 40
0.0
 40
0.0
 40
0.0
 40
0.0
 40
0.0276111005
 40
0.0599359827
 40
0.0974870208
 40
0.1403649357
 40
0.1884491504
 40
0.2414962062
 40
0.2991909648
 40
0.3611797246
 40
0.4973328855
 40
0.6494509456
 40
0.8171525094
 40
1.0
 40
1.0
 40
1.0
 40
1.0
 10
5.6997741869
 20
6.1949220709
 30
0.0
 10
5.7002307862
 20
6.1945333548
 30
0.0
 10
5.7010983713
 20
6.1935441683
 30
0.0
 10
5.7021771334
 20
6.1917148042
 30
0.0
 10
5.703146295
 20
6.1894606158
 30
0.0
 10
5.7040146038
 20
6.186805457
 30
0.0
 10
5.7047908035
 20
6.1837740194
 30
0.0
 10
5.7054816519
 20
6.1803935098
 30
0.0
 10
5.7060939487
 20
6.1766917955
 30
0.0
 10
5.7068400151
 20
6.1711853012
 30
0.0
 10
5.7075821288
 20
6.1636121062
 30
0.0
 10
5.7081871241
 20
6.1537263262
 30
0.0
 10
5.7085399241
 20
6.1428139901
 30
0.0
 10
5.7086094344
 20
6.1352005214
 30
0.0
 10
5.7086094344
 20
6.1312294757
 30
0.0
 11
5.6997741869
 21
6.1949220709
 31
0.0
 11
5.7009867703
 21
6.1935932034
 31
0.0
 11
5.702082362
 21
6.1917945273
 31
0.0
 11
5.7030682707
 21
6.1895553916
 31
0.0
 11
5.7039518046
 21
6.1869051455
 31
0.0
 11
5.7047402725
 21
6.1838731379
 31
0.0
 11
5.7054409826
 21
6.1804887178
 31
0.0
 11
5.7060612437
 21
6.1767812344
 31
0.0
 11
5.7066082734
 21
6.1727796731
 31
0.0
 11
5.7074973771
 21
6.1639534996
 31
0.0
 11
5.7081212293
 21
6.1540621435
 31
0.0
 11
5.7084888938
 21
6.1431420029
 31
0.0
 11
5.7086094344
 21
6.1312294757
 31
0.0
  0
SPLINE
  5
3EE
100
AcDbEntity
  8
0
100
AcDbSpline
 62
7
  6
CONTINUOUS
 70
0
 71
3
 72
16
 73
12
 74
10
 42
0.0000001
 43
0.0000001
 44
0.0000000001
 12
-0.0415869497
 22
-0.0483987263
 32
0.0
 13
0.0
 23
-0.0638115279
 33
0.0
 40
0.0
 40
0.0
 40
0.0
 40
0.0
 40
0.0810229818
 40
0.126394695
 40
0.1751235814
 40
0.2824252571
 40
0.4020637624
 40
0.5336675488
 40
0.6772636646
 40
0.8327645864
 40
1.0
 40
1.0
 40
1.0
 40
1.0
 10
5.4886069469
 20
6.1820132884
 30
0.0
 10
5.4874837807
 20
6.1807061521
 30
0.0
 10
5.4860299713
 20
6.1784086314
 30
0.0
 10
5.484460525
 20
6.1750308918
 30
0.0
 10
5.4829431853
 20
6.1710200687
 30
0.0
 10
5.4813691193
 20
6.1653614652
 30
0.0
 10
5.4798900061
 20
6.1578750554
 30
0.0
 10
5.4787563106
 20
6.1495491977
 30
0.0
 10
5.4779631199
 20
6.1404194956
 30
0.0
 10
5.4774992718
 20
6.1305090937
 30
0.0
 10
5.4774064191
 20
6.1236437291
 30
0.0
 10
5.4774064191
 20
6.1200865467
 30
0.0
 11
5.4886069469
 21
6.1820132884
 31
0.0
 11
5.4857518393
 21
6.1777029136
 31
0.0
 11
5.4845218527
 21
6.1750819332
 31
0.0
 11
5.4834122217
 21
6.1721771975
 31
0.0
 11
5.4815199585
 21
6.1655967798
 31
0.0
 11
5.4800108102
 21
6.1581131143
 31
0.0
 11
5.4788555453
 21
6.1497951183
 31
0.0
 11
5.4780434335
 21
6.1406680898
 31
0.0
 11
5.4775639123
 21
6.1307569317
 31
0.0
 11
5.4774064191
 21
6.1200865467
 31
0.0
  0
SPLINE
  5
3EF
100
AcDbEntity
  8
0
100
AcDbSpline
 62
7
  6
CONTINUOUS
 70
0
 71
3
 72
11
 73
7
 74
5
 42
0.0000001
 43
0.0000001
 44
0.0000000001
 12
-0.0154805743
 22
-0.0427690285
 32
0.0
 13
-0.0
 23
-0.0454844807
 33
0.0
 40
0.0
 40
0.0
 40
0.0
 40
0.0
 40
0.2221028451
 40
0.4619597147
 40
0.7209917162
 40
1.0
 40
1.0
 40
1.0
 40
1.0
 10
5.3782286866
 20
6.1268204197
 30
0.0
 10
5.3770825934
 20
6.1236540454
 30
0.0
 10
5.3751183754
 20
6.1169124781
 30
0.0
 10
5.3731430562
 20
6.1061467486
 30
0.0
 10
5.3719947475
 20
6.0943971746
 30
0.0
 10
5.3717672401
 20
6.0862366411
 30
0.0
 10
5.3717672401
 20
6.0820064588
 30
0.0
 11
5.3782286866
 21
6.1268204197
 31
0.0
 11
5.3753553422
 21
6.1171354316
 31
0.0
 11
5.3733413025
 21
6.1064131828
 31
0.0
 11
5.3721555933
 21
6.0946910622
 31
0.0
 11
5.3717672401
 21
6.0820064588
 31
0.0
  0
SPLINE
  5
3F0
100
AcDbEntity
  8
0
100
AcDbSpline
 62
7
  6
CONTINUOUS
 70
0
 71
3
 72
9
 73
5
 74
3
 42
0.0000001
 43
0.0000001
 44
0.0000000001
 12
0.0005570995
 22
-0.0347489472
 32
0.0
 13
0.0064516959
 23
-0.0341493091
 33
0.0
 40
0.0
 40
0.0
 40
0.0
 40
0.0
 40
0.2361388771
 40
1.0
 40
1.0
 40
1.0
 40
1.0
 10
5.2818307708
 20
3.9011317476
 30
0.0
 10
5.2818746218
 20
3.8983965552
 30
0.0
 10
5.2823420476
 20
3.8868183951
 30
0.0
 10
5.2838932747
 20
3.8752959636
 30
0.0
 10
5.2855360079
 20
3.8666008538
 30
0.0
 11
5.2818307708
 21
3.9011317476
 31
0.0
 11
5.2821558111
 21
3.8929315553
 31
0.0
 11
5.2855360079
 21
3.8666008538
 31
0.0
  0
SPLINE
  5
3F1
100
AcDbEntity
  8
0
100
AcDbSpline
 62
9
  6
CONTINUOUS
 70
0
 71
3
 72
22
 73
18
 74
16
 42
0.0000001
 43
0.0000001
 44
0.0000000001
 12
0.0000437452
 22
0.11941823
 32
0.0
 13
0.1179916209
 23
-0.0184036129
 33
0.0
 40
0.0
 40
0.0
 40
0.0
 40
0.0
 40
0.0533024638
 40
0.1070736862
 40
0.1617129853
 40
0.217547759
 40
0.2748568489
 40
0.3338850102
 40
0.3947495635
 40
0.4574133485
 40
0.521752191
 40
0.5875921892
 40
0.6547405127
 40
0.7229733769
 40
0.791984522
 40
0.861422597
 40
1.0
 40
1.0
 40
1.0
 40
1.0
 10
5.2818037161
 20
3.9045055208
 30
0.0
 10
5.2818044933
 20
3.9066272828
 30
0.0
 10
5.2821239237
 20
3.9108955591
 30
0.0
 10
5.283523661
 20
3.9171993629
 30
0.0
 10
5.2858129399
 20
3.9233450807
 30
0.0
 10
5.2889613762
 20
3.9292564306
 30
0.0
 10
5.2929382433
 20
3.9348605269
 30
0.0
 10
5.2977135805
 20
3.9400750691
 30
0.0
 10
5.3032147593
 20
3.944845528
 30
0.0
 10
5.309361486
 20
3.9491278157
 30
0.0
 10
5.3160761785
 20
3.9528727636
 30
0.0
 10
5.3232802702
 20
3.9560322758
 30
0.0
 10
5.330895563
 20
3.9585523246
 30
0.0
 10
5.3388303679
 20
3.9603972493
 30
0.0
 10
5.3469850585
 20
3.9615657238
 30
0.0
 10
5.3580015916
 20
3.9622096029
 30
0.0
 10
5.366316916
 20
3.9616574551
 30
0.0
 10
5.3717672401
 20
3.9608073468
 30
0.0
 11
5.2818037161
 21
3.9045055208
 31
0.0
 11
5.2822730402
 21
3.9108534815
 31
0.0
 11
5.2836570327
 21
3.9171238247
 31
0.0
 11
5.2859267151
 21
3.9232412783
 31
0.0
 11
5.289053109
 21
3.9291305698
 31
0.0
 11
5.2930072359
 21
3.9347164272
 31
0.0
 11
5.2977566704
 21
3.9399252488
 31
0.0
 11
5.3032380433
 21
3.9446984327
 31
0.0
 11
5.3093716431
 21
3.9489852984
 31
0.0
 11
5.3160776107
 21
3.9527352371
 31
0.0
 11
5.3232760871
 21
3.9558976398
 31
0.0
 11
5.3308870259
 21
3.9584222609
 31
0.0
 11
5.3388216542
 21
3.9602758054
 31
0.0
 11
5.3469789402
 21
3.9614487872
 31
0.0
 11
5.3552569336
 21
3.9619335053
 31
0.0
 11
5.3717672401
 21
3.9608073468
 31
0.0
  0
SPLINE
  5
3F2
100
AcDbEntity
  8
0
100
AcDbSpline
 62
9
  6
CONTINUOUS
 70
0
 71
3
 72
19
 73
15
 74
13
 42
0.0000001
 43
0.0000001
 44
0.0000000001
 12
0.0000165036
 22
0.1006171122
 32
0.0
 13
0.1005418893
 23
0.0038899896
 33
0.0
 40
0.0
 40
0.0
 40
0.0
 40
0.0
 40
0.0543008625
 40
0.1089170143
 40
0.164164671
 40
0.2203658439
 40
0.2778008934
 40
0.3366409076
 40
0.458700796
 40
0.5868627273
 40
0.6532089568
 40
0.7208590125
 40
0.8591525177
 40
1.0
 40
1.0
 40
1.0
 40
1.0
 10
5.2106167711
 20
3.8463978173
 30
0.0
 10
5.2106170698
 20
3.8482190159
 30
0.0
 10
5.2108417795
 20
3.8518758539
 30
0.0
 10
5.2118481004
 20
3.8573020953
 30
0.0
 10
5.2135207375
 20
3.8626290957
 30
0.0
 10
5.2158597569
 20
3.8678022736
 30
0.0
 10
5.2188407033
 20
3.8727740887
 30
0.0
 10
5.2236704758
 20
3.8791596398
 30
0.0
 10
5.2311629753
 20
3.8864238442
 30
0.0
 10
5.2400603283
 20
3.8923239444
 30
0.0
 10
5.2479588391
 20
3.8962062336
 30
0.0
 10
5.2564620361
 20
3.8995615339
 30
0.0
 10
5.2677477491
 20
3.9025570765
 30
0.0
 10
5.2770889332
 20
3.9036159267
 30
0.0
 10
5.2818092906
 20
3.9037985584
 30
0.0
 11
5.2106167711
 21
3.8463978173
 31
0.0
 11
5.2109512254
 21
3.8518511669
 31
0.0
 11
5.2119512654
 21
3.8572547266
 31
0.0
 11
5.2136145948
 21
3.8625589001
 31
0.0
 11
5.2159380998
 21
3.8677142939
 31
0.0
 11
5.2189010052
 21
3.8726758906
 31
0.0
 11
5.222465482
 21
3.8774028986
 31
0.0
 11
5.2312450507
 21
3.8859906711
 31
0.0
 11
5.2419685455
 21
3.8931527239
 31
0.0
 11
5.2479556815
 21
3.8961052456
 31
0.0
 11
5.2542851658
 21
3.8986091465
 31
0.0
 11
5.2677277201
 21
3.9022030891
 31
0.0
 11
5.2818092906
 21
3.9037985584
 31
0.0
  0
SPLINE
  5
3F3
100
AcDbEntity
  8
0
100
AcDbSpline
 62
9
  6
CONTINUOUS
 70
0
 71
3
 72
16
 73
12
 74
10
 42
0.0000001
 43
0.0000001
 44
0.0000000001
 12
0.0000340568
 22
0.0799771886
 32
0.0
 13
0.0774044758
 23
0.020122102
 33
0.0
 40
0.0
 40
0.0
 40
0.0
 40
0.0
 40
0.055758944
 40
0.1117684468
 40
0.225350194
 40
0.3423813787
 40
0.4638587926
 40
0.5904964545
 40
0.7224713934
 40
0.8592573514
 40
1.0
 40
1.0
 40
1.0
 40
1.0
 10
5.1604819693
 20
3.7766888742
 30
0.0
 10
5.1604826023
 20
3.7781753554
 30
0.0
 10
5.1606369928
 20
3.7811575492
 30
0.0
 10
5.1615704226
 20
3.7871009956
 30
0.0
 10
5.1639003291
 20
3.7944343301
 30
0.0
 10
5.168386725
 20
3.8027352427
 30
0.0
 10
5.1744645099
 20
3.8104007402
 30
0.0
 10
5.1820258442
 20
3.817210889
 30
0.0
 10
5.1908608514
 20
3.8230261618
 30
0.0
 10
5.2007376805
 20
3.8277471162
 30
0.0
 10
5.2077905273
 20
3.8300598045
 30
0.0
 10
5.2114218976
 20
3.8310038172
 30
0.0
 11
5.1604819693
 21
3.7766888742
 31
0.0
 11
5.1607134435
 21
3.7811423066
 31
0.0
 11
5.1614056962
 21
3.7855679765
 31
0.0
 11
5.1641303658
 21
3.7942336742
 31
0.0
 11
5.1685541776
 21
3.802482082
 31
0.0
 11
5.174571839
 21
3.8101094796
 31
0.0
 11
5.18207166
 21
3.8169162118
 31
0.0
 11
5.1908683481
 21
3.8227493926
 31
0.0
 11
5.2007294886
 21
3.8274860792
 31
0.0
 11
5.2114218976
 21
3.8310038172
 31
0.0
  0
SPLINE
  5
3F4
100
AcDbEntity
  8
0
100
AcDbSpline
 62
9
  6
CONTINUOUS
 70
0
 71
3
 72
14
 73
10
 74
8
 42
0.0000001
 43
0.0000001
 44
0.0000000001
 12
0.0001232667
 22
0.051309858
 32
0.0
 13
0.0421899765
 23
0.0292014146
 33
0.0
 40
0.0
 40
0.0
 40
0.0
 40
0.0
 40
0.1172940279
 40
0.2354821059
 40
0.3553216838
 40
0.477539558
 40
0.6028289137
 40
0.7316381912
 40
1.0
 40
1.0
 40
1.0
 40
1.0
 10
5.1346264824
 20
3.6994056884
 30
0.0
 10
5.1346313019
 20
3.7014118017
 30
0.0
 10
5.1349152977
 20
3.7054437702
 30
0.0
 10
5.1361500681
 20
3.7114114271
 30
0.0
 10
5.1381825832
 20
3.7172465354
 30
0.0
 10
5.1410010194
 20
3.7228806917
 30
0.0
 10
5.144591438
 20
3.7282426801
 30
0.0
 10
5.15040209
 20
3.7350501952
 30
0.0
 10
5.1556475335
 20
3.7394661784
 30
0.0
 10
5.159421593
 20
3.7420783599
 30
0.0
 11
5.1346264824
 21
3.6994056884
 31
0.0
 11
5.1350467878
 21
3.7054093513
 31
0.0
 11
5.1362714944
 21
3.7113486266
 31
0.0
 11
5.1382896297
 21
3.7171569788
 31
0.0
 11
5.1410902214
 21
3.7227678723
 31
0.0
 11
5.1446555086
 21
3.7281172269
 31
0.0
 11
5.1489371413
 21
3.7331520267
 31
0.0
 11
5.159421593
 21
3.7420783599
 31
0.0
  0
SPLINE
  5
3F5
100
AcDbEntity
  8
0
100
AcDbSpline
 62
6
  6
CONTINUOUS
 70
0
 71
3
 72
13
 73
9
 74
7
 42
0.0000001
 43
0.0000001
 44
0.0000000001
 12
-0.0335732335
 22
0.1787637932
 32
0.0
 13
0.0710042131
 23
0.167457629
 33
0.0
 40
0.0
 40
0.0
 40
0.0
 40
0.0
 40
0.1245691768
 40
0.2487035419
 40
0.3726893418
 40
0.4968267162
 40
0.7465130112
 40
1.0
 40
1.0
 40
1.0
 40
1.0
 10
5.1112396564
 20
3.5134822069
 30
0.0
 10
5.109845593
 20
3.5209050264
 30
0.0
 10
5.1076026652
 20
3.5358324203
 30
0.0
 10
5.1059094244
 20
3.5583849025
 30
0.0
 10
5.1059183206
 20
3.5809772443
 30
0.0
 10
5.1082016733
 20
3.6110971346
 30
0.0
 10
5.1153075854
 20
3.6486066602
 30
0.0
 10
5.1252852036
 20
3.6775607217
 30
0.0
 10
5.1312847516
 20
3.691710165
 30
0.0
 11
5.1112396564
 21
3.5134822069
 31
0.0
 11
5.1078779657
 21
3.5358892146
 31
0.0
 11
5.1061923925
 21
3.5584049017
 31
0.0
 11
5.1062010118
 21
3.5809565694
 31
0.0
 11
5.1079036798
 21
3.6034715191
 31
0.0
 11
5.1163179079
 21
3.6481004699
 31
0.0
 11
5.1312847516
 21
3.691710165
 31
0.0
  0
SPLINE
  5
3F6
100
AcDbEntity
  8
0
100
AcDbSpline
 62
6
  6
CONTINUOUS
 70
0
 71
3
 72
9
 73
5
 74
3
 42
0.0000001
 43
0.0000001
 44
0.0000000001
 12
0.0248560653
 22
0.0549109988
 32
0.0
 13
0.033859919
 23
0.0498652951
 33
0.0
 40
0.0
 40
0.0
 40
0.0
 40
0.0
 40
0.4957900594
 40
1.0
 40
1.0
 40
1.0
 40
1.0
 10
5.1345133742
 20
3.6990766839
 30
0.0
 10
5.1386211709
 20
3.7081514597
 30
0.0
 10
5.1477260077
 20
3.7260943072
 30
0.0
 10
5.1583416285
 20
3.743183621
 30
0.0
 10
5.1640324644
 20
3.7515644802
 30
0.0
 11
5.1345133742
 21
3.6990766839
 31
0.0
 11
5.1480207085
 21
3.7257334253
 31
0.0
 11
5.1640324644
 21
3.7515644802
 31
0.0
  0
SPLINE
  5
3F7
100
AcDbEntity
  8
0
100
AcDbSpline
 62
6
  6
CONTINUOUS
 70
0
 71
3
 72
9
 73
5
 74
3
 42
0.0000001
 43
0.0000001
 44
0.0000000001
 12
0.0625869503
 22
0.0557671149
 32
0.0
 13
0.0713519715
 23
0.0439999275
 33
0.0
 40
0.0
 40
0.0
 40
0.0
 40
0.0
 40
0.4940847331
 40
1.0
 40
1.0
 40
1.0
 40
1.0
 10
5.2307265929
 20
3.8270745325
 30
0.0
 10
5.2410343451
 20
3.8362590926
 30
0.0
 10
5.2627686415
 20
3.8538891299
 30
0.0
 10
5.2859646091
 20
3.8695366332
 30
0.0
 10
5.297997293
 20
3.8769567116
 30
0.0
 11
5.2307265929
 21
3.8270745325
 31
0.0
 11
5.262868336
 21
3.8531965815
 31
0.0
 11
5.297997293
 21
3.8769567116
 31
0.0
  0
SPLINE
  5
3F8
100
AcDbEntity
  8
0
100
AcDbSpline
 62
6
  6
CONTINUOUS
 70
0
 71
3
 72
14
 73
10
 74
8
 42
0.0000001
 43
0.0000001
 44
0.0000000001
 12
0.2878114173
 22
0.1763234313
 32
0.0
 13
0.3375283164
 23
0.0000039015
 33
0.0
 40
0.0
 40
0.0
 40
0.0
 40
0.0
 40
0.1191363827
 40
0.2404809542
 40
0.3638091263
 40
0.4888762974
 40
0.615393863
 40
0.7430201984
 40
1.0
 40
1.0
 40
1.0
 40
1.0
 10
5.2992855393
 20
3.8777485258
 30
0.0
 10
5.310715143
 20
3.8847507044
 30
0.0
 10
5.3343426369
 20
3.8979956455
 30
0.0
 10
5.371451733
 20
3.9153474309
 30
0.0
 10
5.4103260479
 20
3.9302546382
 30
0.0
 10
5.4507028515
 20
3.9425729119
 30
0.0
 10
5.4922955683
 20
3.952230766
 30
0.0
 10
5.549072994
 20
3.9615271391
 30
0.0
 10
5.5924141795
 20
3.9643474379
 30
0.0
 10
5.6213268328
 20
3.9643477721
 30
0.0
 11
5.2992855393
 21
3.8777485258
 31
0.0
 11
5.3343470425
 21
3.897438323
 31
0.0
 11
5.3714382529
 21
3.9148088932
 31
0.0
 11
5.4102997732
 21
3.9297276256
 31
0.0
 11
5.450670109
 21
3.9420659175
 31
0.0
 11
5.4922622137
 21
3.9517440019
 31
0.0
 11
5.5347719811
 21
3.9587147169
 31
0.0
 11
5.6213268328
 21
3.9643477721
 31
0.0
  0
SPLINE
  5
3F9
100
AcDbEntity
  8
0
100
AcDbSpline
 62
6
  6
CONTINUOUS
 70
0
 71
3
 72
22
 73
18
 74
16
 42
0.0000001
 43
0.0000001
 44
0.0000000001
 12
0.5168851015
 22
-0.87653945
 32
0.0
 13
1.0175910846
 23
-0.0000051462
 33
0.0
 40
0.0
 40
0.0
 40
0.0
 40
0.0
 40
0.0600504208
 40
0.120447511
 40
0.1812031883
 40
0.2423265934
 40
0.3038273171
 40
0.3657079129
 40
0.4279560932
 40
0.4905501291
 40
0.5534629996
 40
0.6166663393
 40
0.6801335389
 40
0.7438331193
 40
0.8077235405
 40
0.8717574665
 40
1.0
 40
1.0
 40
1.0
 40
1.0
 10
4.7670025086
 20
0.9616130973
 30
0.0
 10
4.7773488979
 20
0.9440675763
 30
0.0
 10
4.7993522597
 20
0.9095967008
 30
0.0
 10
4.8359618007
 20
0.8601679794
 30
0.0
 10
4.8761107003
 20
0.8130858265
 30
0.0
 10
4.9196303832
 20
0.7685765022
 30
0.0
 10
4.9663614404
 20
0.7268765134
 30
0.0
 10
5.01607672
 20
0.6881626102
 30
0.0
 10
5.0685241635
 20
0.6525770513
 30
0.0
 10
5.1234584452
 20
0.620270671
 30
0.0
 10
5.1806328713
 20
0.5913933369
 30
0.0
 10
5.2398004333
 20
0.5660933793
 30
0.0
 10
5.3007131899
 20
0.5445308221
 30
0.0
 10
5.3630811267
 20
0.5267721387
 30
0.0
 10
5.4266201061
 20
0.5128651326
 30
0.0
 10
5.5125174508
 20
0.4995259731
 30
0.0
 10
5.5778297172
 20
0.4954654743
 30
0.0
 10
5.6213292035
 20
0.4954652543
 30
0.0
 11
4.7670025086
 21
0.9616130973
 31
0.0
 11
4.7998684184
 21
0.9100973748
 31
0.0
 11
4.8364381909
 21
0.860701759
 31
0.0
 11
4.8765462587
 21
0.8136528086
 31
0.0
 11
4.9200270545
 21
0.7691770824
 31
0.0
 11
4.9667110083
 21
0.7274974855
 31
0.0
 11
5.0163812816
 21
0.6887937794
 31
0.0
 11
5.0687901868
 21
0.6532175682
 31
0.0
 11
5.1236895057
 21
0.6209199718
 31
0.0
 11
5.1808310204
 21
0.5920521103
 31
0.0
 11
5.2399665128
 21
0.5667651037
 31
0.0
 11
5.3008436426
 21
0.5452006944
 31
0.0
 11
5.3631824743
 21
0.5274378489
 31
0.0
 11
5.4266917443
 21
0.5135297638
 31
0.0
 11
5.4910801545
 21
0.5035295576
 31
0.0
 11
5.6213292035
 21
0.4954652543
 31
0.0
  0
SPLINE
  5
3FA
100
AcDbEntity
  8
0
100
AcDbSpline
 62
6
  6
CONTINUOUS
 70
0
 71
3
 72
15
 73
11
 74
9
 42
0.0000001
 43
0.0000001
 44
0.0000000001
 12
0.3842771066
 22
0.0000044419
 32
0.0
 13
0.3073471811
 23
-0.2306655694
 33
0.0
 40
0.0
 40
0.0
 40
0.0
 40
0.0
 40
0.1298511808
 40
0.2592056004
 40
0.3875710359
 40
0.5144714586
 40
0.6394851209
 40
0.7622717857
 40
0.8825272176
 40
1.0
 40
1.0
 40
1.0
 40
1.0
 10
5.6213268328
 20
3.9643475476
 30
0.0
 10
5.6379597781
 20
3.9643477398
 30
0.0
 10
5.6711751447
 20
3.963101787
 30
0.0
 10
5.7205535545
 20
3.9575606195
 30
0.0
 10
5.7690127703
 20
3.9484181403
 30
0.0
 10
5.8160972213
 20
3.93574375
 30
0.0
 10
5.8613517938
 20
3.9195990342
 30
0.0
 10
5.9043714467
 20
3.9001800315
 30
0.0
 10
5.9447647455
 20
3.8776891259
 30
0.0
 10
5.9700023071
 20
3.8605603264
 30
0.0
 10
5.9820372833
 20
3.8515280177
 30
0.0
 11
5.6213268328
 21
3.9643475476
 31
0.0
 11
5.6711907853
 21
3.9624820515
 31
0.0
 11
5.7205878526
 21
3.956931443
 31
0.0
 11
5.769056824
 21
3.9477662731
 31
0.0
 11
5.8161364893
 21
3.9350570933
 31
0.0
 11
5.8613753148
 21
3.9188929494
 31
0.0
 11
5.9043670578
 21
3.8994494484
 31
0.0
 11
5.9447187146
 21
3.8769275002
 31
0.0
 11
5.9820372833
 21
3.8515280177
 31
0.0
  0
SPLINE
  5
3FB
100
AcDbEntity
  8
0
100
AcDbSpline
 62
6
  6
CONTINUOUS
 70
0
 71
3
 72
9
 73
5
 74
3
 42
0.0000001
 43
0.0000001
 44
0.0000000001
 12
0.0399456942
 22
-0.0670515858
 32
0.0
 13
0.0234576598
 23
-0.0744399882
 33
0.0
 40
0.0
 40
0.0
 40
0.0
 40
0.0
 40
0.5047885619
 40
1.0
 40
1.0
 40
1.0
 40
1.0
 10
6.0902406725
 20
3.733344904
 30
0.0
 10
6.096962049
 20
3.7220626128
 30
0.0
 10
6.1090453664
 20
3.6989511764
 30
0.0
 10
6.1183620626
 20
3.6745872059
 30
0.0
 10
6.1222342297
 20
3.6622993614
 30
0.0
 11
6.0902406725
 21
3.733344904
 31
0.0
 11
6.1084561229
 21
3.6984106753
 31
0.0
 11
6.1222342297
 21
3.6622993614
 31
0.0
  0
SPLINE
  5
3FC
100
AcDbEntity
  8
0
100
AcDbSpline
 62
6
  6
CONTINUOUS
 70
0
 71
3
 72
12
 73
8
 74
6
 42
0.0000001
 43
0.0000001
 44
0.0000000001
 12
0.0452490349
 22
-0.1435922278
 32
0.0
 13
-0.0277891756
 23
-0.1479660934
 33
0.0
 40
0.0
 40
0.0
 40
0.0
 40
0.0
 40
0.2519164431
 40
0.5015063019
 40
0.6259548071
 40
0.7504041025
 40
1.0
 40
1.0
 40
1.0
 40
1.0
 10
6.1222342297
 20
3.6622993614
 30
0.0
 10
6.1260338884
 20
3.6502416136
 30
0.0
 10
6.1321891306
 20
3.6257663155
 30
0.0
 10
6.1361017417
 20
3.5945145826
 30
0.0
 10
6.1368808864
 20
3.5694951325
 30
0.0
 10
6.1360903116
 20
3.5444791812
 30
0.0
 10
6.1337413525
 20
3.5257926107
 30
0.0
 10
6.1314293311
 20
3.5134820341
 30
0.0
 11
6.1222342297
 21
3.6622993614
 31
0.0
 11
6.1314555352
 21
3.6255106715
 31
0.0
 11
6.1361032445
 21
3.5882227092
 31
0.0
 11
6.1366849451
 21
3.5694956467
 31
0.0
 11
6.1360944283
 21
3.5507687412
 31
0.0
 11
6.1314293311
 21
3.5134820341
 31
0.0
  0
SPLINE
  5
3FD
100
AcDbEntity
  8
0
100
AcDbSpline
 62
6
  6
CONTINUOUS
 70
0
 71
3
 72
22
 73
18
 74
16
 42
0.0000001
 43
0.0000001
 44
0.0000000001
 12
1.0176016749
 22
-0.0000051468
 32
0.0
 13
0.5168904778
 23
0.8765485741
 33
0.0
 40
0.0
 40
0.0
 40
0.0
 40
0.0
 40
0.1282425118
 40
0.1922764368
 40
0.2561668621
 40
0.3198664501
 40
0.3833336592
 40
0.4465370085
 40
0.5094498882
 40
0.5720439324
 40
0.6342921195
 40
0.6961727193
 40
0.7576734437
 40
0.8187968452
 40
0.8795525151
 40
0.939949594
 40
1.0
 40
1.0
 40
1.0
 40
1.0
 10
5.6213292035
 20
0.4954652393
 30
0.0
 10
5.664829135
 20
0.4954650192
 30
0.0
 10
5.7301421163
 20
0.4995249494
 30
0.0
 10
5.8160404615
 20
0.5128635248
 30
0.0
 10
5.8795802153
 20
0.5267701794
 30
0.0
 10
5.9419489379
 20
0.5445285963
 30
0.0
 10
6.0028624839
 20
0.5660909681
 30
0.0
 10
6.0620308269
 20
0.5913908293
 30
0.0
 10
6.1192060158
 20
0.620268154
 30
0.0
 10
6.174141035
 20
0.6525746065
 30
0.0
 10
6.2265891832
 20
0.6881603147
 30
0.0
 10
6.2763051268
 20
0.72687444
 30
0.0
 10
6.3230368009
 20
0.7685747186
 30
0.0
 10
6.3665570425
 20
0.8130843991
 30
0.0
 10
6.4067064373
 20
0.8601669674
 30
0.0
 10
6.4433164051
 20
0.9095961563
 30
0.0
 10
6.4653200039
 20
0.9440673759
 30
0.0
 10
6.4756664982
 20
0.9616130752
 30
0.0
 11
5.6213292035
 21
0.4954652393
 31
0.0
 11
5.7515796616
 21
0.5035284012
 31
0.0
 11
5.8159688252
 21
0.5135281695
 31
0.0
 11
5.879478869
 21
0.5274359028
 31
0.0
 11
5.9418184863
 21
0.5451984815
 31
0.0
 11
6.0026964045
 21
0.566762707
 31
0.0
 11
6.0618326768
 21
0.5920496172
 31
0.0
 11
6.1189749534
 21
0.6209174687
 31
0.0
 11
6.173875009
 21
0.653215137
 31
0.0
 11
6.2262846178
 21
0.6887914974
 31
0.0
 11
6.2759555544
 21
0.7274954253
 31
0.0
 11
6.3226401232
 21
0.7691753123
 31
0.0
 11
6.3661214765
 21
0.8136513938
 31
0.0
 11
6.4062300383
 21
0.8607007585
 31
0.0
 11
6.4428002363
 21
0.9100968409
 31
0.0
 11
6.4756664982
 21
0.9616130752
 31
0.0
  0
SPLINE
  5
3FE
100
AcDbEntity
  8
0
100
AcDbSpline
 62
9
  6
CONTINUOUS
 70
0
 71
3
 72
22
 73
18
 74
16
 42
0.0000001
 43
0.0000001
 44
0.0000000001
 12
-0.5466009348
 22
-0.0
 32
0.0
 13
-0.0000012755
 23
-0.5466009348
 33
0.0
 40
0.0
 40
0.0
 40
0.0
 40
0.0
 40
0.1405092582
 40
0.2101251077
 40
0.2789260059
 40
0.3466793877
 40
0.4131974489
 40
0.4783123312
 40
0.5418875336
 40
0.6038483335
 40
0.664205071
 40
0.7230108863
 40
0.7803701502
 40
0.8364667021
 40
0.8915670287
 40
0.9459683253
 40
1.0
 40
1.0
 40
1.0
 40
1.0
 10
5.6213345099
 20
3.2082184515
 30
0.0
 10
5.5957336793
 20
3.2082184515
 30
0.0
 10
5.5573651039
 20
3.2053204016
 30
0.0
 10
5.5074163866
 20
3.1957694879
 30
0.0
 10
5.4711371126
 20
3.1858653312
 30
0.0
 10
5.4363097271
 20
3.1732542727
 30
0.0
 10
5.4032484991
 20
3.1580951654
 30
0.0
 10
5.3722614518
 20
3.1405445484
 30
0.0
 10
5.3436521841
 20
3.1207549753
 30
0.0
 10
5.3177277519
 20
3.0988746029
 30
0.0
 10
5.2947108102
 20
3.0751462266
 30
0.0
 10
5.274808584
 20
3.049802991
 30
0.0
 10
5.2582285626
 20
3.0230728053
 30
0.0
 10
5.245186842
 20
2.9951877743
 30
0.0
 10
5.2357718731
 20
2.9664418504
 30
0.0
 10
5.2300601933
 20
2.9371226435
 30
0.0
 10
5.2287722031
 20
2.9173433787
 30
0.0
 10
5.2287721801
 20
2.9074987908
 30
0.0
 11
5.6213345099
 21
3.2082184515
 31
0.0
 11
5.5447511241
 21
3.202421231
 31
0.0
 11
5.5073792515
 21
3.1952585097
 31
0.0
 11
5.4711075701
 21
3.1853275407
 31
0.0
 11
5.4362923108
 21
3.1727013989
 31
0.0
 11
5.403253695
 21
3.1575219817
 31
0.0
 11
5.3723029416
 21
3.1399483924
 31
0.0
 11
5.3437512694
 21
3.1201397343
 31
0.0
 11
5.3178926263
 21
3.0982682788
 31
0.0
 11
5.2949518747
 21
3.0745589718
 31
0.0
 11
5.2751366048
 21
3.0492499282
 31
0.0
 11
5.258654407
 21
3.0225792628
 31
0.0
 11
5.2456904354
 21
2.994792217
 31
0.0
 11
5.2363400956
 21
2.9661625393
 31
0.0
 11
5.2306763547
 21
2.9369711054
 31
0.0
 11
5.2287721801
 21
2.9074987908
 31
0.0
  0
SPLINE
  5
3FF
100
AcDbEntity
  8
0
100
AcDbSpline
 62
9
  6
CONTINUOUS
 70
0
 71
3
 72
22
 73
18
 74
16
 42
0.0000001
 43
0.0000001
 44
0.0000000001
 12
0.5466009348
 22
-0.0
 32
0.0
 13
0.0000012755
 23
-0.5466009348
 33
0.0
 40
0.0
 40
0.0
 40
0.0
 40
0.0
 40
0.1405092582
 40
0.2101251077
 40
0.2789260059
 40
0.3466793877
 40
0.4131974489
 40
0.4783123312
 40
0.5418875336
 40
0.6038483335
 40
0.664205071
 40
0.7230108863
 40
0.7803701502
 40
0.8364667021
 40
0.8915670287
 40
0.9459683253
 40
1.0
 40
1.0
 40
1.0
 40
1.0
 10
5.6213345099
 20
3.2082184515
 30
0.0
 10
5.6469353405
 20
3.2082184515
 30
0.0
 10
5.6853039159
 20
3.2053204016
 30
0.0
 10
5.7352526333
 20
3.1957694879
 30
0.0
 10
5.7715319072
 20
3.1858653312
 30
0.0
 10
5.8063592927
 20
3.1732542727
 30
0.0
 10
5.8394205208
 20
3.1580951654
 30
0.0
 10
5.870407568
 20
3.1405445484
 30
0.0
 10
5.8990168357
 20
3.1207549753
 30
0.0
 10
5.924941268
 20
3.0988746029
 30
0.0
 10
5.9479582096
 20
3.0751462266
 30
0.0
 10
5.9678604358
 20
3.049802991
 30
0.0
 10
5.9844404572
 20
3.0230728053
 30
0.0
 10
5.9974821779
 20
2.9951877743
 30
0.0
 10
6.0068971467
 20
2.9664418504
 30
0.0
 10
6.0126088265
 20
2.9371226435
 30
0.0
 10
6.0138968167
 20
2.9173433787
 30
0.0
 10
6.0138968397
 20
2.9074987908
 30
0.0
 11
5.6213345099
 21
3.2082184515
 31
0.0
 11
5.6979178958
 21
3.202421231
 31
0.0
 11
5.7352897683
 21
3.1952585097
 31
0.0
 11
5.7715614497
 21
3.1853275407
 31
0.0
 11
5.806376709
 21
3.1727013989
 31
0.0
 11
5.8394153248
 21
3.1575219817
 31
0.0
 11
5.8703660782
 21
3.1399483924
 31
0.0
 11
5.8989177504
 21
3.1201397343
 31
0.0
 11
5.9247763935
 21
3.0982682788
 31
0.0
 11
5.9477171452
 21
3.0745589718
 31
0.0
 11
5.9675324151
 21
3.0492499282
 31
0.0
 11
5.9840146128
 21
3.0225792628
 31
0.0
 11
5.9969785844
 21
2.994792217
 31
0.0
 11
6.0063289243
 21
2.9661625393
 31
0.0
 11
6.0119926652
 21
2.9369711054
 31
0.0
 11
6.0138968397
 21
2.9074987908
 31
0.0
  0
LINE
  5
400
100
AcDbEntity
  8
0
100
AcDbLine
 62
9
  6
CONTINUOUS
 10
5.0865401912
 20
2.2827891682
 11
5.1120895287
 21
2.3208002369
  0
SPLINE
  5
401
100
AcDbEntity
  8
0
100
AcDbSpline
 62
6
  6
CONTINUOUS
 70
0
 71
3
 72
11
 73
7
 74
5
 42
0.0000001
 43
0.0000001
 44
0.0000000001
 12
-0.0679093891
 22
-0.0064478715
 32
0.0
 13
-0.066022441
 23
-0.0171551001
 33
0.0
 40
0.0
 40
0.0
 40
0.0
 40
0.0
 40
0.2728940683
 40
0.5308500881
 40
0.7733450277
 40
1.0
 40
1.0
 40
1.0
 40
1.0
 10
5.1120895287
 20
2.3208002369
 30
0.0
 10
5.1059121722
 20
2.3202137083
 30
0.0
 10
5.0939095696
 20
2.318915806
 30
0.0
 10
5.0764929064
 20
2.3164657655
 30
0.0
 10
5.060217357
 20
2.313533629
 30
0.0
 10
5.0498124841
 20
2.3111544654
 30
0.0
 10
5.0448243792
 20
2.3098583692
 30
0.0
 11
5.1120895287
 21
2.3208002369
 31
0.0
 11
5.0935842963
 21
2.3187778339
 31
0.0
 11
5.0761629457
 21
2.3163018363
 31
0.0
 11
5.0598885993
 21
2.313339572
 31
0.0
 11
5.0448243792
 21
2.3098583692
 31
0.0
  0
SPLINE
  5
402
100
AcDbEntity
  8
0
100
AcDbSpline
 62
6
  6
CONTINUOUS
 70
0
 71
3
 72
11
 73
7
 74
5
 42
0.0000001
 43
0.0000001
 44
0.0000000001
 12
-0.0528858064
 22
-0.0161714035
 32
0.0
 13
-0.0375180085
 23
-0.040630307
 33
0.0
 40
0.0
 40
0.0
 40
0.0
 40
0.0
 40
0.2874192256
 40
0.4211715897
 40
0.5485183952
 40
1.0
 40
1.0
 40
1.0
 40
1.0
 10
5.0351451208
 20
2.3071295034
 30
0.0
 10
5.0300783216
 20
2.3055801793
 30
0.0
 10
5.0227299535
 20
2.3030375753
 30
0.0
 10
5.0134440603
 20
2.299013932
 30
0.0
 10
5.0017169876
 20
2.2931301558
 30
0.0
 10
4.992761188
 20
2.2868534922
 30
0.0
 10
4.9871149577
 20
2.2807388801
 30
0.0
 11
5.0351451208
 21
2.3071295034
 31
0.0
 11
5.0201505396
 21
2.3018552008
 31
0.0
 11
5.0133679508
 21
2.2989038045
 31
0.0
 11
5.0070789276
 21
2.2957340618
 31
0.0
 11
4.9871149577
 21
2.2807388801
 31
0.0
  0
LINE
  5
403
100
AcDbEntity
  8
0
100
AcDbLine
 62
9
  6
CONTINUOUS
 10
4.9784351938
 20
2.2679534812
 11
4.9655218973
 21
2.2544447515
  0
LINE
  5
404
100
AcDbEntity
  8
0
100
AcDbLine
 62
9
  6
CONTINUOUS
 10
4.9483691955
 20
2.2365135518
 11
4.9392553651
 21
2.2269918393
  0
SPLINE
  5
405
100
AcDbEntity
  8
0
100
AcDbSpline
 62
9
  6
CONTINUOUS
 70
0
 71
3
 72
23
 73
19
 74
17
 42
0.0000001
 43
0.0000001
 44
0.0000000001
 12
-0.978866108
 22
0.0
 32
0.0
 13
-0.0712467136
 23
0.9762698209
 33
0.0
 40
0.0
 40
0.0
 40
0.0
 40
0.0
 40
0.0627496106
 40
0.1258526579
 40
0.1893294405
 40
0.2531392524
 40
0.3172324606
 40
0.381510046
 40
0.4458610169
 40
0.5101369718
 40
0.5741803431
 40
0.6378190917
 40
0.7008661574
 40
0.763125446
 40
0.8243839245
 40
0.8844468611
 40
0.9430716032
 40
1.0
 40
1.0
 40
1.0
 40
1.0
 10
5.6213345099
 20
1.0876720702
 30
0.0
 10
5.6008600209
 20
1.0876720702
 30
0.0
 10
5.559771879
 20
1.0894855206
 30
0.0
 10
5.4984701881
 20
1.0977695718
 30
0.0
 10
5.4378560647
 20
1.1117853782
 30
0.0
 10
5.3785140872
 20
1.1315243155
 30
0.0
 10
5.3210926053
 20
1.1569595346
 30
0.0
 10
5.2662149822
 20
1.1878633867
 30
0.0
 10
5.2145501794
 20
1.2239879973
 30
0.0
 10
5.1666785013
 20
1.2648905698
 30
0.0
 10
5.1232033484
 20
1.310116157
 30
0.0
 10
5.0845528478
 20
1.359016793
 30
0.0
 10
5.0511536964
 20
1.4109502423
 30
0.0
 10
5.023204849
 20
1.4651330441
 30
0.0
 10
5.0008922972
 20
1.5208162833
 30
0.0
 10
4.9840782895
 20
1.5771547693
 30
0.0
 10
4.9725966972
 20
1.6333648161
 30
0.0
 10
4.9682338473
 20
1.6708690537
 30
0.0
 10
4.9668818603
 20
1.6893948789
 30
0.0
 11
5.6213345099
 21
1.0876720702
 31
0.0
 11
5.5599715843
 21
1.0903985477
 31
0.0
 11
5.498761525
 21
1.0986926207
 31
0.0
 11
5.4382246532
 21
1.1126954447
 31
0.0
 11
5.3789612178
 21
1.1324249785
 31
0.0
 11
5.3215969398
 21
1.1578312813
 31
0.0
 11
5.266779509
 21
1.1887160461
 31
0.0
 11
5.2151534189
 21
1.2248077479
 31
0.0
 11
5.1673284402
 21
1.2656903848
 31
0.0
 11
5.1238774145
 21
1.3108792122
 31
0.0
 11
5.0852602624
 21
1.3597590121
 31
0.0
 11
5.0518696212
 21
1.4116604702
 31
0.0
 11
5.023941987
 21
1.4658283422
 31
0.0
 11
5.0016162067
 21
1.5214810389
 31
0.0
 11
4.9847968052
 21
1.5778174567
 31
0.0
 11
4.9733073656
 21
1.6340412927
 31
0.0
 11
4.9668818603
 21
1.6893948789
 31
0.0
  0
SPLINE
  5
406
100
AcDbEntity
  8
0
100
AcDbSpline
 62
9
  6
CONTINUOUS
 70
0
 71
3
 72
22
 73
18
 74
16
 42
0.0000001
 43
0.0000001
 44
0.0000000001
 12
-0.0023430775
 22
-1.0765290076
 32
0.0
 13
1.0731004809
 23
-0.0858810346
 33
0.0
 40
0.0
 40
0.0
 40
0.0
 40
0.0
 40
0.0571518127
 40
0.1150863367
 40
0.1738696151
 40
0.2335621489
 40
0.2942384675
 40
0.355912454
 40
0.4185610948
 40
0.4821088865
 40
0.5464331325
 40
0.6113625127
 40
0.6766782521
 40
0.7421434462
 40
0.8074859217
 40
0.8724411267
 40
1.0
 40
1.0
 40
1.0
 40
1.0
 10
4.9010604879
 20
1.6741648104
 30
0.0
 10
4.9010158508
 20
1.6536562823
 30
0.0
 10
4.9031174696
 20
1.6123209572
 30
0.0
 10
4.9128942
 20
1.5505842567
 30
0.0
 10
4.9295059298
 20
1.4893695113
 30
0.0
 10
4.9530023231
 20
1.4293921895
 30
0.0
 10
4.983400162
 20
1.3714262224
 30
0.0
 10
5.0203739679
 20
1.3161411142
 30
0.0
 10
5.0635840822
 20
1.2642390015
 30
0.0
 10
5.112447705
 20
1.2162631159
 30
0.0
 10
5.1663810673
 20
1.172762674
 30
0.0
 10
5.2246214188
 20
1.1340806439
 30
0.0
 10
5.2864303959
 20
1.1005502512
 30
0.0
 10
5.3509718614
 20
1.0722914244
 30
0.0
 10
5.4174686663
 20
1.0494024813
 30
0.0
 10
5.5070694231
 20
1.0260488711
 30
0.0
 10
5.5757066805
 20
1.0159610982
 30
0.0
 10
5.6213345099
 20
1.0123094689
 30
0.0
 11
4.9010604879
 21
1.6741648104
 31
0.0
 11
4.9041807959
 21
1.6127182553
 31
0.0
 11
4.9139373579
 21
1.5511177703
 31
0.0
 11
4.9304991046
 21
1.4900413679
 31
0.0
 11
4.9539339032
 21
1.4302059853
 31
0.0
 11
4.9842228869
 21
1.372333054
 31
0.0
 11
5.0211013149
 21
1.3171230565
 31
0.0
 11
5.0642006665
 21
1.2652478566
 31
0.0
 11
5.112983175
 21
1.2172857926
 31
0.0
 11
5.1668390307
 21
1.1737575834
 31
0.0
 11
5.2250394988
 21
1.1350469962
 31
0.0
 11
5.2868159814
 21
1.1014644303
 31
0.0
 11
5.3513593532
 21
1.0731637637
 31
0.0
 11
5.4178558923
 21
1.0502207632
 31
0.0
 11
5.4855140168
 21
1.0325552729
 31
0.0
 11
5.6213345099
 21
1.0123094689
 31
0.0
  0
SPLINE
  5
407
100
AcDbEntity
  8
0
100
AcDbSpline
 62
9
  6
CONTINUOUS
 70
0
 71
3
 72
22
 73
18
 74
16
 42
0.0000001
 43
0.0000001
 44
0.0000000001
 12
0.0023430775
 22
-1.0765290076
 32
0.0
 13
-1.0731004809
 23
-0.0858810346
 33
0.0
 40
0.0
 40
0.0
 40
0.0
 40
0.0
 40
0.0571518127
 40
0.1150863367
 40
0.1738696151
 40
0.2335621489
 40
0.2942384675
 40
0.355912454
 40
0.4185610948
 40
0.4821088865
 40
0.5464331325
 40
0.6113625127
 40
0.6766782521
 40
0.7421434462
 40
0.8074859217
 40
0.8724411267
 40
1.0
 40
1.0
 40
1.0
 40
1.0
 10
6.3416085319
 20
1.6741648104
 30
0.0
 10
6.341653169
 20
1.6536562823
 30
0.0
 10
6.3395515502
 20
1.6123209572
 30
0.0
 10
6.3297748199
 20
1.5505842567
 30
0.0
 10
6.31316309
 20
1.4893695113
 30
0.0
 10
6.2896666967
 20
1.4293921895
 30
0.0
 10
6.2592688579
 20
1.3714262224
 30
0.0
 10
6.2222950519
 20
1.3161411142
 30
0.0
 10
6.1790849377
 20
1.2642390015
 30
0.0
 10
6.1302213149
 20
1.2162631159
 30
0.0
 10
6.0762879525
 20
1.172762674
 30
0.0
 10
6.0180476011
 20
1.1340806439
 30
0.0
 10
5.956238624
 20
1.1005502512
 30
0.0
 10
5.8916971584
 20
1.0722914244
 30
0.0
 10
5.8252003535
 20
1.0494024813
 30
0.0
 10
5.7355995968
 20
1.0260488711
 30
0.0
 10
5.6669623393
 20
1.0159610982
 30
0.0
 10
5.6213345099
 20
1.0123094689
 30
0.0
 11
6.3416085319
 21
1.6741648104
 31
0.0
 11
6.3384882239
 21
1.6127182553
 31
0.0
 11
6.328731662
 21
1.5511177703
 31
0.0
 11
6.3121699153
 21
1.4900413679
 31
0.0
 11
6.2887351166
 21
1.4302059853
 31
0.0
 11
6.2584461329
 21
1.372333054
 31
0.0
 11
6.2215677049
 21
1.3171230565
 31
0.0
 11
6.1784683533
 21
1.2652478566
 31
0.0
 11
6.1296858448
 21
1.2172857926
 31
0.0
 11
6.0758299891
 21
1.1737575834
 31
0.0
 11
6.017629521
 21
1.1350469962
 31
0.0
 11
5.9558530384
 21
1.1014644303
 31
0.0
 11
5.8913096666
 21
1.0731637637
 31
0.0
 11
5.8248131275
 21
1.0502207632
 31
0.0
 11
5.757155003
 21
1.0325552729
 31
0.0
 11
5.6213345099
 21
1.0123094689
 31
0.0
  0
SPLINE
  5
408
100
AcDbEntity
  8
0
100
AcDbSpline
 62
9
  6
CONTINUOUS
 70
0
 71
3
 72
23
 73
19
 74
17
 42
0.0000001
 43
0.0000001
 44
0.0000000001
 12
0.978866108
 22
0.0
 32
0.0
 13
0.0712467136
 23
0.9762698209
 33
0.0
 40
0.0
 40
0.0
 40
0.0
 40
0.0
 40
0.0627496106
 40
0.1258526579
 40
0.1893294405
 40
0.2531392524
 40
0.3172324606
 40
0.381510046
 40
0.4458610169
 40
0.5101369718
 40
0.5741803431
 40
0.6378190917
 40
0.7008661574
 40
0.763125446
 40
0.8243839245
 40
0.8844468611
 40
0.9430716032
 40
1.0
 40
1.0
 40
1.0
 40
1.0
 10
5.6213345099
 20
1.0876720702
 30
0.0
 10
5.641808999
 20
1.0876720702
 30
0.0
 10
5.6828971408
 20
1.0894855206
 30
0.0
 10
5.7441988318
 20
1.0977695718
 30
0.0
 10
5.8048129551
 20
1.1117853782
 30
0.0
 10
5.8641549327
 20
1.1315243155
 30
0.0
 10
5.9215764145
 20
1.1569595346
 30
0.0
 10
5.9764540376
 20
1.1878633867
 30
0.0
 10
6.0281188404
 20
1.2239879973
 30
0.0
 10
6.0759905185
 20
1.2648905698
 30
0.0
 10
6.1194656715
 20
1.310116157
 30
0.0
 10
6.158116172
 20
1.359016793
 30
0.0
 10
6.1915153234
 20
1.4109502423
 30
0.0
 10
6.2194641708
 20
1.4651330441
 30
0.0
 10
6.2417767226
 20
1.5208162833
 30
0.0
 10
6.2585907303
 20
1.5771547693
 30
0.0
 10
6.2700723226
 20
1.6333648161
 30
0.0
 10
6.2744351725
 20
1.6708690537
 30
0.0
 10
6.2757871596
 20
1.6893948789
 30
0.0
 11
5.6213345099
 21
1.0876720702
 31
0.0
 11
5.6826974355
 21
1.0903985477
 31
0.0
 11
5.7439074948
 21
1.0986926207
 31
0.0
 11
5.8044443666
 21
1.1126954447
 31
0.0
 11
5.863707802
 21
1.1324249785
 31
0.0
 11
5.92107208
 21
1.1578312813
 31
0.0
 11
5.9758895108
 21
1.1887160461
 31
0.0
 11
6.027515601
 21
1.2248077479
 31
0.0
 11
6.0753405796
 21
1.2656903848
 31
0.0
 11
6.1187916053
 21
1.3108792122
 31
0.0
 11
6.1574087575
 21
1.3597590121
 31
0.0
 11
6.1907993986
 21
1.4116604702
 31
0.0
 11
6.2187270328
 21
1.4658283422
 31
0.0
 11
6.2410528132
 21
1.5214810389
 31
0.0
 11
6.2578722147
 21
1.5778174567
 31
0.0
 11
6.2693616542
 21
1.6340412927
 31
0.0
 11
6.2757871596
 21
1.6893948789
 31
0.0
  0
SPLINE
  5
409
100
AcDbEntity
  8
0
100
AcDbSpline
 62
9
  6
CONTINUOUS
 70
0
 71
3
 72
18
 73
14
 74
12
 42
0.0000001
 43
0.0000001
 44
0.0000000001
 12
-0.5350476624
 22
0.0039237335
 32
0.0
 13
-0.5324978333
 23
-0.0523206868
 33
0.0
 40
0.0
 40
0.0
 40
0.0
 40
0.0
 40
0.1341362281
 40
0.2693937766
 40
0.4038997515
 40
0.5357702093
 40
0.6631283982
 40
0.7245371115
 40
0.7841290428
 40
0.8416823997
 40
0.8969815895
 40
0.9498193966
 40
1.0
 40
1.0
 40
1.0
 40
1.0
 10
5.6213345099
 20
2.279944222
 30
0.0
 10
5.5974114182
 20
2.2801196602
 30
0.0
 10
5.5493682988
 20
2.2809024713
 30
0.0
 10
5.4773568942
 20
2.2828405846
 30
0.0
 10
5.405758386
 20
2.2850654221
 30
0.0
 10
5.3355632855
 20
2.28708807
 30
0.0
 10
5.2783854427
 20
2.2882149012
 30
0.0
 10
5.23408991
 20
2.2885079242
 30
0.0
 10
5.202243591
 20
2.2883647973
 30
0.0
 10
5.1714914128
 20
2.2878009696
 30
0.0
 10
5.141956569
 20
2.2867551592
 30
0.0
 10
5.1137624744
 20
2.2851664376
 30
0.0
 10
5.0954472121
 20
2.2836643294
 30
0.0
 10
5.0865401912
 20
2.2827891682
 30
0.0
 11
5.6213345099
 21
2.279944222
 31
0.0
 11
5.5495714522
 21
2.2810256228
 31
0.0
 11
5.4772244041
 21
2.2828944411
 31
0.0
 11
5.4052877302
 21
2.2850526924
 31
0.0
 11
5.3347557953
 21
2.287002392
 31
0.0
 11
5.2666226116
 21
2.2882460739
 31
0.0
 11
5.2337657621
 21
2.2884483158
 31
0.0
 11
5.2018807825
 21
2.2882883462
 31
0.0
 11
5.1710917042
 21
2.2877043058
 31
0.0
 11
5.1415225587
 21
2.2866343354
 31
0.0
 11
5.1132973772
 21
2.285016576
 31
0.0
 11
5.0865401912
 21
2.2827891682
 31
0.0
  0
SPLINE
  5
40A
100
AcDbEntity
  8
0
100
AcDbSpline
 62
9
  6
CONTINUOUS
 70
0
 71
3
 72
15
 73
11
 74
9
 42
0.0000001
 43
0.0000001
 44
0.0000000001
 12
-0.3598166089
 22
-0.5356020021
 32
0.0
 13
-0.0021007393
 23
-0.6452387803
 33
0.0
 40
0.0
 40
0.0
 40
0.0
 40
0.0
 40
0.1229464035
 40
0.2470717477
 40
0.3719599825
 40
0.4970438261
 40
0.622499984
 40
0.6854698711
 40
0.7485208519
 40
1.0
 40
1.0
 40
1.0
 40
1.0
 10
5.0865401912
 20
2.2827891682
 30
0.0
 10
5.0717941385
 20
2.2608390549
 30
0.0
 10
5.0437975089
 20
2.215604402
 30
0.0
 10
5.006773333
 20
2.1446090136
 30
0.0
 10
4.97488549
 20
2.0706545552
 30
0.0
 10
4.9484734445
 20
1.9942737588
 30
0.0
 10
4.9311130479
 20
1.9290509522
 30
0.0
 10
4.9200888781
 20
1.8760854287
 30
0.0
 10
4.9064622249
 20
1.796042232
 30
0.0
 10
4.9012365853
 20
1.7282528433
 30
0.0
 10
4.9010604879
 20
1.6741648103
 30
0.0
 11
5.0865401912
 21
2.2827891682
 31
0.0
 11
5.0447738948
 21
2.2153439433
 31
0.0
 11
5.0077339636
 21
2.144332695
 31
0.0
 11
4.9758310808
 21
2.0703336974
 31
0.0
 11
4.9494349648
 21
1.9940628105
 31
0.0
 11
4.9286165698
 21
1.9158360034
 31
0.0
 11
4.9203359882
 21
1.8760579165
 31
0.0
 11
4.9135101843
 21
1.8359514659
 31
0.0
 11
4.9010604879
 21
1.6741648103
 31
0.0
  0
SPLINE
  5
40B
100
AcDbEntity
  8
0
100
AcDbSpline
 62
9
  6
CONTINUOUS
 70
0
 71
3
 72
35
 73
31
 74
29
 42
0.0000001
 43
0.0000001
 44
0.0000000001
 12
0.644302365
 22
0.1385554791
 32
0.0
 13
0.6580490331
 23
0.0359809454
 33
0.0
 40
0.0
 40
0.0
 40
0.0
 40
0.0
 40
0.1182195109
 40
0.1783808953
 40
0.208703453
 40
0.2391780013
 40
0.3005483309
 40
0.3314282083
 40
0.3624277577
 40
0.3935402175
 40
0.4247613332
 40
0.4560912998
 40
0.4875297577
 40
0.519075291
 40
0.5507257841
 40
0.5665896147
 40
0.5824779607
 40
0.6143183854
 40
0.6462277819
 40
0.6781897886
 40
0.7101931076
 40
0.7262088574
 40
0.7422346147
 40
0.7743210627
 40
0.8064566037
 40
0.8386380978
 40
0.8708612048
 40
0.9031220729
 40
0.9354091306
 40
1.0
 40
1.0
 40
1.0
 40
1.0
 10
4.9668881588
 20
1.6893926902
 30
0.0
 10
4.9922778623
 20
1.6948526772
 30
0.0
 10
5.030721866
 20
1.7024803897
 30
0.0
 10
5.0758592362
 20
1.7105211827
 30
0.0
 10
5.1020598476
 20
1.7149484896
 30
0.0
 10
5.1285478748
 20
1.7192654225
 30
0.0
 10
5.1551997979
 20
1.7233362316
 30
0.0
 10
5.182012089
 20
1.727101983
 30
0.0
 10
5.2022660546
 20
1.7297666458
 30
0.0
 10
5.2226188915
 20
1.7322477762
 30
0.0
 10
5.2430673582
 20
1.7345354657
 30
0.0
 10
5.2636039711
 20
1.7366726639
 30
0.0
 10
5.2842235112
 20
1.7386974743
 30
0.0
 10
5.3049207308
 20
1.7406496084
 30
0.0
 10
5.3222148193
 20
1.7422465112
 30
0.0
 10
5.3360838752
 20
1.7435279504
 30
0.0
 10
5.3499943224
 20
1.7448148675
 30
0.0
 10
5.3674175549
 20
1.7463951292
 30
0.0
 10
5.3883702687
 20
1.7481493497
 30
0.0
 10
5.4093778122
 20
1.7496644045
 30
0.0
 10
5.4269214569
 20
1.7506473953
 30
0.0
 10
5.440979478
 20
1.7512145427
 30
0.0
 10
5.4550610111
 20
1.7516309257
 30
0.0
 10
5.4726877267
 20
1.7519271429
 30
0.0
 10
5.493864836
 20
1.752085241
 30
0.0
 10
5.5150721308
 20
1.7522088476
 30
0.0
 10
5.5363061843
 20
1.7524660333
 30
0.0
 10
5.5575584279
 20
1.7530013331
 30
0.0
 10
5.5859094657
 20
1.7540174979
 30
0.0
 10
5.6071665235
 20
1.7550659599
 30
0.0
 10
5.6213345099
 20
1.7558406401
 30
0.0
 11
4.9668881588
 21
1.6893926902
 31
0.0
 11
5.0432937916
 21
1.7046313182
 31
0.0
 11
5.0823259586
 21
1.7115937736
 31
0.0
 11
5.1020300878
 21
1.7149237852
 31
0.0
 11
5.1218526792
 21
1.7181517817
 31
0.0
 11
5.1618367119
 21
1.7242407863
 31
0.0
 11
5.1819900494
 21
1.7270690623
 31
0.0
 11
5.2022455317
 21
1.7297313658
 31
0.0
 11
5.2225991063
 21
1.7322113595
 31
0.0
 11
5.2430464085
 21
1.7345065356
 31
0.0
 11
5.2635822626
 21
1.7366503392
 31
0.0
 11
5.2842013626
 21
1.7386819831
 31
0.0
 11
5.3048984024
 21
1.7406406802
 31
0.0
 11
5.3256680763
 21
1.7425656434
 31
0.0
 11
5.3360784932
 21
1.7435276592
 31
0.0
 11
5.3465051085
 21
1.7444899636
 31
0.0
 11
5.3674046065
 21
1.7463696696
 31
0.0
 11
5.388361939
 21
1.7481081218
 31
0.0
 11
5.4093724801
 21
1.7496076602
 31
0.0
 11
5.4304316038
 21
1.750770625
 31
0.0
 11
5.4409779386
 21
1.7511955416
 31
0.0
 11
5.4515346924
 21
1.7515116879
 31
0.0
 11
5.4726772303
 21
1.7518940771
 31
0.0
 11
5.4938547689
 21
1.7520793918
 31
0.0
 11
5.5150628611
 21
1.7522309885
 31
0.0
 11
5.5362970577
 21
1.7525121626
 31
0.0
 11
5.5575514764
 21
1.7530388725
 31
0.0
 11
5.5788162382
 21
1.7537950898
 31
0.0
 11
5.6213345099
 21
1.7558406401
 31
0.0
  0
SPLINE
  5
40C
100
AcDbEntity
  8
0
100
AcDbSpline
 62
9
  6
CONTINUOUS
 70
0
 71
3
 72
31
 73
27
 74
25
 42
0.0000001
 43
0.0000001
 44
0.0000000001
 12
-0.5939511182
 22
0.1277275798
 32
0.0
 13
-0.6071270604
 23
0.0221133002
 33
0.0
 40
0.0
 40
0.0
 40
0.0
 40
0.0
 40
0.1184354914
 40
0.1786360908
 40
0.2089642338
 40
0.2394370059
 40
0.3007881311
 40
0.3626325123
 40
0.4249184832
 40
0.4876114374
 40
0.5507067278
 40
0.5824023492
 40
0.6141939846
 40
0.6460756334
 40
0.6780315565
 40
0.7100458732
 40
0.7421056545
 40
0.7742023986
 40
0.7902637934
 40
0.8063346641
 40
0.8385089483
 40
0.8707288099
 40
0.9029917819
 40
0.9352939162
 40
0.9676326267
 40
1.0
 40
1.0
 40
1.0
 40
1.0
 10
6.275780861
 20
1.6893926902
 30
0.0
 10
6.2523325635
 20
1.6944351831
 30
0.0
 10
6.2168515874
 20
1.7015194472
 30
0.0
 10
6.1752078374
 20
1.709042413
 30
0.0
 10
6.1510579819
 20
1.7131943016
 30
0.0
 10
6.1266566355
 20
1.7172559495
 30
0.0
 10
6.0959160812
 20
1.7221022993
 30
0.0
 10
6.0587335565
 20
1.727436443
 30
0.0
 10
6.0211984953
 20
1.7321965937
 30
0.0
 10
5.9833307749
 20
1.7362913949
 30
0.0
 10
5.9515863363
 20
1.7393587814
 30
0.0
 10
5.9260620721
 20
1.7417304354
 30
0.0
 10
5.9068305707
 20
1.7435044033
 30
0.0
 10
5.887547151
 20
1.7452894741
 30
0.0
 10
5.8682117194
 20
1.7470012442
 30
0.0
 10
5.8488273372
 20
1.7485648594
 30
0.0
 10
5.8293972061
 20
1.7499021882
 30
0.0
 10
5.8131742579
 20
1.7507652011
 30
0.0
 10
5.8001765733
 20
1.7512629684
 30
0.0
 10
5.7871590212
 20
1.7516354926
 30
0.0
 10
5.7708659434
 20
1.7519124908
 30
0.0
 10
5.7512924985
 20
1.7520700192
 30
0.0
 10
5.7316929471
 20
1.7521832256
 30
0.0
 10
5.7120697015
 20
1.7523778257
 30
0.0
 10
5.6924285494
 20
1.7527946275
 30
0.0
 10
5.6793313897
 20
1.7532135627
 30
0.0
 10
5.6727810202
 20
1.7534521458
 30
0.0
 11
6.275780861
 21
1.6893926902
 31
0.0
 11
6.2052326695
 21
1.7035417959
 31
0.0
 11
6.169242787
 21
1.7100502619
 31
0.0
 11
6.1510841394
 21
1.7131732739
 31
0.0
 11
6.1328220998
 21
1.7162118975
 31
0.0
 11
6.0960019223
 21
1.7220018256
 31
0.0
 11
6.0588083007
 21
1.7273227124
 31
0.0
 11
6.0212668386
 21
1.7320711478
 31
0.0
 11
5.9834046565
 21
1.7362109314
 31
0.0
 11
5.9452541402
 21
1.7399392285
 31
0.0
 11
5.9260812342
 21
1.7417265016
 31
0.0
 11
5.9068488172
 21
1.7435037682
 31
0.0
 11
5.8875609474
 21
1.745275221
 31
0.0
 11
5.8682213348
 21
1.7469750443
 31
0.0
 11
5.8488336333
 21
1.7485261002
 31
0.0
 11
5.8294014969
 21
1.7498512507
 31
0.0
 11
5.8099285795
 21
1.7508733577
 31
0.0
 11
5.8001779695
 21
1.7512471841
 31
0.0
 11
5.7904185253
 21
1.7515296236
 31
0.0
 11
5.7708748919
 21
1.7518831933
 31
0.0
 11
5.7513011926
 21
1.7520625418
 31
0.0
 11
5.7317009399
 21
1.752196698
 31
0.0
 11
5.7120776466
 21
1.7524146912
 31
0.0
 11
5.6924353052
 21
1.7528297035
 31
0.0
 11
5.6727810202
 21
1.7534521458
 31
0.0
  0
SPLINE
  5
40D
100
AcDbEntity
  8
0
100
AcDbSpline
 62
9
  6
CONTINUOUS
 70
0
 71
3
 72
15
 73
11
 74
9
 42
0.0000001
 43
0.0000001
 44
0.0000000001
 12
0.3598166089
 22
-0.5356020021
 32
0.0
 13
0.0021007393
 23
-0.6452387803
 33
0.0
 40
0.0
 40
0.0
 40
0.0
 40
0.0
 40
0.1229464035
 40
0.2470717477
 40
0.3719599825
 40
0.4970438261
 40
0.622499984
 40
0.6854698711
 40
0.7485208519
 40
1.0
 40
1.0
 40
1.0
 40
1.0
 10
6.1561288286
 20
2.2827891682
 30
0.0
 10
6.1708748813
 20
2.2608390549
 30
0.0
 10
6.1988715109
 20
2.215604402
 30
0.0
 10
6.2358956868
 20
2.1446090136
 30
0.0
 10
6.2677835298
 20
2.0706545552
 30
0.0
 10
6.2941955753
 20
1.9942737588
 30
0.0
 10
6.3115559719
 20
1.9290509522
 30
0.0
 10
6.3225801417
 20
1.8760854287
 30
0.0
 10
6.3362067949
 20
1.796042232
 30
0.0
 10
6.3414324346
 20
1.7282528433
 30
0.0
 10
6.3416085319
 20
1.6741648103
 30
0.0
 11
6.1561288286
 21
2.2827891682
 31
0.0
 11
6.197895125
 21
2.2153439433
 31
0.0
 11
6.2349350562
 21
2.144332695
 31
0.0
 11
6.266837939
 21
2.0703336974
 31
0.0
 11
6.293234055
 21
1.9940628105
 31
0.0
 11
6.3140524501
 21
1.9158360034
 31
0.0
 11
6.3223330316
 21
1.8760579165
 31
0.0
 11
6.3291588355
 21
1.8359514659
 31
0.0
 11
6.3416085319
 21
1.6741648103
 31
0.0
  0
SPLINE
  5
40E
100
AcDbEntity
  8
0
100
AcDbSpline
 62
9
  6
CONTINUOUS
 70
0
 71
3
 72
18
 73
14
 74
12
 42
0.0000001
 43
0.0000001
 44
0.0000000001
 12
0.5350476624
 22
0.0039237335
 32
0.0
 13
0.5324978333
 23
-0.0523206868
 33
0.0
 40
0.0
 40
0.0
 40
0.0
 40
0.0
 40
0.1341362281
 40
0.2693937766
 40
0.4038997515
 40
0.5357702093
 40
0.6631283982
 40
0.7245371115
 40
0.7841290428
 40
0.8416823997
 40
0.8969815895
 40
0.9498193966
 40
1.0
 40
1.0
 40
1.0
 40
1.0
 10
5.6213345099
 20
2.279944222
 30
0.0
 10
5.6452576017
 20
2.2801196602
 30
0.0
 10
5.693300721
 20
2.2809024713
 30
0.0
 10
5.7653121256
 20
2.2828405846
 30
0.0
 10
5.8369106338
 20
2.2850654221
 30
0.0
 10
5.9071057344
 20
2.28708807
 30
0.0
 10
5.9642835771
 20
2.2882149012
 30
0.0
 10
6.0085791098
 20
2.2885079242
 30
0.0
 10
6.0404254288
 20
2.2883647973
 30
0.0
 10
6.071177607
 20
2.2878009696
 30
0.0
 10
6.1007124508
 20
2.2867551592
 30
0.0
 10
6.1289065454
 20
2.2851664376
 30
0.0
 10
6.1472218078
 20
2.2836643294
 30
0.0
 10
6.1561288286
 20
2.2827891682
 30
0.0
 11
5.6213345099
 21
2.279944222
 31
0.0
 11
5.6930975676
 21
2.2810256228
 31
0.0
 11
5.7654446158
 21
2.2828944411
 31
0.0
 11
5.8373812896
 21
2.2850526924
 31
0.0
 11
5.9079132245
 21
2.287002392
 31
0.0
 11
5.9760464082
 21
2.2882460739
 31
0.0
 11
6.0089032578
 21
2.2884483158
 31
0.0
 11
6.0407882373
 21
2.2882883462
 31
0.0
 11
6.0715773156
 21
2.2877043058
 31
0.0
 11
6.1011464611
 21
2.2866343354
 31
0.0
 11
6.1293716426
 21
2.285016576
 31
0.0
 11
6.1561288286
 21
2.2827891682
 31
0.0
  0
SPLINE
  5
40F
100
AcDbEntity
  8
0
100
AcDbSpline
 62
6
  6
CONTINUOUS
 70
0
 71
3
 72
11
 73
7
 74
5
 42
0.0000001
 43
0.0000001
 44
0.0000000001
 12
0.0679093891
 22
-0.0064478715
 32
0.0
 13
0.066022441
 23
-0.0171551001
 33
0.0
 40
0.0
 40
0.0
 40
0.0
 40
0.0
 40
0.2728940683
 40
0.5308500881
 40
0.7733450277
 40
1.0
 40
1.0
 40
1.0
 40
1.0
 10
6.1305794911
 20
2.3208002369
 30
0.0
 10
6.1367568476
 20
2.3202137083
 30
0.0
 10
6.1487594502
 20
2.318915806
 30
0.0
 10
6.1661761134
 20
2.3164657655
 30
0.0
 10
6.1824516629
 20
2.313533629
 30
0.0
 10
6.1928565358
 20
2.3111544654
 30
0.0
 10
6.1978446406
 20
2.3098583692
 30
0.0
 11
6.1305794911
 21
2.3208002369
 31
0.0
 11
6.1490847236
 21
2.3187778339
 31
0.0
 11
6.1665060741
 21
2.3163018363
 31
0.0
 11
6.1827804205
 21
2.313339572
 31
0.0
 11
6.1978446406
 21
2.3098583692
 31
0.0
  0
SPLINE
  5
410
100
AcDbEntity
  8
0
100
AcDbSpline
 62
6
  6
CONTINUOUS
 70
0
 71
3
 72
11
 73
7
 74
5
 42
0.0000001
 43
0.0000001
 44
0.0000000001
 12
0.0528858064
 22
-0.0161714035
 32
0.0
 13
0.0375180085
 23
-0.040630307
 33
0.0
 40
0.0
 40
0.0
 40
0.0
 40
0.0
 40
0.2874192256
 40
0.4211715897
 40
0.5485183952
 40
1.0
 40
1.0
 40
1.0
 40
1.0
 10
6.207523899
 20
2.3071295034
 30
0.0
 10
6.2125906982
 20
2.3055801793
 30
0.0
 10
6.2199390663
 20
2.3030375753
 30
0.0
 10
6.2292249595
 20
2.299013932
 30
0.0
 10
6.2409520323
 20
2.2931301558
 30
0.0
 10
6.2499078318
 20
2.2868534922
 30
0.0
 10
6.2555540621
 20
2.2807388801
 30
0.0
 11
6.207523899
 21
2.3071295034
 31
0.0
 11
6.2225184802
 21
2.3018552008
 31
0.0
 11
6.229301069
 21
2.2989038045
 31
0.0
 11
6.2355900922
 21
2.2957340618
 31
0.0
 11
6.2555540621
 21
2.2807388801
 31
0.0
  0
LINE
  5
411
100
AcDbEntity
  8
0
100
AcDbLine
 62
9
  6
CONTINUOUS
 10
6.1561288286
 20
2.2827891682
 11
6.1305794911
 21
2.3208002369
  0
LINE
  5
412
100
AcDbEntity
  8
0
100
AcDbLine
 62
9
  6
CONTINUOUS
 10
6.264233826
 20
2.2679534812
 11
6.2771471226
 21
2.2544447515
  0
LINE
  5
413
100
AcDbEntity
  8
0
100
AcDbLine
 62
9
  6
CONTINUOUS
 10
6.2942998244
 20
2.2365135518
 11
6.3034136547
 21
2.2269918393
  0
SPLINE
  5
414
100
AcDbEntity
  8
0
100
AcDbSpline
 62
6
  6
CONTINUOUS
 70
0
 71
3
 72
14
 73
10
 74
8
 42
0.0000001
 43
0.0000001
 44
0.0000000001
 12
0.2984935883
 22
0.0100344431
 32
0.0
 13
0.2973249962
 23
-0.0282304611
 33
0.0
 40
0.0
 40
0.0
 40
0.0
 40
0.0
 40
0.2776173911
 40
0.4115292788
 40
0.5410833372
 40
0.6654748923
 40
0.783919643
 40
0.8956639026
 40
1.0
 40
1.0
 40
1.0
 40
1.0
 10
5.8320978447
 20
2.3210833069
 30
0.0
 10
5.8597201818
 20
2.3220118856
 30
0.0
 10
5.9006669815
 20
2.3233870785
 30
0.0
 10
5.9545185086
 20
2.3247021997
 30
0.0
 10
5.9931278832
 20
2.325275441
 30
0.0
 10
6.0302022967
 20
2.3253239208
 30
0.0
 10
6.0654998667
 20
2.3247234704
 30
0.0
 10
6.0987785437
 20
2.3233506224
 30
0.0
 10
6.1202389145
 20
2.3217820556
 30
0.0
 10
6.1305794911
 20
2.3208002369
 30
0.0
 11
5.8320978447
 21
2.3210833069
 31
0.0
 11
5.9149704716
 21
2.323696657
 31
0.0
 11
5.9549535758
 21
2.3246479567
 31
0.0
 11
5.9936426235
 21
2.3251939908
 31
0.0
 11
6.0307936767
 21
2.3252084975
 31
0.0
 11
6.0661627976
 21
2.3245652152
 31
0.0
 11
6.0995060484
 21
2.3231378822
 31
0.0
 11
6.1305794911
 21
2.3208002369
 31
0.0
  0
SPLINE
  5
415
100
AcDbEntity
  8
0
100
AcDbSpline
 62
9
  6
CONTINUOUS
 70
0
 71
3
 72
10
 73
6
 74
4
 42
0.0000001
 43
0.0000001
 44
0.0000000001
 12
0.210827099
 22
0.0000000001
 32
0.0
 13
0.2107080721
 23
0.007083362
 33
0.0
 40
0.0
 40
0.0
 40
0.0
 40
0.0
 40
0.2483781355
 40
0.4993025746
 40
1.0
 40
1.0
 40
1.0
 40
1.0
 10
5.6213345099
 20
2.3162954222
 30
0.0
 10
5.6387894572
 20
2.3162954222
 30
0.0
 10
5.6738785526
 20
2.316606403
 30
0.0
 10
5.7441391215
 20
2.3181168938
 30
0.0
 10
5.7969308483
 20
2.3199010999
 30
0.0
 10
5.8320978447
 20
2.3210833069
 30
0.0
 11
5.6213345099
 21
2.3162954222
 31
0.0
 11
5.6736976747
 21
2.3167144926
 31
0.0
 11
5.7265879619
 21
2.3178119337
 31
0.0
 11
5.8320978447
 21
2.3210833069
 31
0.0
  0
SPLINE
  5
416
100
AcDbEntity
  8
0
100
AcDbSpline
 62
9
  6
CONTINUOUS
 70
0
 71
3
 72
10
 73
6
 74
4
 42
0.0000001
 43
0.0000001
 44
0.0000000001
 12
-0.210827099
 22
0.0000000001
 32
0.0
 13
-0.2107080721
 23
0.007083362
 33
0.0
 40
0.0
 40
0.0
 40
0.0
 40
0.0
 40
0.2483781355
 40
0.4993025746
 40
1.0
 40
1.0
 40
1.0
 40
1.0
 10
5.6213345099
 20
2.3162954222
 30
0.0
 10
5.6038795627
 20
2.3162954222
 30
0.0
 10
5.5687904672
 20
2.316606403
 30
0.0
 10
5.4985298983
 20
2.3181168938
 30
0.0
 10
5.4457381715
 20
2.3199010999
 30
0.0
 10
5.4105711751
 20
2.3210833069
 30
0.0
 11
5.6213345099
 21
2.3162954222
 31
0.0
 11
5.5689713451
 21
2.3167144926
 31
0.0
 11
5.5160810579
 21
2.3178119337
 31
0.0
 11
5.4105711751
 21
2.3210833069
 31
0.0
  0
SPLINE
  5
417
100
AcDbEntity
  8
0
100
AcDbSpline
 62
6
  6
CONTINUOUS
 70
0
 71
3
 72
14
 73
10
 74
8
 42
0.0000001
 43
0.0000001
 44
0.0000000001
 12
-0.2984935883
 22
0.0100344431
 32
0.0
 13
-0.2973249962
 23
-0.0282304611
 33
0.0
 40
0.0
 40
0.0
 40
0.0
 40
0.0
 40
0.2776173911
 40
0.4115292788
 40
0.5410833372
 40
0.6654748923
 40
0.783919643
 40
0.8956639026
 40
1.0
 40
1.0
 40
1.0
 40
1.0
 10
5.4105711751
 20
2.3210833069
 30
0.0
 10
5.382948838
 20
2.3220118856
 30
0.0
 10
5.3420020383
 20
2.3233870785
 30
0.0
 10
5.2881505112
 20
2.3247021997
 30
0.0
 10
5.2495411366
 20
2.325275441
 30
0.0
 10
5.2124667231
 20
2.3253239208
 30
0.0
 10
5.1771691532
 20
2.3247234704
 30
0.0
 10
5.1438904761
 20
2.3233506224
 30
0.0
 10
5.1224301053
 20
2.3217820556
 30
0.0
 10
5.1120895287
 20
2.3208002369
 30
0.0
 11
5.4105711751
 21
2.3210833069
 31
0.0
 11
5.3276985483
 21
2.323696657
 31
0.0
 11
5.287715444
 21
2.3246479567
 31
0.0
 11
5.2490263963
 21
2.3251939908
 31
0.0
 11
5.2118753431
 21
2.3252084975
 31
0.0
 11
5.1765062222
 21
2.3245652152
 31
0.0
 11
5.1431629714
 21
2.3231378822
 31
0.0
 11
5.1120895287
 21
2.3208002369
 31
0.0
  0
SPLINE
  5
418
100
AcDbEntity
  8
0
100
AcDbSpline
 62
9
  6
CONTINUOUS
 70
0
 71
3
 72
28
 73
24
 74
22
 42
0.0000001
 43
0.0000001
 44
0.0000000001
 12
-0.6037420074
 22
-0.0063969144
 32
0.0
 13
-0.4015956142
 23
-0.4508506345
 33
0.0
 40
0.0
 40
0.0
 40
0.0
 40
0.0
 40
0.0772369206
 40
0.1552021131
 40
0.3108886051
 40
0.3873883595
 40
0.462179626
 40
0.5346591974
 40
0.6042343049
 40
0.6703289474
 40
0.7323932731
 40
0.7617545328
 40
0.7899222003
 40
0.8168431887
 40
0.8424709656
 40
0.8667675309
 40
0.8897061066
 40
0.9112748176
 40
0.9314817384
 40
0.9503617645
 40
0.9679857593
 40
0.9844721282
 40
1.0
 40
1.0
 40
1.0
 40
1.0
 10
5.6213345099
 20
2.3799410679
 30
0.0
 10
5.6057907854
 20
2.3797763753
 30
0.0
 10
5.5745545914
 20
2.3796432895
 30
0.0
 10
5.5119857573
 20
2.3799086214
 30
0.0
 10
5.4495688891
 20
2.3806213506
 30
0.0
 10
5.3877887278
 20
2.3810979383
 30
0.0
 10
5.3427524814
 20
2.381159578
 30
0.0
 10
5.299111076
 20
2.380755486
 30
0.0
 10
5.2572297183
 20
2.3797140756
 30
0.0
 10
5.2174733623
 20
2.377863778
 30
0.0
 10
5.1858547183
 20
2.3754657235
 30
0.0
 10
5.161918485
 20
2.3729230602
 30
0.0
 10
5.1450614993
 20
2.3707378222
 30
0.0
 10
5.1290109663
 20
2.3682179687
 30
0.0
 10
5.1138120123
 20
2.3653416171
 30
0.0
 10
5.099509494
 20
2.3620870299
 30
0.0
 10
5.0861478907
 20
2.3584321901
 30
0.0
 10
5.0737712415
 20
2.3543547021
 30
0.0
 10
5.0624230229
 20
2.3498313225
 30
0.0
 10
5.0521465322
 20
2.3448377454
 30
0.0
 10
5.0429845454
 20
2.3393466882
 30
0.0
 10
5.0349837015
 20
2.3333309941
 30
0.0
 10
5.0303378342
 20
2.3288330492
 30
0.0
 10
5.0282591925
 20
2.3264994656
 30
0.0
 11
5.6213345099
 21
2.3799410679
 31
0.0
 11
5.5747012931
 21
2.3797096787
 31
0.0
 11
5.5276280968
 21
2.3798798697
 31
0.0
 11
5.4336321494
 21
2.3807254994
 31
0.0
 11
5.38744459
 21
2.3810511918
 31
0.0
 11
5.3422874347
 21
2.3810789716
 31
0.0
 11
5.2985282792
 21
2.3806339654
 31
0.0
 11
5.2565347195
 21
2.3795413002
 31
0.0
 11
5.2166743514
 21
2.3776261027
 31
0.0
 11
5.1793147707
 21
2.3747134997
 31
0.0
 11
5.1616876494
 21
2.3728285233
 31
0.0
 11
5.1448235735
 21
2.370628618
 31
0.0
 11
5.1287684923
 21
2.3680919247
 31
0.0
 11
5.1135683554
 21
2.3651965843
 31
0.0
 11
5.0992691123
 21
2.3619207376
 31
0.0
 11
5.0859167124
 21
2.3582425254
 31
0.0
 11
5.0735571052
 21
2.3541400887
 31
0.0
 11
5.0622362403
 21
2.3495915682
 31
0.0
 11
5.0520000671
 21
2.3445751047
 31
0.0
 11
5.0428945351
 21
2.3390688393
 31
0.0
 11
5.0349655937
 21
2.3330509126
 31
0.0
 11
5.0282591925
 21
2.3264994656
 31
0.0
  0
LINE
  5
419
100
AcDbEntity
  8
0
100
AcDbLine
 62
9
  6
CONTINUOUS
 10
5.0176034179
 20
2.3089606027
 11
5.0045465403
 21
2.2952779302
  0
LINE
  5
41A
100
AcDbEntity
  8
0
100
AcDbLine
 62
9
  6
CONTINUOUS
 10
5.0045465403
 20
2.2952779302
 11
4.9889702237
 21
2.2789658156
  0
LINE
  5
41B
100
AcDbEntity
  8
0
100
AcDbLine
 62
9
  6
CONTINUOUS
 10
4.9889702237
 20
2.2789658156
 11
4.9784279664
 21
2.2679321949
  0
LINE
  5
41C
100
AcDbEntity
  8
0
100
AcDbLine
 62
9
  6
CONTINUOUS
 10
6.225065602
 20
2.3089606027
 11
6.2381224795
 21
2.2952779302
  0
LINE
  5
41D
100
AcDbEntity
  8
0
100
AcDbLine
 62
9
  6
CONTINUOUS
 10
6.2381224795
 20
2.2952779302
 11
6.2536987961
 21
2.2789658156
  0
LINE
  5
41E
100
AcDbEntity
  8
0
100
AcDbLine
 62
9
  6
CONTINUOUS
 10
6.2536987961
 20
2.2789658156
 11
6.2642410534
 21
2.2679321949
  0
SPLINE
  5
41F
100
AcDbEntity
  8
0
100
AcDbSpline
 62
9
  6
CONTINUOUS
 70
0
 71
3
 72
28
 73
24
 74
22
 42
0.0000001
 43
0.0000001
 44
0.0000000001
 12
0.6037420074
 22
-0.0063969144
 32
0.0
 13
0.4015956142
 23
-0.4508506345
 33
0.0
 40
0.0
 40
0.0
 40
0.0
 40
0.0
 40
0.0772369206
 40
0.1552021131
 40
0.3108886051
 40
0.3873883595
 40
0.462179626
 40
0.5346591974
 40
0.6042343049
 40
0.6703289474
 40
0.7323932731
 40
0.7617545328
 40
0.7899222003
 40
0.8168431887
 40
0.8424709656
 40
0.8667675309
 40
0.8897061066
 40
0.9112748176
 40
0.9314817384
 40
0.9503617645
 40
0.9679857593
 40
0.9844721282
 40
1.0
 40
1.0
 40
1.0
 40
1.0
 10
5.6213345099
 20
2.3799410679
 30
0.0
 10
5.6368782344
 20
2.3797763753
 30
0.0
 10
5.6681144285
 20
2.3796432895
 30
0.0
 10
5.7306832625
 20
2.3799086214
 30
0.0
 10
5.7931001308
 20
2.3806213506
 30
0.0
 10
5.854880292
 20
2.3810979383
 30
0.0
 10
5.8999165385
 20
2.381159578
 30
0.0
 10
5.9435579438
 20
2.380755486
 30
0.0
 10
5.9854393015
 20
2.3797140756
 30
0.0
 10
6.0251956575
 20
2.377863778
 30
0.0
 10
6.0568143015
 20
2.3754657235
 30
0.0
 10
6.0807505348
 20
2.3729230602
 30
0.0
 10
6.0976075205
 20
2.3707378222
 30
0.0
 10
6.1136580536
 20
2.3682179687
 30
0.0
 10
6.1288570075
 20
2.3653416171
 30
0.0
 10
6.1431595258
 20
2.3620870299
 30
0.0
 10
6.1565211291
 20
2.3584321901
 30
0.0
 10
6.1688977783
 20
2.3543547021
 30
0.0
 10
6.1802459969
 20
2.3498313225
 30
0.0
 10
6.1905224876
 20
2.3448377454
 30
0.0
 10
6.1996844744
 20
2.3393466882
 30
0.0
 10
6.2076853184
 20
2.3333309941
 30
0.0
 10
6.2123311856
 20
2.3288330492
 30
0.0
 10
6.2144098273
 20
2.3264994656
 30
0.0
 11
5.6213345099
 21
2.3799410679
 31
0.0
 11
5.6679677267
 21
2.3797096787
 31
0.0
 11
5.715040923
 21
2.3798798697
 31
0.0
 11
5.8090368704
 21
2.3807254994
 31
0.0
 11
5.8552244298
 21
2.3810511918
 31
0.0
 11
5.9003815851
 21
2.3810789716
 31
0.0
 11
5.9441407406
 21
2.3806339654
 31
0.0
 11
5.9861343003
 21
2.3795413002
 31
0.0
 11
6.0259946685
 21
2.3776261027
 31
0.0
 11
6.0633542491
 21
2.3747134997
 31
0.0
 11
6.0809813704
 21
2.3728285233
 31
0.0
 11
6.0978454464
 21
2.370628618
 31
0.0
 11
6.1139005275
 21
2.3680919247
 31
0.0
 11
6.1291006644
 21
2.3651965843
 31
0.0
 11
6.1433999076
 21
2.3619207376
 31
0.0
 11
6.1567523074
 21
2.3582425254
 31
0.0
 11
6.1691119146
 21
2.3541400887
 31
0.0
 11
6.1804327795
 21
2.3495915682
 31
0.0
 11
6.1906689527
 21
2.3445751047
 31
0.0
 11
6.1997744848
 21
2.3390688393
 31
0.0
 11
6.2077034261
 21
2.3330509126
 31
0.0
 11
6.2144098273
 21
2.3264994656
 31
0.0
  0
SPLINE
  5
420
100
AcDbEntity
  8
0
100
AcDbSpline
 62
9
  6
CONTINUOUS
 70
0
 71
3
 72
27
 73
23
 74
21
 42
0.0000001
 43
0.0000001
 44
0.0000000001
 12
0.5101501687
 22
-0.0127924093
 32
0.0
 13
0.2516365341
 23
-0.4439548345
 33
0.0
 40
0.0
 40
0.0
 40
0.0
 40
0.0
 40
0.1535745736
 40
0.2306126935
 40
0.307041078
 40
0.3822868321
 40
0.4557882507
 40
0.5269989985
 40
0.5953940634
 40
0.6604785015
 40
0.7218006713
 40
0.7789728322
 40
0.8059115757
 40
0.8317150163
 40
0.8563709842
 40
0.8798818619
 40
0.902268377
 40
0.9235742995
 40
0.9438720461
 40
0.963268948
 40
0.98191347
 40
1.0
 40
1.0
 40
1.0
 40
1.0
 10
5.6213345099
 20
2.5776358621
 30
0.0
 10
5.6474498748
 20
2.5769809992
 30
0.0
 10
5.6866628555
 20
2.5758376462
 30
0.0
 10
5.7388445481
 20
2.5735990252
 30
0.0
 10
5.7776919052
 20
2.5714647493
 30
0.0
 10
5.8159029159
 20
2.5687834998
 30
0.0
 10
5.8531734945
 20
2.5654617401
 30
0.0
 10
5.8892002343
 20
2.5614062617
 30
0.0
 10
5.9236805315
 20
2.5565240912
 30
0.0
 10
5.9563140641
 20
2.5507225933
 30
0.0
 10
5.9868006749
 20
2.5439086476
 30
0.0
 10
6.0106268304
 20
2.5371823423
 30
0.0
 10
6.0283222948
 20
2.5311326483
 30
0.0
 10
6.0406006135
 20
2.5263694419
 30
0.0
 10
6.0521128904
 20
2.5212784696
 30
0.0
 10
6.0628219503
 20
2.5158467668
 30
0.0
 10
6.0726906412
 20
2.5100611825
 30
0.0
 10
6.0816816824
 20
2.5039077405
 30
0.0
 10
6.0897571635
 20
2.4973718248
 30
0.0
 10
6.0968783802
 20
2.4904373449
 30
0.0
 10
6.1030035388
 20
2.4830901262
 30
0.0
 10
6.1064332931
 20
2.4778458204
 30
0.0
 10
6.1079503704
 20
2.4751692863
 30
0.0
 11
5.6213345099
 21
2.5776358621
 31
0.0
 11
5.6996679749
 21
2.575219581
 31
0.0
 11
5.7389443958
 21
2.5735156592
 31
0.0
 11
5.7778866843
 21
2.5713545189
 31
0.0
 11
5.8161893969
 21
2.5686411366
 31
0.0
 11
5.8535470899
 21
2.565280489
 31
0.0
 11
5.8896543199
 21
2.5611775528
 31
0.0
 11
5.9242056433
 21
2.5562373047
 31
0.0
 11
5.9568956167
 21
2.5503647212
 31
0.0
 11
5.9874187964
 21
2.543464779
 31
0.0
 11
6.0154697389
 21
2.5354424548
 31
0.0
 11
6.0284726701
 21
2.5309807046
 31
0.0
 11
6.0407430007
 21
2.5262027252
 31
0.0
 11
6.0522425503
 21
2.5210966386
 31
0.0
 11
6.0629331383
 21
2.5156505669
 31
0.0
 11
6.0727765844
 21
2.5098526322
 31
0.0
 11
6.0817347082
 21
2.5036909566
 31
0.0
 11
6.0897693291
 21
2.4971536621
 31
0.0
 11
6.0968422667
 21
2.4902288708
 31
0.0
 11
6.1029153406
 21
2.4829047049
 31
0.0
 11
6.1079503704
 21
2.4751692863
 31
0.0
  0
SPLINE
  5
421
100
AcDbEntity
  8
0
100
AcDbSpline
 62
9
  6
CONTINUOUS
 70
0
 71
3
 72
27
 73
23
 74
21
 42
0.0000001
 43
0.0000001
 44
0.0000000001
 12
-0.5101501687
 22
-0.0127924093
 32
0.0
 13
-0.2516365341
 23
-0.4439548345
 33
0.0
 40
0.0
 40
0.0
 40
0.0
 40
0.0
 40
0.1535745736
 40
0.2306126935
 40
0.307041078
 40
0.3822868321
 40
0.4557882507
 40
0.5269989985
 40
0.5953940634
 40
0.6604785015
 40
0.7218006713
 40
0.7789728322
 40
0.8059115757
 40
0.8317150163
 40
0.8563709842
 40
0.8798818619
 40
0.902268377
 40
0.9235742995
 40
0.9438720461
 40
0.963268948
 40
0.98191347
 40
1.0
 40
1.0
 40
1.0
 40
1.0
 10
5.6213345099
 20
2.5776358621
 30
0.0
 10
5.595219145
 20
2.5769809992
 30
0.0
 10
5.5560061643
 20
2.5758376462
 30
0.0
 10
5.5038244717
 20
2.5735990252
 30
0.0
 10
5.4649771146
 20
2.5714647493
 30
0.0
 10
5.4267661039
 20
2.5687834998
 30
0.0
 10
5.3894955254
 20
2.5654617401
 30
0.0
 10
5.3534687855
 20
2.5614062617
 30
0.0
 10
5.3189884883
 20
2.5565240912
 30
0.0
 10
5.2863549557
 20
2.5507225933
 30
0.0
 10
5.2558683449
 20
2.5439086476
 30
0.0
 10
5.2320421895
 20
2.5371823423
 30
0.0
 10
5.214346725
 20
2.5311326483
 30
0.0
 10
5.2020684064
 20
2.5263694419
 30
0.0
 10
5.1905561294
 20
2.5212784696
 30
0.0
 10
5.1798470696
 20
2.5158467668
 30
0.0
 10
5.1699783786
 20
2.5100611825
 30
0.0
 10
5.1609873374
 20
2.5039077405
 30
0.0
 10
5.1529118563
 20
2.4973718248
 30
0.0
 10
5.1457906397
 20
2.4904373449
 30
0.0
 10
5.139665481
 20
2.4830901262
 30
0.0
 10
5.1362357267
 20
2.4778458204
 30
0.0
 10
5.1347186495
 20
2.4751692863
 30
0.0
 11
5.6213345099
 21
2.5776358621
 31
0.0
 11
5.5430010449
 21
2.575219581
 31
0.0
 11
5.503724624
 21
2.5735156592
 31
0.0
 11
5.4647823355
 21
2.5713545189
 31
0.0
 11
5.4264796229
 21
2.5686411366
 31
0.0
 11
5.3891219299
 21
2.565280489
 31
0.0
 11
5.3530146999
 21
2.5611775528
 31
0.0
 11
5.3184633765
 21
2.5562373047
 31
0.0
 11
5.2857734031
 21
2.5503647212
 31
0.0
 11
5.2552502234
 21
2.543464779
 31
0.0
 11
5.2271992809
 21
2.5354424548
 31
0.0
 11
5.2141963497
 21
2.5309807046
 31
0.0
 11
5.2019260191
 21
2.5262027252
 31
0.0
 11
5.1904264695
 21
2.5210966386
 31
0.0
 11
5.1797358815
 21
2.5156505669
 31
0.0
 11
5.1698924354
 21
2.5098526322
 31
0.0
 11
5.1609343117
 21
2.5036909566
 31
0.0
 11
5.1528996908
 21
2.4971536621
 31
0.0
 11
5.1458267531
 21
2.4902288708
 31
0.0
 11
5.1397536792
 21
2.4829047049
 31
0.0
 11
5.1347186495
 21
2.4751692863
 31
0.0
  0
SPLINE
  5
422
100
AcDbEntity
  8
0
100
AcDbSpline
 62
9
  6
CONTINUOUS
 70
0
 71
3
 72
24
 73
20
 74
18
 42
0.0000001
 43
0.0000001
 44
0.0000000001
 12
-0.4708366061
 22
-0.0072148082
 32
0.0
 13
-0.1783581722
 23
-0.4358067525
 33
0.0
 40
0.0
 40
0.0
 40
0.0
 40
0.0
 40
0.151787453
 40
0.2277519436
 40
0.303038418
 40
0.3771185928
 40
0.4494793212
 40
0.5196277518
 40
0.5870986493
 40
0.6514650135
 40
0.7123538015
 40
0.7694696275
 40
0.8226309253
 40
0.871825081
 40
0.8950100166
 40
0.9173205426
 40
0.9596560851
 40
0.9799936352
 40
1.0
 40
1.0
 40
1.0
 40
1.0
 10
5.6213345099
 20
2.7094117771
 30
0.0
 10
5.5975121468
 20
2.709046738
 30
0.0
 10
5.5617714338
 20
2.7078007402
 30
0.0
 10
5.5143113374
 20
2.7045800066
 30
0.0
 10
5.4790875374
 20
2.7013364078
 30
0.0
 10
5.4445236286
 20
2.6972236604
 30
0.0
 10
5.4108945245
 20
2.6921986419
 30
0.0
 10
5.3784748011
 20
2.6862187121
 30
0.0
 10
5.3475378899
 20
2.6792411596
 30
0.0
 10
5.3183555354
 20
2.6712229582
 30
0.0
 10
5.2911975054
 20
2.6621203284
 30
0.0
 10
5.2663289639
 20
2.6518864172
 30
0.0
 10
5.2440154826
 20
2.6404712642
 30
0.0
 10
5.2274455129
 20
2.6297151333
 30
0.0
 10
5.2158328605
 20
2.6204183467
 30
0.0
 10
5.2057218529
 20
2.6110360929
 30
0.0
 10
5.1970465378
 20
2.6007880352
 30
0.0
 10
5.1902320233
 20
2.5897209926
 30
0.0
 10
5.187498697
 20
2.5839914539
 30
0.0
 10
5.1863092642
 20
2.5810851509
 30
0.0
 11
5.6213345099
 21
2.7094117771
 31
0.0
 11
5.549904446
 21
2.7068642122
 31
0.0
 11
5.5142163659
 21
2.7044290925
 31
0.0
 11
5.4789154924
 21
2.7011614159
 31
0.0
 11
5.4442787545
 21
2.697017433
 31
0.0
 11
5.410583081
 21
2.6919533948
 31
0.0
 11
5.378105401
 21
2.6859255521
 31
0.0
 11
5.3471226434
 21
2.6788901557
 31
0.0
 11
5.3179117372
 21
2.6708034564
 31
0.0
 11
5.2907496113
 21
2.6616217051
 31
0.0
 11
5.2659131946
 21
2.6513011526
 31
0.0
 11
5.2436794162
 21
2.6397980497
 31
0.0
 11
5.224325205
 21
2.6270686472
 31
0.0
 11
5.2158144774
 21
2.620230412
 31
0.0
 11
5.2081274899
 21
2.6130691961
 31
0.0
 11
5.1953632
 21
2.597755947
 31
0.0
 11
5.1903551298
 21
2.5895929767
 31
0.0
 11
5.1863092642
 21
2.5810851509
 31
0.0
  0
SPLINE
  5
423
100
AcDbEntity
  8
0
100
AcDbSpline
 62
9
  6
CONTINUOUS
 70
0
 71
3
 72
24
 73
20
 74
18
 42
0.0000001
 43
0.0000001
 44
0.0000000001
 12
0.4708366061
 22
-0.0072148082
 32
0.0
 13
0.1783581722
 23
-0.4358067525
 33
0.0
 40
0.0
 40
0.0
 40
0.0
 40
0.0
 40
0.151787453
 40
0.2277519436
 40
0.303038418
 40
0.3771185928
 40
0.4494793212
 40
0.5196277518
 40
0.5870986493
 40
0.6514650135
 40
0.7123538015
 40
0.7694696275
 40
0.8226309253
 40
0.871825081
 40
0.8950100166
 40
0.9173205426
 40
0.9596560851
 40
0.9799936352
 40
1.0
 40
1.0
 40
1.0
 40
1.0
 10
5.6213345099
 20
2.7094117771
 30
0.0
 10
5.645156873
 20
2.709046738
 30
0.0
 10
5.680897586
 20
2.7078007402
 30
0.0
 10
5.7283576824
 20
2.7045800066
 30
0.0
 10
5.7635814825
 20
2.7013364078
 30
0.0
 10
5.7981453912
 20
2.6972236604
 30
0.0
 10
5.8317744953
 20
2.6921986419
 30
0.0
 10
5.8641942188
 20
2.6862187121
 30
0.0
 10
5.8951311299
 20
2.6792411596
 30
0.0
 10
5.9243134844
 20
2.6712229582
 30
0.0
 10
5.9514715145
 20
2.6621203284
 30
0.0
 10
5.9763400559
 20
2.6518864172
 30
0.0
 10
5.9986535372
 20
2.6404712642
 30
0.0
 10
6.015223507
 20
2.6297151333
 30
0.0
 10
6.0268361593
 20
2.6204183467
 30
0.0
 10
6.036947167
 20
2.6110360929
 30
0.0
 10
6.0456224821
 20
2.6007880352
 30
0.0
 10
6.0524369965
 20
2.5897209926
 30
0.0
 10
6.0551703228
 20
2.5839914539
 30
0.0
 10
6.0563597557
 20
2.5810851509
 30
0.0
 11
5.6213345099
 21
2.7094117771
 31
0.0
 11
5.6927645739
 21
2.7068642122
 31
0.0
 11
5.7284526539
 21
2.7044290925
 31
0.0
 11
5.7637535274
 21
2.7011614159
 31
0.0
 11
5.7983902653
 21
2.697017433
 31
0.0
 11
5.8320859388
 21
2.6919533948
 31
0.0
 11
5.8645636188
 21
2.6859255521
 31
0.0
 11
5.8955463764
 21
2.6788901557
 31
0.0
 11
5.9247572826
 21
2.6708034564
 31
0.0
 11
5.9519194086
 21
2.6616217051
 31
0.0
 11
5.9767558252
 21
2.6513011526
 31
0.0
 11
5.9989896036
 21
2.6397980497
 31
0.0
 11
6.0183438148
 21
2.6270686472
 31
0.0
 11
6.0268545424
 21
2.620230412
 31
0.0
 11
6.0345415299
 21
2.6130691961
 31
0.0
 11
6.0473058198
 21
2.597755947
 31
0.0
 11
6.0523138901
 21
2.5895929767
 31
0.0
 11
6.0563597557
 21
2.5810851509
 31
0.0
  0
SPLINE
  5
424
100
AcDbEntity
  8
0
100
AcDbSpline
 62
6
  6
CONTINUOUS
 70
0
 71
3
 72
9
 73
5
 74
3
 42
0.0000001
 43
0.0000001
 44
0.0000000001
 12
0.0245556681
 22
-0.1276653049
 32
0.0
 13
0.0468123106
 23
-0.1212848651
 33
0.0
 40
0.0
 40
0.0
 40
0.0
 40
0.0
 40
0.4908841096
 40
1.0
 40
1.0
 40
1.0
 40
1.0
 10
6.0177242256
 20
2.7050193813
 30
0.0
 10
6.0217422214
 20
2.6841297582
 30
0.0
 10
6.0319350257
 20
2.6419388293
 30
0.0
 10
6.045893534
 20
2.6008489041
 30
0.0
 10
6.053837831
 20
2.58026622
 30
0.0
 11
6.0177242256
 21
2.7050193813
 31
0.0
 11
6.0326566039
 21
2.6429733508
 31
0.0
 11
6.053837831
 21
2.58026622
 31
0.0
  0
SPLINE
  5
425
100
AcDbEntity
  8
0
100
AcDbSpline
 62
6
  6
CONTINUOUS
 70
0
 71
3
 72
19
 73
15
 74
13
 42
0.0000001
 43
0.0000001
 44
0.0000000001
 12
0.3989389805
 22
0.0
 32
0.0
 13
0.2522500069
 23
-0.309066731
 33
0.0
 40
0.0
 40
0.0
 40
0.0
 40
0.0
 40
0.1401434659
 40
0.2799055508
 40
0.417103404
 40
0.4840847024
 40
0.5496373415
 40
0.6135215624
 40
0.6755169052
 40
0.7354289527
 40
0.7930981014
 40
0.8484110695
 40
0.90131599
 40
1.0
 40
1.0
 40
1.0
 40
1.0
 10
5.6213345099
 20
2.888618874
 30
0.0
 10
5.6399707404
 20
2.888618874
 30
0.0
 10
5.6772068859
 20
2.8871802192
 30
0.0
 10
5.732367994
 20
2.8809482976
 30
0.0
 10
5.7773555457
 20
2.8724228125
 30
0.0
 10
5.8121363849
 20
2.8636199215
 30
0.0
 10
5.8371709237
 20
2.8561394676
 30
0.0
 10
5.8612152775
 20
2.8477499818
 30
0.0
 10
5.8841248878
 20
2.8384713793
 30
0.0
 10
5.9057557483
 20
2.828323093
 30
0.0
 10
5.9259622012
 20
2.8173255673
 30
0.0
 10
5.9446067063
 20
2.805491726
 30
0.0
 10
5.9666569782
 20
2.7890217599
 30
0.0
 10
5.9812783202
 20
2.7748905747
 30
0.0
 10
5.9895760009
 20
2.7647239265
 30
0.0
 11
5.6213345099
 21
2.888618874
 31
0.0
 11
5.6772026759
 21
2.8864905386
 31
0.0
 11
5.7326049889
 21
2.8802155192
 31
0.0
 11
5.7863689499
 21
2.869958796
 31
0.0
 11
5.8122701423
 21
2.8633888517
 31
0.0
 11
5.8373220595
 21
2.855885349
 31
0.0
 11
5.8613781391
 21
2.8474689103
 31
0.0
 11
5.8842918187
 21
2.8381601584
 31
0.0
 11
5.9059165358
 21
2.8279797155
 31
0.0
 11
5.9261057281
 21
2.8169482043
 31
0.0
 11
5.9447128331
 21
2.8050862473
 31
0.0
 11
5.9615912886
 21
2.792414467
 31
0.0
 11
5.9895760009
 21
2.7647239265
 31
0.0
  0
SPLINE
  5
426
100
AcDbEntity
  8
0
100
AcDbSpline
 62
6
  6
CONTINUOUS
 70
0
 71
3
 72
11
 73
7
 74
5
 42
0.0000001
 43
0.0000001
 44
0.0000000001
 12
0.0399845288
 22
-0.0489906334
 32
0.0
 13
0.0120557336
 23
-0.0620765978
 33
0.0
 40
0.0
 40
0.0
 40
0.0
 40
0.0
 40
0.2591627067
 40
0.5103905905
 40
0.7562379956
 40
1.0
 40
1.0
 40
1.0
 40
1.0
 10
5.9895760009
 20
2.7647239265
 30
0.0
 10
5.9930301671
 20
2.7604917448
 30
0.0
 10
5.9994256073
 20
2.7518111049
 30
0.0
 10
6.0073903256
 20
2.7379603359
 30
0.0
 10
6.0134461165
 20
2.7235208477
 30
0.0
 10
6.0161312121
 20
2.7135155314
 30
0.0
 10
6.0171107887
 20
2.7084715594
 30
0.0
 11
5.9895760009
 21
2.7647239265
 31
0.0
 11
5.9992620458
 21
2.7515040864
 31
0.0
 11
6.0071476179
 21
2.7377125443
 31
0.0
 11
6.0131310784
 21
2.7233636015
 31
0.0
 11
6.0171107887
 21
2.7084715594
 31
0.0
  0
SPLINE
  5
427
100
AcDbEntity
  8
0
100
AcDbSpline
 62
6
  6
CONTINUOUS
 70
0
 71
3
 72
19
 73
15
 74
13
 42
0.0000001
 43
0.0000001
 44
0.0000000001
 12
-0.3989389805
 22
0.0
 32
0.0
 13
-0.2522500069
 23
-0.309066731
 33
0.0
 40
0.0
 40
0.0
 40
0.0
 40
0.0
 40
0.1401434659
 40
0.2799055508
 40
0.417103404
 40
0.4840847024
 40
0.5496373415
 40
0.6135215624
 40
0.6755169052
 40
0.7354289527
 40
0.7930981014
 40
0.8484110695
 40
0.90131599
 40
1.0
 40
1.0
 40
1.0
 40
1.0
 10
5.6213345099
 20
2.888618874
 30
0.0
 10
5.6026982794
 20
2.888618874
 30
0.0
 10
5.5654621339
 20
2.8871802192
 30
0.0
 10
5.5103010258
 20
2.8809482976
 30
0.0
 10
5.4653134742
 20
2.8724228125
 30
0.0
 10
5.4305326349
 20
2.8636199215
 30
0.0
 10
5.4054980961
 20
2.8561394676
 30
0.0
 10
5.3814537423
 20
2.8477499818
 30
0.0
 10
5.358544132
 20
2.8384713793
 30
0.0
 10
5.3369132716
 20
2.828323093
 30
0.0
 10
5.3167068187
 20
2.8173255673
 30
0.0
 10
5.2980623135
 20
2.805491726
 30
0.0
 10
5.2760120416
 20
2.7890217599
 30
0.0
 10
5.2613906996
 20
2.7748905747
 30
0.0
 10
5.2530930189
 20
2.7647239265
 30
0.0
 11
5.6213345099
 21
2.888618874
 31
0.0
 11
5.565466344
 21
2.8864905386
 31
0.0
 11
5.5100640309
 21
2.8802155192
 31
0.0
 11
5.4563000699
 21
2.869958796
 31
0.0
 11
5.4303988775
 21
2.8633888517
 31
0.0
 11
5.4053469603
 21
2.855885349
 31
0.0
 11
5.3812908807
 21
2.8474689103
 31
0.0
 11
5.3583772011
 21
2.8381601584
 31
0.0
 11
5.336752484
 21
2.8279797155
 31
0.0
 11
5.3165632917
 21
2.8169482043
 31
0.0
 11
5.2979561867
 21
2.8050862473
 31
0.0
 11
5.2810777313
 21
2.792414467
 31
0.0
 11
5.2530930189
 21
2.7647239265
 31
0.0
  0
SPLINE
  5
428
100
AcDbEntity
  8
0
100
AcDbSpline
 62
6
  6
CONTINUOUS
 70
0
 71
3
 72
11
 73
7
 74
5
 42
0.0000001
 43
0.0000001
 44
0.0000000001
 12
-0.0399845288
 22
-0.0489906334
 32
0.0
 13
-0.0120557336
 23
-0.0620765978
 33
0.0
 40
0.0
 40
0.0
 40
0.0
 40
0.0
 40
0.2591627067
 40
0.5103905905
 40
0.7562379956
 40
1.0
 40
1.0
 40
1.0
 40
1.0
 10
5.2530930189
 20
2.7647239265
 30
0.0
 10
5.2496388527
 20
2.7604917448
 30
0.0
 10
5.2432434126
 20
2.7518111049
 30
0.0
 10
5.2352786942
 20
2.7379603359
 30
0.0
 10
5.2292229033
 20
2.7235208477
 30
0.0
 10
5.2265378077
 20
2.7135155314
 30
0.0
 10
5.2255582311
 20
2.7084715594
 30
0.0
 11
5.2530930189
 21
2.7647239265
 31
0.0
 11
5.243406974
 21
2.7515040864
 31
0.0
 11
5.235521402
 21
2.7377125443
 31
0.0
 11
5.2295379414
 21
2.7233636015
 31
0.0
 11
5.2255582311
 21
2.7084715594
 31
0.0
  0
SPLINE
  5
429
100
AcDbEntity
  8
0
100
AcDbSpline
 62
6
  6
CONTINUOUS
 70
0
 71
3
 72
9
 73
5
 74
3
 42
0.0000001
 43
0.0000001
 44
0.0000000001
 12
-0.0245556681
 22
-0.1276653049
 32
0.0
 13
-0.0468123106
 23
-0.1212848651
 33
0.0
 40
0.0
 40
0.0
 40
0.0
 40
0.0
 40
0.4908841096
 40
1.0
 40
1.0
 40
1.0
 40
1.0
 10
5.2249447942
 20
2.7050193813
 30
0.0
 10
5.2209267984
 20
2.6841297582
 30
0.0
 10
5.2107339942
 20
2.6419388293
 30
0.0
 10
5.1967754859
 20
2.6008489041
 30
0.0
 10
5.1888311888
 20
2.58026622
 30
0.0
 11
5.2249447942
 21
2.7050193813
 31
0.0
 11
5.2100124159
 21
2.6429733508
 31
0.0
 11
5.1888311888
 21
2.58026622
 31
0.0
  0
SPLINE
  5
42A
100
AcDbEntity
  8
0
100
AcDbSpline
 62
9
  6
CONTINUOUS
 70
0
 71
3
 72
13
 73
9
 74
7
 42
0.0000001
 43
0.0000001
 44
0.0000000001
 12
-0.0545522084
 22
-0.0767943656
 32
0.0
 13
0.0017718321
 23
-0.0941816258
 33
0.0
 40
0.0
 40
0.0
 40
0.0
 40
0.0
 40
0.2685663903
 40
0.5214047656
 40
0.6434548885
 40
0.7634162585
 40
0.8820126579
 40
1.0
 40
1.0
 40
1.0
 40
1.0
 10
4.6563345104
 20
1.5442394732
 30
0.0
 10
4.6514508805
 20
1.5373646781
 30
0.0
 10
4.6427796345
 20
1.5234106438
 30
0.0
 10
4.6346962035
 20
1.5047989581
 30
0.0
 10
4.63030764
 20
1.4898767694
 30
0.0
 10
4.6280385821
 20
1.4787688446
 30
0.0
 10
4.6267589558
 20
1.4676331379
 30
0.0
 10
4.6265678654
 20
1.4601953957
 30
0.0
 10
4.62663755
 20
1.4564913158
 30
0.0
 11
4.6563345104
 21
1.5442394732
 31
0.0
 11
4.6430808111
 21
1.5226906147
 31
0.0
 11
4.6336830955
 21
1.500806152
 31
0.0
 11
4.6304476832
 21
1.4897738759
 31
0.0
 11
4.62819307
 21
1.4787009249
 31
0.0
 11
4.6269221178
 21
1.4676018781
 31
0.0
 11
4.62663755
 21
1.4564913158
 31
0.0
  0
SPLINE
  5
42B
100
AcDbEntity
  8
0
100
AcDbSpline
 62
9
  6
CONTINUOUS
 70
0
 71
3
 72
17
 73
13
 74
11
 42
0.0000001
 43
0.0000001
 44
0.0000000001
 12
0.1633975582
 22
0.2300049708
 32
0.0
 13
0.2739881341
 23
0.0673167957
 33
0.0
 40
0.0
 40
0.0
 40
0.0
 40
0.0
 40
0.0916766552
 40
0.1409020908
 40
0.1925135919
 40
0.2465851647
 40
0.3031528385
 40
0.4237775505
 40
0.554301938
 40
0.6942954723
 40
0.843135665
 40
1.0
 40
1.0
 40
1.0
 40
1.0
 10
4.6563345111
 20
1.544270617
 30
0.0
 10
4.6613277583
 20
1.5512993125
 30
0.0
 10
4.6699411947
 20
1.5614547879
 30
0.0
 10
4.6829689161
 20
1.5740347997
 30
0.0
 10
4.6940631405
 20
1.5834927725
 30
0.0
 10
4.7062219387
 20
1.5927239694
 30
0.0
 10
4.7242048937
 20
1.6049714723
 30
0.0
 10
4.7492653362
 20
1.6195255723
 30
0.0
 10
4.7824686635
 20
1.6354307472
 30
0.0
 10
4.8191417734
 20
1.6500138955
 30
0.0
 10
4.8589723315
 20
1.6631388183
 30
0.0
 10
4.8867344913
 20
1.6706670325
 30
0.0
 10
4.9010608135
 20
1.6741869006
 30
0.0
 11
4.6563345111
 21
1.544270617
 31
0.0
 11
4.6729264295
 21
1.5641130952
 31
0.0
 11
4.6829022759
 21
1.5737757684
 31
0.0
 11
4.6939706462
 21
1.5832377046
 31
0.0
 11
4.7061094355
 21
1.5924779516
 31
0.0
 11
4.7192903208
 21
1.601476829
 31
0.0
 11
4.7486588707
 21
1.6186730233
 31
0.0
 11
4.78182623
 21
1.6346748593
 31
0.0
 11
4.8184981412
 21
1.6493448073
 31
0.0
 11
4.8583601011
 21
1.6625530722
 31
0.0
 11
4.9010608135
 21
1.6741869006
 31
0.0
  0
SPLINE
  5
42C
100
AcDbEntity
  8
0
100
AcDbSpline
 62
9
  6
CONTINUOUS
 70
0
 71
3
 72
25
 73
21
 74
19
 42
0.0000001
 43
0.0000001
 44
0.0000000001
 12
0.2632243251
 22
-1.2561546234
 32
0.0
 13
1.2834373702
 23
-0.0000003121
 33
0.0
 40
0.0
 40
0.0
 40
0.0
 40
0.0
 40
0.0595664067
 40
0.119390907
 40
0.1494315055
 40
0.1795652246
 40
0.240124731
 40
0.3011255746
 40
0.3625901325
 40
0.4245339588
 40
0.4869704271
 40
0.5498888869
 40
0.6132550947
 40
0.6770236852
 40
0.709051001
 40
0.741162005
 40
0.8055940342
 40
0.870264409
 40
0.9350931837
 40
1.0
 40
1.0
 40
1.0
 40
1.0
 10
4.6735634199
 20
1.3788223656
 30
0.0
 10
4.6787898623
 20
1.3538808266
 30
0.0
 10
4.6916103509
 20
1.3043510197
 30
0.0
 10
4.7133377269
 20
1.2441265827
 30
0.0
 10
4.7340855035
 20
1.1971509066
 30
0.0
 10
4.7571307821
 20
1.1509077057
 30
0.0
 10
4.7900448971
 20
1.0948651245
 30
0.0
 10
4.8356297972
 20
1.0310793805
 30
0.0
 10
4.8870309176
 20
0.9710962766
 30
0.0
 10
4.9439053097
 20
0.9153943871
 30
0.0
 10
5.0058794766
 20
0.8644475939
 30
0.0
 10
5.0724227647
 20
0.8185599394
 30
0.0
 10
5.1430196901
 20
0.7780447918
 30
0.0
 10
5.2047228077
 20
0.7490554572
 30
0.0
 10
5.2555909379
 20
0.7288523836
 30
0.0
 10
5.3075104054
 20
0.7106514438
 30
0.0
 10
5.3739347269
 20
0.6917952786
 30
0.0
 10
5.455374119
 20
0.6755129273
 30
0.0
 10
5.5380395037
 20
0.6656536612
 30
0.0
 10
5.5935665654
 20
0.6634384363
 30
0.0
 10
5.6213345099
 20
0.6634384296
 30
0.0
 11
4.6735634199
 21
1.3788223656
 31
0.0
 11
4.6927124797
 21
1.3048096765
 31
0.0
 11
4.7187635136
 21
1.2325831891
 31
0.0
 11
4.7343390035
 21
1.1973140862
 31
0.0
 11
4.7515845282
 21
1.1626972191
 31
0.0
 11
4.7909171953
 21
1.0956598166
 31
0.0
 11
4.836415826
 21
1.0319470387
 31
0.0
 11
4.887732988
 21
0.972034304
 31
0.0
 11
4.9445212253
 21
0.9163970096
 31
0.0
 11
5.0063953563
 21
0.8654761188
 31
0.0
 11
5.0728560274
 21
0.8196083851
 31
0.0
 11
5.143382369
 21
0.7791109242
 31
0.0
 11
5.2174535119
 21
0.7443008516
 31
0.0
 11
5.2556556106
 21
0.729127681
 31
0.0
 11
5.2945461226
 21
0.7154896771
 31
0.0
 11
5.3740909567
 21
0.6928844692
 31
0.0
 11
5.455478146
 21
0.6765998819
 31
0.0
 11
5.5380964204
 21
0.6667473803
 31
0.0
 11
5.6213345099
 21
0.6634384296
 31
0.0
  0
SPLINE
  5
42D
100
AcDbEntity
  8
0
100
AcDbSpline
 62
9
  6
CONTINUOUS
 70
0
 71
3
 72
25
 73
21
 74
19
 42
0.0000001
 43
0.0000001
 44
0.0000000001
 12
-0.263224277
 22
-1.2561546702
 32
0.0
 13
-1.2834374062
 23
-0.0000003121
 33
0.0
 40
0.0
 40
0.0
 40
0.0
 40
0.0
 40
0.0595664067
 40
0.119390907
 40
0.1494315054
 40
0.1795652245
 40
0.2401247308
 40
0.3011255743
 40
0.3625901322
 40
0.4245339585
 40
0.4869704267
 40
0.5498888865
 40
0.6132550943
 40
0.6770236849
 40
0.7090510006
 40
0.7411620047
 40
0.805594034
 40
0.8702644088
 40
0.9350931836
 40
1.0
 40
1.0
 40
1.0
 40
1.0
 10
6.5691056073
 20
1.3788224009
 30
0.0
 10
6.5638791659
 20
1.3538808609
 30
0.0
 10
6.5510586791
 20
1.3043510521
 30
0.0
 10
6.5293313049
 20
1.2441266126
 30
0.0
 10
6.5085835294
 20
1.1971509345
 30
0.0
 10
6.4855382519
 20
1.1509077315
 30
0.0
 10
6.4526241379
 20
1.0948651477
 30
0.0
 10
6.4070392385
 20
1.0310794006
 30
0.0
 10
6.3556381183
 20
0.9710962936
 30
0.0
 10
6.2987637259
 20
0.9153944012
 30
0.0
 10
6.2367895584
 20
0.8644476052
 30
0.0
 10
6.1702462693
 20
0.8185599483
 30
0.0
 10
6.0996493426
 20
0.7780447984
 30
0.0
 10
6.0379462236
 20
0.7490554621
 30
0.0
 10
5.9870780922
 20
0.7288523874
 30
0.0
 10
5.9351586233
 20
0.7106514465
 30
0.0
 10
5.8687343001
 20
0.6917952803
 30
0.0
 10
5.7872949057
 20
0.675512928
 30
0.0
 10
5.7046295186
 20
0.6656536614
 30
0.0
 10
5.6491024553
 20
0.6634384363
 30
0.0
 10
5.6213345099
 20
0.6634384296
 30
0.0
 11
6.5691056073
 21
1.3788224009
 31
0.0
 11
6.5499565501
 21
1.3048097089
 31
0.0
 11
6.5239055184
 21
1.2325832185
 31
0.0
 11
6.5083300294
 21
1.1973141141
 31
0.0
 11
6.4910845055
 21
1.1626972454
 31
0.0
 11
6.4517518396
 21
1.0956598398
 31
0.0
 11
6.4062532096
 21
1.0319470588
 31
0.0
 11
6.3549360478
 21
0.9720343211
 31
0.0
 11
6.2981478103
 21
0.9163970238
 31
0.0
 11
6.2362736787
 21
0.8654761302
 31
0.0
 11
6.1698130066
 21
0.8196083941
 31
0.0
 11
6.0992866636
 21
0.7791109309
 31
0.0
 11
6.0252155191
 21
0.7443008563
 31
0.0
 11
5.9870134194
 21
0.7291276848
 31
0.0
 11
5.9481229065
 21
0.7154896802
 31
0.0
 11
5.8685780703
 21
0.6928844709
 31
0.0
 11
5.7871908787
 21
0.6765998827
 31
0.0
 11
5.7045726019
 21
0.6667473805
 31
0.0
 11
5.6213345099
 21
0.6634384296
 31
0.0
  0
SPLINE
  5
42E
100
AcDbEntity
  8
0
100
AcDbSpline
 62
9
  6
CONTINUOUS
 70
0
 71
3
 72
17
 73
13
 74
11
 42
0.0000001
 43
0.0000001
 44
0.0000000001
 12
0.2739829281
 22
-0.0673213171
 32
0.0
 13
0.1633924699
 23
-0.2300037074
 33
0.0
 40
0.0
 40
0.0
 40
0.0
 40
0.0
 40
0.1568439394
 40
0.3056672969
 40
0.4456898851
 40
0.5762291189
 40
0.696812213
 40
0.7533592539
 40
0.8074245464
 40
0.8590488093
 40
0.9082960593
 40
1.0
 40
1.0
 40
1.0
 40
1.0
 10
6.34160815
 20
1.6741907605
 30
0.0
 10
6.3559323372
 20
1.6706711137
 30
0.0
 10
6.383689153
 20
1.6631373888
 30
0.0
 10
6.4235143345
 20
1.6500013022
 30
0.0
 10
6.4601922798
 20
1.6354261023
 30
0.0
 10
6.4934010835
 20
1.6195321394
 30
0.0
 10
6.5184525011
 20
1.6049713318
 30
0.0
 10
6.5364242723
 20
1.5927194787
 30
0.0
 10
6.5485793126
 20
1.5834860725
 30
0.0
 10
6.5596775418
 20
1.5740291729
 30
0.0
 10
6.5727161243
 20
1.5614527065
 30
0.0
 10
6.5813399308
 20
1.551299503
 30
0.0
 10
6.5863345086
 20
1.5442687542
 30
0.0
 11
6.34160815
 21
1.6741907605
 31
0.0
 11
6.3843007026
 21
1.6625512483
 31
0.0
 11
6.4241550641
 21
1.6493370373
 31
0.0
 11
6.4608365169
 21
1.6346703719
 31
0.0
 11
6.494010343
 21
1.6186734967
 31
0.0
 11
6.5233636915
 21
1.6014755305
 31
0.0
 11
6.5365358878
 21
1.5924746514
 31
0.0
 11
6.5486711793
 21
1.5832330903
 31
0.0
 11
6.5597441266
 21
1.5737712835
 31
0.0
 11
6.5697292903
 21
1.5641096677
 31
0.0
 11
6.5863345086
 21
1.5442687542
 31
0.0
  0
SPLINE
  5
42F
100
AcDbEntity
  8
0
100
AcDbSpline
 62
9
  6
CONTINUOUS
 70
0
 71
3
 72
13
 73
9
 74
7
 42
0.0000001
 43
0.0000001
 44
0.0000000001
 12
0.0545522084
 22
-0.0767943656
 32
0.0
 13
-0.0017718321
 23
-0.0941816258
 33
0.0
 40
0.0
 40
0.0
 40
0.0
 40
0.0
 40
0.2685663903
 40
0.5214047656
 40
0.6434548885
 40
0.7634162585
 40
0.8820126579
 40
1.0
 40
1.0
 40
1.0
 40
1.0
 10
6.5863345094
 20
1.5442394732
 30
0.0
 10
6.5912181393
 20
1.5373646781
 30
0.0
 10
6.5998893854
 20
1.5234106438
 30
0.0
 10
6.6079728163
 20
1.5047989581
 30
0.0
 10
6.6123613799
 20
1.4898767694
 30
0.0
 10
6.6146304378
 20
1.4787688446
 30
0.0
 10
6.615910064
 20
1.4676331379
 30
0.0
 10
6.6161011545
 20
1.4601953957
 30
0.0
 10
6.6160314699
 20
1.4564913158
 30
0.0
 11
6.5863345094
 21
1.5442394732
 31
0.0
 11
6.5995882087
 21
1.5226906147
 31
0.0
 11
6.6089859244
 21
1.500806152
 31
0.0
 11
6.6122213367
 21
1.4897738759
 31
0.0
 11
6.6144759498
 21
1.4787009249
 31
0.0
 11
6.615746902
 21
1.4676018781
 31
0.0
 11
6.6160314699
 21
1.4564913158
 31
0.0
  0
SPLINE
  5
430
100
AcDbEntity
  8
0
100
AcDbSpline
 62
6
  6
CONTINUOUS
 70
0
 71
3
 72
9
 73
5
 74
3
 42
0.0000001
 43
0.0000001
 44
0.0000000001
 12
0.0053511579
 22
0.0793321999
 32
0.0
 13
-0.0061618699
 23
0.0792733511
 33
0.0
 40
0.0
 40
0.0
 40
0.0
 40
0.0
 40
0.5039042384
 40
1.0
 40
1.0
 40
1.0
 40
1.0
 10
5.2349116984
 20
2.7812815235
 30
0.0
 10
5.2358105221
 20
2.7946068007
 30
0.0
 10
5.2366943908
 20
2.8211205169
 30
0.0
 10
5.2356556292
 20
2.8476322813
 30
0.0
 10
5.23463667
 20
2.8607413391
 30
0.0
 11
5.2349116984
 21
2.7812815235
 31
0.0
 11
5.2362130992
 21
2.8213270531
 31
0.0
 11
5.23463667
 21
2.8607413391
 31
0.0
  0
SPLINE
  5
431
100
AcDbEntity
  8
0
100
AcDbSpline
 62
6
  6
CONTINUOUS
 70
0
 71
3
 72
9
 73
5
 74
3
 42
0.0000001
 43
0.0000001
 44
0.0000000001
 12
-0.0053511579
 22
0.0793321999
 32
0.0
 13
0.0061618699
 23
0.0792733511
 33
0.0
 40
0.0
 40
0.0
 40
0.0
 40
0.0
 40
0.5039042384
 40
1.0
 40
1.0
 40
1.0
 40
1.0
 10
6.0077573215
 20
2.7812815235
 30
0.0
 10
6.0068584977
 20
2.7946068007
 30
0.0
 10
6.005974629
 20
2.8211205169
 30
0.0
 10
6.0070133906
 20
2.8476322813
 30
0.0
 10
6.0080323498
 20
2.8607413391
 30
0.0
 11
6.0077573215
 21
2.7812815235
 31
0.0
 11
6.0064559206
 21
2.8213270531
 31
0.0
 11
6.0080323498
 21
2.8607413391
 31
0.0
  0
SPLINE
  5
432
100
AcDbEntity
  8
0
100
AcDbSpline
 62
9
  6
CONTINUOUS
 70
0
 71
3
 72
16
 73
12
 74
10
 42
0.0000001
 43
0.0000001
 44
0.0000000001
 12
-0.3784508356
 22
-0.5036966759
 32
0.0
 13
0.000895308
 23
-0.6300274396
 33
0.0
 40
0.0
 40
0.0
 40
0.0
 40
0.0
 40
0.1278800117
 40
0.254863407
 40
0.318015983
 40
0.3809411214
 40
0.50617574
 40
0.6307510194
 40
0.7546272019
 40
0.8777114307
 40
1.0
 40
1.0
 40
1.0
 40
1.0
 10
4.8569999228
 20
2.1301440994
 30
0.0
 10
4.8408678237
 20
2.1086731871
 30
0.0
 10
4.8103389894
 20
2.0646356898
 30
0.0
 10
4.7766181287
 20
2.0069053865
 30
0.0
 10
4.7525737282
 20
1.9594962766
 30
0.0
 10
4.7305865555
 20
1.9115033212
 30
0.0
 10
4.7068115049
 20
1.8501991017
 30
0.0
 10
4.6843481867
 20
1.7749195017
 30
0.0
 10
4.6681466555
 20
1.6985022545
 30
0.0
 10
4.6584283451
 20
1.6214806928
 30
0.0
 10
4.6562980151
 20
1.569921196
 30
0.0
 10
4.6563345104
 20
1.5442394779
 30
0.0
 11
4.8569999228
 21
2.1301440994
 31
0.0
 11
4.8111138542
 21
2.0639197008
 31
0.0
 11
4.7707844661
 21
1.9948252934
 31
0.0
 11
4.7527901516
 21
1.9593389396
 31
0.0
 11
4.7362792726
 21
1.923296111
 31
0.0
 11
4.7077602621
 21
1.849729235
 31
0.0
 11
4.6853371668
 21
1.7745145755
 31
0.0
 11
4.6691863283
 21
1.6981585263
 31
0.0
 11
4.6594963488
 21
1.6212198037
 31
0.0
 11
4.6563345104
 21
1.5442394779
 31
0.0
  0
SPLINE
  5
433
100
AcDbEntity
  8
0
100
AcDbSpline
 62
9
  6
CONTINUOUS
 70
0
 71
3
 72
10
 73
6
 74
4
 42
0.0000001
 43
0.0000001
 44
0.0000000001
 12
0.0357634649
 22
0.0383864977
 32
0.0
 13
0.0494139029
 23
0.0176299412
 33
0.0
 40
0.0
 40
0.0
 40
0.0
 40
0.0
 40
0.4572892537
 40
0.7170217132
 40
1.0
 40
1.0
 40
1.0
 40
1.0
 10
4.9471622517
 20
2.2376607479
 30
0.0
 10
4.9526136678
 20
2.2435119922
 30
0.0
 10
4.9628732178
 20
2.2511096207
 30
0.0
 10
4.9784502947
 20
2.2590512047
 30
0.0
 10
4.9872862689
 20
2.2625680273
 30
0.0
 10
4.9919472894
 20
2.2642309908
 30
0.0
 11
4.9471622517
 21
2.2376607479
 31
0.0
 11
4.9660699233
 21
2.2524287853
 31
0.0
 11
4.9781757159
 21
2.2586849288
 31
0.0
 11
4.9919472894
 21
2.2642309908
 31
0.0
  0
SPLINE
  5
434
100
AcDbEntity
  8
0
100
AcDbSpline
 62
9
  6
CONTINUOUS
 70
0
 71
3
 72
11
 73
7
 74
5
 42
0.0000001
 43
0.0000001
 44
0.0000000001
 12
0.0909905388
 22
0.0324636944
 32
0.0
 13
0.096145348
 23
0.0094467814
 33
0.0
 40
0.0
 40
0.0
 40
0.0
 40
0.0
 40
0.2177201304
 40
0.4573836942
 40
0.7184587274
 40
1.0
 40
1.0
 40
1.0
 40
1.0
 10
4.9919472894
 20
2.2642309908
 30
0.0
 10
4.99855078
 20
2.2665869908
 30
0.0
 10
5.0126770924
 20
2.2708334017
 30
0.0
 10
5.0352777543
 20
2.2758481942
 30
0.0
 10
5.0601546393
 20
2.2798876
 30
0.0
 10
5.07751723
 20
2.2819026153
 30
0.0
 10
5.0865401912
 20
2.2827891682
 30
0.0
 11
4.9919472894
 21
2.2642309908
 31
0.0
 11
5.0120586606
 21
2.2703908745
 31
0.0
 11
5.034643595
 21
2.2754904
 31
0.0
 11
5.059528602
 21
2.2795997652
 31
0.0
 11
5.0865401912
 21
2.2827891682
 31
0.0
  0
SPLINE
  5
435
100
AcDbEntity
  8
0
100
AcDbSpline
 62
9
  6
CONTINUOUS
 70
0
 71
3
 72
10
 73
6
 74
4
 42
0.0000001
 43
0.0000001
 44
0.0000000001
 12
-0.0357634648
 22
0.038386497
 32
0.0
 13
-0.0494139024
 23
0.017629941
 33
0.0
 40
0.0
 40
0.0
 40
0.0
 40
0.0
 40
0.4572892542
 40
0.7170217136
 40
1.0
 40
1.0
 40
1.0
 40
1.0
 10
6.2955067677
 20
2.2376607484
 30
0.0
 10
6.2900553517
 20
2.2435119926
 30
0.0
 10
6.2797958017
 20
2.2511096209
 30
0.0
 10
6.264218725
 20
2.2590512048
 30
0.0
 10
6.2553827509
 20
2.2625680273
 30
0.0
 10
6.2507217304
 20
2.2642309908
 30
0.0
 11
6.2955067677
 21
2.2376607484
 31
0.0
 11
6.2765990962
 21
2.2524287854
 31
0.0
 11
6.2644933037
 21
2.2586849288
 31
0.0
 11
6.2507217304
 21
2.2642309908
 31
0.0
  0
SPLINE
  5
436
100
AcDbEntity
  8
0
100
AcDbSpline
 62
9
  6
CONTINUOUS
 70
0
 71
3
 72
11
 73
7
 74
5
 42
0.0000001
 43
0.0000001
 44
0.0000000001
 12
-0.0909905388
 22
0.0324636944
 32
0.0
 13
-0.096145348
 23
0.0094467814
 33
0.0
 40
0.0
 40
0.0
 40
0.0
 40
0.0
 40
0.2177201304
 40
0.4573836942
 40
0.7184587274
 40
1.0
 40
1.0
 40
1.0
 40
1.0
 10
6.2507217304
 20
2.2642309908
 30
0.0
 10
6.2441182398
 20
2.2665869908
 30
0.0
 10
6.2299919274
 20
2.2708334017
 30
0.0
 10
6.2073912655
 20
2.2758481942
 30
0.0
 10
6.1825143805
 20
2.2798876
 30
0.0
 10
6.1651517898
 20
2.2819026153
 30
0.0
 10
6.1561288286
 20
2.2827891682
 30
0.0
 11
6.2507217304
 21
2.2642309908
 31
0.0
 11
6.2306103592
 21
2.2703908745
 31
0.0
 11
6.2080254249
 21
2.2754904
 31
0.0
 11
6.1831404179
 21
2.2795997652
 31
0.0
 11
6.1561288286
 21
2.2827891682
 31
0.0
  0
SPLINE
  5
437
100
AcDbEntity
  8
0
100
AcDbSpline
 62
9
  6
CONTINUOUS
 70
0
 71
3
 72
16
 73
12
 74
10
 42
0.0000001
 43
0.0000001
 44
0.0000000001
 12
0.3784499752
 22
-0.5036961932
 32
0.0
 13
-0.0008653036
 23
-0.6300265789
 33
0.0
 40
0.0
 40
0.0
 40
0.0
 40
0.0
 40
0.1278804303
 40
0.2548638799
 40
0.3180158729
 40
0.3809401058
 40
0.5061737317
 40
0.6307510204
 40
0.7546284464
 40
0.8777096368
 40
1.0
 40
1.0
 40
1.0
 40
1.0
 10
6.385669612
 20
2.1301434
 30
0.0
 10
6.4018017272
 20
2.108672438
 30
0.0
 10
6.4323305795
 20
2.0646349301
 30
0.0
 10
6.4660514445
 20
2.0069047608
 30
0.0
 10
6.4900955178
 20
1.9594959059
 30
0.0
 10
6.5120821661
 20
1.9115033634
 30
0.0
 10
6.5358567433
 20
1.850199051
 30
0.0
 10
6.5583208182
 20
1.7749193403
 30
0.0
 10
6.5745234182
 20
1.6985023406
 30
0.0
 10
6.5842399292
 20
1.6214805969
 30
0.0
 10
6.5863697822
 20
1.5699215329
 30
0.0
 10
6.5863345094
 20
1.5442394732
 30
0.0
 11
6.385669612
 21
2.1301434
 31
0.0
 11
6.431555767
 21
2.0639188809
 31
0.0
 11
6.4718851063
 21
1.9948245381
 31
0.0
 11
6.4898791117
 21
1.9593385033
 31
0.0
 11
6.5063895307
 21
1.923296154
 31
0.0
 11
6.5349079779
 21
1.8497298516
 31
0.0
 11
6.5573319399
 21
1.7745142469
 31
0.0
 11
6.5734834251
 21
1.698157648
 31
0.0
 11
6.5831720262
 21
1.6212207932
 31
0.0
 11
6.5863345094
 21
1.5442394732
 31
0.0
  0
ENDSEC
  0
SECTION
  2
OBJECTS
  0
DICTIONARY
  5
C
100
AcDbDictionary
280
0
281
1
  3
ACAD_GROUP
350
D
  3
ACAD_MLINESTYLE
350
17
  3
ACAD_LAYOUT
350
1A
  3
ACAD_PLOTSETTINGS
350
19
  3
ACAD_PLOTSTYLENAME
350
E
  0
DICTIONARY
  5
D
102
{ACAD_REACTORS
330
C
102
}
100
AcDbDictionary
280
0
281
1
  0
ACDBDICTIONARYWDFLT
  5
E
102
{ACAD_REACTORS
330
C
102
}
100
AcDbDictionary
281
1
  3
Normal
350
F
100
AcDbDictionaryWithDefault
340
F
  0
DICTIONARY
  5
17
102
{ACAD_REACTORS
330
C
102
}
100
AcDbDictionary
280
0
281
1
  3
Standard
350
18
  0
DICTIONARY
  5
19
102
{ACAD_REACTORS
330
C
102
}
100
AcDbDictionary
281
1
  0
DICTIONARY
  5
1A
102
{ACAD_REACTORS
330
C
102
}
100
AcDbDictionary
281
1
  3
Model
350
438
  3
Layout1
350
439
  0
ACDBPLACEHOLDER
  5
F
102
{ACAD_REACTORS
330
E
102
}
  0
MLINESTYLE
  5
18
102
{ACAD_REACTORS
330
17
102
}
100
AcDbMlineStyle
  2
STANDARD
 70
0
  3

 62
256
 51
90.0
 52
90.0
 71
2
 49
0.5
 62
256
  6
BYLAYER
 49
-0.5
 62
256
  6
BYLAYER
  0
LAYOUT
  5
438
102
{ACAD_REACTORS
330
1A
102
}
100
AcDbPlotSettings
  1

  2
none_device
  4
ISO_A4_(297.00_x_210.00_MM)
  6

 40
0.0
 41
0.0
 42
0.0
 43
0.0
 44
297.0
 45
210.0
 46
0.0
 47
0.0
 48
0.0
 49
0.0
140
0.0
141
0.0
142
1.0
143
1.0
 70
1024
 72
0
 73
0
 74
0
  7

 75
0
147
1.0
148
0.0
149
0.0
100
AcDbLayout
  1
Model
 70
0
 71
0
 10
0.0
 20
0.0
 11
11.6929133858
 21
8.2677165354
 12
0.0
 22
0.0
 32
0.0
 14
0.0
 24
0.0
 34
0.0
 15
0.0
 25
0.0
 35
0.0
146
0.0
 13
0.0
 23
0.0
 33
0.0
 16
1.0
 26
0.0
 36
0.0
 17
0.0
 27
1.0
 37
0.0
 76
0
330
22A
345
0
346
0
  0
LAYOUT
  5
439
102
{ACAD_REACTORS
330
1A
102
}
100
AcDbPlotSettings
  1

  2
none_device
  4
ISO_A4_(297.00_x_210.00_MM)
  6

 40
0.0
 41
0.0
 42
0.0
 43
0.0
 44
297.0
 45
210.0
 46
0.0
 47
0.0
 48
0.0
 49
0.0
140
0.0
141
0.0
142
1.0
143
1.0
 70
0
 72
0
 73
0
 74
0
  7

 75
0
147
1.0
148
0.0
149
0.0
100
AcDbLayout
  1
Layout1
 70
0
 71
1
 10
0.0
 20
0.0
 11
11.6929133858
 21
8.2677165354
 12
0.0
 22
0.0
 32
0.0
 14
0.0
 24
0.0
 34
0.0
 15
0.0
 25
0.0
 35
0.0
146
0.0
 13
0.0
 23
0.0
 33
0.0
 16
1.0
 26
0.0
 36
0.0
 17
0.0
 27
1.0
 37
0.0
 76
0
330
22B
345
0
346
0
  0
ENDSEC
  0
EOF
