999
DXF file: E:\BT Custom\CADOUTPUT\_RIGHT.dxf
999
Pro/ENGINEER 2018400 by Parametric Technology Corporation
  0
SECTION
  2
HEADER
  9
$ACADVER
  1
AC1018
  9
$DWGCODEPAGE
  3
ANSI_1252
  9
$EXTMAX
 10
22.0
 20
17.0
 30
0.0
  9
$EXTMIN
 10
0.0
 20
0.0
 30
0.0
  9
$LIMMIN
 10
0.0
 20
0.0
  9
$LIMMAX
 10
22.0
 20
17.0
  9
$VIEWCTR
 10
11.0
 20
8.5
  9
$VIEWSIZE
 40
17.0
  9
$CLAYER
  8
0
  9
$LTSCALE
 40
1.21
  9
$CELTYPE
  6
BYLAYER
  9
$DIMSCALE
 40
1.0
  9
$DIMASZ
 40
0.1
  9
$DIMEXO
 40
0.0625
  9
$DIMDLI
 40
0.836
  9
$DIMEXE
 40
0.125
  9
$DIMCEN
 40
0.198
  9
$DIMLFAC
 40
1.0
  9
$DIMBLK
  1
_FILLED
  9
$DIMALT
 70
1
  9
$DIMALTD
 70
2
  9
$DIMALTTD
 70
2
  9
$DIMALTF
 40
25.4
  9
$DIMTXT
 40
0.08
  9
$DIMTOL
 70
1
  9
$DIMLIM
 70
0
  9
$DIMTFAC
 40
1.0
  9
$DIMTP
 40
0.001
  9
$DIMTM
 40
0.001
  9
$DIMGAP
 40
0.09
  9
$DIMDSEP
 70
46
  9
$AUNITS
 70
0
  9
$PDMODE
 70
3
  9
$PDSIZE
 40
0.06
  9
$HANDSEED
  5
608
  9
$TILEMODE
 70
1
  9
$MEASUREMENT
 70
0
  9
$INSUNITS
 70
1
  0
ENDSEC
  0
SECTION
  2
CLASSES
  0
CLASS
  1
ACDBDICTIONARYWDFLT
  2
AcDbDictionaryWithDefault
  3
AutoCAD 2000
 90
0
 91
1
280
0
281
0
  0
CLASS
  1
ACDBPLACEHOLDER
  2
AcDbPlaceHolder
  3
AutoCAD 2000
 90
0
 91
1
280
0
281
0
  0
CLASS
  1
LAYOUT
  2
AcDbLayout
  3
AutoCAD 2000
 90
0
 91
0
280
0
281
0
  0
ENDSEC
  0
SECTION
  2
TABLES
  0
TABLE
  2
VPORT
  5
8
100
AcDbSymbolTable
 70
2
  0
VPORT
  5
1F4
100
AcDbSymbolTableRecord
100
AcDbViewportTableRecord
  2
*ACTIVE
 70
0
 10
0.0
 20
0.0
 11
1.0
 21
1.0
 12
11.0
 22
8.5
 13
0.0
 23
0.0
 14
1.0
 24
1.0
 15
0.0
 25
0.0
 16
0.0
 26
0.0
 36
1.0
 17
0.0
 27
0.0
 37
0.0
 40
17.0
 41
1.2941176471
 42
50.0
 43
0.0
 44
0.0
 50
0.0
 51
0.0
 71
0
 72
100
 73
1
 74
1
 75
0
 76
0
 77
0
 78
0
  0
ENDTAB
  0
TABLE
  2
LTYPE
  5
5
100
AcDbSymbolTable
 70
6
  0
LTYPE
  5
14
100
AcDbSymbolTableRecord
100
AcDbLinetypeTableRecord
  2
BYBLOCK
 70
0
  3

 72
65
 73
0
 40
0.0
  0
LTYPE
  5
15
100
AcDbSymbolTableRecord
100
AcDbLinetypeTableRecord
  2
BYLAYER
 70
0
  3

 72
65
 73
0
 40
0.0
  0
LTYPE
  5
16
100
AcDbSymbolTableRecord
100
AcDbLinetypeTableRecord
  2
CONTINUOUS
 70
64
  3
Solid line
 72
65
 73
0
 40
0.0
  0
LTYPE
  5
1F5
100
AcDbSymbolTableRecord
100
AcDbLinetypeTableRecord
  2
CENTER
 70
64
  3
____ _ ____ _ ____ _ ____ _ ____ _ ____ _ ____
 72
65
 73
4
 40
0.6
 49
0.375
 74
0
 49
-0.075
 74
0
 49
0.075
 74
0
 49
-0.075
 74
0
  0
LTYPE
  5
1F6
100
AcDbSymbolTableRecord
100
AcDbLinetypeTableRecord
  2
HIDDEN
 70
64
  3
- - - - - - - - - - - - - - - - - - - -
 72
65
 73
2
 40
0.2
 49
0.1
 74
0
 49
-0.1
 74
0
  0
LTYPE
  5
1F7
100
AcDbSymbolTableRecord
100
AcDbLinetypeTableRecord
  2
PHANTOM
 70
64
  3
_____ _ _ _____ _ _ _____ _ _ _____
 72
65
 73
6
 40
0.8
 49
0.45
 74
0
 49
-0.05
 74
0
 49
0.1
 74
0
 49
-0.05
 74
0
 49
0.1
 74
0
 49
-0.05
 74
0
  0
LTYPE
  5
1F8
100
AcDbSymbolTableRecord
100
AcDbLinetypeTableRecord
  2
DOT
 70
64
  3
. . . . . . . . . . . . . . . . . . . .
 72
65
 73
2
 40
0.2
 49
0.1
 74
0
 49
-0.1
 74
0
  0
LTYPE
  5
1F9
100
AcDbSymbolTableRecord
100
AcDbLinetypeTableRecord
  2
DASHED
 70
64
  3
- - - - - - - - - - - - - - - - - - - -
 72
65
 73
2
 40
0.2
 49
0.1
 74
0
 49
-0.1
 74
0
  0
ENDTAB
  0
TABLE
  2
LAYER
  5
2
100
AcDbSymbolTable
 70
36
  0
LAYER
  5
10
100
AcDbSymbolTableRecord
100
AcDbLayerTableRecord
  2
0
 70
0
 62
7
  6
CONTINUOUS
370
-3
390
F
  0
LAYER
  5
1FA
100
AcDbSymbolTableRecord
100
AcDbLayerTableRecord
  2
DEFAULT_1
 70
0
 62
7
  6
CENTER
370
-3
390
F
  0
LAYER
  5
1FB
100
AcDbSymbolTableRecord
100
AcDbLayerTableRecord
  2
DEFAULT_2
 70
0
 62
8
  6
HIDDEN
370
-3
390
F
  0
LAYER
  5
1FC
100
AcDbSymbolTableRecord
100
AcDbLayerTableRecord
  2
DEFAULT_3
 70
0
 62
7
  6
PHANTOM
370
-3
390
F
  0
LAYER
  5
1FD
100
AcDbSymbolTableRecord
100
AcDbLayerTableRecord
  2
ALL_FEATURES
 70
0
 62
7
  6
CONTINUOUS
370
-3
390
F
  0
LAYER
  5
1FE
100
AcDbSymbolTableRecord
100
AcDbLayerTableRecord
  2
AXES_FEATURES
 70
0
 62
7
  6
CONTINUOUS
370
-3
390
F
  0
LAYER
  5
1FF
100
AcDbSymbolTableRecord
100
AcDbLayerTableRecord
  2
DIMENSIONS
 70
0
 62
7
  6
CONTINUOUS
370
-3
390
F
  0
ENDTAB
  0
TABLE
  2
STYLE
  5
3
100
AcDbSymbolTable
 70
1
  0
STYLE
  5
11
100
AcDbSymbolTableRecord
100
AcDbTextStyleTableRecord
  2
STANDARD
 70
0
 40
0.0
 41
0.8
 50
0.0
 71
0
 42
0.2
  3
txt
  4

  0
STYLE
  5
200
100
AcDbSymbolTableRecord
100
AcDbTextStyleTableRecord
  2
TEXTSTYLE_1
 70
0
 40
0.0
 41
0.8
 50
0.0
 71
0
 42
0.2
  3
gdt
  4

  0
ENDTAB
  0
TABLE
  2
VIEW
  5
6
100
AcDbSymbolTable
 70
0
  0
ENDTAB
  0
TABLE
  2
UCS
  5
7
100
AcDbSymbolTable
 70
0
  0
ENDTAB
  0
TABLE
  2
APPID
  5
9
100
AcDbSymbolTable
 70
1
  0
APPID
  5
201
100
AcDbSymbolTableRecord
100
AcDbRegAppTableRecord
  2
ACAD
 70
0
  0
ENDTAB
  0
TABLE
  2
BLOCK_RECORD
  5
1
100
AcDbSymbolTable
 70
0
  0
BLOCK_RECORD
  5
202
100
AcDbSymbolTableRecord
100
AcDbBlockTableRecord
  2
*Model_Space
  0
BLOCK_RECORD
  5
203
100
AcDbSymbolTableRecord
100
AcDbBlockTableRecord
  2
*Paper_Space
  0
BLOCK_RECORD
  5
204
100
AcDbSymbolTableRecord
100
AcDbBlockTableRecord
  2
_FILLED
  0
ENDTAB
  0
TABLE
  2
DIMSTYLE
  5
A
100
AcDbSymbolTable
 70
1
100
AcDbDimStyleTable
 71
0
  0
DIMSTYLE
105
205
100
AcDbSymbolTableRecord
100
AcDbDimStyleTableRecord
  2
STANDARD
 70
0
  3

  4

 40
1.0
 41
0.1
 42
0.0625
 43
0.38
 44
0.125
 45
0.0
 46
0.0
 47
0.001
 48
0.001
140
0.08
141
0.09
142
0.0
143
25.4
144
1.0
145
0.0
146
1.0
147
0.09
 71
1.0
 72
0.0
 73
1
 74
1
 75
0
 76
0
 77
0
 78
4
 79
1
170
1
171
2
172
0
173
0
174
0
175
0
176
0
177
0
178
0
270
2
179
3
271
3
272
3
273
2
274
2
275
0
280
0
281
0
282
0
283
1
284
4
285
0
286
0
287
3
288
0
340
11
278
46
341
204
342
204
343
204
344
204
  0
ENDTAB
  0
ENDSEC
  0
SECTION
  2
BLOCKS
  0
BLOCK
  5
20
100
AcDbEntity
  8
0
100
AcDbBlockBegin
  2
*Model_Space
 70
0
 10
0.0
 20
0.0
 30
0.0
  3
*Model_Space
  1

  0
ENDBLK
  5
21
100
AcDbEntity
  8
0
100
AcDbBlockEnd
  0
BLOCK
  5
1C
100
AcDbEntity
  8
0
100
AcDbBlockBegin
  2
*Paper_Space
 70
0
 10
0.0
 20
0.0
 30
0.0
  3
*Paper_Space
  1

  0
ENDBLK
  5
1D
100
AcDbEntity
  8
0
100
AcDbBlockEnd
  0
BLOCK
  5
206
100
AcDbEntity
  8
0
100
AcDbBlockBegin
  2
_FILLED
 70
64
 10
0.0
 20
0.0
  3
_FILLED
  1

  0
SOLID
  5
207
100
AcDbEntity
  8
0
  6
BYBLOCK
 62
0
100
AcDbTrace
 10
0.0
 20
0.0
 11
-1.0
 21
0.2
 12
-1.0
 22
-0.2
 13
-1.0
 23
-0.2
  0
ENDBLK
  5
208
100
AcDbEntity
  8
0
  6
BYBLOCK
 62
0
100
AcDbBlockEnd
  0
ENDSEC
  0
SECTION
  2
ENTITIES
  0
LWPOLYLINE
  5
209
100
AcDbEntity
  8
0
100
AcDbPolyline
 62
7
  6
CONTINUOUS
 90
49
 70
0
 10
12.5022776265
 20
-10.575999645
 10
12.5959990802
 20
-10.561609369
 10
12.7018206857
 20
-10.5044056802
 10
12.774938655
 20
-10.422680763
 10
12.8191676589
 20
-10.3356474159
 10
12.84890128
 20
-10.239630684
 10
12.8720723945
 20
-10.120782027
 10
12.8907744339
 20
-9.9689618973
 10
12.9051637462
 20
-9.7800504645
 10
12.914997239
 20
-9.5584493459
 10
12.9204599752
 20
-9.3151500054
 10
12.9222500292
 20
-9.0559009523
 10
12.920990292
 20
-8.7861345134
 10
12.9172790725
 20
-8.5098039294
 10
12.9115603829
 20
-8.2269686018
 10
12.9041553265
 20
-7.9389782399
 10
12.8953031195
 20
-7.6461313616
 10
12.8851506458
 20
-7.3474269389
 10
12.8738107079
 20
-7.0422863265
 10
12.8614105337
 20
-6.731247768
 10
12.8480426869
 20
-6.4143949131
 10
12.8337661078
 20
-6.0913561046
 10
12.818603968
 20
-5.7612580132
 10
12.8025832051
 20
-5.4235402258
 10
12.785753288
 20
-5.0782189989
 10
12.7681490975
 20
-4.7250685262
 10
12.7497922896
 20
-4.3636537289
 10
12.7306898578
 20
-3.9933034949
 10
12.7108476864
 20
-3.6133730422
 10
12.6902846761
 20
-3.2234665357
 10
12.6690134959
 20
-2.8230394973
 10
12.6470430843
 20
-2.4114209314
 10
12.6243788926
 20
-1.9877974939
 10
12.6010300682
 20
-1.5513253482
 10
12.5770085619
 20
-1.1010801694
 10
12.5523277745
 20
-0.6359939308
 10
12.5270080761
 20
-0.1548966142
 10
12.5010804906
 20
0.34348963
 10
12.4745775099
 20
0.8608397102
 10
12.4475394961
 20
1.3992603257
 10
12.4200422705
 20
1.9609596592
 10
12.3922087379
 20
2.5482777622
 10
12.3641860331
 20
3.1646504202
 10
12.3362033493
 20
3.814248731
 10
12.3086589576
 20
4.5012811583
 10
12.2820998543
 20
5.2330443855
 10
12.2574649842
 20
6.0199221898
 10
12.2365940848
 20
6.8719148342
 10
12.2232639689
 20
7.743609914
  0
LINE
  5
20A
100
AcDbEntity
  8
0
100
AcDbLine
 62
7
  6
CONTINUOUS
 10
13.4821576223
 20
-9.746890086
 11
13.4591576223
 21
-9.746890086
  0
LINE
  5
20B
100
AcDbEntity
  8
0
100
AcDbLine
 62
7
  6
CONTINUOUS
 10
13.2321576223
 20
-9.546890086
 11
13.2591576223
 21
-9.546890086
  0
LINE
  5
20C
100
AcDbEntity
  8
0
100
AcDbLine
 62
7
  6
CONTINUOUS
 10
12.5023716552
 20
-10.5759997877
 11
12.5022776265
 21
-10.575999645
  0
LINE
  5
20D
100
AcDbEntity
  8
0
100
AcDbLine
 62
7
  6
CONTINUOUS
 10
13.0111576223
 20
-9.204390086
 11
13.0321576223
 21
-9.204390086
  0
LINE
  5
20E
100
AcDbEntity
  8
0
100
AcDbLine
 62
7
  6
CONTINUOUS
 10
12.9222196252
 20
-9.049390086
 11
12.9761576223
 21
-9.049390086
  0
LINE
  5
20F
100
AcDbEntity
  8
0
100
AcDbLine
 62
7
  6
CONTINUOUS
 10
12.9135301624
 20
-8.324390086
 11
12.9761576223
 21
-8.324390086
  0
LINE
  5
210
100
AcDbEntity
  8
0
100
AcDbLine
 62
7
  6
CONTINUOUS
 10
10.7958799159
 20
-7.734390086
 11
11.0525846506
 21
-7.734390086
  0
LINE
  5
211
100
AcDbEntity
  8
0
100
AcDbLine
 62
7
  6
CONTINUOUS
 10
11.6141338416
 20
-7.734390086
 11
11.8764353286
 21
-7.734390086
  0
LINE
  5
212
100
AcDbEntity
  8
0
100
AcDbLine
 62
7
  6
CONTINUOUS
 10
12.8937144602
 20
-7.599390086
 11
12.9761576223
 21
-7.599390086
  0
LINE
  5
213
100
AcDbEntity
  8
0
100
AcDbLine
 62
7
  6
CONTINUOUS
 10
13.0111576223
 20
-7.444390086
 11
13.0321576223
 21
-7.444390086
  0
LINE
  5
214
100
AcDbEntity
  8
0
100
AcDbLine
 62
7
  6
CONTINUOUS
 10
13.2321576223
 20
-7.101890086
 11
13.2591576223
 21
-7.101890086
  0
LINE
  5
215
100
AcDbEntity
  8
0
100
AcDbLine
 62
7
  6
CONTINUOUS
 10
13.4821576223
 20
-6.901890086
 11
13.4591576223
 21
-6.901890086
  0
LWPOLYLINE
  5
216
100
AcDbEntity
  8
0
100
AcDbPolyline
 62
7
  6
CONTINUOUS
 90
5
 70
0
 10
12.2235487615
 20
-10.4249103214
 10
12.2627662366
 20
-10.4706237305
 10
12.3267698215
 20
-10.5231833824
 10
12.4160810057
 20
-10.5639082639
 10
12.5023716552
 20
-10.5759997877
  0
LINE
  5
217
100
AcDbEntity
  8
0
100
AcDbLine
 62
7
  6
CONTINUOUS
 10
11.3438661269
 20
-9.2621623153
 11
12.2238620835
 21
-10.4253252876
  0
LINE
  5
218
100
AcDbEntity
  8
0
100
AcDbLine
 62
7
  6
CONTINUOUS
 10
7.9635184994
 20
17.6925874283
 11
8.0414836269
 21
17.720964414
  0
LINE
  5
219
100
AcDbEntity
  8
0
100
AcDbLine
 62
7
  6
CONTINUOUS
 10
11.7904572045
 20
-8.9242919121
 11
12.3499080936
 21
-9.6637641268
  0
LINE
  5
21A
100
AcDbEntity
  8
0
100
AcDbLine
 62
7
  6
CONTINUOUS
 10
8.1997928342
 20
18.7135406052
 11
8.2079463249
 21
18.7216940958
  0
LINE
  5
21B
100
AcDbEntity
  8
0
100
AcDbLine
 62
7
  6
CONTINUOUS
 10
8.199793112
 20
18.6585392639
 11
8.2079463249
 21
18.6666924769
  0
LINE
  5
21C
100
AcDbEntity
  8
0
100
AcDbLine
 62
7
  6
CONTINUOUS
 10
8.1582459437
 20
18.4751891042
 11
8.1663994613
 21
18.4833426218
  0
LINE
  5
21D
100
AcDbEntity
  8
0
100
AcDbLine
 62
7
  6
CONTINUOUS
 10
8.199793112
 20
18.4972826764
 11
8.2079463249
 21
18.5054358894
  0
LINE
  5
21E
100
AcDbEntity
  8
0
100
AcDbLine
 62
7
  6
CONTINUOUS
 10
8.1582459437
 20
18.3806242444
 11
8.1663994613
 21
18.3887777619
  0
LINE
  5
21F
100
AcDbEntity
  8
0
100
AcDbLine
 62
7
  6
CONTINUOUS
 10
8.199793112
 20
18.2407604903
 11
8.2079463249
 21
18.2489137033
  0
LINE
  5
220
100
AcDbEntity
  8
0
100
AcDbLine
 62
7
  6
CONTINUOUS
 10
8.1582459437
 20
18.1979389635
 11
8.1663994613
 21
18.2060924811
  0
LINE
  5
221
100
AcDbEntity
  8
0
100
AcDbLine
 62
7
  6
CONTINUOUS
 10
8.0395029914
 20
17.9904518999
 11
8.0522692496
 21
18.003218158
  0
LINE
  5
222
100
AcDbEntity
  8
0
100
AcDbLine
 62
7
  6
CONTINUOUS
 10
8.0395029914
 20
17.957829142
 11
8.0522692496
 21
17.9705954001
  0
LINE
  5
223
100
AcDbEntity
  8
0
100
AcDbLine
 62
7
  6
CONTINUOUS
 10
8.1582459437
 20
17.9395829617
 11
8.1663994613
 21
17.9477364793
  0
LINE
  5
224
100
AcDbEntity
  8
0
100
AcDbLine
 62
7
  6
CONTINUOUS
 10
8.199793112
 20
17.9064542687
 11
8.2079466737
 21
17.9146078304
  0
LINE
  5
225
100
AcDbEntity
  8
0
100
AcDbLine
 62
7
  6
CONTINUOUS
 10
7.9366467152
 20
17.6150614186
 11
7.9447999364
 21
17.6232146398
  0
LINE
  5
226
100
AcDbEntity
  8
0
100
AcDbLine
 62
7
  6
CONTINUOUS
 10
7.9366467152
 20
17.522644705
 11
7.9447999347
 21
17.5307979246
  0
LINE
  5
227
100
AcDbEntity
  8
0
100
AcDbLine
 62
7
  6
CONTINUOUS
 10
8.0395029914
 20
17.5448323673
 11
8.0522692496
 21
17.5575986255
  0
LINE
  5
228
100
AcDbEntity
  8
0
100
AcDbLine
 62
7
  6
CONTINUOUS
 10
8.1582459437
 20
17.6231627735
 11
8.1663994613
 21
17.631316291
  0
LINE
  5
229
100
AcDbEntity
  8
0
100
AcDbLine
 62
7
  6
CONTINUOUS
 10
8.199793112
 20
17.5171464281
 11
8.2079463249
 21
17.5252996411
  0
LINE
  5
22A
100
AcDbEntity
  8
0
100
AcDbLine
 62
7
  6
CONTINUOUS
 10
8.0395029914
 20
17.3424296343
 11
8.0522692496
 21
17.3551958924
  0
LINE
  5
22B
100
AcDbEntity
  8
0
100
AcDbLine
 62
7
  6
CONTINUOUS
 10
7.9366467152
 20
17.2134123545
 11
7.9447999364
 21
17.2215655756
  0
LWPOLYLINE
  5
22C
100
AcDbEntity
  8
0
100
AcDbPolyline
 62
7
  6
CONTINUOUS
 90
4
 70
0
 10
8.0958225427
 20
18.0105215871
 10
8.0941461523
 20
18.0090071435
 10
8.0920890488
 20
18.0077812458
 10
8.0897273588
 20
18.0069732968
  0
LINE
  5
22D
100
AcDbEntity
  8
0
100
AcDbLine
 62
7
  6
CONTINUOUS
 10
8.0767957656
 20
16.3597334924
 11
8.0754749893
 21
16.3580871613
  0
LINE
  5
22E
100
AcDbEntity
  8
0
100
AcDbLine
 62
7
  6
CONTINUOUS
 10
8.1582459437
 20
17.2702419118
 11
8.1663994613
 21
17.2783954294
  0
LINE
  5
22F
100
AcDbEntity
  8
0
100
AcDbLine
 62
7
  6
CONTINUOUS
 10
8.0395029914
 20
17.1247482556
 11
8.0522692496
 21
17.1375145138
  0
LINE
  5
230
100
AcDbEntity
  8
0
100
AcDbLine
 62
7
  6
CONTINUOUS
 10
7.9366467152
 20
16.8685084839
 11
7.9447999347
 21
16.8766617034
  0
LINE
  5
231
100
AcDbEntity
  8
0
100
AcDbLine
 62
7
  6
CONTINUOUS
 10
8.199793112
 20
17.0993676546
 11
8.2079463249
 21
17.1075208675
  0
LINE
  5
232
100
AcDbEntity
  8
0
100
AcDbLine
 62
7
  6
CONTINUOUS
 10
8.1582459437
 20
16.9048713501
 11
8.1663994613
 21
16.9130248677
  0
LINE
  5
233
100
AcDbEntity
  8
0
100
AcDbLine
 62
7
  6
CONTINUOUS
 10
8.199793112
 20
16.681588881
 11
8.2079463249
 21
16.6897420939
  0
LINE
  5
234
100
AcDbEntity
  8
0
100
AcDbLine
 62
7
  6
CONTINUOUS
 10
8.0395029914
 20
16.4852401052
 11
8.0522692496
 21
16.4980063634
  0
LINE
  5
235
100
AcDbEntity
  8
0
100
AcDbLine
 62
7
  6
CONTINUOUS
 10
8.1582459437
 20
16.5519504884
 11
8.1663994613
 21
16.560104006
  0
LINE
  5
236
100
AcDbEntity
  8
0
100
AcDbLine
 62
7
  6
CONTINUOUS
 10
8.0395029914
 20
16.3389943875
 11
8.0522692496
 21
16.3517606457
  0
LINE
  5
237
100
AcDbEntity
  8
0
100
AcDbLine
 62
7
  6
CONTINUOUS
 10
8.199793112
 20
16.2922810404
 11
8.2079463249
 21
16.3004342533
  0
LINE
  5
238
100
AcDbEntity
  8
0
100
AcDbLine
 62
7
  6
CONTINUOUS
 10
8.1582459437
 20
16.2355303002
 11
8.1663994613
 21
16.2436838178
  0
LINE
  5
239
100
AcDbEntity
  8
0
100
AcDbLine
 62
7
  6
CONTINUOUS
 10
8.1582459437
 20
15.9771742984
 11
8.1663994613
 21
15.985327816
  0
LINE
  5
23A
100
AcDbEntity
  8
0
100
AcDbLine
 62
7
  6
CONTINUOUS
 10
8.199793112
 20
15.9579748188
 11
8.2079463249
 21
15.9661280317
  0
LINE
  5
23B
100
AcDbEntity
  8
0
100
AcDbLine
 62
7
  6
CONTINUOUS
 10
8.1582459437
 20
15.7944890175
 11
8.1663994613
 21
15.8026425351
  0
LINE
  5
23C
100
AcDbEntity
  8
0
100
AcDbLine
 62
7
  6
CONTINUOUS
 10
8.199793112
 20
15.7014526327
 11
8.2079463251
 21
15.7096058458
  0
LWPOLYLINE
  5
23D
100
AcDbEntity
  8
0
100
AcDbPolyline
 62
7
  6
CONTINUOUS
 90
3
 70
0
 10
8.0754749893
 20
16.3580871613
 10
8.0711604876
 20
16.3556874998
 10
8.0679296223
 20
16.3552201481
  0
LINE
  5
23E
100
AcDbEntity
  8
0
100
AcDbLine
 62
7
  6
CONTINUOUS
 10
10.2111575179
 20
16.6356098801
 11
10.0781128986
 21
16.5923810628
  0
LWPOLYLINE
  5
23F
100
AcDbEntity
  8
0
100
AcDbPolyline
 62
7
  6
CONTINUOUS
 90
5
 70
0
 10
8.0847317913
 20
17.1443106599
 10
8.0849869101
 20
17.1449036815
 10
8.0844900927
 20
17.1442249052
 10
8.0818135379
 20
17.1421307966
 10
8.0770472687
 20
17.1409742608
  0
LWPOLYLINE
  5
240
100
AcDbEntity
  8
0
100
AcDbPolyline
 62
7
  6
CONTINUOUS
 90
6
 70
0
 10
8.0898077302
 20
17.5643783784
 10
8.0901227272
 20
17.5650981206
 10
8.0897677258
 20
17.5646038913
 10
8.0873755591
 20
17.5625506963
 10
8.082706266
 20
17.5610859766
 10
8.0819296965
 20
17.5610582188
  0
LWPOLYLINE
  5
241
100
AcDbEntity
  8
0
100
AcDbPolyline
 62
7
  6
CONTINUOUS
 90
5
 70
0
 10
8.087174372
 20
17.36177042
 10
8.0874904786
 20
17.3624916852
 10
8.0870513676
 20
17.3619059338
 10
8.0844882698
 20
17.3598757828
 10
8.0795818856
 20
17.3586537436
  0
LINE
  5
242
100
AcDbEntity
  8
0
100
AcDbLine
 62
7
  6
CONTINUOUS
 10
8.199793112
 20
15.5401960452
 11
8.2079463249
 21
15.5483492581
  0
LWPOLYLINE
  5
243
100
AcDbEntity
  8
0
100
AcDbPolyline
 62
7
  6
CONTINUOUS
 90
7
 70
0
 10
8.0986877791
 20
18.0162217776
 10
8.0986922009
 20
18.0162488368
 10
8.0986597656
 20
18.016077293
 10
8.0985142889
 20
18.0154513468
 10
8.0980452696
 20
18.014044719
 10
8.0971431518
 20
18.012268578
 10
8.0958225427
 20
18.0105215871
  0
LINE
  5
244
100
AcDbEntity
  8
0
100
AcDbLine
 62
7
  6
CONTINUOUS
 10
8.1474128931
 20
18.2927756176
 11
8.1320731172
 21
18.2038382604
  0
LWPOLYLINE
  5
245
100
AcDbEntity
  8
0
100
AcDbPolyline
 62
7
  6
CONTINUOUS
 90
6
 70
0
 10
8.0791105375
 20
16.5068646849
 10
8.0792184648
 20
16.5073263568
 10
8.0791347353
 20
16.5071617559
 10
8.0778172445
 20
16.5051419879
 10
8.0741624381
 20
16.5024370605
 10
8.069628054
 20
16.501465947
  0
LWPOLYLINE
  5
246
100
AcDbEntity
  8
0
100
AcDbPolyline
 62
7
  6
CONTINUOUS
 90
6
 70
0
 10
8.0971937206
 20
17.9805139454
 10
8.0973255969
 20
17.9809899192
 10
8.0973089966
 20
17.9809556742
 10
8.0968627633
 20
17.9799928845
 10
8.0953294318
 20
17.9778376797
 10
8.0920484754
 20
17.9753342371
  0
LINE
  5
247
100
AcDbEntity
  8
0
100
AcDbLine
 62
7
  6
CONTINUOUS
 10
9.0715119339
 20
15.1701046658
 11
9.1733090121
 21
15.3987446469
  0
LINE
  5
248
100
AcDbEntity
  8
0
100
AcDbLine
 62
9
  6
CONTINUOUS
 10
11.0561576223
 20
4.0627688181
 11
11.6161576223
 21
4.0627688181
  0
LINE
  5
249
100
AcDbEntity
  8
0
100
AcDbLine
 62
7
  6
CONTINUOUS
 10
8.0778976461
 20
17.8235131781
 11
8.0778975861
 21
17.8235508954
  0
LINE
  5
24A
100
AcDbEntity
  8
0
100
AcDbLine
 62
7
  6
CONTINUOUS
 10
7.9308811007
 20
17.6011308278
 11
7.9308811007
 21
17.2066320756
  0
LINE
  5
24B
100
AcDbEntity
  8
0
100
AcDbLine
 62
7
  6
CONTINUOUS
 10
7.9308811007
 20
17.1994852744
 11
7.9308811007
 21
16.9835247409
  0
LINE
  5
24C
100
AcDbEntity
  8
0
100
AcDbLine
 62
7
  6
CONTINUOUS
 10
7.9308811007
 20
16.912436462
 11
7.9308811007
 21
16.8617345537
  0
LINE
  5
24D
100
AcDbEntity
  8
0
100
AcDbLine
 62
7
  6
CONTINUOUS
 10
7.9308811007
 20
16.8545877525
 11
7.9308811007
 21
16.4600890002
  0
LINE
  5
24E
100
AcDbEntity
  8
0
100
AcDbLine
 62
9
  6
CONTINUOUS
 10
7.936646092
 20
17.6150607954
 11
7.936646092
 21
17.2404065797
  0
LINE
  5
24F
100
AcDbEntity
  8
0
100
AcDbLine
 62
9
  6
CONTINUOUS
 10
7.936646092
 20
17.2134117313
 11
7.936646092
 21
16.969598284
  0
LINE
  5
250
100
AcDbEntity
  8
0
100
AcDbLine
 62
9
  6
CONTINUOUS
 10
7.936646092
 20
16.8685078607
 11
7.936646092
 21
16.4461590326
  0
LINE
  5
251
100
AcDbEntity
  8
0
100
AcDbLine
 62
7
  6
CONTINUOUS
 10
7.9366950064
 20
16.0907936364
 11
7.9366950004
 21
16.106819111
  0
LINE
  5
252
100
AcDbEntity
  8
0
100
AcDbLine
 62
9
  6
CONTINUOUS
 10
7.9415674952
 20
16.873429264
 11
7.9415674952
 21
16.9646768808
  0
LINE
  5
253
100
AcDbEntity
  8
0
100
AcDbLine
 62
9
  6
CONTINUOUS
 10
7.9415674952
 20
17.2183331345
 11
7.9415674952
 21
17.2739092314
  0
LINE
  5
254
100
AcDbEntity
  8
0
100
AcDbLine
 62
9
  6
CONTINUOUS
 10
7.9447999364
 20
16.4380051883
 11
7.9447999347
 21
16.8766617034
  0
LINE
  5
255
100
AcDbEntity
  8
0
100
AcDbLine
 62
9
  6
CONTINUOUS
 10
7.9447999364
 20
16.9614444396
 11
7.9447999364
 21
17.2215655756
  0
LINE
  5
256
100
AcDbEntity
  8
0
100
AcDbLine
 62
9
  6
CONTINUOUS
 10
7.9447999347
 20
17.2706767919
 11
7.9447999364
 21
17.6232015468
  0
LINE
  5
257
100
AcDbEntity
  8
0
100
AcDbLine
 62
7
  6
CONTINUOUS
 10
7.95056614
 20
17.6740866112
 11
7.95056614
 21
16.3871332168
  0
LINE
  5
258
100
AcDbEntity
  8
0
100
AcDbLine
 62
9
  6
CONTINUOUS
 10
7.9635184688
 20
17.6925874171
 11
7.9635184688
 21
16.3686324109
  0
LINE
  5
259
100
AcDbEntity
  8
0
100
AcDbLine
 62
7
  6
CONTINUOUS
 10
8.0360436227
 20
17.9821000591
 11
8.0360436227
 21
17.8569000387
  0
LINE
  5
25A
100
AcDbEntity
  8
0
100
AcDbLine
 62
7
  6
CONTINUOUS
 10
8.0360436227
 20
17.5364740925
 11
8.0360436227
 21
17.4439096999
  0
LINE
  5
25B
100
AcDbEntity
  8
0
100
AcDbLine
 62
7
  6
CONTINUOUS
 10
8.0360436227
 20
17.33407138
 11
8.0360436227
 21
17.2415069464
  0
LINE
  5
25C
100
AcDbEntity
  8
0
100
AcDbLine
 62
7
  6
CONTINUOUS
 10
8.0360436227
 20
17.1163914484
 11
8.0360436227
 21
17.0238241206
  0
LINE
  5
25D
100
AcDbEntity
  8
0
100
AcDbLine
 62
7
  6
CONTINUOUS
 10
8.0360436227
 20
16.4768877685
 11
8.0360436227
 21
16.3843114998
  0
LINE
  5
25E
100
AcDbEntity
  8
0
100
AcDbLine
 62
7
  6
CONTINUOUS
 10
8.0360436227
 20
16.3422354137
 11
8.0360436227
 21
16.2380655893
  0
LINE
  5
25F
100
AcDbEntity
  8
0
100
AcDbLine
 62
7
  6
CONTINUOUS
 10
8.0360436227
 20
16.2356760441
 11
8.0360436227
 21
16.1361561052
  0
LINE
  5
260
100
AcDbEntity
  8
0
100
AcDbLine
 62
9
  6
CONTINUOUS
 10
8.0395029545
 20
17.990451863
 11
8.0395029545
 21
17.8485482367
  0
LINE
  5
261
100
AcDbEntity
  8
0
100
AcDbLine
 62
9
  6
CONTINUOUS
 10
8.0395029545
 20
17.5448323304
 11
8.0395029545
 21
17.4355514621
  0
LINE
  5
262
100
AcDbEntity
  8
0
100
AcDbLine
 62
9
  6
CONTINUOUS
 10
8.0395029545
 20
17.3424295974
 11
8.0395029545
 21
17.233148729
  0
LINE
  5
263
100
AcDbEntity
  8
0
100
AcDbLine
 62
9
  6
CONTINUOUS
 10
8.0395029545
 20
17.1247482187
 11
8.0395029545
 21
17.0154673503
  0
LINE
  5
264
100
AcDbEntity
  8
0
100
AcDbLine
 62
9
  6
CONTINUOUS
 10
8.039502955
 20
16.4852400688
 11
8.039502955
 21
16.3759591995
  0
LINE
  5
265
100
AcDbEntity
  8
0
100
AcDbLine
 62
9
  6
CONTINUOUS
 10
8.0395029545
 20
16.3389943506
 11
8.0395029545
 21
16.1278017494
  0
LINE
  5
266
100
AcDbEntity
  8
0
100
AcDbLine
 62
9
  6
CONTINUOUS
 10
8.0414836269
 20
16.340975023
 11
8.0414836269
 21
16.3759591995
  0
LINE
  5
267
100
AcDbEntity
  8
0
100
AcDbLine
 62
9
  6
CONTINUOUS
 10
8.0414836269
 20
16.4872207407
 11
8.0414836269
 21
17.0134866779
  0
LINE
  5
268
100
AcDbEntity
  8
0
100
AcDbLine
 62
9
  6
CONTINUOUS
 10
8.0414836269
 20
17.126728891
 11
8.0414836269
 21
17.2311680566
  0
LINE
  5
269
100
AcDbEntity
  8
0
100
AcDbLine
 62
9
  6
CONTINUOUS
 10
8.0414836269
 20
17.3444102697
 11
8.0414836269
 21
17.4335707897
  0
LINE
  5
26A
100
AcDbEntity
  8
0
100
AcDbLine
 62
9
  6
CONTINUOUS
 10
8.0414836269
 20
17.5448323673
 11
8.0414836269
 21
17.720964414
  0
LINE
  5
26B
100
AcDbEntity
  8
0
100
AcDbLine
 62
9
  6
CONTINUOUS
 10
8.0522692496
 20
16.1150354543
 11
8.0522692496
 21
16.3517606457
  0
LINE
  5
26C
100
AcDbEntity
  8
0
100
AcDbLine
 62
9
  6
CONTINUOUS
 10
8.0522692496
 20
16.3631929049
 11
8.0522692496
 21
16.4980063634
  0
LINE
  5
26D
100
AcDbEntity
  8
0
100
AcDbLine
 62
9
  6
CONTINUOUS
 10
8.0522692496
 20
17.0027010552
 11
8.0522692496
 21
17.1375145138
  0
LINE
  5
26E
100
AcDbEntity
  8
0
100
AcDbLine
 62
9
  6
CONTINUOUS
 10
8.0522692496
 20
17.2203824339
 11
8.0522692496
 21
17.3551958924
  0
LINE
  5
26F
100
AcDbEntity
  8
0
100
AcDbLine
 62
9
  6
CONTINUOUS
 10
8.0522692496
 20
17.422785167
 11
8.0522692496
 21
17.5575986255
  0
LINE
  5
270
100
AcDbEntity
  8
0
100
AcDbLine
 62
9
  6
CONTINUOUS
 10
8.0522692496
 20
17.8357819416
 11
8.0522692496
 21
18.003218158
  0
LINE
  5
271
100
AcDbEntity
  8
0
100
AcDbLine
 62
9
  6
CONTINUOUS
 10
8.0606209482
 20
18.0066775705
 11
8.0606209482
 21
17.8323225291
  0
LINE
  5
272
100
AcDbEntity
  8
0
100
AcDbLine
 62
9
  6
CONTINUOUS
 10
8.0606209482
 20
17.561058038
 11
8.0606209482
 21
17.4193257545
  0
LINE
  5
273
100
AcDbEntity
  8
0
100
AcDbLine
 62
9
  6
CONTINUOUS
 10
8.0606209482
 20
17.3586553049
 11
8.0606209482
 21
17.2169230214
  0
LINE
  5
274
100
AcDbEntity
  8
0
100
AcDbLine
 62
9
  6
CONTINUOUS
 10
8.0606209482
 20
17.1409739262
 11
8.0606209482
 21
16.9992416427
  0
LINE
  5
275
100
AcDbEntity
  8
0
100
AcDbLine
 62
9
  6
CONTINUOUS
 10
8.0606209482
 20
16.5014657759
 11
8.0606209482
 21
16.3597334924
  0
LINE
  5
276
100
AcDbEntity
  8
0
100
AcDbLine
 62
9
  6
CONTINUOUS
 10
8.0606209482
 20
16.3552200582
 11
8.0606209482
 21
16.1115760419
  0
LINE
  5
277
100
AcDbEntity
  8
0
100
AcDbLine
 62
9
  6
CONTINUOUS
 10
8.06718608
 20
16.3552200582
 11
8.06718608
 21
16.3597334924
  0
LINE
  5
278
100
AcDbEntity
  8
0
100
AcDbLine
 62
9
  6
CONTINUOUS
 10
8.06718608
 20
16.5014657759
 11
8.06718608
 21
16.9992416427
  0
LINE
  5
279
100
AcDbEntity
  8
0
100
AcDbLine
 62
9
  6
CONTINUOUS
 10
8.06718608
 20
17.1409739262
 11
8.06718608
 21
17.2169230214
  0
LINE
  5
27A
100
AcDbEntity
  8
0
100
AcDbLine
 62
9
  6
CONTINUOUS
 10
8.06718608
 20
17.3586553049
 11
8.06718608
 21
17.4193254332
  0
LINE
  5
27B
100
AcDbEntity
  8
0
100
AcDbLine
 62
9
  6
CONTINUOUS
 10
8.0671860786
 20
17.561058038
 11
8.06718608
 21
17.753987823
  0
LINE
  5
27C
100
AcDbEntity
  8
0
100
AcDbLine
 62
7
  6
CONTINUOUS
 10
8.1253018977
 20
17.9520242266
 11
8.1252996267
 21
15.8691925912
  0
LINE
  5
27D
100
AcDbEntity
  8
0
100
AcDbLine
 62
7
  6
CONTINUOUS
 10
8.1252996267
 20
18.1920272369
 11
8.1253018977
 21
17.9520242266
  0
LINE
  5
27E
100
AcDbEntity
  8
0
100
AcDbLine
 62
7
  6
CONTINUOUS
 10
8.1320731172
 20
18.2038246426
 11
8.1320731172
 21
15.8573946695
  0
LINE
  5
27F
100
AcDbEntity
  8
0
100
AcDbLine
 62
9
  6
CONTINUOUS
 10
8.1474128931
 20
18.2927756176
 11
8.147412893
 21
15.7684442104
  0
LINE
  5
280
100
AcDbEntity
  8
0
100
AcDbLine
 62
7
  6
CONTINUOUS
 10
8.1524803292
 20
18.4612693013
 11
8.1524803292
 21
18.3752178981
  0
LINE
  5
281
100
AcDbEntity
  8
0
100
AcDbLine
 62
7
  6
CONTINUOUS
 10
8.1524803292
 20
18.3666978691
 11
8.1524803292
 21
18.2806571858
  0
LINE
  5
282
100
AcDbEntity
  8
0
100
AcDbLine
 62
7
  6
CONTINUOUS
 10
8.1524803292
 20
18.1840070131
 11
8.1524803292
 21
18.0979774801
  0
LINE
  5
283
100
AcDbEntity
  8
0
100
AcDbLine
 62
7
  6
CONTINUOUS
 10
8.1524803292
 20
17.9256544261
 11
8.1524803292
 21
17.8396180634
  0
LINE
  5
284
100
AcDbEntity
  8
0
100
AcDbLine
 62
7
  6
CONTINUOUS
 10
8.1524803292
 20
17.6092411411
 11
8.1524803292
 21
17.523190972
  0
LINE
  5
285
100
AcDbEntity
  8
0
100
AcDbLine
 62
7
  6
CONTINUOUS
 10
8.1524803292
 20
17.2563196304
 11
8.1524803292
 21
17.1702707594
  0
LINE
  5
286
100
AcDbEntity
  8
0
100
AcDbLine
 62
7
  6
CONTINUOUS
 10
8.1524803292
 20
16.89094219
 11
8.1524803292
 21
16.8049070764
  0
LINE
  5
287
100
AcDbEntity
  8
0
100
AcDbLine
 62
7
  6
CONTINUOUS
 10
8.1524803292
 20
16.5380185889
 11
8.1524803292
 21
16.4519889541
  0
LINE
  5
288
100
AcDbEntity
  8
0
100
AcDbLine
 62
7
  6
CONTINUOUS
 10
8.1524803292
 20
16.2216026015
 11
8.1524803292
 21
16.135564565
  0
LINE
  5
289
100
AcDbEntity
  8
0
100
AcDbLine
 62
7
  6
CONTINUOUS
 10
8.1524803292
 20
15.9632535503
 11
8.1524803292
 21
15.8772016126
  0
LINE
  5
28A
100
AcDbEntity
  8
0
100
AcDbLine
 62
7
  6
CONTINUOUS
 10
8.1524803292
 20
15.7805660966
 11
8.1524803292
 21
15.6945185047
  0
LINE
  5
28B
100
AcDbEntity
  8
0
100
AcDbLine
 62
7
  6
CONTINUOUS
 10
8.1524803292
 20
15.6859848219
 11
8.1524803292
 21
15.5999700596
  0
LINE
  5
28C
100
AcDbEntity
  8
0
100
AcDbLine
 62
9
  6
CONTINUOUS
 10
8.1544798737
 20
18.266731133
 11
8.1544798737
 21
18.192302532
  0
LINE
  5
28D
100
AcDbEntity
  8
0
100
AcDbLine
 62
9
  6
CONTINUOUS
 10
8.1544798737
 20
18.0896819612
 11
8.1544798737
 21
17.9339465302
  0
LINE
  5
28E
100
AcDbEntity
  8
0
100
AcDbLine
 62
9
  6
CONTINUOUS
 10
8.1544798737
 20
17.8313259594
 11
8.1544798815
 21
17.6175263536
  0
LINE
  5
28F
100
AcDbEntity
  8
0
100
AcDbLine
 62
9
  6
CONTINUOUS
 10
8.1544798815
 20
17.5149057596
 11
8.1544798815
 21
17.2646054919
  0
LINE
  5
290
100
AcDbEntity
  8
0
100
AcDbLine
 62
9
  6
CONTINUOUS
 10
8.1544798815
 20
17.1619848979
 11
8.1544798815
 21
16.8992349302
  0
LINE
  5
291
100
AcDbEntity
  8
0
100
AcDbLine
 62
9
  6
CONTINUOUS
 10
8.1544798815
 20
16.7966143362
 11
8.1544798815
 21
16.5463140685
  0
LINE
  5
292
100
AcDbEntity
  8
0
100
AcDbLine
 62
9
  6
CONTINUOUS
 10
8.1544798815
 20
16.4436934745
 11
8.1544798815
 21
16.2298938803
  0
LINE
  5
293
100
AcDbEntity
  8
0
100
AcDbLine
 62
9
  6
CONTINUOUS
 10
8.1544798815
 20
16.1272732863
 11
8.1544798815
 21
15.9715378784
  0
LINE
  5
294
100
AcDbEntity
  8
0
100
AcDbLine
 62
9
  6
CONTINUOUS
 10
8.1544798815
 20
15.8689172845
 11
8.1544798815
 21
15.7944886951
  0
LINE
  5
295
100
AcDbEntity
  8
0
100
AcDbLine
 62
9
  6
CONTINUOUS
 10
8.1582456213
 20
18.4751887818
 11
8.1582456213
 21
18.266731133
  0
LINE
  5
296
100
AcDbEntity
  8
0
100
AcDbLine
 62
9
  6
CONTINUOUS
 10
8.1582456213
 20
18.1979386411
 11
8.1582456213
 21
18.0840458521
  0
LINE
  5
297
100
AcDbEntity
  8
0
100
AcDbLine
 62
9
  6
CONTINUOUS
 10
8.1582456213
 20
17.9395826393
 11
8.1582456213
 21
17.8256898503
  0
LINE
  5
298
100
AcDbEntity
  8
0
100
AcDbLine
 62
9
  6
CONTINUOUS
 10
8.1582456213
 20
17.623162451
 11
8.1582456213
 21
17.5092696621
  0
LINE
  5
299
100
AcDbEntity
  8
0
100
AcDbLine
 62
9
  6
CONTINUOUS
 10
8.1582456213
 20
17.2702415893
 11
8.1582456213
 21
17.1563488004
  0
LINE
  5
29A
100
AcDbEntity
  8
0
100
AcDbLine
 62
9
  6
CONTINUOUS
 10
8.1582456213
 20
16.9048710277
 11
8.1582456213
 21
16.7909782387
  0
LINE
  5
29B
100
AcDbEntity
  8
0
100
AcDbLine
 62
9
  6
CONTINUOUS
 10
8.1582456213
 20
16.551950166
 11
8.1582456213
 21
16.438057377
  0
LINE
  5
29C
100
AcDbEntity
  8
0
100
AcDbLine
 62
9
  6
CONTINUOUS
 10
8.1582456213
 20
16.2355299777
 11
8.1582456213
 21
16.1216371888
  0
LINE
  5
29D
100
AcDbEntity
  8
0
100
AcDbLine
 62
9
  6
CONTINUOUS
 10
8.1582456213
 20
15.9771739759
 11
8.1582456213
 21
15.863281187
  0
LINE
  5
29E
100
AcDbEntity
  8
0
100
AcDbLine
 62
9
  6
CONTINUOUS
 10
8.1582456213
 20
15.7944886951
 11
8.1582456213
 21
15.5860310463
  0
LINE
  5
29F
100
AcDbEntity
  8
0
100
AcDbLine
 62
9
  6
CONTINUOUS
 10
8.1663994613
 20
15.5778777669
 11
8.1663994613
 21
15.6664585431
  0
LINE
  5
2A0
100
AcDbEntity
  8
0
100
AcDbLine
 62
9
  6
CONTINUOUS
 10
8.1663994613
 20
15.6724420662
 11
8.1663994613
 21
15.8026425351
  0
LINE
  5
2A1
100
AcDbEntity
  8
0
100
AcDbLine
 62
9
  6
CONTINUOUS
 10
8.1663994613
 20
15.855127347
 11
8.1663994613
 21
15.985327816
  0
LINE
  5
2A2
100
AcDbEntity
  8
0
100
AcDbLine
 62
9
  6
CONTINUOUS
 10
8.1663994613
 20
16.1134833488
 11
8.1663994613
 21
16.2436838178
  0
LINE
  5
2A3
100
AcDbEntity
  8
0
100
AcDbLine
 62
9
  6
CONTINUOUS
 10
8.1663994613
 20
16.429903537
 11
8.1663994613
 21
16.560104006
  0
LINE
  5
2A4
100
AcDbEntity
  8
0
100
AcDbLine
 62
9
  6
CONTINUOUS
 10
8.1663994613
 20
16.7828243987
 11
8.1663994613
 21
16.9130248677
  0
LINE
  5
2A5
100
AcDbEntity
  8
0
100
AcDbLine
 62
9
  6
CONTINUOUS
 10
8.1663994613
 20
17.1481949604
 11
8.1663994613
 21
17.2783954294
  0
LINE
  5
2A6
100
AcDbEntity
  8
0
100
AcDbLine
 62
9
  6
CONTINUOUS
 10
8.1663994613
 20
17.5011158221
 11
8.1663994613
 21
17.631316291
  0
LINE
  5
2A7
100
AcDbEntity
  8
0
100
AcDbLine
 62
9
  6
CONTINUOUS
 10
8.1663994613
 20
17.8175360103
 11
8.1663994613
 21
17.9477364793
  0
LINE
  5
2A8
100
AcDbEntity
  8
0
100
AcDbLine
 62
9
  6
CONTINUOUS
 10
8.1663994613
 20
18.0758920121
 11
8.1663994613
 21
18.2060924811
  0
LINE
  5
2A9
100
AcDbEntity
  8
0
100
AcDbLine
 62
9
  6
CONTINUOUS
 10
8.1663994613
 20
18.2585772929
 11
8.1663994613
 21
18.4833426218
  0
LINE
  5
2AA
100
AcDbEntity
  8
0
100
AcDbLine
 62
9
  6
CONTINUOUS
 10
8.1741742053
 20
15.8071860975
 11
8.1741742053
 21
15.8505837845
  0
LINE
  5
2AB
100
AcDbEntity
  8
0
100
AcDbLine
 62
9
  6
CONTINUOUS
 10
8.1741742053
 20
15.9898713784
 11
8.1741742053
 21
16.1089397864
  0
LINE
  5
2AC
100
AcDbEntity
  8
0
100
AcDbLine
 62
9
  6
CONTINUOUS
 10
8.1741742053
 20
16.2482273802
 11
8.1741742053
 21
16.4253599746
  0
LINE
  5
2AD
100
AcDbEntity
  8
0
100
AcDbLine
 62
9
  6
CONTINUOUS
 10
8.1741742053
 20
16.5646475684
 11
8.1741742053
 21
16.7782808363
  0
LINE
  5
2AE
100
AcDbEntity
  8
0
100
AcDbLine
 62
9
  6
CONTINUOUS
 10
8.1741742053
 20
16.9175684301
 11
8.1741742053
 21
17.143651398
  0
LINE
  5
2AF
100
AcDbEntity
  8
0
100
AcDbLine
 62
9
  6
CONTINUOUS
 10
8.1741742053
 20
17.2829389918
 11
8.1741742053
 21
17.4965722597
  0
LINE
  5
2B0
100
AcDbEntity
  8
0
100
AcDbLine
 62
9
  6
CONTINUOUS
 10
8.1741742053
 20
17.6358598535
 11
8.1741742053
 21
17.8129924479
  0
LINE
  5
2B1
100
AcDbEntity
  8
0
100
AcDbLine
 62
9
  6
CONTINUOUS
 10
8.1741742053
 20
17.9520242266
 11
8.1741742053
 21
18.0713484497
  0
LINE
  5
2B2
100
AcDbEntity
  8
0
100
AcDbLine
 62
9
  6
CONTINUOUS
 10
8.1741742053
 20
18.2106360435
 11
8.1741742053
 21
18.2540337305
  0
LINE
  5
2B3
100
AcDbEntity
  8
0
100
AcDbLine
 62
9
  6
CONTINUOUS
 10
8.1803191788
 20
18.4891085291
 11
8.1803191788
 21
18.2528113857
  0
LINE
  5
2B4
100
AcDbEntity
  8
0
100
AcDbLine
 62
9
  6
CONTINUOUS
 10
8.1803191788
 20
18.2118583883
 11
8.1803191788
 21
18.0701261049
  0
LINE
  5
2B5
100
AcDbEntity
  8
0
100
AcDbLine
 62
9
  6
CONTINUOUS
 10
8.1803191788
 20
17.9535023865
 11
8.1803191788
 21
17.8117701031
  0
LINE
  5
2B6
100
AcDbEntity
  8
0
100
AcDbLine
 62
9
  6
CONTINUOUS
 10
8.1803191788
 20
17.6370821983
 11
8.1803191788
 21
17.4953499148
  0
LINE
  5
2B7
100
AcDbEntity
  8
0
100
AcDbLine
 62
9
  6
CONTINUOUS
 10
8.1803191788
 20
17.2841613366
 11
8.1803191788
 21
17.1424290531
  0
LINE
  5
2B8
100
AcDbEntity
  8
0
100
AcDbLine
 62
9
  6
CONTINUOUS
 10
8.1803191788
 20
16.9187907749
 11
8.1803191788
 21
16.7770584915
  0
LINE
  5
2B9
100
AcDbEntity
  8
0
100
AcDbLine
 62
9
  6
CONTINUOUS
 10
8.1803191788
 20
16.5658699132
 11
8.1803191788
 21
16.4241376298
  0
LINE
  5
2BA
100
AcDbEntity
  8
0
100
AcDbLine
 62
9
  6
CONTINUOUS
 10
8.1803191788
 20
16.249449725
 11
8.1803191788
 21
16.1077174415
  0
LINE
  5
2BB
100
AcDbEntity
  8
0
100
AcDbLine
 62
9
  6
CONTINUOUS
 10
8.1803191788
 20
15.9910937232
 11
8.1803191788
 21
15.8493614397
  0
LINE
  5
2BC
100
AcDbEntity
  8
0
100
AcDbLine
 62
9
  6
CONTINUOUS
 10
8.1803191788
 20
15.8084084423
 11
8.1803191788
 21
15.572111299
  0
LINE
  5
2BD
100
AcDbEntity
  8
0
100
AcDbLine
 62
9
  6
CONTINUOUS
 10
8.1918176271
 20
15.8084084423
 11
8.1918176271
 21
15.8493614397
  0
LINE
  5
2BE
100
AcDbEntity
  8
0
100
AcDbLine
 62
9
  6
CONTINUOUS
 10
8.1918176271
 20
15.9910937232
 11
8.1918176271
 21
16.1077174415
  0
LINE
  5
2BF
100
AcDbEntity
  8
0
100
AcDbLine
 62
9
  6
CONTINUOUS
 10
8.1918176271
 20
16.2509422848
 11
8.1918176271
 21
16.4241376298
  0
LINE
  5
2C0
100
AcDbEntity
  8
0
100
AcDbLine
 62
9
  6
CONTINUOUS
 10
8.1918176271
 20
16.5658699132
 11
8.1918176271
 21
16.7770584915
  0
LINE
  5
2C1
100
AcDbEntity
  8
0
100
AcDbLine
 62
9
  6
CONTINUOUS
 10
8.1918176271
 20
16.9187907749
 11
8.1918176271
 21
17.1424290531
  0
LINE
  5
2C2
100
AcDbEntity
  8
0
100
AcDbLine
 62
9
  6
CONTINUOUS
 10
8.1918176271
 20
17.2841613366
 11
8.1918176271
 21
17.4953499148
  0
LINE
  5
2C3
100
AcDbEntity
  8
0
100
AcDbLine
 62
9
  6
CONTINUOUS
 10
8.1918176271
 20
17.9535023865
 11
8.1918176271
 21
18.0701261049
  0
LINE
  5
2C4
100
AcDbEntity
  8
0
100
AcDbLine
 62
9
  6
CONTINUOUS
 10
8.1918176271
 20
18.2118583883
 11
8.1918176271
 21
18.2528113857
  0
LINE
  5
2C5
100
AcDbEntity
  8
0
100
AcDbLine
 62
9
  6
CONTINUOUS
 10
8.1918176217
 20
17.6370821983
 11
8.1918176271
 21
17.8102775264
  0
LINE
  5
2C6
100
AcDbEntity
  8
0
100
AcDbLine
 62
7
  6
CONTINUOUS
 10
8.1940274975
 20
18.6996211122
 11
8.1940274975
 21
18.534962412
  0
LINE
  5
2C7
100
AcDbEntity
  8
0
100
AcDbLine
 62
7
  6
CONTINUOUS
 10
8.1940274975
 20
18.483356254
 11
8.1940274975
 21
18.3736936178
  0
LINE
  5
2C8
100
AcDbEntity
  8
0
100
AcDbLine
 62
7
  6
CONTINUOUS
 10
8.1940274975
 20
18.2268378598
 11
8.1940274975
 21
18.1171676398
  0
LINE
  5
2C9
100
AcDbEntity
  8
0
100
AcDbLine
 62
7
  6
CONTINUOUS
 10
8.1940274975
 20
17.8925338729
 11
8.1940274975
 21
17.7828591835
  0
LINE
  5
2CA
100
AcDbEntity
  8
0
100
AcDbLine
 62
7
  6
CONTINUOUS
 10
8.1940274975
 20
17.5032252109
 11
8.1940274975
 21
17.3935521644
  0
LINE
  5
2CB
100
AcDbEntity
  8
0
100
AcDbLine
 62
7
  6
CONTINUOUS
 10
8.1940274975
 20
17.085443386
 11
8.1940274975
 21
16.9757764421
  0
LINE
  5
2CC
100
AcDbEntity
  8
0
100
AcDbLine
 62
7
  6
CONTINUOUS
 10
8.1940274975
 20
16.6676614524
 11
8.1940274975
 21
16.5580008285
  0
LINE
  5
2CD
100
AcDbEntity
  8
0
100
AcDbLine
 62
7
  6
CONTINUOUS
 10
8.1940274975
 20
16.2783515199
 11
8.1940274975
 21
16.1686950798
  0
LINE
  5
2CE
100
AcDbEntity
  8
0
100
AcDbLine
 62
7
  6
CONTINUOUS
 10
8.1940274975
 20
15.9440450208
 11
8.1940274975
 21
15.8343891357
  0
LINE
  5
2CF
100
AcDbEntity
  8
0
100
AcDbLine
 62
7
  6
CONTINUOUS
 10
8.1940274975
 20
15.687524745
 11
8.1940274975
 21
15.5778650394
  0
LINE
  5
2D0
100
AcDbEntity
  8
0
100
AcDbLine
 62
7
  6
CONTINUOUS
 10
8.1940274975
 20
15.526272412
 11
8.1940274975
 21
15.3615987159
  0
LINE
  5
2D1
100
AcDbEntity
  8
0
100
AcDbLine
 62
9
  6
CONTINUOUS
 10
8.1997928342
 20
18.7135406052
 11
8.1997928342
 21
18.5210240606
  0
LINE
  5
2D2
100
AcDbEntity
  8
0
100
AcDbLine
 62
9
  6
CONTINUOUS
 10
8.1997928342
 20
18.4972823987
 11
8.1997928342
 21
18.3597674731
  0
LINE
  5
2D3
100
AcDbEntity
  8
0
100
AcDbLine
 62
9
  6
CONTINUOUS
 10
8.1997928343
 20
18.2407602126
 11
8.1997928343
 21
18.103245287
  0
LINE
  5
2D4
100
AcDbEntity
  8
0
100
AcDbLine
 62
9
  6
CONTINUOUS
 10
8.1997928343
 20
17.5171461504
 11
8.1997928343
 21
17.3796312248
  0
LINE
  5
2D5
100
AcDbEntity
  8
0
100
AcDbLine
 62
9
  6
CONTINUOUS
 10
8.1997928342
 20
17.0993673768
 11
8.1997928342
 21
16.9618524513
  0
LINE
  5
2D6
100
AcDbEntity
  8
0
100
AcDbLine
 62
9
  6
CONTINUOUS
 10
8.1997928342
 20
16.6815886032
 11
8.1997928342
 21
16.5440736777
  0
LINE
  5
2D7
100
AcDbEntity
  8
0
100
AcDbLine
 62
9
  6
CONTINUOUS
 10
8.1997928342
 20
16.2922807626
 11
8.1997928342
 21
16.1547658371
  0
LINE
  5
2D8
100
AcDbEntity
  8
0
100
AcDbLine
 62
9
  6
CONTINUOUS
 10
8.1997928343
 20
15.957974541
 11
8.1997928343
 21
15.8204596155
  0
LINE
  5
2D9
100
AcDbEntity
  8
0
100
AcDbLine
 62
9
  6
CONTINUOUS
 10
8.1997928343
 20
15.7014523549
 11
8.1997928343
 21
15.5639374294
  0
LINE
  5
2DA
100
AcDbEntity
  8
0
100
AcDbLine
 62
9
  6
CONTINUOUS
 10
8.1997928343
 20
15.5401957674
 11
8.1997928342
 21
15.3476792229
  0
LINE
  5
2DB
100
AcDbEntity
  8
0
100
AcDbLine
 62
9
  6
CONTINUOUS
 10
8.1997928601
 20
17.9064540168
 11
8.1997928601
 21
17.7689390396
  0
LINE
  5
2DC
100
AcDbEntity
  8
0
100
AcDbLine
 62
9
  6
CONTINUOUS
 10
8.2079463249
 20
15.3395257322
 11
8.2079463249
 21
15.5483492581
  0
LINE
  5
2DD
100
AcDbEntity
  8
0
100
AcDbLine
 62
9
  6
CONTINUOUS
 10
8.2079463251
 20
15.5557839386
 11
8.2079463251
 21
15.7096058458
  0
LINE
  5
2DE
100
AcDbEntity
  8
0
100
AcDbLine
 62
9
  6
CONTINUOUS
 10
8.2079463249
 20
15.8123061248
 11
8.2079463249
 21
15.9661280317
  0
LINE
  5
2DF
100
AcDbEntity
  8
0
100
AcDbLine
 62
9
  6
CONTINUOUS
 10
8.2079463249
 20
16.1466123464
 11
8.2079463249
 21
16.3004342533
  0
LINE
  5
2E0
100
AcDbEntity
  8
0
100
AcDbLine
 62
9
  6
CONTINUOUS
 10
8.2079463249
 20
16.535920187
 11
8.2079463249
 21
16.6897420939
  0
LINE
  5
2E1
100
AcDbEntity
  8
0
100
AcDbLine
 62
9
  6
CONTINUOUS
 10
8.2079463249
 20
16.9536989606
 11
8.2079463249
 21
17.1075208675
  0
LINE
  5
2E2
100
AcDbEntity
  8
0
100
AcDbLine
 62
9
  6
CONTINUOUS
 10
8.2079463249
 20
17.3714777342
 11
8.2079463249
 21
17.5252996411
  0
LINE
  5
2E3
100
AcDbEntity
  8
0
100
AcDbLine
 62
9
  6
CONTINUOUS
 10
8.2079463249
 20
18.0950917963
 11
8.2079463249
 21
18.2489137033
  0
LINE
  5
2E4
100
AcDbEntity
  8
0
100
AcDbLine
 62
9
  6
CONTINUOUS
 10
8.2079463249
 20
18.3516139824
 11
8.2079463249
 21
18.5054358894
  0
LINE
  5
2E5
100
AcDbEntity
  8
0
100
AcDbLine
 62
9
  6
CONTINUOUS
 10
8.2079463249
 20
18.5128705699
 11
8.2079463249
 21
18.7216940958
  0
LINE
  5
2E6
100
AcDbEntity
  8
0
100
AcDbLine
 62
9
  6
CONTINUOUS
 10
8.2079466737
 20
17.760785226
 11
8.2079466737
 21
17.9146078304
  0
LINE
  5
2E7
100
AcDbEntity
  8
0
100
AcDbLine
 62
9
  6
CONTINUOUS
 10
8.2218663471
 20
18.7274603077
 11
8.2218663471
 21
18.3458477705
  0
LINE
  5
2E8
100
AcDbEntity
  8
0
100
AcDbLine
 62
9
  6
CONTINUOUS
 10
8.2218663471
 20
18.2546799152
 11
8.2218663471
 21
18.0893255844
  0
LINE
  5
2E9
100
AcDbEntity
  8
0
100
AcDbLine
 62
9
  6
CONTINUOUS
 10
8.2218663471
 20
17.9203736936
 11
8.2218663471
 21
17.7550193628
  0
LINE
  5
2EA
100
AcDbEntity
  8
0
100
AcDbLine
 62
9
  6
CONTINUOUS
 10
8.2218663471
 20
17.531065853
 11
8.2218663471
 21
17.3657115223
  0
LINE
  5
2EB
100
AcDbEntity
  8
0
100
AcDbLine
 62
9
  6
CONTINUOUS
 10
8.2218663471
 20
17.1132870794
 11
8.2218663471
 21
16.9479327487
  0
LINE
  5
2EC
100
AcDbEntity
  8
0
100
AcDbLine
 62
9
  6
CONTINUOUS
 10
8.2218663471
 20
16.6955083058
 11
8.2218663471
 21
16.5301539751
  0
LINE
  5
2ED
100
AcDbEntity
  8
0
100
AcDbLine
 62
9
  6
CONTINUOUS
 10
8.2218663471
 20
16.3062004652
 11
8.2218663471
 21
16.1408461345
  0
LINE
  5
2EE
100
AcDbEntity
  8
0
100
AcDbLine
 62
9
  6
CONTINUOUS
 10
8.2218663471
 20
15.9718942436
 11
8.2218663471
 21
15.8065399129
  0
LINE
  5
2EF
100
AcDbEntity
  8
0
100
AcDbLine
 62
9
  6
CONTINUOUS
 10
8.2218663471
 20
15.7153720575
 11
8.2218663471
 21
15.3337595203
  0
LINE
  5
2F0
100
AcDbEntity
  8
0
100
AcDbLine
 62
9
  6
CONTINUOUS
 10
8.2570248733
 20
18.7981332674
 11
8.2570267
 21
18.7989740398
  0
LINE
  5
2F1
100
AcDbEntity
  8
0
100
AcDbLine
 62
7
  6
CONTINUOUS
 10
8.2773942703
 20
18.907609914
 11
8.2851506217
 21
19.055609914
  0
LINE
  5
2F2
100
AcDbEntity
  8
0
100
AcDbLine
 62
7
  6
CONTINUOUS
 10
8.2567861637
 20
18.7970288168
 11
8.2570297893
 21
18.798972337
  0
LINE
  5
2F3
100
AcDbEntity
  8
0
100
AcDbLine
 62
7
  6
CONTINUOUS
 10
10.9461145056
 20
14.2406100087
 11
10.802167848
 21
14.0628506906
  0
LINE
  5
2F4
100
AcDbEntity
  8
0
100
AcDbLine
 62
7
  6
CONTINUOUS
 10
8.2773942703
 20
15.153609914
 11
8.2851506217
 21
15.005609914
  0
LINE
  5
2F5
100
AcDbEntity
  8
0
100
AcDbLine
 62
7
  6
CONTINUOUS
 10
8.2567861637
 20
18.7967294393
 11
8.2567861637
 21
15.2642782828
  0
LINE
  5
2F6
100
AcDbEntity
  8
0
100
AcDbLine
 62
9
  6
CONTINUOUS
 10
8.25702648
 20
15.2622466482
 11
8.2570277012
 21
17.8288222025
  0
LINE
  5
2F7
100
AcDbEntity
  8
0
100
AcDbLine
 62
7
  6
CONTINUOUS
 10
8.2773942703
 20
15.153609914
 11
8.2773942703
 21
18.907609914
  0
LINE
  5
2F8
100
AcDbEntity
  8
0
100
AcDbLine
 62
9
  6
CONTINUOUS
 10
8.2851506217
 20
15.005609914
 11
8.2851506217
 21
19.055609914
  0
LINE
  5
2F9
100
AcDbEntity
  8
0
100
AcDbLine
 62
7
  6
CONTINUOUS
 10
8.3948723071
 20
19.1805470555
 11
8.3948723071
 21
14.8806727726
  0
LINE
  5
2FA
100
AcDbEntity
  8
0
100
AcDbLine
 62
9
  6
CONTINUOUS
 10
8.4654163928
 20
14.9295273071
 11
8.4654163928
 21
19.131692521
  0
LINE
  5
2FB
100
AcDbEntity
  8
0
100
AcDbLine
 62
9
  6
CONTINUOUS
 10
8.5405600657
 20
15.0283744684
 11
8.5405600657
 21
19.0328453597
  0
LINE
  5
2FC
100
AcDbEntity
  8
0
100
AcDbLine
 62
9
  6
CONTINUOUS
 10
8.8199471971
 20
18.935609914
 11
8.8199471971
 21
15.125609914
  0
LINE
  5
2FD
100
AcDbEntity
  8
0
100
AcDbLine
 62
9
  6
CONTINUOUS
 10
9.0029960246
 20
15.125609914
 11
9.0029960246
 21
18.935609914
  0
LINE
  5
2FE
100
AcDbEntity
  8
0
100
AcDbLine
 62
9
  6
CONTINUOUS
 10
9.0715119339
 20
18.8911151623
 11
9.0715119339
 21
15.1701046658
  0
LINE
  5
2FF
100
AcDbEntity
  8
0
100
AcDbLine
 62
9
  6
CONTINUOUS
 10
9.1733090121
 20
15.3987446469
 11
9.1733090121
 21
18.6624751812
  0
LINE
  5
300
100
AcDbEntity
  8
0
100
AcDbLine
 62
9
  6
CONTINUOUS
 10
9.1915799213
 20
18.650609914
 11
9.1915799213
 21
15.410609914
  0
LINE
  5
301
100
AcDbEntity
  8
0
100
AcDbLine
 62
9
  6
CONTINUOUS
 10
9.2255683538
 20
15.410609914
 11
9.2255683538
 21
18.650609914
  0
LINE
  5
302
100
AcDbEntity
  8
0
100
AcDbLine
 62
9
  6
CONTINUOUS
 10
9.2450974607
 20
18.6349243071
 11
9.2450974607
 21
15.426295521
  0
LINE
  5
303
100
AcDbEntity
  8
0
100
AcDbLine
 62
9
  6
CONTINUOUS
 10
8.2570277012
 20
17.8288222025
 11
8.2570248733
 21
18.7981332674
  0
LINE
  5
304
100
AcDbEntity
  8
0
100
AcDbLine
 62
7
  6
CONTINUOUS
 10
11.6362256562
 20
7.743609914
 11
12.2480895884
 21
7.743609914
  0
LINE
  5
305
100
AcDbEntity
  8
0
100
AcDbLine
 62
7
  6
CONTINUOUS
 10
8.147412893
 20
15.7684442104
 11
8.1320731172
 21
15.8573815672
  0
LINE
  5
306
100
AcDbEntity
  8
0
100
AcDbLine
 62
9
  6
CONTINUOUS
 10
8.0867245017
 20
17.9740548115
 11
8.0871073459
 21
17.9714774431
  0
LINE
  5
307
100
AcDbEntity
  8
0
100
AcDbLine
 62
7
  6
CONTINUOUS
 10
8.2567861637
 20
15.2641910113
 11
8.2570297893
 21
15.2622474911
  0
LINE
  5
308
100
AcDbEntity
  8
0
100
AcDbLine
 62
7
  6
CONTINUOUS
 10
9.9017015941
 20
16.490609914
 11
9.9017015941
 21
17.570609914
  0
LINE
  5
309
100
AcDbEntity
  8
0
100
AcDbLine
 62
9
  6
CONTINUOUS
 10
9.9617015941
 20
17.514609914
 11
9.9617015941
 21
16.546609914
  0
LINE
  5
30A
100
AcDbEntity
  8
0
100
AcDbLine
 62
9
  6
CONTINUOUS
 10
9.9817015941
 20
16.546609914
 11
9.9817015941
 21
17.514609914
  0
LINE
  5
30B
100
AcDbEntity
  8
0
100
AcDbLine
 62
9
  6
CONTINUOUS
 10
10.0535467967
 20
16.5770522627
 11
10.0535467967
 21
17.4841675654
  0
LINE
  5
30C
100
AcDbEntity
  8
0
100
AcDbLine
 62
9
  6
CONTINUOUS
 10
10.0781128986
 20
17.4688387652
 11
10.0781128986
 21
16.5923810628
  0
LINE
  5
30D
100
AcDbEntity
  8
0
100
AcDbLine
 62
7
  6
CONTINUOUS
 10
10.2111575179
 20
16.6356098801
 11
10.2111575746
 21
17.4256099295
  0
LINE
  5
30E
100
AcDbEntity
  8
0
100
AcDbLine
 62
9
  6
CONTINUOUS
 10
10.2558789078
 20
17.405609914
 11
10.2558789078
 21
16.655609914
  0
LINE
  5
30F
100
AcDbEntity
  8
0
100
AcDbLine
 62
9
  6
CONTINUOUS
 10
10.3458911423
 20
9.6508767262
 11
10.3458911423
 21
9.2003431018
  0
LINE
  5
310
100
AcDbEntity
  8
0
100
AcDbLine
 62
9
  6
CONTINUOUS
 10
10.4279803993
 20
9.2578226184
 11
10.4279803993
 21
9.5933972096
  0
LINE
  5
311
100
AcDbEntity
  8
0
100
AcDbLine
 62
7
  6
CONTINUOUS
 10
10.4531576223
 20
9.6146977651
 11
10.4531576223
 21
9.236522063
  0
LINE
  5
312
100
AcDbEntity
  8
0
100
AcDbLine
 62
9
  6
CONTINUOUS
 10
10.4780207808
 20
9.2346926208
 11
10.4780207808
 21
9.6165272073
  0
LINE
  5
313
100
AcDbEntity
  8
0
100
AcDbLine
 62
7
  6
CONTINUOUS
 10
10.6471576223
 20
10.415139711
 11
10.6471576223
 21
10.3685232999
  0
LINE
  5
314
100
AcDbEntity
  8
0
100
AcDbLine
 62
7
  6
CONTINUOUS
 10
10.6471576223
 20
10.2386965282
 11
10.6471576223
 21
10.193326449
  0
LINE
  5
315
100
AcDbEntity
  8
0
100
AcDbLine
 62
7
  6
CONTINUOUS
 10
10.6471576223
 20
8.436080117
 11
10.6471576223
 21
8.4826965282
  0
LINE
  5
316
100
AcDbEntity
  8
0
100
AcDbLine
 62
7
  6
CONTINUOUS
 10
10.6471576223
 20
8.6125232999
 11
10.6471576223
 21
8.657893379
  0
LINE
  5
317
100
AcDbEntity
  8
0
100
AcDbLine
 62
7
  6
CONTINUOUS
 10
10.6861576223
 20
8.675609914
 11
10.6861576223
 21
9.0331891738
  0
LINE
  5
318
100
AcDbEntity
  8
0
100
AcDbLine
 62
7
  6
CONTINUOUS
 10
10.6861576223
 20
9.8169978336
 11
10.6861576223
 21
10.175609914
  0
LINE
  5
319
100
AcDbEntity
  8
0
100
AcDbLine
 62
7
  6
CONTINUOUS
 10
10.7011576223
 20
14.000609914
 11
10.7011576223
 21
13.930609914
  0
LINE
  5
31A
100
AcDbEntity
  8
0
100
AcDbLine
 62
7
  6
CONTINUOUS
 10
10.7011576223
 20
10.150609914
 11
10.7011576223
 21
10.080609914
  0
LINE
  5
31B
100
AcDbEntity
  8
0
100
AcDbLine
 62
9
  6
CONTINUOUS
 10
10.7111576223
 20
16.655609914
 11
10.7111576223
 21
17.405609914
  0
LINE
  5
31C
100
AcDbEntity
  8
0
100
AcDbLine
 62
7
  6
CONTINUOUS
 10
10.8361576223
 20
26.585609914
 11
10.8361576223
 21
17.3946738311
  0
LINE
  5
31D
100
AcDbEntity
  8
0
100
AcDbLine
 62
7
  6
CONTINUOUS
 10
10.8361576223
 20
16.620466231
 11
10.8361576223
 21
14.1048245662
  0
LINE
  5
31E
100
AcDbEntity
  8
0
100
AcDbLine
 62
7
  6
CONTINUOUS
 10
10.8361576223
 20
8.330609914
 11
10.8361576223
 21
-7.734390086
  0
LINE
  5
31F
100
AcDbEntity
  8
0
100
AcDbLine
 62
7
  6
CONTINUOUS
 10
10.9271576223
 20
9.9568591434
 11
10.927664308
 21
9.9574217219
  0
LINE
  5
320
100
AcDbEntity
  8
0
100
AcDbLine
 62
7
  6
CONTINUOUS
 10
10.4279803993
 20
9.2578226184
 11
10.3458911423
 21
9.2003431018
  0
LINE
  5
321
100
AcDbEntity
  8
0
100
AcDbLine
 62
7
  6
CONTINUOUS
 10
10.9418962172
 20
9.965609914
 11
10.9276643637
 21
9.9573812374
  0
LINE
  5
322
100
AcDbEntity
  8
0
100
AcDbLine
 62
7
  6
CONTINUOUS
 10
11.6361576223
 20
8.330609914
 11
11.6161576223
 21
8.330609914
  0
LINE
  5
323
100
AcDbEntity
  8
0
100
AcDbLine
 62
7
  6
CONTINUOUS
 10
11.0561576223
 20
8.330609914
 11
10.7551528054
 21
8.330609914
  0
LINE
  5
324
100
AcDbEntity
  8
0
100
AcDbLine
 62
9
  6
CONTINUOUS
 10
11.6361576223
 20
8.3387094131
 11
11.6161576223
 21
8.3387094131
  0
LINE
  5
325
100
AcDbEntity
  8
0
100
AcDbLine
 62
9
  6
CONTINUOUS
 10
11.0561576223
 20
8.3387094131
 11
10.7453350614
 21
8.3387094131
  0
LINE
  5
326
100
AcDbEntity
  8
0
100
AcDbLine
 62
9
  6
CONTINUOUS
 10
11.6361576223
 20
8.418565377
 11
11.6161576223
 21
8.418565377
  0
LINE
  5
327
100
AcDbEntity
  8
0
100
AcDbLine
 62
9
  6
CONTINUOUS
 10
11.0561576223
 20
8.418565377
 11
10.6622077937
 21
8.418565377
  0
LINE
  5
328
100
AcDbEntity
  8
0
100
AcDbLine
 62
9
  6
CONTINUOUS
 10
10.6471576223
 20
8.436080117
 11
11.0561576223
 21
8.436080117
  0
LINE
  5
329
100
AcDbEntity
  8
0
100
AcDbLine
 62
9
  6
CONTINUOUS
 10
11.6161576223
 20
8.436080117
 11
11.6361576223
 21
8.436080117
  0
LINE
  5
32A
100
AcDbEntity
  8
0
100
AcDbLine
 62
7
  6
CONTINUOUS
 10
11.6361576223
 20
8.4826965282
 11
11.6161576223
 21
8.4826965282
  0
LINE
  5
32B
100
AcDbEntity
  8
0
100
AcDbLine
 62
7
  6
CONTINUOUS
 10
11.0561576223
 20
8.4826965282
 11
10.6471576223
 21
8.4826965282
  0
LINE
  5
32C
100
AcDbEntity
  8
0
100
AcDbLine
 62
7
  6
CONTINUOUS
 10
10.6471576223
 20
8.6125232999
 11
11.0561576223
 21
8.6125232999
  0
LINE
  5
32D
100
AcDbEntity
  8
0
100
AcDbLine
 62
7
  6
CONTINUOUS
 10
11.6161576223
 20
8.6125232999
 11
11.6361576223
 21
8.6125232999
  0
LINE
  5
32E
100
AcDbEntity
  8
0
100
AcDbLine
 62
9
  6
CONTINUOUS
 10
11.6361576223
 20
8.657893379
 11
11.6161576223
 21
8.657893379
  0
LINE
  5
32F
100
AcDbEntity
  8
0
100
AcDbLine
 62
9
  6
CONTINUOUS
 10
11.0561576223
 20
8.657893379
 11
10.6471576223
 21
8.657893379
  0
LINE
  5
330
100
AcDbEntity
  8
0
100
AcDbLine
 62
7
  6
CONTINUOUS
 10
11.6361576223
 20
8.675609914
 11
11.6161576223
 21
8.675609914
  0
LINE
  5
331
100
AcDbEntity
  8
0
100
AcDbLine
 62
7
  6
CONTINUOUS
 10
11.0561576223
 20
8.675609914
 11
10.6648799907
 21
8.675609914
  0
LINE
  5
332
100
AcDbEntity
  8
0
100
AcDbLine
 62
7
  6
CONTINUOUS
 10
10.9261732243
 20
8.743609914
 11
12.3791166412
 21
8.743609914
  0
LINE
  5
333
100
AcDbEntity
  8
0
100
AcDbLine
 62
7
  6
CONTINUOUS
 10
11.5138235504
 20
8.7959346941
 11
11.5733974203
 21
8.7959346941
  0
LINE
  5
334
100
AcDbEntity
  8
0
100
AcDbLine
 62
7
  6
CONTINUOUS
 10
11.9411206926
 20
8.7959346941
 11
12.0424509044
 21
8.7959346941
  0
LINE
  5
335
100
AcDbEntity
  8
0
100
AcDbLine
 62
7
  6
CONTINUOUS
 10
12.3694547644
 20
8.7959346941
 11
12.4112111064
 21
8.7959346941
  0
LINE
  5
336
100
AcDbEntity
  8
0
100
AcDbLine
 62
7
  6
CONTINUOUS
 10
10.9811576237
 20
8.925609914
 11
10.7869813914
 21
8.925609914
  0
LINE
  5
337
100
AcDbEntity
  8
0
100
AcDbLine
 62
9
  6
CONTINUOUS
 10
10.9665685809
 20
8.9439197733
 11
10.7483032249
 21
8.9439178891
  0
LINE
  5
338
100
AcDbEntity
  8
0
100
AcDbLine
 62
9
  6
CONTINUOUS
 10
8.0871027918
 20
18.0066775705
 11
8.0871073491
 21
18.0066532864
  0
LINE
  5
339
100
AcDbEntity
  8
0
100
AcDbLine
 62
7
  6
CONTINUOUS
 10
10.9261576223
 20
8.743609914
 11
10.9199985698
 21
8.925609914
  0
LWPOLYLINE
  5
33A
100
AcDbEntity
  8
0
100
AcDbPolyline
 62
7
  6
CONTINUOUS
 90
50
 70
0
 10
11.6631963592
 20
7.743609914
 10
11.6741597048
 20
6.984825239
 10
11.6914403481
 20
6.2324147661
 10
11.711977321
 20
5.531080762
 10
11.7343712877
 20
4.8741118343
 10
11.7578198842
 20
4.2549854428
 10
11.7818713527
 20
3.6671748038
 10
11.8061879667
 20
3.1068862058
 10
11.8305225639
 20
2.5714364658
 10
11.8547234767
 20
2.0581051667
 10
11.8786922117
 20
1.5644892599
 10
11.902339948
 20
1.0889889375
 10
11.9256060064
 20
0.6301463482
 10
11.9484536518
 20
0.186549207
 10
11.9708622495
 20
-0.2431346314
 10
11.9928095728
 20
-0.6599136723
 10
12.0142754092
 20
-1.0646153304
 10
12.0352457408
 20
-1.4580093676
 10
12.0557107611
 20
-1.8408061889
 10
12.0756632373
 20
-2.2136516336
 10
12.0950949813
 20
-2.5770860939
 10
12.1140029591
 20
-2.9316806109
 10
12.1323833988
 20
-3.2779432383
 10
12.1502298281
 20
-3.6163004556
 10
12.1675329966
 20
-3.9471057291
 10
12.1842795494
 20
-4.2706169279
 10
12.2004611866
 20
-4.5871811116
 10
12.2160774983
 20
-4.8972987346
 10
12.2311203376
 20
-5.2013328921
 10
12.2455734231
 20
-5.4995151467
 10
12.2594129234
 20
-5.791959349
 10
12.272605016
 20
-6.0786086044
 10
12.2851307567
 20
-6.3598054595
 10
12.2969789809
 20
-6.6362150967
 10
12.3081166503
 20
-6.9081968957
 10
12.3184899479
 20
-7.1758227706
 10
12.3280267398
 20
-7.4388979535
 10
12.3366355493
 20
-7.6968786611
 10
12.3442535749
 20
-7.9505264902
 10
12.3507852875
 20
-8.2006130995
 10
12.356067405
 20
-8.446997954
 10
12.3598703987
 20
-8.6886858546
 10
12.3619336644
 20
-8.924896515
 10
12.3619325444
 20
-9.154972547
 10
12.3594093259
 20
-9.3755963673
 10
12.3538482668
 20
-9.5823632703
 10
12.3448191512
 20
-9.768897644
 10
12.3326039378
 20
-9.9229139437
 10
12.3185492652
 20
-10.0358563043
 10
12.3043168489
 20
-10.1090829736
  0
LINE
  5
33B
100
AcDbEntity
  8
0
100
AcDbLine
 62
7
  6
CONTINUOUS
 10
10.9271576223
 20
9.9483684746
 11
10.9271576223
 21
9.9567962264
  0
LINE
  5
33C
100
AcDbEntity
  8
0
100
AcDbLine
 62
7
  6
CONTINUOUS
 10
10.9611576223
 20
16.405609914
 11
10.9611576223
 21
14.2803451146
  0
LINE
  5
33D
100
AcDbEntity
  8
0
100
AcDbLine
 62
9
  6
CONTINUOUS
 10
10.9665685811
 20
9.9073000548
 11
10.9665685809
 21
8.9439197733
  0
LINE
  5
33E
100
AcDbEntity
  8
0
100
AcDbLine
 62
7
  6
CONTINUOUS
 10
10.9711576223
 20
9.965609914
 11
10.9711576223
 21
10.040609914
  0
LINE
  5
33F
100
AcDbEntity
  8
0
100
AcDbLine
 62
7
  6
CONTINUOUS
 10
11.0111576223
 20
8.955609914
 11
11.0111576223
 21
9.895609914
  0
LINE
  5
340
100
AcDbEntity
  8
0
100
AcDbLine
 62
7
  6
CONTINUOUS
 10
11.0561576223
 20
8.743609914
 11
11.0561576223
 21
4.0627688181
  0
LINE
  5
341
100
AcDbEntity
  8
0
100
AcDbLine
 62
7
  6
CONTINUOUS
 10
11.1516149443
 20
9.965609914
 11
11.1516149443
 21
9.9608202177
  0
LINE
  5
342
100
AcDbEntity
  8
0
100
AcDbLine
 62
7
  6
CONTINUOUS
 10
11.2734941113
 20
9.9418682887
 11
11.2734941113
 21
9.925609914
  0
LINE
  5
343
100
AcDbEntity
  8
0
100
AcDbLine
 62
7
  6
CONTINUOUS
 10
11.3871576223
 20
9.437109914
 11
11.3871576223
 21
9.337109914
  0
LINE
  5
344
100
AcDbEntity
  8
0
100
AcDbLine
 62
7
  6
CONTINUOUS
 10
11.3988211332
 20
9.9278508165
 11
11.3988211332
 21
9.9457108165
  0
LINE
  5
345
100
AcDbEntity
  8
0
100
AcDbLine
 62
7
  6
CONTINUOUS
 10
11.4731041381
 20
9.2012851339
 11
11.4731041381
 21
8.7959346941
  0
LINE
  5
346
100
AcDbEntity
  8
0
100
AcDbLine
 62
7
  6
CONTINUOUS
 10
11.4871576223
 20
10.197109914
 11
11.4871576223
 21
9.537109914
  0
LINE
  5
347
100
AcDbEntity
  8
0
100
AcDbLine
 62
7
  6
CONTINUOUS
 10
11.5138235504
 20
8.7959346941
 11
11.5138235504
 21
9.2012851339
  0
LINE
  5
348
100
AcDbEntity
  8
0
100
AcDbLine
 62
7
  6
CONTINUOUS
 10
11.5733974203
 20
9.2012851339
 11
11.5733974203
 21
8.7959346941
  0
LINE
  5
349
100
AcDbEntity
  8
0
100
AcDbLine
 62
7
  6
CONTINUOUS
 10
11.5771576223
 20
9.257109914
 11
11.5771576223
 21
9.337109914
  0
LINE
  5
34A
100
AcDbEntity
  8
0
100
AcDbLine
 62
7
  6
CONTINUOUS
 10
11.6161576223
 20
8.743609914
 11
11.6161576223
 21
4.0627688181
  0
LINE
  5
34B
100
AcDbEntity
  8
0
100
AcDbLine
 62
7
  6
CONTINUOUS
 10
11.6361576223
 20
8.743609914
 11
11.6361576223
 21
7.743609914
  0
LINE
  5
34C
100
AcDbEntity
  8
0
100
AcDbLine
 62
7
  6
CONTINUOUS
 10
11.7111576223
 20
16.405609914
 11
11.7111576223
 21
14.2803451148
  0
LINE
  5
34D
100
AcDbEntity
  8
0
100
AcDbLine
 62
7
  6
CONTINUOUS
 10
11.8361576223
 20
26.585609914
 11
11.8361576223
 21
14.1048245662
  0
LINE
  5
34E
100
AcDbEntity
  8
0
100
AcDbLine
 62
7
  6
CONTINUOUS
 10
11.8361576223
 20
2.4519099061
 11
11.8361576223
 21
-7.734390086
  0
LINE
  5
34F
100
AcDbEntity
  8
0
100
AcDbLine
 62
7
  6
CONTINUOUS
 10
11.9411206926
 20
8.7959346941
 11
11.9411206926
 21
9.2012851339
  0
LINE
  5
350
100
AcDbEntity
  8
0
100
AcDbLine
 62
7
  6
CONTINUOUS
 10
11.9496050528
 20
-7.810890086
 11
11.9496050528
 21
-8.837890086
  0
LINE
  5
351
100
AcDbEntity
  8
0
100
AcDbLine
 62
7
  6
CONTINUOUS
 10
11.9496050528
 20
26.662109914
 11
11.9496050528
 21
27.689109914
  0
LINE
  5
352
100
AcDbEntity
  8
0
100
AcDbLine
 62
7
  6
CONTINUOUS
 10
11.9711576223
 20
14.000609914
 11
11.9711576223
 21
13.930609914
  0
LINE
  5
353
100
AcDbEntity
  8
0
100
AcDbLine
 62
7
  6
CONTINUOUS
 10
12.0424509044
 20
9.2012851339
 11
12.0424509044
 21
8.7959346941
  0
LINE
  5
354
100
AcDbEntity
  8
0
100
AcDbLine
 62
7
  6
CONTINUOUS
 10
11.055695964
 20
3.9468688514
 11
10.981545831
 21
-5.3461250356
  0
LINE
  5
355
100
AcDbEntity
  8
0
100
AcDbLine
 62
7
  6
CONTINUOUS
 10
11.6156781381
 20
3.9424006732
 11
11.5415280052
 21
-5.3505932138
  0
LINE
  5
356
100
AcDbEntity
  8
0
100
AcDbLine
 62
7
  6
CONTINUOUS
 10
11.5731576223
 20
9.257109914
 11
11.5696576223
 21
9.253609914
  0
LINE
  5
357
100
AcDbEntity
  8
0
100
AcDbLine
 62
7
  6
CONTINUOUS
 10
11.5051819747
 20
9.253609914
 11
11.4888395466
 21
9.2421185023
  0
LINE
  5
358
100
AcDbEntity
  8
0
100
AcDbLine
 62
7
  6
CONTINUOUS
 10
12.3954756979
 20
8.7551013258
 11
12.3791332698
 21
8.743609914
  0
LINE
  5
359
100
AcDbEntity
  8
0
100
AcDbLine
 62
7
  6
CONTINUOUS
 10
12.4112111064
 20
9.2012851339
 11
12.3694547644
 21
9.2012851339
  0
LINE
  5
35A
100
AcDbEntity
  8
0
100
AcDbLine
 62
7
  6
CONTINUOUS
 10
12.0424509044
 20
9.2012851339
 11
11.9411206926
 21
9.2012851339
  0
LINE
  5
35B
100
AcDbEntity
  8
0
100
AcDbLine
 62
7
  6
CONTINUOUS
 10
11.5733974203
 20
9.2012851339
 11
11.5138235504
 21
9.2012851339
  0
LINE
  5
35C
100
AcDbEntity
  8
0
100
AcDbLine
 62
7
  6
CONTINUOUS
 10
11.4790621121
 20
9.223609914
 11
11.0111576223
 21
9.223609914
  0
LINE
  5
35D
100
AcDbEntity
  8
0
100
AcDbLine
 62
7
  6
CONTINUOUS
 10
12.3791197222
 20
9.253609914
 11
11.5051955223
 21
9.253609914
  0
LINE
  5
35E
100
AcDbEntity
  8
0
100
AcDbLine
 62
7
  6
CONTINUOUS
 10
12.3111576223
 20
9.257109914
 11
11.5731576223
 21
9.257109914
  0
LINE
  5
35F
100
AcDbEntity
  8
0
100
AcDbLine
 62
7
  6
CONTINUOUS
 10
11.0111576223
 20
9.293609914
 11
11.5771576223
 21
9.293609914
  0
LINE
  5
360
100
AcDbEntity
  8
0
100
AcDbLine
 62
7
  6
CONTINUOUS
 10
11.3871576223
 20
9.337109914
 11
12.4971576223
 21
9.337109914
  0
LINE
  5
361
100
AcDbEntity
  8
0
100
AcDbLine
 62
7
  6
CONTINUOUS
 10
12.4971576223
 20
9.437109914
 11
11.3871576223
 21
9.437109914
  0
LINE
  5
362
100
AcDbEntity
  8
0
100
AcDbLine
 62
9
  6
CONTINUOUS
 10
11.4871576223
 20
9.537109914
 11
12.3971576223
 21
9.537109914
  0
LINE
  5
363
100
AcDbEntity
  8
0
100
AcDbLine
 62
7
  6
CONTINUOUS
 10
13.4521576223
 20
9.837109914
 11
13.4821576223
 21
9.837109914
  0
LINE
  5
364
100
AcDbEntity
  8
0
100
AcDbLine
 62
9
  6
CONTINUOUS
 10
10.7482970588
 20
9.9072944145
 11
10.9665685811
 21
9.9073000548
  0
LINE
  5
365
100
AcDbEntity
  8
0
100
AcDbLine
 62
7
  6
CONTINUOUS
 10
11.4871576223
 20
9.925609914
 11
10.786979515
 21
9.925609914
  0
LINE
  5
366
100
AcDbEntity
  8
0
100
AcDbLine
 62
7
  6
CONTINUOUS
 10
10.9418569683
 20
9.965609914
 11
11.4871576223
 21
9.965609914
  0
LINE
  5
367
100
AcDbEntity
  8
0
100
AcDbLine
 62
7
  6
CONTINUOUS
 10
10.7411576223
 20
10.040609914
 11
11.4871576223
 21
10.040609914
  0
LINE
  5
368
100
AcDbEntity
  8
0
100
AcDbLine
 62
9
  6
CONTINUOUS
 10
10.7011576223
 20
10.080609914
 11
11.4871576223
 21
10.080609914
  0
LINE
  5
369
100
AcDbEntity
  8
0
100
AcDbLine
 62
9
  6
CONTINUOUS
 10
11.4871576223
 20
10.150609914
 11
10.7011576223
 21
10.150609914
  0
LINE
  5
36A
100
AcDbEntity
  8
0
100
AcDbLine
 62
7
  6
CONTINUOUS
 10
10.6648799907
 20
10.175609914
 11
10.710507042
 21
10.175609914
  0
LINE
  5
36B
100
AcDbEntity
  8
0
100
AcDbLine
 62
9
  6
CONTINUOUS
 10
10.7388946495
 20
10.1905458497
 11
11.4871576223
 21
10.1905458497
  0
LINE
  5
36C
100
AcDbEntity
  8
0
100
AcDbLine
 62
9
  6
CONTINUOUS
 10
10.6471576223
 20
10.193326449
 11
10.7520680225
 21
10.193326449
  0
LINE
  5
36D
100
AcDbEntity
  8
0
100
AcDbLine
 62
7
  6
CONTINUOUS
 10
12.4221576223
 20
10.197109914
 11
11.4621576223
 21
10.197109914
  0
LINE
  5
36E
100
AcDbEntity
  8
0
100
AcDbLine
 62
7
  6
CONTINUOUS
 10
10.7937067995
 20
10.2386965282
 11
10.6471576223
 21
10.2386965282
  0
LINE
  5
36F
100
AcDbEntity
  8
0
100
AcDbLine
 62
7
  6
CONTINUOUS
 10
13.0041481053
 20
10.244609914
 11
13.2021576223
 21
10.244609914
  0
LINE
  5
370
100
AcDbEntity
  8
0
100
AcDbLine
 62
7
  6
CONTINUOUS
 10
13.1695075617
 20
10.2518827307
 11
13.2021576223
 21
10.2518827307
  0
LINE
  5
371
100
AcDbEntity
  8
0
100
AcDbLine
 62
9
  6
CONTINUOUS
 10
11.3958163065
 20
10.2557578633
 11
10.7952758235
 21
10.2557578633
  0
LINE
  5
372
100
AcDbEntity
  8
0
100
AcDbLine
 62
7
  6
CONTINUOUS
 10
13.4821576223
 20
10.287109914
 11
13.4921576223
 21
10.287109914
  0
LINE
  5
373
100
AcDbEntity
  8
0
100
AcDbLine
 62
7
  6
CONTINUOUS
 10
10.6471576223
 20
10.3685232999
 11
10.7877628999
 21
10.3685232999
  0
LINE
  5
374
100
AcDbEntity
  8
0
100
AcDbLine
 62
9
  6
CONTINUOUS
 10
10.7846616158
 20
10.4151397111
 11
10.6471576223
 21
10.4151397111
  0
LINE
  5
375
100
AcDbEntity
  8
0
100
AcDbLine
 62
9
  6
CONTINUOUS
 10
10.6622077937
 20
10.432654451
 11
10.7834963998
 21
10.432654451
  0
LINE
  5
376
100
AcDbEntity
  8
0
100
AcDbLine
 62
7
  6
CONTINUOUS
 10
10.9276058614
 20
9.9478501499
 11
10.9660770941
 21
9.925609914
  0
LINE
  5
377
100
AcDbEntity
  8
0
100
AcDbLine
 62
7
  6
CONTINUOUS
 10
10.4279803993
 20
9.5933972096
 11
10.3458911423
 21
9.6508767262
  0
LINE
  5
378
100
AcDbEntity
  8
0
100
AcDbLine
 62
7
  6
CONTINUOUS
 10
11.4888395466
 20
8.7551013258
 11
11.5051819747
 21
8.743609914
  0
LINE
  5
379
100
AcDbEntity
  8
0
100
AcDbLine
 62
7
  6
CONTINUOUS
 10
12.3791332698
 20
9.253609914
 11
12.3954756979
 21
9.2421185023
  0
LINE
  5
37A
100
AcDbEntity
  8
0
100
AcDbLine
 62
7
  6
CONTINUOUS
 10
12.3111576223
 20
9.257109914
 11
12.3124976223
 21
9.255769914
  0
LINE
  5
37B
100
AcDbEntity
  8
0
100
AcDbLine
 62
7
  6
CONTINUOUS
 10
10.9271576223
 20
9.9483599205
 11
10.9276058364
 21
9.9478308426
  0
LINE
  5
37C
100
AcDbEntity
  8
0
100
AcDbLine
 62
7
  6
CONTINUOUS
 10
8.0944584057
 20
16.2085772753
 11
8.0946037046
 21
16.2083222609
  0
LINE
  5
37D
100
AcDbEntity
  8
0
100
AcDbLine
 62
7
  6
CONTINUOUS
 10
12.2481576223
 20
8.743609914
 11
12.2481576223
 21
7.743609914
  0
LINE
  5
37E
100
AcDbEntity
  8
0
100
AcDbLine
 62
7
  6
CONTINUOUS
 10
12.3071576223
 20
9.257109914
 11
12.3071576223
 21
9.337109914
  0
LINE
  5
37F
100
AcDbEntity
  8
0
100
AcDbLine
 62
9
  6
CONTINUOUS
 10
12.3264241023
 20
9.253609914
 11
12.3264241023
 21
9.337109914
  0
LINE
  5
380
100
AcDbEntity
  8
0
100
AcDbLine
 62
7
  6
CONTINUOUS
 10
12.3694547644
 20
8.7959346941
 11
12.3694547644
 21
9.2012851339
  0
LINE
  5
381
100
AcDbEntity
  8
0
100
AcDbLine
 62
7
  6
CONTINUOUS
 10
12.3971576223
 20
10.197109914
 11
12.3971576223
 21
9.537109914
  0
LINE
  5
382
100
AcDbEntity
  8
0
100
AcDbLine
 62
7
  6
CONTINUOUS
 10
12.4112111064
 20
9.2012851339
 11
12.4112111064
 21
8.7959346941
  0
LINE
  5
383
100
AcDbEntity
  8
0
100
AcDbLine
 62
7
  6
CONTINUOUS
 10
12.4971576223
 20
9.437109914
 11
12.4971576223
 21
9.337109914
  0
LINE
  5
384
100
AcDbEntity
  8
0
100
AcDbLine
 62
7
  6
CONTINUOUS
 10
12.5238251878
 20
10.2878714929
 11
12.5238251878
 21
11.3863483351
  0
LINE
  5
385
100
AcDbEntity
  8
0
100
AcDbLine
 62
9
  6
CONTINUOUS
 10
12.6127418524
 20
27.8825654645
 11
12.6127418524
 21
26.4686543636
  0
LINE
  5
386
100
AcDbEntity
  8
0
100
AcDbLine
 62
7
  6
CONTINUOUS
 10
12.9761576223
 20
-7.4793900893
 11
12.9761576223
 21
-9.1693900826
  0
LINE
  5
387
100
AcDbEntity
  8
0
100
AcDbLine
 62
7
  6
CONTINUOUS
 10
12.9761576223
 20
26.3306099174
 11
12.9761576223
 21
28.0206099107
  0
LINE
  5
388
100
AcDbEntity
  8
0
100
AcDbLine
 62
7
  6
CONTINUOUS
 10
12.9821576211
 20
11.3871099124
 11
12.9821576211
 21
10.2871099157
  0
LINE
  5
389
100
AcDbEntity
  8
0
100
AcDbLine
 62
9
  6
CONTINUOUS
 10
13.0111576223
 20
28.055609914
 11
13.0111576223
 21
26.295609914
  0
LINE
  5
38A
100
AcDbEntity
  8
0
100
AcDbLine
 62
9
  6
CONTINUOUS
 10
13.0111576223
 20
-7.444390086
 11
13.0111576223
 21
-9.204390086
  0
LINE
  5
38B
100
AcDbEntity
  8
0
100
AcDbLine
 62
7
  6
CONTINUOUS
 10
13.0321576223
 20
28.198109914
 11
13.0321576223
 21
26.153109914
  0
LINE
  5
38C
100
AcDbEntity
  8
0
100
AcDbLine
 62
7
  6
CONTINUOUS
 10
13.0321576223
 20
-7.301890086
 11
13.0321576223
 21
-9.346890086
  0
LINE
  5
38D
100
AcDbEntity
  8
0
100
AcDbLine
 62
9
  6
CONTINUOUS
 10
13.1695075617
 20
11.429609914
 11
13.1695075617
 21
11.4223370974
  0
LINE
  5
38E
100
AcDbEntity
  8
0
100
AcDbLine
 62
9
  6
CONTINUOUS
 10
13.1695075617
 20
10.8443827307
 11
13.1695075617
 21
10.8298370974
  0
LINE
  5
38F
100
AcDbEntity
  8
0
100
AcDbLine
 62
9
  6
CONTINUOUS
 10
13.1695075617
 20
10.2518827307
 11
13.1695075617
 21
10.244609914
  0
LINE
  5
390
100
AcDbEntity
  8
0
100
AcDbLine
 62
7
  6
CONTINUOUS
 10
13.2021576223
 20
11.5394943425
 11
13.2021576223
 21
10.134724728
  0
LINE
  5
391
100
AcDbEntity
  8
0
100
AcDbLine
 62
9
  6
CONTINUOUS
 10
13.2321576223
 20
28.398109914
 11
13.2321576223
 21
25.953109914
  0
LINE
  5
392
100
AcDbEntity
  8
0
100
AcDbLine
 62
9
  6
CONTINUOUS
 10
13.2321576223
 20
-7.101890086
 11
13.2321576223
 21
-9.546890086
  0
LINE
  5
393
100
AcDbEntity
  8
0
100
AcDbLine
 62
7
  6
CONTINUOUS
 10
13.2591576223
 20
-9.546890086
 11
13.2591576223
 21
-7.101890086
  0
LINE
  5
394
100
AcDbEntity
  8
0
100
AcDbLine
 62
7
  6
CONTINUOUS
 10
13.2591576223
 20
25.953109914
 11
13.2591576223
 21
28.398109914
  0
LINE
  5
395
100
AcDbEntity
  8
0
100
AcDbLine
 62
7
  6
CONTINUOUS
 10
13.3221576223
 20
11.7070988045
 11
13.3221576223
 21
9.9671210235
  0
LINE
  5
396
100
AcDbEntity
  8
0
100
AcDbLine
 62
9
  6
CONTINUOUS
 10
13.4521576223
 20
11.837109914
 11
13.4521576223
 21
9.837109914
  0
LINE
  5
397
100
AcDbEntity
  8
0
100
AcDbLine
 62
9
  6
CONTINUOUS
 10
13.4591576223
 20
28.598109914
 11
13.4591576223
 21
25.753109914
  0
LINE
  5
398
100
AcDbEntity
  8
0
100
AcDbLine
 62
9
  6
CONTINUOUS
 10
13.4591576223
 20
-6.901890086
 11
13.4591576223
 21
-9.746890086
  0
LINE
  5
399
100
AcDbEntity
  8
0
100
AcDbLine
 62
7
  6
CONTINUOUS
 10
13.4821576223
 20
-9.7468783032
 11
13.4821576223
 21
-6.9019018687
  0
LINE
  5
39A
100
AcDbEntity
  8
0
100
AcDbLine
 62
7
  6
CONTINUOUS
 10
13.4821576223
 20
9.837110466
 11
13.4821576223
 21
11.837109362
  0
LINE
  5
39B
100
AcDbEntity
  8
0
100
AcDbLine
 62
7
  6
CONTINUOUS
 10
13.4821576223
 20
25.7531216968
 11
13.4821576223
 21
28.5980981313
  0
LINE
  5
39C
100
AcDbEntity
  8
0
100
AcDbLine
 62
7
  6
CONTINUOUS
 10
13.4921576223
 20
10.2871188151
 11
13.4921576223
 21
11.3871010129
  0
LINE
  5
39D
100
AcDbEntity
  8
0
100
AcDbLine
 62
9
  6
CONTINUOUS
 10
10.7453350614
 20
10.5125104149
 11
10.7781837636
 21
10.5125104149
  0
LINE
  5
39E
100
AcDbEntity
  8
0
100
AcDbLine
 62
7
  6
CONTINUOUS
 10
10.7776449223
 20
10.520609914
 11
10.7551531251
 21
10.520609914
  0
LINE
  5
39F
100
AcDbEntity
  8
0
100
AcDbLine
 62
7
  6
CONTINUOUS
 10
13.2021576223
 20
10.8298370974
 11
13.1695075617
 21
10.8298370974
  0
LINE
  5
3A0
100
AcDbEntity
  8
0
100
AcDbLine
 62
7
  6
CONTINUOUS
 10
13.1695075617
 20
10.8443827307
 11
13.2021576223
 21
10.8443827307
  0
LINE
  5
3A1
100
AcDbEntity
  8
0
100
AcDbLine
 62
7
  6
CONTINUOUS
 10
13.4821576223
 20
11.387109914
 11
13.4921576223
 21
11.387109914
  0
LINE
  5
3A2
100
AcDbEntity
  8
0
100
AcDbLine
 62
7
  6
CONTINUOUS
 10
13.2021576223
 20
11.4223370974
 11
13.1695075617
 21
11.4223370974
  0
LINE
  5
3A3
100
AcDbEntity
  8
0
100
AcDbLine
 62
7
  6
CONTINUOUS
 10
13.0041481053
 20
11.429609914
 11
13.2021576223
 21
11.429609914
  0
LINE
  5
3A4
100
AcDbEntity
  8
0
100
AcDbLine
 62
7
  6
CONTINUOUS
 10
8.1997928342
 20
15.3476792229
 11
8.2079463249
 21
15.3395257322
  0
LINE
  5
3A5
100
AcDbEntity
  8
0
100
AcDbLine
 62
7
  6
CONTINUOUS
 10
8.199793112
 20
15.4026805641
 11
8.2079463249
 21
15.3945273512
  0
LINE
  5
3A6
100
AcDbEntity
  8
0
100
AcDbLine
 62
7
  6
CONTINUOUS
 10
9.0715119339
 20
18.8911151623
 11
9.1733090121
 21
18.6624751812
  0
LINE
  5
3A7
100
AcDbEntity
  8
0
100
AcDbLine
 62
7
  6
CONTINUOUS
 10
13.4521576223
 20
11.837109914
 11
13.4821576223
 21
11.837109914
  0
LWPOLYLINE
  5
3A8
100
AcDbEntity
  8
0
100
AcDbPolyline
 62
7
  6
CONTINUOUS
 90
4
 70
0
 10
8.0917815101
 20
16.1102776318
 10
8.0951515346
 20
16.1076234344
 10
8.0964554434
 20
16.1057169819
 10
8.0967097375
 20
16.105171141
  0
LINE
  5
3A9
100
AcDbEntity
  8
0
100
AcDbLine
 62
7
  6
CONTINUOUS
 10
8.1582459437
 20
15.5860307238
 11
8.1663994613
 21
15.5778772062
  0
LINE
  5
3AA
100
AcDbEntity
  8
0
100
AcDbLine
 62
7
  6
CONTINUOUS
 10
8.199793112
 20
15.5639371516
 11
8.2079463251
 21
15.5557839386
  0
LINE
  5
3AB
100
AcDbEntity
  8
0
100
AcDbLine
 62
7
  6
CONTINUOUS
 10
8.1582459437
 20
15.6805955837
 11
8.1663994613
 21
15.6724420662
  0
LINE
  5
3AC
100
AcDbEntity
  8
0
100
AcDbLine
 62
7
  6
CONTINUOUS
 10
8.199793112
 20
15.8204593377
 11
8.2079463249
 21
15.8123061248
  0
LINE
  5
3AD
100
AcDbEntity
  8
0
100
AcDbLine
 62
7
  6
CONTINUOUS
 10
8.1582459437
 20
15.8632808645
 11
8.1663994613
 21
15.855127347
  0
LINE
  5
3AE
100
AcDbEntity
  8
0
100
AcDbLine
 62
7
  6
CONTINUOUS
 10
8.0395029914
 20
16.1278017125
 11
8.0522692496
 21
16.1150354543
  0
LINE
  5
3AF
100
AcDbEntity
  8
0
100
AcDbLine
 62
7
  6
CONTINUOUS
 10
8.0395029914
 20
16.2297134454
 11
8.0522692496
 21
16.2169471872
  0
LINE
  5
3B0
100
AcDbEntity
  8
0
100
AcDbLine
 62
7
  6
CONTINUOUS
 10
8.1582459437
 20
16.1216368664
 11
8.1663994613
 21
16.1134833488
  0
LINE
  5
3B1
100
AcDbEntity
  8
0
100
AcDbLine
 62
7
  6
CONTINUOUS
 10
8.199793112
 20
16.1547655593
 11
8.2079463249
 21
16.1466123464
  0
LINE
  5
3B2
100
AcDbEntity
  8
0
100
AcDbLine
 62
7
  6
CONTINUOUS
 10
7.9366467152
 20
16.4461584094
 11
7.9447999364
 21
16.4380051883
  0
LINE
  5
3B3
100
AcDbEntity
  8
0
100
AcDbLine
 62
7
  6
CONTINUOUS
 10
8.0395029914
 20
16.3759591631
 11
8.0522692496
 21
16.3631929049
  0
LINE
  5
3B4
100
AcDbEntity
  8
0
100
AcDbLine
 62
7
  6
CONTINUOUS
 10
7.9366467152
 20
16.6246937903
 11
7.9447999347
 21
16.6165405708
  0
LINE
  5
3B5
100
AcDbEntity
  8
0
100
AcDbLine
 62
7
  6
CONTINUOUS
 10
8.1582459437
 20
16.4380570546
 11
8.1663994613
 21
16.429903537
  0
LINE
  5
3B6
100
AcDbEntity
  8
0
100
AcDbLine
 62
7
  6
CONTINUOUS
 10
8.199793112
 20
16.5440733999
 11
8.2079463249
 21
16.535920187
  0
LINE
  5
3B7
100
AcDbEntity
  8
0
100
AcDbLine
 62
7
  6
CONTINUOUS
 10
7.9366467152
 20
16.9695976608
 11
7.9447999364
 21
16.9614444396
  0
LINE
  5
3B8
100
AcDbEntity
  8
0
100
AcDbLine
 62
7
  6
CONTINUOUS
 10
8.1582459437
 20
16.7909779163
 11
8.1663994613
 21
16.7828243987
  0
LINE
  5
3B9
100
AcDbEntity
  8
0
100
AcDbLine
 62
7
  6
CONTINUOUS
 10
8.0395029914
 20
17.0154673134
 11
8.0522692496
 21
17.0027010552
  0
LINE
  5
3BA
100
AcDbEntity
  8
0
100
AcDbLine
 62
7
  6
CONTINUOUS
 10
8.199793112
 20
16.9618521735
 11
8.2079463249
 21
16.9536989606
  0
LINE
  5
3BB
100
AcDbEntity
  8
0
100
AcDbLine
 62
7
  6
CONTINUOUS
 10
7.9366467152
 20
17.2788300114
 11
7.9447999347
 21
17.2706767919
  0
LINE
  5
3BC
100
AcDbEntity
  8
0
100
AcDbLine
 62
7
  6
CONTINUOUS
 10
8.0395029914
 20
17.2331486921
 11
8.0522692496
 21
17.2203824339
  0
LINE
  5
3BD
100
AcDbEntity
  8
0
100
AcDbLine
 62
7
  6
CONTINUOUS
 10
8.1582459437
 20
17.156348478
 11
8.1663994613
 21
17.1481949604
  0
LINE
  5
3BE
100
AcDbEntity
  8
0
100
AcDbLine
 62
7
  6
CONTINUOUS
 10
8.0395029914
 20
17.4355514251
 11
8.0522692496
 21
17.422785167
  0
LINE
  5
3BF
100
AcDbEntity
  8
0
100
AcDbLine
 62
7
  6
CONTINUOUS
 10
11.7262007371
 20
14.2406100109
 11
11.8701473965
 21
14.0628506906
  0
LINE
  5
3C0
100
AcDbEntity
  8
0
100
AcDbLine
 62
9
  6
CONTINUOUS
 10
10.7952649287
 20
13.8254619648
 11
11.8770503158
 21
13.8254619648
  0
LINE
  5
3C1
100
AcDbEntity
  8
0
100
AcDbLine
 62
9
  6
CONTINUOUS
 10
10.7388946495
 20
13.8906739784
 11
11.9334205951
 21
13.8906739784
  0
LINE
  5
3C2
100
AcDbEntity
  8
0
100
AcDbLine
 62
9
  6
CONTINUOUS
 10
10.7011576223
 20
13.930609914
 11
11.9711576223
 21
13.930609914
  0
LINE
  5
3C3
100
AcDbEntity
  8
0
100
AcDbLine
 62
9
  6
CONTINUOUS
 10
11.9711576223
 20
14.000609914
 11
10.7011576223
 21
14.000609914
  0
LINE
  5
3C4
100
AcDbEntity
  8
0
100
AcDbLine
 62
7
  6
CONTINUOUS
 10
11.9311576223
 20
14.040609914
 11
10.7411576223
 21
14.040609914
  0
LINE
  5
3C5
100
AcDbEntity
  8
0
100
AcDbLine
 62
9
  6
CONTINUOUS
 10
10.802167848
 20
14.0628506906
 11
11.8701473965
 21
14.0628506906
  0
LINE
  5
3C6
100
AcDbEntity
  8
0
100
AcDbLine
 62
7
  6
CONTINUOUS
 10
11.7262007371
 20
14.2406100109
 11
10.9461145074
 21
14.2406100109
  0
LINE
  5
3C7
100
AcDbEntity
  8
0
100
AcDbLine
 62
9
  6
CONTINUOUS
 10
10.9611576223
 20
14.2803451148
 11
11.7111576223
 21
14.2803451148
  0
LINE
  5
3C8
100
AcDbEntity
  8
0
100
AcDbLine
 62
7
  6
CONTINUOUS
 10
8.199793112
 20
17.3796309471
 11
8.2079463249
 21
17.3714777342
  0
LINE
  5
3C9
100
AcDbEntity
  8
0
100
AcDbLine
 62
7
  6
CONTINUOUS
 10
8.1582459437
 20
17.5092693397
 11
8.1663994613
 21
17.5011158221
  0
LINE
  5
3CA
100
AcDbEntity
  8
0
100
AcDbLine
 62
7
  6
CONTINUOUS
 10
8.0395029914
 20
17.8485481998
 11
8.0522692496
 21
17.8357819416
  0
LINE
  5
3CB
100
AcDbEntity
  8
0
100
AcDbLine
 62
7
  6
CONTINUOUS
 10
8.199793112
 20
17.7689387877
 11
8.2079466737
 21
17.760785226
  0
LINE
  5
3CC
100
AcDbEntity
  8
0
100
AcDbLine
 62
7
  6
CONTINUOUS
 10
8.1582459437
 20
17.8256895279
 11
8.1663994613
 21
17.8175360103
  0
LINE
  5
3CD
100
AcDbEntity
  8
0
100
AcDbLine
 62
7
  6
CONTINUOUS
 10
8.1582459437
 20
18.0840455297
 11
8.1663994613
 21
18.0758920121
  0
LINE
  5
3CE
100
AcDbEntity
  8
0
100
AcDbLine
 62
7
  6
CONTINUOUS
 10
8.199793112
 20
18.1032450093
 11
8.2079463249
 21
18.0950917963
  0
LINE
  5
3CF
100
AcDbEntity
  8
0
100
AcDbLine
 62
7
  6
CONTINUOUS
 10
8.1582459437
 20
18.2667308105
 11
8.1663994613
 21
18.2585772929
  0
LINE
  5
3D0
100
AcDbEntity
  8
0
100
AcDbLine
 62
7
  6
CONTINUOUS
 10
8.199793112
 20
18.3597671954
 11
8.2079463249
 21
18.3516139824
  0
LINE
  5
3D1
100
AcDbEntity
  8
0
100
AcDbLine
 62
7
  6
CONTINUOUS
 10
8.199793112
 20
18.5210237829
 11
8.2079463249
 21
18.5128705699
  0
LINE
  5
3D2
100
AcDbEntity
  8
0
100
AcDbLine
 62
7
  6
CONTINUOUS
 10
8.8199471971
 20
15.125609914
 11
9.0029960246
 21
15.125609914
  0
LINE
  5
3D3
100
AcDbEntity
  8
0
100
AcDbLine
 62
7
  6
CONTINUOUS
 10
8.2218663471
 20
15.3337595203
 11
8.2567861637
 21
15.3337595203
  0
LINE
  5
3D4
100
AcDbEntity
  8
0
100
AcDbLine
 62
7
  6
CONTINUOUS
 10
8.2567861637
 20
15.3887611393
 11
8.2218663471
 21
15.3887611393
  0
LINE
  5
3D5
100
AcDbEntity
  8
0
100
AcDbLine
 62
7
  6
CONTINUOUS
 10
9.1915799213
 20
15.410609914
 11
9.2255683538
 21
15.410609914
  0
LINE
  5
3D6
100
AcDbEntity
  8
0
100
AcDbLine
 62
7
  6
CONTINUOUS
 10
8.2567861637
 20
15.5500177268
 11
8.2218663471
 21
15.5500177268
  0
LINE
  5
3D7
100
AcDbEntity
  8
0
100
AcDbLine
 62
7
  6
CONTINUOUS
 10
8.1951702482
 20
15.572111299
 11
8.1803191788
 21
15.572111299
  0
LINE
  5
3D8
100
AcDbEntity
  8
0
100
AcDbLine
 62
7
  6
CONTINUOUS
 10
8.1940274975
 20
15.6666761589
 11
8.1803191788
 21
15.6666761589
  0
LINE
  5
3D9
100
AcDbEntity
  8
0
100
AcDbLine
 62
7
  6
CONTINUOUS
 10
8.243838499
 20
15.7153720575
 11
8.2218663471
 21
15.7153720575
  0
LINE
  5
3DA
100
AcDbEntity
  8
0
100
AcDbLine
 62
7
  6
CONTINUOUS
 10
8.0864424897
 20
16.1115758755
 11
8.0917815101
 21
16.1102776318
  0
LINE
  5
3DB
100
AcDbEntity
  8
0
100
AcDbLine
 62
7
  6
CONTINUOUS
 10
7.9635184994
 20
16.3686323998
 11
8.0409560428
 21
16.340447439
  0
LINE
  5
3DC
100
AcDbEntity
  8
0
100
AcDbLine
 62
7
  6
CONTINUOUS
 10
8.0761497096
 20
16.9992417237
 11
8.076133875
 21
16.9992416427
  0
LINE
  5
3DD
100
AcDbEntity
  8
0
100
AcDbLine
 62
7
  6
CONTINUOUS
 10
8.2567861637
 20
15.8065399129
 11
8.2218663471
 21
15.8065399129
  0
LINE
  5
3DE
100
AcDbEntity
  8
0
100
AcDbLine
 62
7
  6
CONTINUOUS
 10
8.2008004554
 20
15.8084084423
 11
8.1803191788
 21
15.8084084423
  0
LINE
  5
3DF
100
AcDbEntity
  8
0
100
AcDbLine
 62
7
  6
CONTINUOUS
 10
8.1940274975
 20
15.8493614397
 11
8.1803191788
 21
15.8493614397
  0
LINE
  5
3E0
100
AcDbEntity
  8
0
100
AcDbLine
 62
7
  6
CONTINUOUS
 10
8.1320731172
 20
15.8691925912
 11
8.1252996267
 21
15.8691925912
  0
LINE
  5
3E1
100
AcDbEntity
  8
0
100
AcDbLine
 62
7
  6
CONTINUOUS
 10
8.2468881684
 20
15.9718942436
 11
8.2218663471
 21
15.9718942436
  0
LINE
  5
3E2
100
AcDbEntity
  8
0
100
AcDbLine
 62
7
  6
CONTINUOUS
 10
8.2026504158
 20
15.9910937232
 11
8.1803191788
 21
15.9910937232
  0
LINE
  5
3E3
100
AcDbEntity
  8
0
100
AcDbLine
 62
7
  6
CONTINUOUS
 10
8.2225539107
 20
16.1077174415
 11
8.1803191788
 21
16.1077174415
  0
LINE
  5
3E4
100
AcDbEntity
  8
0
100
AcDbLine
 62
7
  6
CONTINUOUS
 10
8.0864403705
 20
16.1115760419
 11
8.0606209482
 21
16.1115760419
  0
LINE
  5
3E5
100
AcDbEntity
  8
0
100
AcDbLine
 62
7
  6
CONTINUOUS
 10
8.2567861637
 20
16.1408461345
 11
8.2218663471
 21
16.1408461345
  0
LINE
  5
3E6
100
AcDbEntity
  8
0
100
AcDbLine
 62
7
  6
CONTINUOUS
 10
8.0852568145
 20
16.2134877747
 11
8.0606209482
 21
16.2134877747
  0
LINE
  5
3E7
100
AcDbEntity
  8
0
100
AcDbLine
 62
7
  6
CONTINUOUS
 10
8.1940274975
 20
16.249449725
 11
8.1803191788
 21
16.249449725
  0
LINE
  5
3E8
100
AcDbEntity
  8
0
100
AcDbLine
 62
7
  6
CONTINUOUS
 10
8.2508645745
 20
16.3062004652
 11
8.2218663471
 21
16.3062004652
  0
LINE
  5
3E9
100
AcDbEntity
  8
0
100
AcDbLine
 62
7
  6
CONTINUOUS
 10
8.0679318796
 20
16.3552200582
 11
8.0606209482
 21
16.3552200582
  0
LINE
  5
3EA
100
AcDbEntity
  8
0
100
AcDbLine
 62
7
  6
CONTINUOUS
 10
8.0835631481
 20
16.3597335022
 11
8.0606209482
 21
16.3597334924
  0
LINE
  5
3EB
100
AcDbEntity
  8
0
100
AcDbLine
 62
9
  6
CONTINUOUS
 10
11.7111576223
 20
16.405609914
 11
10.9611576223
 21
16.405609914
  0
LINE
  5
3EC
100
AcDbEntity
  8
0
100
AcDbLine
 62
7
  6
CONTINUOUS
 10
8.2193408292
 20
16.4241376298
 11
8.1803191788
 21
16.4241376298
  0
LINE
  5
3ED
100
AcDbEntity
  8
0
100
AcDbLine
 62
7
  6
CONTINUOUS
 10
8.0696264984
 20
16.5014657759
 11
8.0606209482
 21
16.5014657759
  0
LINE
  5
3EE
100
AcDbEntity
  8
0
100
AcDbLine
 62
7
  6
CONTINUOUS
 10
8.2567861637
 20
16.5301539751
 11
8.2218663471
 21
16.5301539751
  0
LINE
  5
3EF
100
AcDbEntity
  8
0
100
AcDbLine
 62
7
  6
CONTINUOUS
 10
9.9817015941
 20
16.546609914
 11
9.9617015941
 21
16.546609914
  0
LINE
  5
3F0
100
AcDbEntity
  8
0
100
AcDbLine
 62
7
  6
CONTINUOUS
 10
8.1940274975
 20
16.5658699132
 11
8.1803191788
 21
16.5658699132
  0
LINE
  5
3F1
100
AcDbEntity
  8
0
100
AcDbLine
 62
7
  6
CONTINUOUS
 10
10.2558789883
 20
16.655609914
 11
10.7111576223
 21
16.655609914
  0
LINE
  5
3F2
100
AcDbEntity
  8
0
100
AcDbLine
 62
7
  6
CONTINUOUS
 10
8.2554980937
 20
16.6955083058
 11
8.2218663471
 21
16.6955083058
  0
LINE
  5
3F3
100
AcDbEntity
  8
0
100
AcDbLine
 62
7
  6
CONTINUOUS
 10
8.2157588241
 20
16.7770584915
 11
8.1803191788
 21
16.7770584915
  0
LINE
  5
3F4
100
AcDbEntity
  8
0
100
AcDbLine
 62
7
  6
CONTINUOUS
 10
8.2120524086
 20
16.9187907749
 11
8.1803191788
 21
16.9187907749
  0
LINE
  5
3F5
100
AcDbEntity
  8
0
100
AcDbLine
 62
7
  6
CONTINUOUS
 10
8.2567861637
 20
16.9479327487
 11
8.2218663471
 21
16.9479327487
  0
LINE
  5
3F6
100
AcDbEntity
  8
0
100
AcDbLine
 62
7
  6
CONTINUOUS
 10
8.076133875
 20
16.9992416427
 11
8.0606209482
 21
16.9992416427
  0
LWPOLYLINE
  5
3F7
100
AcDbEntity
  8
0
100
AcDbPolyline
 62
7
  6
CONTINUOUS
 90
5
 70
0
 10
8.0852547026
 20
16.2134899308
 10
8.0857572823
 20
16.2134790924
 10
8.0904824216
 20
16.2122115923
 10
8.0935246875
 20
16.2098451816
 10
8.0944584057
 20
16.2085772753
  0
LWPOLYLINE
  5
3F8
100
AcDbEntity
  8
0
100
AcDbPolyline
 62
7
  6
CONTINUOUS
 90
5
 70
0
 10
8.0835609964
 20
16.3597355629
 10
8.0842418391
 20
16.3597148151
 10
8.0889250282
 20
16.358332557
 10
8.091590536
 20
16.3561345979
 10
8.0921606617
 20
16.3553363958
  0
LWPOLYLINE
  5
3F9
100
AcDbEntity
  8
0
100
AcDbPolyline
 62
7
  6
CONTINUOUS
 90
4
 70
0
 10
8.0761467864
 20
16.9992440697
 10
8.079515277
 20
16.9986801422
 10
8.083068707
 20
16.9965348395
 10
8.0840527977
 20
16.9953653747
  0
LWPOLYLINE
  5
3FA
100
AcDbEntity
  8
0
100
AcDbPolyline
 62
7
  6
CONTINUOUS
 90
4
 70
0
 10
8.0712526545
 20
17.4193254332
 10
8.075791614
 20
17.4183279487
 10
8.079053503
 20
17.4159402117
 10
8.0799699835
 20
17.4147179514
  0
LWPOLYLINE
  5
3FB
100
AcDbEntity
  8
0
100
AcDbPolyline
 62
7
  6
CONTINUOUS
 90
4
 70
0
 10
8.0736040955
 20
17.2169227263
 10
8.0785599904
 20
17.2156840355
 10
8.0813227234
 20
17.2134579569
 10
8.0819269011
 20
17.2126049321
  0
LINE
  5
3FC
100
AcDbEntity
  8
0
100
AcDbLine
 62
7
  6
CONTINUOUS
 10
10.2111575179
 20
17.4256099479
 11
10.0781128986
 21
17.4688387652
  0
LWPOLYLINE
  5
3FD
100
AcDbEntity
  8
0
100
AcDbPolyline
 62
7
  6
CONTINUOUS
 90
3
 70
0
 10
8.0920484754
 20
17.9753342371
 10
8.0874023508
 20
17.9740733638
 10
8.086724738
 20
17.9740541678
  0
LINE
  5
3FE
100
AcDbEntity
  8
0
100
AcDbLine
 62
7
  6
CONTINUOUS
 10
8.0897273588
 20
18.0069732968
 11
8.0871037483
 21
18.006678065
  0
LINE
  5
3FF
100
AcDbEntity
  8
0
100
AcDbLine
 62
7
  6
CONTINUOUS
 10
8.2567861637
 20
17.1132870794
 11
8.2218663471
 21
17.1132870794
  0
LINE
  5
400
100
AcDbEntity
  8
0
100
AcDbLine
 62
7
  6
CONTINUOUS
 10
8.0770447051
 20
17.1409739262
 11
8.0606209482
 21
17.1409739262
  0
LINE
  5
401
100
AcDbEntity
  8
0
100
AcDbLine
 62
7
  6
CONTINUOUS
 10
8.2120524082
 20
17.1424290531
 11
8.1803191788
 21
17.1424290531
  0
LINE
  5
402
100
AcDbEntity
  8
0
100
AcDbLine
 62
7
  6
CONTINUOUS
 10
8.0736069525
 20
17.2169230214
 11
8.0606209482
 21
17.2169230214
  0
LINE
  5
403
100
AcDbEntity
  8
0
100
AcDbLine
 62
7
  6
CONTINUOUS
 10
8.2157588238
 20
17.2841613366
 11
8.1803191788
 21
17.2841613366
  0
LINE
  5
404
100
AcDbEntity
  8
0
100
AcDbLine
 62
7
  6
CONTINUOUS
 10
8.0795728304
 20
17.3586553049
 11
8.0606209482
 21
17.3586553049
  0
LINE
  5
405
100
AcDbEntity
  8
0
100
AcDbLine
 62
7
  6
CONTINUOUS
 10
8.2554980819
 20
17.3657115223
 11
8.2218663471
 21
17.3657115223
  0
LINE
  5
406
100
AcDbEntity
  8
0
100
AcDbLine
 62
7
  6
CONTINUOUS
 10
10.2558789078
 20
17.405609914
 11
10.7111576223
 21
17.405609914
  0
LINE
  5
407
100
AcDbEntity
  8
0
100
AcDbLine
 62
7
  6
CONTINUOUS
 10
8.0712573267
 20
17.4193257545
 11
8.0606209482
 21
17.4193257545
  0
LINE
  5
408
100
AcDbEntity
  8
0
100
AcDbLine
 62
7
  6
CONTINUOUS
 10
8.1940274975
 20
17.4953499148
 11
8.1803191788
 21
17.4953499148
  0
LINE
  5
409
100
AcDbEntity
  8
0
100
AcDbLine
 62
7
  6
CONTINUOUS
 10
9.9817015941
 20
17.514609914
 11
9.9617015941
 21
17.514609914
  0
LINE
  5
40A
100
AcDbEntity
  8
0
100
AcDbLine
 62
7
  6
CONTINUOUS
 10
8.2567861637
 20
17.531065853
 11
8.2218663471
 21
17.531065853
  0
LINE
  5
40B
100
AcDbEntity
  8
0
100
AcDbLine
 62
7
  6
CONTINUOUS
 10
8.0819249619
 20
17.561058038
 11
8.0606209482
 21
17.561058038
  0
LINE
  5
40C
100
AcDbEntity
  8
0
100
AcDbLine
 62
7
  6
CONTINUOUS
 10
8.2193408284
 20
17.6370821983
 11
8.1803191788
 21
17.6370821983
  0
LINE
  5
40D
100
AcDbEntity
  8
0
100
AcDbLine
 62
7
  6
CONTINUOUS
 10
8.2508645779
 20
17.7550193628
 11
8.2218663471
 21
17.7550193628
  0
LINE
  5
40E
100
AcDbEntity
  8
0
100
AcDbLine
 62
7
  6
CONTINUOUS
 10
8.1940274975
 20
17.8117701031
 11
8.1803191788
 21
17.8117701031
  0
LINE
  5
40F
100
AcDbEntity
  8
0
100
AcDbLine
 62
7
  6
CONTINUOUS
 10
8.0664681138
 20
17.8323225291
 11
8.0606209482
 21
17.8323225291
  0
LINE
  5
410
100
AcDbEntity
  8
0
100
AcDbLine
 62
7
  6
CONTINUOUS
 10
8.2567861637
 20
17.9203736936
 11
8.2218663471
 21
17.9203736936
  0
LINE
  5
411
100
AcDbEntity
  8
0
100
AcDbLine
 62
7
  6
CONTINUOUS
 10
8.2225538944
 20
17.9535023865
 11
8.1803191788
 21
17.9535023865
  0
LINE
  5
412
100
AcDbEntity
  8
0
100
AcDbLine
 62
7
  6
CONTINUOUS
 10
8.0867240198
 20
17.9740548126
 11
8.0606209482
 21
17.9740548126
  0
LINE
  5
413
100
AcDbEntity
  8
0
100
AcDbLine
 62
7
  6
CONTINUOUS
 10
8.0871027918
 20
18.0066775705
 11
8.0606209482
 21
18.0066775705
  0
LINE
  5
414
100
AcDbEntity
  8
0
100
AcDbLine
 62
7
  6
CONTINUOUS
 10
8.2026504443
 20
18.0701261049
 11
8.1803191788
 21
18.0701261049
  0
LINE
  5
415
100
AcDbEntity
  8
0
100
AcDbLine
 62
7
  6
CONTINUOUS
 10
8.2468881685
 20
18.0893255844
 11
8.2218663471
 21
18.0893255844
  0
LINE
  5
416
100
AcDbEntity
  8
0
100
AcDbLine
 62
7
  6
CONTINUOUS
 10
8.1320731172
 20
18.1920272369
 11
8.1252996267
 21
18.1920272369
  0
LINE
  5
417
100
AcDbEntity
  8
0
100
AcDbLine
 62
7
  6
CONTINUOUS
 10
8.1940274975
 20
18.2118583883
 11
8.1803191788
 21
18.2118583883
  0
LINE
  5
418
100
AcDbEntity
  8
0
100
AcDbLine
 62
7
  6
CONTINUOUS
 10
8.2008004561
 20
18.2528113857
 11
8.1803191788
 21
18.2528113857
  0
LINE
  5
419
100
AcDbEntity
  8
0
100
AcDbLine
 62
7
  6
CONTINUOUS
 10
8.2567861637
 20
18.2546799152
 11
8.2218663471
 21
18.2546799152
  0
LINE
  5
41A
100
AcDbEntity
  8
0
100
AcDbLine
 62
7
  6
CONTINUOUS
 10
8.2438385068
 20
18.3458477705
 11
8.2218663471
 21
18.3458477705
  0
LINE
  5
41B
100
AcDbEntity
  8
0
100
AcDbLine
 62
7
  6
CONTINUOUS
 10
8.1940274975
 20
18.3945436692
 11
8.1803191788
 21
18.3945436692
  0
LWPOLYLINE
  5
41C
100
AcDbEntity
  8
0
100
AcDbPolyline
 62
7
  6
CONTINUOUS
 90
7
 70
0
 10
8.066468063
 20
17.8323220544
 10
8.0693679394
 20
17.8319574942
 10
8.0733550439
 20
17.8300842146
 10
8.0760732298
 20
17.8273033124
 10
8.0774264842
 20
17.8246682461
 10
8.077859716
 20
17.8230195042
 10
8.0779001194
 20
17.8227444288
  0
LINE
  5
41D
100
AcDbEntity
  8
0
100
AcDbLine
 62
7
  6
CONTINUOUS
 10
8.1951702482
 20
18.4891085291
 11
8.1803191788
 21
18.4891085291
  0
LINE
  5
41E
100
AcDbEntity
  8
0
100
AcDbLine
 62
7
  6
CONTINUOUS
 10
8.2567861637
 20
18.5112021012
 11
8.2218663471
 21
18.5112021012
  0
LINE
  5
41F
100
AcDbEntity
  8
0
100
AcDbLine
 62
7
  6
CONTINUOUS
 10
9.1915799213
 20
18.650609914
 11
9.2255683538
 21
18.650609914
  0
LINE
  5
420
100
AcDbEntity
  8
0
100
AcDbLine
 62
7
  6
CONTINUOUS
 10
8.2567861637
 20
18.6724586887
 11
8.2218663471
 21
18.6724586887
  0
LINE
  5
421
100
AcDbEntity
  8
0
100
AcDbLine
 62
7
  6
CONTINUOUS
 10
8.2218663471
 20
18.7274603077
 11
8.2567861637
 21
18.7274603077
  0
LINE
  5
422
100
AcDbEntity
  8
0
100
AcDbLine
 62
7
  6
CONTINUOUS
 10
8.8199471971
 20
18.935609914
 11
9.0029960246
 21
18.935609914
  0
LINE
  5
423
100
AcDbEntity
  8
0
100
AcDbLine
 62
7
  6
CONTINUOUS
 10
13.4821576223
 20
25.753109914
 11
13.4591576223
 21
25.753109914
  0
LINE
  5
424
100
AcDbEntity
  8
0
100
AcDbLine
 62
7
  6
CONTINUOUS
 10
13.2321576223
 20
25.953109914
 11
13.2591576223
 21
25.953109914
  0
LINE
  5
425
100
AcDbEntity
  8
0
100
AcDbLine
 62
7
  6
CONTINUOUS
 10
13.0111576223
 20
26.295609914
 11
13.0321576223
 21
26.295609914
  0
LINE
  5
426
100
AcDbEntity
  8
0
100
AcDbLine
 62
7
  6
CONTINUOUS
 10
12.624067431
 20
26.450609914
 11
12.9761576223
 21
26.450609914
  0
LINE
  5
427
100
AcDbEntity
  8
0
100
AcDbLine
 62
7
  6
CONTINUOUS
 10
11.8764353286
 20
26.585609914
 11
10.7958799159
 21
26.585609914
  0
LINE
  5
428
100
AcDbEntity
  8
0
100
AcDbLine
 62
7
  6
CONTINUOUS
 10
12.7469216356
 20
27.175609914
 11
12.9761576223
 21
27.175609914
  0
LINE
  5
429
100
AcDbEntity
  8
0
100
AcDbLine
 62
7
  6
CONTINUOUS
 10
12.624067431
 20
27.900609914
 11
12.9761576223
 21
27.900609914
  0
LINE
  5
42A
100
AcDbEntity
  8
0
100
AcDbLine
 62
7
  6
CONTINUOUS
 10
11.2709076223
 20
27.9729444972
 11
11.4014076223
 21
27.9729444972
  0
LINE
  5
42B
100
AcDbEntity
  8
0
100
AcDbLine
 62
7
  6
CONTINUOUS
 10
13.0111576223
 20
28.055609914
 11
13.0321576223
 21
28.055609914
  0
LINE
  5
42C
100
AcDbEntity
  8
0
100
AcDbLine
 62
7
  6
CONTINUOUS
 10
13.2321576223
 20
28.398109914
 11
13.2591576223
 21
28.398109914
  0
LINE
  5
42D
100
AcDbEntity
  8
0
100
AcDbLine
 62
7
  6
CONTINUOUS
 10
13.4821576223
 20
28.598109914
 11
13.4591576223
 21
28.598109914
  0
ARC
  5
42E
100
AcDbEntity
  8
0
100
AcDbCircle
 62
7
  6
CONTINUOUS
 10
-3.4854260199
 20
4.0627406502
 40
15.1015836421
100
AcDbArc
 50
359.5434223371
 51
0.0001068698
  0
ARC
  5
42F
100
AcDbEntity
  8
0
100
AcDbCircle
 62
7
  6
CONTINUOUS
 10
-3.4854317755
 20
4.0627406695
 40
14.5415893978
100
AcDbArc
 50
359.5434449276
 51
0.0001109094
  0
ARC
  5
430
100
AcDbEntity
  8
0
100
AcDbCircle
 62
7
  6
CONTINUOUS
 10
-8.218843
 20
12.040609914
 40
20.175
100
AcDbArc
 50
358.8476348557
 51
5.0755073159
  0
ARC
  5
431
100
AcDbEntity
  8
0
100
AcDbCircle
 62
7
  6
CONTINUOUS
 10
10.6607816633
 20
9.064109914
 40
0.25
100
AcDbArc
 50
107.1598495005
 51
136.9739483152
  0
ARC
  5
432
100
AcDbEntity
  8
0
100
AcDbCircle
 62
7
  6
CONTINUOUS
 10
10.6471576223
 20
8.3197044022
 40
0.1
100
AcDbArc
 50
10.9557085281
 51
81.3439972277
  0
ARC
  5
433
100
AcDbEntity
  8
0
100
AcDbCircle
 62
7
  6
CONTINUOUS
 10
10.6754811241
 20
8.547609914
 40
0.0708235019
100
AcDbArc
 50
113.5729717355
 51
246.4270282645
  0
ARC
  5
434
100
AcDbEntity
  8
0
100
AcDbCircle
 62
7
  6
CONTINUOUS
 10
10.6648741573
 20
8.657893379
 40
0.017716535
100
AcDbArc
 50
90.0
 51
180.0
  0
ARC
  5
435
100
AcDbEntity
  8
0
100
AcDbCircle
 62
7
  6
CONTINUOUS
 10
10.6648741573
 20
8.436080117
 40
0.017716535
100
AcDbArc
 50
180.0
 51
261.3439998721
  0
ARC
  5
436
100
AcDbEntity
  8
0
100
AcDbCircle
 62
7
  6
CONTINUOUS
 10
10.4371576223
 20
9.2447161857
 40
0.016
100
AcDbArc
 50
0.0
 51
124.9999999998
  0
ARC
  5
437
100
AcDbEntity
  8
0
100
AcDbCircle
 62
7
  6
CONTINUOUS
 10
10.4663240844
 20
9.245609914
 40
0.016
100
AcDbArc
 50
214.6234510999
 51
316.9739483152
  0
ARC
  5
438
100
AcDbEntity
  8
0
100
AcDbCircle
 62
7
  6
CONTINUOUS
 10
10.7551528054
 20
8.340609914
 40
0.01
100
AcDbArc
 50
190.9557084214
 51
269.9999937158
  0
ARC
  5
439
100
AcDbEntity
  8
0
100
AcDbCircle
 62
7
  6
CONTINUOUS
 10
10.1881576223
 20
9.425609914
 40
0.275
100
AcDbArc
 50
55.0
 51
305.0
  0
ARC
  5
43A
100
AcDbEntity
  8
0
100
AcDbCircle
 62
7
  6
CONTINUOUS
 10
10.6607816633
 20
9.787109914
 40
0.25
100
AcDbArc
 50
223.0260516848
 51
252.8373290685
  0
ARC
  5
43B
100
AcDbEntity
  8
0
100
AcDbCircle
 62
7
  6
CONTINUOUS
 10
10.6754811241
 20
10.303609914
 40
0.0708235019
100
AcDbArc
 50
113.5729717355
 51
246.4270282645
  0
ARC
  5
43C
100
AcDbEntity
  8
0
100
AcDbCircle
 62
7
  6
CONTINUOUS
 10
10.7355001903
 20
10.2504497531
 40
0.06
100
AcDbArc
 50
273.2432014018
 51
5.0755073158
  0
ARC
  5
43D
100
AcDbEntity
  8
0
100
AcDbCircle
 62
7
  6
CONTINUOUS
 10
10.7411576223
 20
10.080609914
 40
0.04
100
AcDbArc
 50
180.0
 51
270.0
  0
ARC
  5
43E
100
AcDbEntity
  8
0
100
AcDbCircle
 62
7
  6
CONTINUOUS
 10
10.7411576223
 20
10.150609914
 40
0.04
100
AcDbArc
 50
93.2432014018
 51
180.0
  0
ARC
  5
43F
100
AcDbEntity
  8
0
100
AcDbCircle
 62
7
  6
CONTINUOUS
 10
10.6648741573
 20
10.193326449
 40
0.017716535
100
AcDbArc
 50
180.0
 51
270.0
  0
ARC
  5
440
100
AcDbEntity
  8
0
100
AcDbCircle
 62
7
  6
CONTINUOUS
 10
10.4371576223
 20
9.6065036423
 40
0.016
100
AcDbArc
 50
235.0000000002
 51
360.0
  0
ARC
  5
441
100
AcDbEntity
  8
0
100
AcDbCircle
 62
7
  6
CONTINUOUS
 10
10.4663240844
 20
9.605609914
 40
0.016
100
AcDbArc
 50
43.0260516848
 51
145.3765489001
  0
ARC
  5
442
100
AcDbEntity
  8
0
100
AcDbCircle
 62
7
  6
CONTINUOUS
 10
10.7869764136
 20
8.975609914
 40
0.05
100
AcDbArc
 50
219.3312480846
 51
270.0
  0
ARC
  5
443
100
AcDbEntity
  8
0
100
AcDbCircle
 62
7
  6
CONTINUOUS
 10
10.9811576223
 20
8.955609914
 40
0.03
100
AcDbArc
 50
270.0
 51
0.000000114
  0
ARC
  5
444
100
AcDbEntity
  8
0
100
AcDbCircle
 62
7
  6
CONTINUOUS
 10
11.3361575605
 20
9.4256098976
 40
0.6499996659
100
AcDbArc
 50
127.5165505159
 51
129.5948492819
  0
ARC
  5
445
100
AcDbEntity
  8
0
100
AcDbCircle
 62
9
  6
CONTINUOUS
 10
11.3361575324
 20
9.4256098884
 40
0.6293135951
100
AcDbArc
 50
126.7397852482
 51
127.2163944949
  0
ARC
  5
446
100
AcDbEntity
  8
0
100
AcDbCircle
 62
7
  6
CONTINUOUS
 10
10.7869764136
 20
9.875609914
 40
0.05
100
AcDbArc
 50
90.0
 51
140.6687519154
  0
ARC
  5
447
100
AcDbEntity
  8
0
100
AcDbCircle
 62
7
  6
CONTINUOUS
 10
10.9811576223
 20
9.895609914
 40
0.03
100
AcDbArc
 50
0.0000002292
 51
90.0
  0
ARC
  5
448
100
AcDbEntity
  8
0
100
AcDbCircle
 62
9
  6
CONTINUOUS
 10
6.5183234745
 20
15.9998877669
 40
1.5843450995
100
AcDbArc
 50
7.5483904243
 51
7.7309227285
  0
ARC
  5
449
100
AcDbEntity
  8
0
100
AcDbCircle
 62
7
  6
CONTINUOUS
 10
7.9874029306
 20
15.4583799682
 40
0.2729490028
100
AcDbArc
 50
17.1008470377
 51
17.5006532928
  0
ARC
  5
44A
100
AcDbEntity
  8
0
100
AcDbCircle
 62
7
  6
CONTINUOUS
 10
8.6957751387
 20
14.8323941604
 40
0.25
100
AcDbArc
 50
128.3789847991
 51
157.1367765694
  0
ARC
  5
44B
100
AcDbEntity
  8
0
100
AcDbCircle
 62
7
  6
CONTINUOUS
 10
8.0964114852
 20
15.643208948
 40
0.1660972769
100
AcDbArc
 50
20.0354900911
 51
20.2056160359
  0
ARC
  5
44C
100
AcDbEntity
  8
0
100
AcDbCircle
 62
7
  6
CONTINUOUS
 10
8.3917015941
 20
14.960609914
 40
0.08
100
AcDbArc
 50
272.2714508417
 51
337.1367765692
  0
ARC
  5
44D
100
AcDbEntity
  8
0
100
AcDbCircle
 62
7
  6
CONTINUOUS
 10
8.2137125368
 20
15.36159837
 40
0.0196850394
100
AcDbArc
 50
179.998993262
 51
224.9988567098
  0
ARC
  5
44E
100
AcDbEntity
  8
0
100
AcDbCircle
 62
7
  6
CONTINUOUS
 10
8.2218663471
 20
15.3534445597
 40
0.0196850394
100
AcDbArc
 50
224.9975411857
 51
270.0
  0
ARC
  5
44F
100
AcDbEntity
  8
0
100
AcDbCircle
 62
7
  6
CONTINUOUS
 10
8.2218663471
 20
15.4084461787
 40
0.0196850394
100
AcDbArc
 50
225.0000000002
 51
270.0
  0
ARC
  5
450
100
AcDbEntity
  8
0
100
AcDbCircle
 62
7
  6
CONTINUOUS
 10
8.2218663471
 20
15.5344304306
 40
0.0196850394
100
AcDbArc
 50
115.4026752971
 51
134.9999999998
  0
ARC
  5
451
100
AcDbEntity
  8
0
100
AcDbCircle
 62
7
  6
CONTINUOUS
 10
8.2137125368
 20
15.5262766204
 40
0.0196850394
100
AcDbArc
 50
135.0011432896
 51
180.0
  0
ARC
  5
452
100
AcDbEntity
  8
0
100
AcDbCircle
 62
7
  6
CONTINUOUS
 10
8.2137125368
 20
15.416599989
 40
0.0196850394
100
AcDbArc
 50
180.0
 51
224.9988567095
  0
ARC
  5
453
100
AcDbEntity
  8
0
100
AcDbCircle
 62
7
  6
CONTINUOUS
 10
8.2218663471
 20
15.5697027662
 40
0.0196850394
100
AcDbArc
 50
225.0000000002
 51
270.0
  0
ARC
  5
454
100
AcDbEntity
  8
0
100
AcDbCircle
 62
7
  6
CONTINUOUS
 10
8.2218663471
 20
15.6956870182
 40
0.0196850394
100
AcDbArc
 50
90.0
 51
134.9999999997
  0
ARC
  5
455
100
AcDbEntity
  8
0
100
AcDbCircle
 62
7
  6
CONTINUOUS
 10
8.2137125368
 20
15.6875332079
 40
0.0196850394
100
AcDbArc
 50
135.0011432897
 51
180.0
  0
ARC
  5
456
100
AcDbEntity
  8
0
100
AcDbCircle
 62
7
  6
CONTINUOUS
 10
8.2137125368
 20
15.5778565765
 40
0.0196850394
100
AcDbArc
 50
180.0
 51
224.9988567103
  0
ARC
  5
457
100
AcDbEntity
  8
0
100
AcDbCircle
 62
7
  6
CONTINUOUS
 10
8.1721653686
 20
15.6860047328
 40
0.0196850394
100
AcDbArc
 50
167.2907770745
 51
180.0
  0
ARC
  5
458
100
AcDbEntity
  8
0
100
AcDbCircle
 62
7
  6
CONTINUOUS
 10
8.1803191788
 20
15.5917963384
 40
0.0196850394
100
AcDbArc
 50
225.0000000001
 51
270.0
  0
ARC
  5
459
100
AcDbEntity
  8
0
100
AcDbCircle
 62
7
  6
CONTINUOUS
 10
8.1721653686
 20
15.5999501486
 40
0.0196850394
100
AcDbArc
 50
180.0
 51
224.998672795
  0
ARC
  5
45A
100
AcDbEntity
  8
0
100
AcDbCircle
 62
7
  6
CONTINUOUS
 10
8.1721653686
 20
15.6945150085
 40
0.0196850394
100
AcDbArc
 50
180.0
 51
224.9986727935
  0
ARC
  5
45B
100
AcDbEntity
  8
0
100
AcDbCircle
 62
7
  6
CONTINUOUS
 10
8.1803191788
 20
15.6863611982
 40
0.0196850394
100
AcDbArc
 50
225.0000000004
 51
270.0
  0
ARC
  5
45C
100
AcDbEntity
  8
0
100
AcDbCircle
 62
7
  6
CONTINUOUS
 10
7.9811513685
 20
16.1352952741
 40
0.246967532
100
AcDbArc
 50
0.0342742197
 51
1.2588008814
  0
ARC
  5
45D
100
AcDbEntity
  8
0
100
AcDbCircle
 62
7
  6
CONTINUOUS
 10
7.9960964783
 20
15.9096862619
 40
0.224309554
100
AcDbArc
 50
15.5086731638
 51
15.9119768457
  0
ARC
  5
45E
100
AcDbEntity
  8
0
100
AcDbCircle
 62
7
  6
CONTINUOUS
 10
8.0652111134
 20
16.0907948797
 40
0.1285161186
100
AcDbArc
 50
173.0424336458
 51
179.9830432091
  0
ARC
  5
45F
100
AcDbEntity
  8
0
100
AcDbCircle
 62
7
  6
CONTINUOUS
 10
8.0478546463
 20
16.1361533674
 40
0.0118110236
100
AcDbArc
 50
180.0
 51
224.9997468355
  0
ARC
  5
460
100
AcDbEntity
  8
0
100
AcDbCircle
 62
7
  6
CONTINUOUS
 10
8.0606209482
 20
16.1233870655
 40
0.0118110236
100
AcDbArc
 50
225.0
 51
270.0
  0
ARC
  5
461
100
AcDbEntity
  8
0
100
AcDbCircle
 62
7
  6
CONTINUOUS
 10
7.9156266953
 20
16.4678232708
 40
0.3124921671
100
AcDbArc
 50
0.0112215036
 51
0.8821195161
  0
ARC
  5
462
100
AcDbEntity
  8
0
100
AcDbCircle
 62
7
  6
CONTINUOUS
 10
7.9556520809
 20
16.4814056373
 40
0.2713662439
100
AcDbArc
 50
9.4755185355
 51
10.4351524352
  0
ARC
  5
463
100
AcDbEntity
  8
0
100
AcDbCircle
 62
7
  6
CONTINUOUS
 10
7.95056614
 20
16.4600778343
 40
0.0196850394
100
AcDbArc
 50
180.0
 51
224.9974348679
  0
ARC
  5
464
100
AcDbEntity
  8
0
100
AcDbCircle
 62
7
  6
CONTINUOUS
 10
7.9308811007
 20
16.4240851743
 40
0.0196850394
100
AcDbArc
 50
0.0039181288
 51
45.0000000001
  0
ARC
  5
465
100
AcDbEntity
  8
0
100
AcDbCircle
 62
7
  6
CONTINUOUS
 10
7.95056614
 20
16.6386132151
 40
0.0196850394
100
AcDbArc
 50
180.0
 51
224.9974348101
  0
ARC
  5
466
100
AcDbEntity
  8
0
100
AcDbCircle
 62
7
  6
CONTINUOUS
 10
7.9308811007
 20
16.6026205552
 40
0.0196850394
100
AcDbArc
 50
0.0039289499
 51
45.000000001
  0
ARC
  5
467
100
AcDbEntity
  8
0
100
AcDbCircle
 62
7
  6
CONTINUOUS
 10
7.9702511794
 20
16.387130286
 40
0.0196850394
100
AcDbArc
 50
180.0
 51
249.9999051803
  0
ARC
  5
468
100
AcDbEntity
  8
0
100
AcDbCircle
 62
7
  6
CONTINUOUS
 10
8.0478546463
 20
16.2380651003
 40
0.0118110236
100
AcDbArc
 50
180.0
 51
224.9997468348
  0
ARC
  5
469
100
AcDbEntity
  8
0
100
AcDbCircle
 62
7
  6
CONTINUOUS
 10
8.0606209482
 20
16.2252987983
 40
0.0118110236
100
AcDbArc
 50
225.0
 51
270.0
  0
ARC
  5
46A
100
AcDbEntity
  8
0
100
AcDbCircle
 62
7
  6
CONTINUOUS
 10
8.0606209482
 20
16.3434090346
 40
0.0118110236
100
AcDbArc
 50
90.0
 51
135.0
  0
ARC
  5
46B
100
AcDbEntity
  8
0
100
AcDbCircle
 62
7
  6
CONTINUOUS
 10
8.0478546463
 20
16.3306427326
 40
0.0118110236
100
AcDbArc
 50
135.0002531649
 51
180.0
  0
ARC
  5
46C
100
AcDbEntity
  8
0
100
AcDbCircle
 62
7
  6
CONTINUOUS
 10
8.0478546463
 20
16.384310818
 40
0.0118110236
100
AcDbArc
 50
180.0
 51
224.999749965
  0
ARC
  5
46D
100
AcDbEntity
  8
0
100
AcDbCircle
 62
7
  6
CONTINUOUS
 10
8.0606209482
 20
16.371544516
 40
0.0118110236
100
AcDbArc
 50
225.0000000002
 51
270.0
  0
ARC
  5
46E
100
AcDbEntity
  8
0
100
AcDbCircle
 62
7
  6
CONTINUOUS
 10
8.0606209482
 20
16.4896547523
 40
0.0118110236
100
AcDbArc
 50
90.0
 51
134.9999999998
  0
ARC
  5
46F
100
AcDbEntity
  8
0
100
AcDbCircle
 62
7
  6
CONTINUOUS
 10
8.0478546463
 20
16.4768884503
 40
0.0118110236
100
AcDbArc
 50
135.0002500351
 51
180.0
  0
ARC
  5
470
100
AcDbEntity
  8
0
100
AcDbCircle
 62
7
  6
CONTINUOUS
 10
8.0478546463
 20
16.2287309998
 40
0.0118110236
100
AcDbArc
 50
157.5002563998
 51
180.0
  0
ARC
  5
471
100
AcDbEntity
  8
0
100
AcDbCircle
 62
7
  6
CONTINUOUS
 10
8.1721653686
 20
15.9632548735
 40
0.0196850394
100
AcDbArc
 50
135.0013272118
 51
180.0
  0
ARC
  5
472
100
AcDbEntity
  8
0
100
AcDbCircle
 62
7
  6
CONTINUOUS
 10
8.1803191788
 20
15.9714086838
 40
0.0196850394
100
AcDbArc
 50
90.0
 51
134.9999999999
  0
ARC
  5
473
100
AcDbEntity
  8
0
100
AcDbCircle
 62
7
  6
CONTINUOUS
 10
8.1803191788
 20
15.8690464791
 40
0.0196850394
100
AcDbArc
 50
225.0000000001
 51
270.0
  0
ARC
  5
474
100
AcDbEntity
  8
0
100
AcDbCircle
 62
7
  6
CONTINUOUS
 10
8.1721653686
 20
15.8772002894
 40
0.0196850394
100
AcDbArc
 50
180.0
 51
224.9986727883
  0
ARC
  5
475
100
AcDbEntity
  8
0
100
AcDbCircle
 62
7
  6
CONTINUOUS
 10
8.1721653686
 20
15.7805695927
 40
0.0196850394
100
AcDbArc
 50
135.0013272065
 51
180.0
  0
ARC
  5
476
100
AcDbEntity
  8
0
100
AcDbCircle
 62
7
  6
CONTINUOUS
 10
8.1803191788
 20
15.788723403
 40
0.0196850394
100
AcDbArc
 50
90.0
 51
134.9999999996
  0
ARC
  5
477
100
AcDbEntity
  8
0
100
AcDbCircle
 62
7
  6
CONTINUOUS
 10
8.1551661529
 20
15.7698318234
 40
0.0078740157
100
AcDbArc
 50
190.1468867902
 51
249.6248379632
  0
ARC
  5
478
100
AcDbEntity
  8
0
100
AcDbCircle
 62
7
  6
CONTINUOUS
 10
8.1171124261
 20
16.0909206364
 40
0.1804161275
100
AcDbArc
 50
180.0454016304
 51
194.4391442525
  0
ARC
  5
479
100
AcDbEntity
  8
0
100
AcDbCircle
 62
7
  6
CONTINUOUS
 10
8.1721653686
 20
16.2216108753
 40
0.0196850394
100
AcDbArc
 50
135.0013272058
 51
180.0
  0
ARC
  5
47A
100
AcDbEntity
  8
0
100
AcDbCircle
 62
7
  6
CONTINUOUS
 10
8.1721653686
 20
16.1355562912
 40
0.0196850394
100
AcDbArc
 50
180.0
 51
224.9986727949
  0
ARC
  5
47B
100
AcDbEntity
  8
0
100
AcDbCircle
 62
7
  6
CONTINUOUS
 10
8.1803191788
 20
16.1274024809
 40
0.0196850394
100
AcDbArc
 50
225.0000000001
 51
270.0
  0
ARC
  5
47C
100
AcDbEntity
  8
0
100
AcDbCircle
 62
9
  6
CONTINUOUS
 10
8.250344041
 20
15.9471475938
 40
0.3783732273
100
AcDbArc
 50
124.3398522783
 51
124.8035706247
  0
ARC
  5
47D
100
AcDbEntity
  8
0
100
AcDbCircle
 62
9
  6
CONTINUOUS
 10
8.2481511724
 20
15.9503051403
 40
0.3745289107
100
AcDbArc
 50
124.8038187409
 51
124.9688983925
  0
ARC
  5
47E
100
AcDbEntity
  8
0
100
AcDbCircle
 62
7
  6
CONTINUOUS
 10
8.2431481414
 20
15.9344177085
 40
0.3705535286
100
AcDbArc
 50
124.049712239
 51
124.2862121684
  0
ARC
  5
47F
100
AcDbEntity
  8
0
100
AcDbCircle
 62
7
  6
CONTINUOUS
 10
8.2415742964
 20
15.9367270336
 40
0.3677588962
100
AcDbArc
 50
124.2862965702
 51
124.4560829865
  0
ARC
  5
480
100
AcDbEntity
  8
0
100
AcDbCircle
 62
9
  6
CONTINUOUS
 10
8.243517679
 20
15.9568921664
 40
0.3664754835
100
AcDbArc
 50
124.9654988439
 51
125.8374020376
  0
ARC
  5
481
100
AcDbEntity
  8
0
100
AcDbCircle
 62
7
  6
CONTINUOUS
 10
8.2397734069
 20
15.9393495801
 40
0.3645775519
100
AcDbArc
 50
124.4558987994
 51
124.7531144934
  0
ARC
  5
482
100
AcDbEntity
  8
0
100
AcDbCircle
 62
7
  6
CONTINUOUS
 10
8.2369007222
 20
15.9434880808
 40
0.3595397444
100
AcDbArc
 50
124.7529349418
 51
125.2946706609
  0
ARC
  5
483
100
AcDbEntity
  8
0
100
AcDbCircle
 62
9
  6
CONTINUOUS
 10
8.237778143
 20
15.9648319594
 40
0.3566784141
100
AcDbArc
 50
125.8367126282
 51
126.4743683485
  0
ARC
  5
484
100
AcDbEntity
  8
0
100
AcDbCircle
 62
9
  6
CONTINUOUS
 10
8.1921433298
 20
15.9880264837
 40
0.2023004931
100
AcDbArc
 50
137.7740233074
 51
138.1561715428
  0
ARC
  5
485
100
AcDbEntity
  8
0
100
AcDbCircle
 62
7
  6
CONTINUOUS
 10
8.2218663471
 20
15.8262249523
 40
0.0196850394
100
AcDbArc
 50
225.0000000002
 51
270.0
  0
ARC
  5
486
100
AcDbEntity
  8
0
100
AcDbCircle
 62
7
  6
CONTINUOUS
 10
8.2218663471
 20
15.9522092042
 40
0.0196850394
100
AcDbArc
 50
90.0
 51
134.9999999998
  0
ARC
  5
487
100
AcDbEntity
  8
0
100
AcDbCircle
 62
7
  6
CONTINUOUS
 10
8.2137125368
 20
15.944055394
 40
0.0196850394
100
AcDbArc
 50
135.0011432895
 51
180.0
  0
ARC
  5
488
100
AcDbEntity
  8
0
100
AcDbCircle
 62
7
  6
CONTINUOUS
 10
8.2137125368
 20
15.8343787626
 40
0.0196850394
100
AcDbArc
 50
180.0
 51
224.9988567095
  0
ARC
  5
489
100
AcDbEntity
  8
0
100
AcDbCircle
 62
7
  6
CONTINUOUS
 10
8.2552774925
 20
15.9971679175
 40
0.3599767454
100
AcDbArc
 50
127.6336997222
 51
127.8625776332
  0
ARC
  5
48A
100
AcDbEntity
  8
0
100
AcDbCircle
 62
7
  6
CONTINUOUS
 10
8.2530311198
 20
16.0000531577
 40
0.3563201357
100
AcDbArc
 50
127.8621587672
 51
128.3397705632
  0
ARC
  5
48B
100
AcDbEntity
  8
0
100
AcDbCircle
 62
7
  6
CONTINUOUS
 10
8.2491444442
 20
16.0049578915
 40
0.3500621309
100
AcDbArc
 50
128.3387924393
 51
128.997450824
  0
ARC
  5
48C
100
AcDbEntity
  8
0
100
AcDbCircle
 62
7
  6
CONTINUOUS
 10
8.246546816
 20
16.0081689028
 40
0.345931966
100
AcDbArc
 50
128.9977547174
 51
129.2959481297
  0
ARC
  5
48D
100
AcDbEntity
  8
0
100
AcDbCircle
 62
7
  6
CONTINUOUS
 10
8.2218663471
 20
16.1605311739
 40
0.0196850394
100
AcDbArc
 50
225.0000000003
 51
270.0
  0
ARC
  5
48E
100
AcDbEntity
  8
0
100
AcDbCircle
 62
7
  6
CONTINUOUS
 10
8.2137125368
 20
16.1686849842
 40
0.0196850394
100
AcDbArc
 50
180.0
 51
224.99885671
  0
ARC
  5
48F
100
AcDbEntity
  8
0
100
AcDbCircle
 62
9
  6
CONTINUOUS
 10
8.1608845415
 20
16.2279599573
 40
0.0694123499
100
AcDbArc
 50
195.4283952453
 51
196.0285165162
  0
ARC
  5
490
100
AcDbEntity
  8
0
100
AcDbCircle
 62
9
  6
CONTINUOUS
 10
8.1517197309
 20
16.3741506782
 40
0.0628795014
100
AcDbArc
 50
196.6795310394
 51
197.1213002059
  0
ARC
  5
491
100
AcDbEntity
  8
0
100
AcDbCircle
 62
9
  6
CONTINUOUS
 10
8.1456283689
 20
16.3722759683
 40
0.0565061799
100
AcDbArc
 50
197.1229639366
 51
197.7781172608
  0
ARC
  5
492
100
AcDbEntity
  8
0
100
AcDbCircle
 62
7
  6
CONTINUOUS
 10
8.2218663471
 20
16.2865154258
 40
0.0196850394
100
AcDbArc
 50
90.0
 51
134.9999999997
  0
ARC
  5
493
100
AcDbEntity
  8
0
100
AcDbCircle
 62
7
  6
CONTINUOUS
 10
8.2137125368
 20
16.2783616156
 40
0.0196850394
100
AcDbArc
 50
135.00114329
 51
180.0
  0
ARC
  5
494
100
AcDbEntity
  8
0
100
AcDbCircle
 62
7
  6
CONTINUOUS
 10
8.1721653686
 20
16.5380310636
 40
0.0196850394
100
AcDbArc
 50
135.0013272053
 51
180.0
  0
ARC
  5
495
100
AcDbEntity
  8
0
100
AcDbCircle
 62
7
  6
CONTINUOUS
 10
8.1803191788
 20
16.5461848738
 40
0.0196850394
100
AcDbArc
 50
90.0
 51
134.9999999998
  0
ARC
  5
496
100
AcDbEntity
  8
0
100
AcDbCircle
 62
7
  6
CONTINUOUS
 10
8.1803191788
 20
16.4438226691
 40
0.0196850394
100
AcDbArc
 50
225.0000000002
 51
270.0
  0
ARC
  5
497
100
AcDbEntity
  8
0
100
AcDbCircle
 62
7
  6
CONTINUOUS
 10
8.1721653686
 20
16.4519764794
 40
0.0196850394
100
AcDbArc
 50
180.0
 51
224.9986727946
  0
ARC
  5
498
100
AcDbEntity
  8
0
100
AcDbCircle
 62
7
  6
CONTINUOUS
 10
8.2218663471
 20
16.5498390145
 40
0.0196850394
100
AcDbArc
 50
224.9999999999
 51
270.0
  0
ARC
  5
499
100
AcDbEntity
  8
0
100
AcDbCircle
 62
7
  6
CONTINUOUS
 10
8.2218663471
 20
16.6758232664
 40
0.0196850394
100
AcDbArc
 50
90.0
 51
135.0000000001
  0
ARC
  5
49A
100
AcDbEntity
  8
0
100
AcDbCircle
 62
7
  6
CONTINUOUS
 10
8.2137125368
 20
16.6676694561
 40
0.0196850394
100
AcDbArc
 50
135.0011432902
 51
180.0
  0
ARC
  5
49B
100
AcDbEntity
  8
0
100
AcDbCircle
 62
7
  6
CONTINUOUS
 10
8.2137125368
 20
16.5579928247
 40
0.0196850394
100
AcDbArc
 50
180.0
 51
224.9988567098
  0
ARC
  5
49C
100
AcDbEntity
  8
0
100
AcDbCircle
 62
7
  6
CONTINUOUS
 10
8.1803191788
 20
16.2297646856
 40
0.0196850394
100
AcDbArc
 50
90.0
 51
134.9999999999
  0
ARC
  5
49D
100
AcDbEntity
  8
0
100
AcDbCircle
 62
7
  6
CONTINUOUS
 10
10.6471576223
 20
10.5315154258
 40
0.1
100
AcDbArc
 50
278.6560027723
 51
349.0442914719
  0
ARC
  5
49E
100
AcDbEntity
  8
0
100
AcDbCircle
 62
7
  6
CONTINUOUS
 10
10.6648741573
 20
10.415139711
 40
0.017716535
100
AcDbArc
 50
98.6560001279
 51
180.0
  0
ARC
  5
49F
100
AcDbEntity
  8
0
100
AcDbCircle
 62
7
  6
CONTINUOUS
 10
10.7551528054
 20
10.510609914
 40
0.01
100
AcDbArc
 50
90.0000062842
 51
169.0442915786
  0
ARC
  5
4A0
100
AcDbEntity
  8
0
100
AcDbCircle
 62
7
  6
CONTINUOUS
 10
11.1003626077
 20
15.0164281835
 40
1.9
100
AcDbArc
 50
129.1146502196
 51
167.5422489206
  0
ARC
  5
4A1
100
AcDbEntity
  8
0
100
AcDbCircle
 62
7
  6
CONTINUOUS
 10
10.7111576223
 20
16.405609914
 40
1.0
100
AcDbArc
 50
0.0
 51
90.0
  0
ARC
  5
4A2
100
AcDbEntity
  8
0
100
AcDbCircle
 62
7
  6
CONTINUOUS
 10
8.8199471971
 20
14.675609914
 40
0.45
100
AcDbArc
 50
90.0
 51
128.3789847992
  0
ARC
  5
4A3
100
AcDbEntity
  8
0
100
AcDbCircle
 62
7
  6
CONTINUOUS
 10
10.7111576223
 20
16.405609914
 40
0.25
100
AcDbArc
 50
0.0
 51
90.0
  0
ARC
  5
4A4
100
AcDbEntity
  8
0
100
AcDbCircle
 62
7
  6
CONTINUOUS
 10
9.9817015941
 20
16.646609914
 40
0.1
100
AcDbArc
 50
270.0
 51
315.9268242884
  0
ARC
  5
4A5
100
AcDbEntity
  8
0
100
AcDbCircle
 62
7
  6
CONTINUOUS
 10
9.0029960246
 20
15.200609914
 40
0.075
100
AcDbArc
 50
270.0
 51
335.9999999998
  0
ARC
  5
4A6
100
AcDbEntity
  8
0
100
AcDbCircle
 62
7
  6
CONTINUOUS
 10
10.7355001903
 20
13.830770075
 40
0.06
100
AcDbArc
 50
354.9244926841
 51
86.7567985982
  0
ARC
  5
4A7
100
AcDbEntity
  8
0
100
AcDbCircle
 62
7
  6
CONTINUOUS
 10
10.9011576223
 20
14.2803451148
 40
0.06
100
AcDbArc
 50
318.5281704494
 51
360.0
  0
ARC
  5
4A8
100
AcDbEntity
  8
0
100
AcDbCircle
 62
7
  6
CONTINUOUS
 10
10.7555390903
 20
14.100609914
 40
0.06
100
AcDbArc
 50
270.0
 51
321.0
  0
ARC
  5
4A9
100
AcDbEntity
  8
0
100
AcDbCircle
 62
7
  6
CONTINUOUS
 10
9.9617015941
 20
16.606609914
 40
0.06
100
AcDbArc
 50
180.0
 51
270.0
  0
ARC
  5
4AA
100
AcDbEntity
  8
0
100
AcDbCircle
 62
7
  6
CONTINUOUS
 10
10.0966539183
 20
16.5353176719
 40
0.06
100
AcDbArc
 50
108.0000000005
 51
135.9268242885
  0
ARC
  5
4AB
100
AcDbEntity
  8
0
100
AcDbCircle
 62
7
  6
CONTINUOUS
 10
10.2558789078
 20
16.595609914
 40
0.06
100
AcDbArc
 50
90.0
 51
138.1897285507
  0
ARC
  5
4AC
100
AcDbEntity
  8
0
100
AcDbCircle
 62
7
  6
CONTINUOUS
 10
10.7411576223
 20
13.930609914
 40
0.04
100
AcDbArc
 50
180.0
 51
266.7567985982
  0
ARC
  5
4AD
100
AcDbEntity
  8
0
100
AcDbCircle
 62
7
  6
CONTINUOUS
 10
10.7411576223
 20
14.000609914
 40
0.04
100
AcDbArc
 50
90.0
 51
180.0
  0
ARC
  5
4AE
100
AcDbEntity
  8
0
100
AcDbCircle
 62
7
  6
CONTINUOUS
 10
9.2255683538
 20
15.430609914
 40
0.02
100
AcDbArc
 50
270.0
 51
347.542248921
  0
ARC
  5
4AF
100
AcDbEntity
  8
0
100
AcDbCircle
 62
7
  6
CONTINUOUS
 10
9.1915799213
 20
15.390609914
 40
0.02
100
AcDbArc
 50
90.0
 51
155.9999999988
  0
ARC
  5
4B0
100
AcDbEntity
  8
0
100
AcDbCircle
 62
9
  6
CONTINUOUS
 10
-0.7307165248
 20
19.0845815244
 40
8.8939142067
100
AcDbArc
 50
352.8728504377
 51
353.0307169926
  0
ARC
  5
4B1
100
AcDbEntity
  8
0
100
AcDbCircle
 62
7
  6
CONTINUOUS
 10
7.8863644419
 20
16.8386726146
 40
0.3417544144
100
AcDbArc
 50
0.0003572507
 51
0.3847572261
  0
ARC
  5
4B2
100
AcDbEntity
  8
0
100
AcDbCircle
 62
7
  6
CONTINUOUS
 10
7.8868394313
 20
17.2225474162
 40
0.341279425
100
AcDbArc
 50
359.7139472696
 51
359.9996082109
  0
ARC
  5
4B3
100
AcDbEntity
  8
0
100
AcDbCircle
 62
7
  6
CONTINUOUS
 10
7.95056614
 20
16.8545890591
 40
0.0196850394
100
AcDbArc
 50
135.0025651903
 51
180.0
  0
ARC
  5
4B4
100
AcDbEntity
  8
0
100
AcDbCircle
 62
7
  6
CONTINUOUS
 10
7.9308811007
 20
16.890581719
 40
0.0196850394
100
AcDbArc
 50
314.999999999
 51
359.9960710504
  0
ARC
  5
4B5
100
AcDbEntity
  8
0
100
AcDbCircle
 62
7
  6
CONTINUOUS
 10
7.95056614
 20
16.9835170856
 40
0.0196850394
100
AcDbArc
 50
180.0
 51
224.9974348681
  0
ARC
  5
4B6
100
AcDbEntity
  8
0
100
AcDbCircle
 62
7
  6
CONTINUOUS
 10
7.95056614
 20
17.1994929296
 40
0.0196850394
100
AcDbArc
 50
135.0025651318
 51
180.0
  0
ARC
  5
4B7
100
AcDbEntity
  8
0
100
AcDbCircle
 62
7
  6
CONTINUOUS
 10
7.9308811007
 20
16.9475244257
 40
0.0196850394
100
AcDbArc
 50
0.0039181288
 51
45.0000000001
  0
ARC
  5
4B8
100
AcDbEntity
  8
0
100
AcDbCircle
 62
7
  6
CONTINUOUS
 10
7.9308811007
 20
17.2354855896
 40
0.0196850394
100
AcDbArc
 50
314.9999999999
 51
359.9960818712
  0
ARC
  5
4B9
100
AcDbEntity
  8
0
100
AcDbCircle
 62
7
  6
CONTINUOUS
 10
7.95056614
 20
17.2927494362
 40
0.0196850394
100
AcDbArc
 50
180.0
 51
224.9974348101
  0
ARC
  5
4BA
100
AcDbEntity
  8
0
100
AcDbCircle
 62
7
  6
CONTINUOUS
 10
7.9308811007
 20
17.2567567763
 40
0.0196850394
100
AcDbArc
 50
0.0039289499
 51
45.000000001
  0
ARC
  5
4BB
100
AcDbEntity
  8
0
100
AcDbCircle
 62
7
  6
CONTINUOUS
 10
7.95056614
 20
17.2066307689
 40
0.0196850394
100
AcDbArc
 50
180.0
 51
190.6595944996
  0
ARC
  5
4BC
100
AcDbEntity
  8
0
100
AcDbCircle
 62
7
  6
CONTINUOUS
 10
7.95056614
 20
16.8617268984
 40
0.0196850394
100
AcDbArc
 50
180.0
 51
190.6595944687
  0
ARC
  5
4BD
100
AcDbEntity
  8
0
100
AcDbCircle
 62
7
  6
CONTINUOUS
 10
8.0478546463
 20
17.241500347
 40
0.0118110236
100
AcDbArc
 50
180.0
 51
224.9997468347
  0
ARC
  5
4BE
100
AcDbEntity
  8
0
100
AcDbCircle
 62
7
  6
CONTINUOUS
 10
8.0478546463
 20
17.3340779794
 40
0.0118110236
100
AcDbArc
 50
135.0002531652
 51
180.0
  0
ARC
  5
4BF
100
AcDbEntity
  8
0
100
AcDbCircle
 62
7
  6
CONTINUOUS
 10
8.0478546463
 20
17.0238189683
 40
0.0118110236
100
AcDbArc
 50
180.0
 51
224.9997468346
  0
ARC
  5
4C0
100
AcDbEntity
  8
0
100
AcDbCircle
 62
7
  6
CONTINUOUS
 10
8.0478546463
 20
17.1163966007
 40
0.0118110236
100
AcDbArc
 50
135.0002531657
 51
180.0
  0
ARC
  5
4C1
100
AcDbEntity
  8
0
100
AcDbCircle
 62
7
  6
CONTINUOUS
 10
7.9165317487
 20
17.593372685
 40
0.3115871098
100
AcDbArc
 50
358.8102006208
 51
359.9931356114
  0
ARC
  5
4C2
100
AcDbEntity
  8
0
100
AcDbCircle
 62
7
  6
CONTINUOUS
 10
7.9484463809
 20
17.5810687585
 40
0.2786790932
100
AcDbArc
 50
349.5767978335
 51
350.6135101859
  0
ARC
  5
4C3
100
AcDbEntity
  8
0
100
AcDbCircle
 62
7
  6
CONTINUOUS
 10
7.9898787265
 20
17.9258268544
 40
0.2382401351
100
AcDbArc
 50
358.7184356219
 51
359.98796656
  0
ARC
  5
4C4
100
AcDbEntity
  8
0
100
AcDbCircle
 62
7
  6
CONTINUOUS
 10
8.0280183207
 20
17.757960206
 40
0.0393700787
100
AcDbArc
 50
290.0
 51
354.208879842
  0
ARC
  5
4C5
100
AcDbEntity
  8
0
100
AcDbCircle
 62
7
  6
CONTINUOUS
 10
7.95056614
 20
17.5087252802
 40
0.0196850394
100
AcDbArc
 50
135.0025651903
 51
180.0
  0
ARC
  5
4C6
100
AcDbEntity
  8
0
100
AcDbCircle
 62
7
  6
CONTINUOUS
 10
7.9308811007
 20
17.5447179402
 40
0.0196850394
100
AcDbArc
 50
314.999999999
 51
359.9960710504
  0
ARC
  5
4C7
100
AcDbEntity
  8
0
100
AcDbCircle
 62
7
  6
CONTINUOUS
 10
7.95056614
 20
17.6011419938
 40
0.0196850394
100
AcDbArc
 50
135.0025651321
 51
180.0
  0
ARC
  5
4C8
100
AcDbEntity
  8
0
100
AcDbCircle
 62
7
  6
CONTINUOUS
 10
7.9308811007
 20
17.6371346537
 40
0.0196850394
100
AcDbArc
 50
314.9999999999
 51
359.9960818712
  0
ARC
  5
4C9
100
AcDbEntity
  8
0
100
AcDbCircle
 62
7
  6
CONTINUOUS
 10
7.9702511794
 20
17.674089542
 40
0.0196850394
100
AcDbArc
 50
110.0000948198
 51
180.0
  0
ARC
  5
4CA
100
AcDbEntity
  8
0
100
AcDbCircle
 62
7
  6
CONTINUOUS
 10
8.0478546463
 20
17.982100245
 40
0.0118110236
100
AcDbArc
 50
135.0002531647
 51
180.0
  0
ARC
  5
4CB
100
AcDbEntity
  8
0
100
AcDbCircle
 62
7
  6
CONTINUOUS
 10
8.0478546463
 20
17.8568998547
 40
0.0118110236
100
AcDbArc
 50
180.0
 51
224.999746836
  0
ARC
  5
4CC
100
AcDbEntity
  8
0
100
AcDbCircle
 62
7
  6
CONTINUOUS
 10
8.0478546463
 20
17.9494774871
 40
0.0118110236
100
AcDbArc
 50
135.0002531659
 51
180.0
  0
ARC
  5
4CD
100
AcDbEntity
  8
0
100
AcDbCircle
 62
7
  6
CONTINUOUS
 10
8.0478546463
 20
17.44390308
 40
0.0118110236
100
AcDbArc
 50
180.0
 51
224.9997468355
  0
ARC
  5
4CE
100
AcDbEntity
  8
0
100
AcDbCircle
 62
7
  6
CONTINUOUS
 10
8.0478546463
 20
17.5364807124
 40
0.0118110236
100
AcDbArc
 50
135.0002531656
 51
180.0
  0
ARC
  5
4CF
100
AcDbEntity
  8
0
100
AcDbCircle
 62
9
  6
CONTINUOUS
 10
8.141877057
 20
17.3458187636
 40
0.0574980893
100
AcDbArc
 50
162.9157204486
 51
163.8669148151
  0
ARC
  5
4D0
100
AcDbEntity
  8
0
100
AcDbCircle
 62
9
  6
CONTINUOUS
 10
8.1384501001
 20
17.1297234631
 40
0.0562269279
100
AcDbArc
 50
163.694092701
 51
165.0562887522
  0
ARC
  5
4D1
100
AcDbEntity
  8
0
100
AcDbCircle
 62
7
  6
CONTINUOUS
 10
8.1721653686
 20
17.256322487
 40
0.0196850394
100
AcDbArc
 50
135.0013272053
 51
180.0
  0
ARC
  5
4D2
100
AcDbEntity
  8
0
100
AcDbCircle
 62
7
  6
CONTINUOUS
 10
8.1803191788
 20
17.2644762972
 40
0.0196850394
100
AcDbArc
 50
90.0
 51
134.9999999999
  0
ARC
  5
4D3
100
AcDbEntity
  8
0
100
AcDbCircle
 62
7
  6
CONTINUOUS
 10
8.1803191788
 20
17.1621140925
 40
0.0196850394
100
AcDbArc
 50
225.0000000001
 51
270.0
  0
ARC
  5
4D4
100
AcDbEntity
  8
0
100
AcDbCircle
 62
7
  6
CONTINUOUS
 10
8.1721653686
 20
17.1702679028
 40
0.0196850394
100
AcDbArc
 50
180.0
 51
224.998672795
  0
ARC
  5
4D5
100
AcDbEntity
  8
0
100
AcDbCircle
 62
7
  6
CONTINUOUS
 10
8.2218663471
 20
16.967617788
 40
0.0196850394
100
AcDbArc
 50
225.0000000003
 51
270.0
  0
ARC
  5
4D6
100
AcDbEntity
  8
0
100
AcDbCircle
 62
7
  6
CONTINUOUS
 10
8.2218663471
 20
17.09360204
 40
0.0196850394
100
AcDbArc
 50
90.0
 51
134.9999999997
  0
ARC
  5
4D7
100
AcDbEntity
  8
0
100
AcDbCircle
 62
7
  6
CONTINUOUS
 10
8.2137125368
 20
17.0854482297
 40
0.0196850394
100
AcDbArc
 50
135.0011432902
 51
180.0
  0
ARC
  5
4D8
100
AcDbEntity
  8
0
100
AcDbCircle
 62
7
  6
CONTINUOUS
 10
8.2137125368
 20
16.9757715983
 40
0.0196850394
100
AcDbArc
 50
180.0
 51
224.9988567098
  0
ARC
  5
4D9
100
AcDbEntity
  8
0
100
AcDbCircle
 62
7
  6
CONTINUOUS
 10
8.2218663471
 20
17.3853965616
 40
0.0196850394
100
AcDbArc
 50
225.0000000002
 51
270.0
  0
ARC
  5
4DA
100
AcDbEntity
  8
0
100
AcDbCircle
 62
7
  6
CONTINUOUS
 10
8.2137125368
 20
17.3935503719
 40
0.0196850394
100
AcDbArc
 50
180.0
 51
224.9988567095
  0
ARC
  5
4DB
100
AcDbEntity
  8
0
100
AcDbCircle
 62
7
  6
CONTINUOUS
 10
8.1803191788
 20
16.8991057355
 40
0.0196850394
100
AcDbArc
 50
90.0
 51
134.9999999998
  0
ARC
  5
4DC
100
AcDbEntity
  8
0
100
AcDbCircle
 62
7
  6
CONTINUOUS
 10
8.1803191788
 20
16.7967435308
 40
0.0196850394
100
AcDbArc
 50
225.0000000002
 51
270.0
  0
ARC
  5
4DD
100
AcDbEntity
  8
0
100
AcDbCircle
 62
7
  6
CONTINUOUS
 10
8.1721653686
 20
16.8048973411
 40
0.0196850394
100
AcDbArc
 50
180.0
 51
224.9986727949
  0
ARC
  5
4DE
100
AcDbEntity
  8
0
100
AcDbCircle
 62
7
  6
CONTINUOUS
 10
8.1721653686
 20
16.8909519253
 40
0.0196850394
100
AcDbArc
 50
135.0013272051
 51
180.0
  0
ARC
  5
4DF
100
AcDbEntity
  8
0
100
AcDbCircle
 62
7
  6
CONTINUOUS
 10
8.0606209482
 20
17.4311367781
 40
0.0118110236
100
AcDbArc
 50
224.9999999998
 51
270.0
  0
ARC
  5
4E0
100
AcDbEntity
  8
0
100
AcDbCircle
 62
7
  6
CONTINUOUS
 10
8.0606209482
 20
17.2287340451
 40
0.0118110236
100
AcDbArc
 50
224.9999999998
 51
270.0
  0
ARC
  5
4E1
100
AcDbEntity
  8
0
100
AcDbCircle
 62
7
  6
CONTINUOUS
 10
8.0606209482
 20
17.3468442813
 40
0.0118110236
100
AcDbArc
 50
90.0
 51
135.0000000002
  0
ARC
  5
4E2
100
AcDbEntity
  8
0
100
AcDbCircle
 62
7
  6
CONTINUOUS
 10
8.0606209482
 20
17.0110526664
 40
0.0118110236
100
AcDbArc
 50
225.0000000005
 51
270.0
  0
ARC
  5
4E3
100
AcDbEntity
  8
0
100
AcDbCircle
 62
7
  6
CONTINUOUS
 10
8.0606209482
 20
17.1291629026
 40
0.0118110236
100
AcDbArc
 50
90.0
 51
134.9999999995
  0
ARC
  5
4E4
100
AcDbEntity
  8
0
100
AcDbCircle
 62
9
  6
CONTINUOUS
 10
8.1419041315
 20
17.822128453
 40
0.0640863535
100
AcDbArc
 50
179.0515210628
 51
179.3768466832
  0
ARC
  5
4E5
100
AcDbEntity
  8
0
100
AcDbCircle
 62
9
  6
CONTINUOUS
 10
8.1294810113
 20
17.822245311
 40
0.0516627003
100
AcDbArc
 50
179.3565944538
 51
180.0341803169
  0
ARC
  5
4E6
100
AcDbEntity
  8
0
100
AcDbCircle
 62
7
  6
CONTINUOUS
 10
8.1803191788
 20
18.0898111442
 40
0.0196850394
100
AcDbArc
 50
225.0000000001
 51
270.0
  0
ARC
  5
4E7
100
AcDbEntity
  8
0
100
AcDbCircle
 62
7
  6
CONTINUOUS
 10
8.1721653686
 20
17.8396089527
 40
0.0196850394
100
AcDbArc
 50
180.0
 51
224.9986727883
  0
ARC
  5
4E8
100
AcDbEntity
  8
0
100
AcDbCircle
 62
7
  6
CONTINUOUS
 10
8.1803191788
 20
17.8314551424
 40
0.0196850394
100
AcDbArc
 50
225.0000000001
 51
270.0
  0
ARC
  5
4E9
100
AcDbEntity
  8
0
100
AcDbCircle
 62
7
  6
CONTINUOUS
 10
8.1803191788
 20
17.9338173471
 40
0.0196850394
100
AcDbArc
 50
90.0
 51
134.9999999999
  0
ARC
  5
4EA
100
AcDbEntity
  8
0
100
AcDbCircle
 62
7
  6
CONTINUOUS
 10
8.1721653686
 20
17.9256635369
 40
0.0196850394
100
AcDbArc
 50
135.0013272118
 51
180.0
  0
ARC
  5
4EB
100
AcDbEntity
  8
0
100
AcDbCircle
 62
7
  6
CONTINUOUS
 10
8.2218663471
 20
17.7747044022
 40
0.0196850394
100
AcDbArc
 50
225.0000000002
 51
270.0
  0
ARC
  5
4EC
100
AcDbEntity
  8
0
100
AcDbCircle
 62
7
  6
CONTINUOUS
 10
8.2137125368
 20
17.7828582125
 40
0.0196850394
100
AcDbArc
 50
180.0
 51
224.9989630351
  0
ARC
  5
4ED
100
AcDbEntity
  8
0
100
AcDbCircle
 62
7
  6
CONTINUOUS
 10
8.2137125368
 20
17.8925348439
 40
0.0196850394
100
AcDbArc
 50
135.0010369649
 51
180.0
  0
ARC
  5
4EE
100
AcDbEntity
  8
0
100
AcDbCircle
 62
7
  6
CONTINUOUS
 10
8.2218663471
 20
17.9006886542
 40
0.0196850394
100
AcDbArc
 50
90.0
 51
134.9999999998
  0
ARC
  5
4EF
100
AcDbEntity
  8
0
100
AcDbCircle
 62
7
  6
CONTINUOUS
 10
8.1721653686
 20
17.6092433486
 40
0.0196850394
100
AcDbArc
 50
135.0013272065
 51
180.0
  0
ARC
  5
4F0
100
AcDbEntity
  8
0
100
AcDbCircle
 62
7
  6
CONTINUOUS
 10
8.1721653686
 20
17.5231887645
 40
0.0196850394
100
AcDbArc
 50
180.0
 51
224.9986727935
  0
ARC
  5
4F1
100
AcDbEntity
  8
0
100
AcDbCircle
 62
7
  6
CONTINUOUS
 10
8.1803191788
 20
17.5150349542
 40
0.0196850394
100
AcDbArc
 50
225.0000000004
 51
270.0
  0
ARC
  5
4F2
100
AcDbEntity
  8
0
100
AcDbCircle
 62
7
  6
CONTINUOUS
 10
8.1803191788
 20
17.6173971589
 40
0.0196850394
100
AcDbArc
 50
90.0
 51
134.9999999996
  0
ARC
  5
4F3
100
AcDbEntity
  8
0
100
AcDbCircle
 62
7
  6
CONTINUOUS
 10
8.2218663471
 20
17.5113808136
 40
0.0196850394
100
AcDbArc
 50
90.0
 51
134.9999999998
  0
ARC
  5
4F4
100
AcDbEntity
  8
0
100
AcDbCircle
 62
7
  6
CONTINUOUS
 10
8.2137125368
 20
17.5032270033
 40
0.0196850394
100
AcDbArc
 50
135.0011432896
 51
180.0
  0
ARC
  5
4F5
100
AcDbEntity
  8
0
100
AcDbCircle
 62
9
  6
CONTINUOUS
 10
8.0870913225
 20
18.0184911693
 40
0.0118423374
100
AcDbArc
 50
310.2583431463
 51
314.2622245705
  0
ARC
  5
4F6
100
AcDbEntity
  8
0
100
AcDbCircle
 62
9
  6
CONTINUOUS
 10
8.0870966677
 20
18.0184730271
 40
0.0118256175
100
AcDbArc
 50
314.3050269972
 51
330.9168330336
  0
ARC
  5
4F7
100
AcDbEntity
  8
0
100
AcDbCircle
 62
7
  6
CONTINUOUS
 10
8.0606209482
 20
17.9948665469
 40
0.0118110236
100
AcDbArc
 50
90.0
 51
135.0000000004
  0
ARC
  5
4F8
100
AcDbEntity
  8
0
100
AcDbCircle
 62
7
  6
CONTINUOUS
 10
8.0606209482
 20
17.8441335528
 40
0.0118110236
100
AcDbArc
 50
224.9999999994
 51
270.0
  0
ARC
  5
4F9
100
AcDbEntity
  8
0
100
AcDbCircle
 62
7
  6
CONTINUOUS
 10
8.0606209482
 20
17.962243789
 40
0.0118110236
100
AcDbArc
 50
90.0
 51
135.0000000006
  0
ARC
  5
4FA
100
AcDbEntity
  8
0
100
AcDbCircle
 62
7
  6
CONTINUOUS
 10
8.0606209482
 20
17.5492470143
 40
0.0118110236
100
AcDbArc
 50
90.0
 51
135.0000000002
  0
ARC
  5
4FB
100
AcDbEntity
  8
0
100
AcDbCircle
 62
9
  6
CONTINUOUS
 10
8.0871108729
 20
18.0184612512
 40
0.0118068724
100
AcDbArc
 50
290.7636118266
 51
310.2797652932
  0
ARC
  5
4FC
100
AcDbEntity
  8
0
100
AcDbCircle
 62
9
  6
CONTINUOUS
 10
8.0871093785
 20
18.0184604963
 40
0.0118063336
100
AcDbArc
 50
269.9901527936
 51
288.0364280329
  0
ARC
  5
4FD
100
AcDbEntity
  8
0
100
AcDbCircle
 62
9
  6
CONTINUOUS
 10
8.0871458026
 20
18.0184492977
 40
0.0117709473
100
AcDbArc
 50
334.1388331835
 51
352.1201059752
  0
ARC
  5
4FE
100
AcDbEntity
  8
0
100
AcDbCircle
 62
9
  6
CONTINUOUS
 10
8.0871290038
 20
18.0184275878
 40
0.0117689688
100
AcDbArc
 50
287.9951842755
 51
290.739176641
  0
ARC
  5
4FF
100
AcDbEntity
  8
0
100
AcDbCircle
 62
9
  6
CONTINUOUS
 10
8.0871658261
 20
18.018434972
 40
0.0117466811
100
AcDbArc
 50
330.915079537
 51
334.1591090595
  0
ARC
  5
500
100
AcDbEntity
  8
0
100
AcDbCircle
 62
9
  6
CONTINUOUS
 10
8.0668973475
 20
17.823527661
 40
0.0110007297
100
AcDbArc
 50
353.1435510632
 51
355.9260021332
  0
ARC
  5
501
100
AcDbEntity
  8
0
100
AcDbCircle
 62
9
  6
CONTINUOUS
 10
8.0670669274
 20
17.8235155649
 40
0.0108307189
100
AcDbArc
 50
355.9260958037
 51
359.9873732435
  0
ARC
  5
502
100
AcDbEntity
  8
0
100
AcDbCircle
 62
7
  6
CONTINUOUS
 10
7.9884219874
 20
18.1536699581
 40
0.2322759989
100
AcDbArc
 50
344.2838736109
 51
344.5026483346
  0
ARC
  5
503
100
AcDbEntity
  8
0
100
AcDbCircle
 62
7
  6
CONTINUOUS
 10
7.9701309325
 20
18.6082321374
 40
0.2910407086
100
AcDbArc
 50
342.5547036596
 51
342.8900233127
  0
ARC
  5
504
100
AcDbEntity
  8
0
100
AcDbCircle
 62
7
  6
CONTINUOUS
 10
8.2218663471
 20
18.3655328099
 40
0.0196850394
100
AcDbArc
 50
225.0000000003
 51
270.0
  0
ARC
  5
505
100
AcDbEntity
  8
0
100
AcDbCircle
 62
7
  6
CONTINUOUS
 10
8.2137125368
 20
18.3736866202
 40
0.0196850394
100
AcDbArc
 50
180.0
 51
224.99885671
  0
ARC
  5
506
100
AcDbEntity
  8
0
100
AcDbCircle
 62
7
  6
CONTINUOUS
 10
8.2218663471
 20
18.1090106238
 40
0.0196850394
100
AcDbArc
 50
225.0000000002
 51
270.0
  0
ARC
  5
507
100
AcDbEntity
  8
0
100
AcDbCircle
 62
7
  6
CONTINUOUS
 10
8.2218663471
 20
18.2349948758
 40
0.0196850394
100
AcDbArc
 50
90.0
 51
134.9999999998
  0
ARC
  5
508
100
AcDbEntity
  8
0
100
AcDbCircle
 62
7
  6
CONTINUOUS
 10
8.2137125368
 20
18.2268410655
 40
0.0196850394
100
AcDbArc
 50
135.0011432895
 51
180.0
  0
ARC
  5
509
100
AcDbEntity
  8
0
100
AcDbCircle
 62
7
  6
CONTINUOUS
 10
8.2137125368
 20
18.1171644341
 40
0.0196850394
100
AcDbArc
 50
180.0
 51
224.9988567094
  0
ARC
  5
50A
100
AcDbEntity
  8
0
100
AcDbCircle
 62
7
  6
CONTINUOUS
 10
8.1803191788
 20
18.192173349
 40
0.0196850394
100
AcDbArc
 50
90.0
 51
134.9999999999
  0
ARC
  5
50B
100
AcDbEntity
  8
0
100
AcDbCircle
 62
7
  6
CONTINUOUS
 10
8.1721653686
 20
18.0979649545
 40
0.0196850394
100
AcDbArc
 50
180.0
 51
224.998672795
  0
ARC
  5
50C
100
AcDbEntity
  8
0
100
AcDbCircle
 62
7
  6
CONTINUOUS
 10
8.1721653686
 20
18.1840195387
 40
0.0196850394
100
AcDbArc
 50
135.0013272058
 51
180.0
  0
ARC
  5
50D
100
AcDbEntity
  8
0
100
AcDbCircle
 62
7
  6
CONTINUOUS
 10
8.1721653686
 20
18.2806502354
 40
0.0196850394
100
AcDbArc
 50
180.0
 51
224.9986727946
  0
ARC
  5
50E
100
AcDbEntity
  8
0
100
AcDbCircle
 62
7
  6
CONTINUOUS
 10
8.1803191788
 20
18.2724964251
 40
0.0196850394
100
AcDbArc
 50
225.0000000002
 51
270.0
  0
ARC
  5
50F
100
AcDbEntity
  8
0
100
AcDbCircle
 62
7
  6
CONTINUOUS
 10
8.1803191788
 20
18.3748586298
 40
0.0196850394
100
AcDbArc
 50
90.0
 51
134.9999999998
  0
ARC
  5
510
100
AcDbEntity
  8
0
100
AcDbCircle
 62
7
  6
CONTINUOUS
 10
8.1721653686
 20
18.3667048195
 40
0.0196850394
100
AcDbArc
 50
135.0013272053
 51
180.0
  0
ARC
  5
511
100
AcDbEntity
  8
0
100
AcDbCircle
 62
7
  6
CONTINUOUS
 10
8.1721653686
 20
18.3752150952
 40
0.0196850394
100
AcDbArc
 50
180.0
 51
192.7092229253
  0
ARC
  5
512
100
AcDbEntity
  8
0
100
AcDbCircle
 62
7
  6
CONTINUOUS
 10
8.1551661529
 20
18.2913880047
 40
0.0078740157
100
AcDbArc
 50
110.3751729783
 51
169.8531132105
  0
ARC
  5
513
100
AcDbEntity
  8
0
100
AcDbCircle
 62
7
  6
CONTINUOUS
 10
8.098214962
 20
18.4173816055
 40
0.1641889436
100
AcDbArc
 50
339.7608445228
 51
339.9780861391
  0
ARC
  5
514
100
AcDbEntity
  8
0
100
AcDbCircle
 62
7
  6
CONTINUOUS
 10
8.2218663471
 20
18.5267893974
 40
0.0196850394
100
AcDbArc
 50
224.9999999999
 51
244.5973246504
  0
ARC
  5
515
100
AcDbEntity
  8
0
100
AcDbCircle
 62
7
  6
CONTINUOUS
 10
8.2218663471
 20
18.6527736494
 40
0.0196850394
100
AcDbArc
 50
90.0
 51
135.0000000001
  0
ARC
  5
516
100
AcDbEntity
  8
0
100
AcDbCircle
 62
7
  6
CONTINUOUS
 10
8.2137125368
 20
18.6446198391
 40
0.0196850394
100
AcDbArc
 50
135.0011432902
 51
180.0
  0
ARC
  5
517
100
AcDbEntity
  8
0
100
AcDbCircle
 62
7
  6
CONTINUOUS
 10
8.2137125368
 20
18.5349432077
 40
0.0196850394
100
AcDbArc
 50
180.0
 51
224.9988567098
  0
ARC
  5
518
100
AcDbEntity
  8
0
100
AcDbCircle
 62
7
  6
CONTINUOUS
 10
8.2218663471
 20
18.4915170619
 40
0.0196850394
100
AcDbArc
 50
90.0
 51
134.9999999997
  0
ARC
  5
519
100
AcDbEntity
  8
0
100
AcDbCircle
 62
7
  6
CONTINUOUS
 10
8.2137125368
 20
18.4833632516
 40
0.0196850394
100
AcDbArc
 50
135.00114329
 51
180.0
  0
ARC
  5
51A
100
AcDbEntity
  8
0
100
AcDbCircle
 62
7
  6
CONTINUOUS
 10
8.2137125368
 20
18.6996214581
 40
0.0196850394
100
AcDbArc
 50
135.0011432902
 51
180.001006738
  0
ARC
  5
51B
100
AcDbEntity
  8
0
100
AcDbCircle
 62
7
  6
CONTINUOUS
 10
8.2218663471
 20
18.7077752684
 40
0.0196850394
100
AcDbArc
 50
90.0
 51
135.0024588143
  0
ARC
  5
51C
100
AcDbEntity
  8
0
100
AcDbCircle
 62
7
  6
CONTINUOUS
 10
8.1721653686
 20
18.4612696794
 40
0.0196850394
100
AcDbArc
 50
135.0013272051
 51
180.0
  0
ARC
  5
51D
100
AcDbEntity
  8
0
100
AcDbCircle
 62
7
  6
CONTINUOUS
 10
8.1803191788
 20
18.4694234897
 40
0.0196850394
100
AcDbArc
 50
90.0
 51
134.9999999998
  0
ARC
  5
51E
100
AcDbEntity
  8
0
100
AcDbCircle
 62
7
  6
CONTINUOUS
 10
8.3917015941
 20
19.100609914
 40
0.08
100
AcDbArc
 50
22.8632234308
 51
87.7285491583
  0
ARC
  5
51F
100
AcDbEntity
  8
0
100
AcDbCircle
 62
7
  6
CONTINUOUS
 10
9.2255683538
 20
18.630609914
 40
0.02
100
AcDbArc
 50
12.457751079
 51
90.0
  0
ARC
  5
520
100
AcDbEntity
  8
0
100
AcDbCircle
 62
7
  6
CONTINUOUS
 10
9.1915799213
 20
18.670609914
 40
0.02
100
AcDbArc
 50
204.0000000012
 51
270.0
  0
ARC
  5
521
100
AcDbEntity
  8
0
100
AcDbCircle
 62
7
  6
CONTINUOUS
 10
8.8199471971
 20
19.385609914
 40
0.45
100
AcDbArc
 50
231.6210152008
 51
270.0
  0
ARC
  5
522
100
AcDbEntity
  8
0
100
AcDbCircle
 62
7
  6
CONTINUOUS
 10
8.6957751387
 20
19.2288256676
 40
0.25
100
AcDbArc
 50
202.8632234306
 51
231.6210152009
  0
ARC
  5
523
100
AcDbEntity
  8
0
100
AcDbCircle
 62
7
  6
CONTINUOUS
 10
9.0029960246
 20
18.860609914
 40
0.075
100
AcDbArc
 50
24.0000000002
 51
90.0
  0
ARC
  5
524
100
AcDbEntity
  8
0
100
AcDbCircle
 62
7
  6
CONTINUOUS
 10
10.4868644741
 20
17.030609914
 40
2.5590551181
100
AcDbArc
 50
174.5049555658
 51
175.9886462846
  0
ARC
  5
525
100
AcDbEntity
  8
0
100
AcDbCircle
 62
7
  6
CONTINUOUS
 10
10.4868644741
 20
17.030609914
 40
2.5590551181
100
AcDbArc
 50
177.3528405073
 51
183.7405671051
  0
ARC
  5
526
100
AcDbEntity
  8
0
100
AcDbCircle
 62
7
  6
CONTINUOUS
 10
9.9817015941
 20
17.414609914
 40
0.1
100
AcDbArc
 50
44.0731757116
 51
90.0
  0
ARC
  5
527
100
AcDbEntity
  8
0
100
AcDbCircle
 62
7
  6
CONTINUOUS
 10
10.2558789078
 20
17.465609914
 40
0.06
100
AcDbArc
 50
221.8103698099
 51
270.0
  0
ARC
  5
528
100
AcDbEntity
  8
0
100
AcDbCircle
 62
7
  6
CONTINUOUS
 10
9.9617015941
 20
17.454609914
 40
0.06
100
AcDbArc
 50
90.0
 51
180.0
  0
ARC
  5
529
100
AcDbEntity
  8
0
100
AcDbCircle
 62
7
  6
CONTINUOUS
 10
10.0966539183
 20
17.5259021562
 40
0.06
100
AcDbArc
 50
224.0731757115
 51
251.9999999995
  0
ARC
  5
52A
100
AcDbEntity
  8
0
100
AcDbCircle
 62
7
  6
CONTINUOUS
 10
11.1003626077
 20
19.0447916445
 40
1.9
100
AcDbArc
 50
192.4577510794
 51
230.8853497804
  0
ARC
  5
52B
100
AcDbEntity
  8
0
100
AcDbCircle
 62
7
  6
CONTINUOUS
 10
10.3885244565
 20
42.9095276659
 40
32.9792955772
100
AcDbArc
 50
271.7554793654
 51
271.9098391352
  0
ARC
  5
52C
100
AcDbEntity
  8
0
100
AcDbCircle
 62
7
  6
CONTINUOUS
 10
11.3361576223
 20
-8.324390086
 40
0.8
100
AcDbArc
 50
307.1366333054
 51
320.0682239618
  0
ARC
  5
52D
100
AcDbEntity
  8
0
100
AcDbCircle
 62
7
  6
CONTINUOUS
 10
11.3361576223
 20
-8.324390086
 40
0.8
100
AcDbArc
 50
132.4811128754
 51
265.2082143272
  0
ARC
  5
52E
100
AcDbEntity
  8
0
100
AcDbCircle
 62
7
  6
CONTINUOUS
 10
11.3361576223
 20
-8.324390086
 40
0.8
100
AcDbArc
 50
39.9317760382
 51
47.5188871246
  0
ARC
  5
52F
100
AcDbEntity
  8
0
100
AcDbCircle
 62
7
  6
CONTINUOUS
 10
12.1787657971
 20
-7.3631241279
 40
0.503
100
AcDbArc
 50
242.8972289464
 51
288.8269286616
  0
ARC
  5
530
100
AcDbEntity
  8
0
100
AcDbCircle
 62
7
  6
CONTINUOUS
 10
12.1787657971
 20
-9.2856560441
 40
0.503
100
AcDbArc
 50
68.71387964
 51
117.1027710536
  0
ARC
  5
531
100
AcDbEntity
  8
0
100
AcDbCircle
 62
7
  6
CONTINUOUS
 10
13.4591576223
 20
-9.546890086
 40
0.2
100
AcDbArc
 50
180.0
 51
270.0
  0
ARC
  5
532
100
AcDbEntity
  8
0
100
AcDbCircle
 62
7
  6
CONTINUOUS
 10
13.4591576223
 20
-7.101890086
 40
0.2
100
AcDbArc
 50
90.0
 51
180.0
  0
ARC
  5
533
100
AcDbEntity
  8
0
100
AcDbCircle
 62
7
  6
CONTINUOUS
 10
13.2321576223
 20
-7.301890086
 40
0.2
100
AcDbArc
 50
90.0
 51
180.0
  0
ARC
  5
534
100
AcDbEntity
  8
0
100
AcDbCircle
 62
7
  6
CONTINUOUS
 10
13.2321576223
 20
-9.346890086
 40
0.2
100
AcDbArc
 50
180.0
 51
270.0
  0
ARC
  5
535
100
AcDbEntity
  8
0
100
AcDbCircle
 62
7
  6
CONTINUOUS
 10
13.0111576223
 20
-7.479390086
 40
0.035
100
AcDbArc
 50
90.0
 51
180.0000055187
  0
ARC
  5
536
100
AcDbEntity
  8
0
100
AcDbCircle
 62
7
  6
CONTINUOUS
 10
13.0111576223
 20
-9.169390086
 40
0.035
100
AcDbArc
 50
179.9999944813
 51
270.0
  0
ARC
  5
537
100
AcDbEntity
  8
0
100
AcDbCircle
 62
7
  6
CONTINUOUS
 10
11.9421576223
 20
10.837109914
 40
0.8
100
AcDbArc
 50
306.8698976458
 51
316.6425274094
  0
ARC
  5
538
100
AcDbEntity
  8
0
100
AcDbCircle
 62
7
  6
CONTINUOUS
 10
11.9421576223
 20
10.837109914
 40
0.8
100
AcDbArc
 50
43.3574725907
 51
233.1301023542
  0
ARC
  5
539
100
AcDbEntity
  8
0
100
AcDbCircle
 62
7
  6
CONTINUOUS
 10
11.3361730739
 20
9.4256150416
 40
0.7600155068
100
AcDbArc
 50
180.0003865521
 51
219.3308088089
  0
ARC
  5
53A
100
AcDbEntity
  8
0
100
AcDbCircle
 62
7
  6
CONTINUOUS
 10
11.3361576223
 20
9.425609914
 40
0.76
100
AcDbArc
 50
140.6687519154
 51
180.0
  0
ARC
  5
53B
100
AcDbEntity
  8
0
100
AcDbCircle
 62
7
  6
CONTINUOUS
 10
11.3361576223
 20
9.425609914
 40
0.6928608635
100
AcDbArc
 50
226.2316353395
 51
233.2749244059
  0
ARC
  5
53C
100
AcDbEntity
  8
0
100
AcDbCircle
 62
7
  6
CONTINUOUS
 10
11.3361576223
 20
9.425609914
 40
0.6928608635
100
AcDbArc
 50
121.846133947
 51
133.7694418908
  0
ARC
  5
53D
100
AcDbEntity
  8
0
100
AcDbCircle
 62
7
  6
CONTINUOUS
 10
12.7527240807
 20
10.126609914
 40
0.28
100
AcDbArc
 50
34.974673615
 51
144.8349182041
  0
ARC
  5
53E
100
AcDbEntity
  8
0
100
AcDbCircle
 62
7
  6
CONTINUOUS
 10
12.7527240807
 20
11.547609914
 40
0.28
100
AcDbArc
 50
215.1650817959
 51
325.0253263796
  0
ARC
  5
53F
100
AcDbEntity
  8
0
100
AcDbCircle
 62
7
  6
CONTINUOUS
 10
12.4841576223
 20
9.425609914
 40
0.275
100
AcDbArc
 50
254.591078796
 51
108.4758532797
  0
ARC
  5
540
100
AcDbEntity
  8
0
100
AcDbCircle
 62
7
  6
CONTINUOUS
 10
12.2533865063
 20
8.9729100934
 40
0.2116415188
100
AcDbArc
 50
299.6162258006
 51
303.2586263012
  0
ARC
  5
541
100
AcDbEntity
  8
0
100
AcDbCircle
 62
7
  6
CONTINUOUS
 10
13.1695075617
 20
11.317109914
 40
0.2
100
AcDbArc
 50
145.7711336722
 51
159.5126853897
  0
ARC
  5
542
100
AcDbEntity
  8
0
100
AcDbCircle
 62
7
  6
CONTINUOUS
 10
13.1695075617
 20
10.357109914
 40
0.2
100
AcDbArc
 50
200.4873146169
 51
214.2288663278
  0
ARC
  5
543
100
AcDbEntity
  8
0
100
AcDbCircle
 62
7
  6
CONTINUOUS
 10
13.3321576223
 20
10.134724728
 40
0.13
100
AcDbArc
 50
180.0000000166
 51
265.5882742142
  0
ARC
  5
544
100
AcDbEntity
  8
0
100
AcDbCircle
 62
7
  6
CONTINUOUS
 10
13.3321576223
 20
11.5394951001
 40
0.13
100
AcDbArc
 50
94.4117257858
 51
179.9999999834
  0
ARC
  5
545
100
AcDbEntity
  8
0
100
AcDbCircle
 62
7
  6
CONTINUOUS
 10
13.4521576223
 20
9.967109914
 40
0.13
100
AcDbArc
 50
180.0
 51
270.0
  0
ARC
  5
546
100
AcDbEntity
  8
0
100
AcDbCircle
 62
7
  6
CONTINUOUS
 10
13.4521576223
 20
11.707109914
 40
0.13
100
AcDbArc
 50
90.0
 51
180.0
  0
ARC
  5
547
100
AcDbEntity
  8
0
100
AcDbCircle
 62
7
  6
CONTINUOUS
 10
11.3871576223
 20
9.537109914
 40
0.1
100
AcDbArc
 50
270.0
 51
360.0
  0
ARC
  5
548
100
AcDbEntity
  8
0
100
AcDbCircle
 62
7
  6
CONTINUOUS
 10
12.4971576223
 20
9.537109914
 40
0.1
100
AcDbArc
 50
180.0
 51
270.0
  0
ARC
  5
549
100
AcDbEntity
  8
0
100
AcDbCircle
 62
7
  6
CONTINUOUS
 10
11.9368150543
 20
13.830770075
 40
0.06
100
AcDbArc
 50
93.2432014019
 51
185.0755073159
  0
ARC
  5
54A
100
AcDbEntity
  8
0
100
AcDbCircle
 62
7
  6
CONTINUOUS
 10
11.9167761542
 20
14.100609914
 40
0.06
100
AcDbArc
 50
219.0
 51
270.0
  0
ARC
  5
54B
100
AcDbEntity
  8
0
100
AcDbCircle
 62
7
  6
CONTINUOUS
 10
11.7711576223
 20
14.2803451146
 40
0.06
100
AcDbArc
 50
180.0
 51
221.4718321501
  0
ARC
  5
54C
100
AcDbEntity
  8
0
100
AcDbCircle
 62
7
  6
CONTINUOUS
 10
11.9311576223
 20
13.930609914
 40
0.04
100
AcDbArc
 50
273.2432014018
 51
360.0
  0
ARC
  5
54D
100
AcDbEntity
  8
0
100
AcDbCircle
 62
7
  6
CONTINUOUS
 10
11.9311576223
 20
14.000609914
 40
0.04
100
AcDbArc
 50
0.0
 51
90.0
  0
ARC
  5
54E
100
AcDbEntity
  8
0
100
AcDbCircle
 62
7
  6
CONTINUOUS
 10
30.8911582445
 20
12.040609914
 40
20.175
100
AcDbArc
 50
174.9244926841
 51
185.0755073159
  0
ARC
  5
54F
100
AcDbEntity
  8
0
100
AcDbCircle
 62
7
  6
CONTINUOUS
 10
15.1997036249
 20
17.030609914
 40
7.1691060898
100
AcDbArc
 50
173.6126430217
 51
174.208879842
  0
ARC
  5
550
100
AcDbEntity
  8
0
100
AcDbCircle
 62
7
  6
CONTINUOUS
 10
15.1997036249
 20
17.030609914
 40
7.1691060898
100
AcDbArc
 50
170.6768182409
 51
172.097905872
  0
ARC
  5
551
100
AcDbEntity
  8
0
100
AcDbCircle
 62
7
  6
CONTINUOUS
 10
15.1997036248
 20
17.030609914
 40
7.1691060898
100
AcDbArc
 50
187.3617183163
 51
189.3231817588
  0
ARC
  5
552
100
AcDbEntity
  8
0
100
AcDbCircle
 62
7
  6
CONTINUOUS
 10
15.1997389356
 20
17.0306099144
 40
7.1643816812
100
AcDbArc
 50
194.2898330329
 51
194.9326914327
  0
ARC
  5
553
100
AcDbEntity
  8
0
100
AcDbCircle
 62
7
  6
CONTINUOUS
 10
15.1997389356
 20
17.0306099144
 40
7.1643816812
100
AcDbArc
 50
165.0673085672
 51
165.7101669722
  0
ARC
  5
554
100
AcDbEntity
  8
0
100
AcDbCircle
 62
7
  6
CONTINUOUS
 10
11.3361576223
 20
27.175609914
 40
0.8
100
AcDbArc
 50
39.9317760382
 51
85.3216160604
  0
ARC
  5
555
100
AcDbEntity
  8
0
100
AcDbCircle
 62
7
  6
CONTINUOUS
 10
11.3361576223
 20
27.175609914
 40
0.8
100
AcDbArc
 50
94.6783839396
 51
227.5188871246
  0
ARC
  5
556
100
AcDbEntity
  8
0
100
AcDbCircle
 62
7
  6
CONTINUOUS
 10
11.3361576223
 20
27.175609914
 40
0.8
100
AcDbArc
 50
312.4811128754
 51
320.0682239618
  0
ARC
  5
557
100
AcDbEntity
  8
0
100
AcDbCircle
 62
7
  6
CONTINUOUS
 10
12.1787657971
 20
26.2143439559
 40
0.503
100
AcDbArc
 50
30.370345852
 51
117.1027710536
  0
ARC
  5
558
100
AcDbEntity
  8
0
100
AcDbCircle
 62
7
  6
CONTINUOUS
 10
12.1787657971
 20
28.1368758721
 40
0.503
100
AcDbArc
 50
242.8972289464
 51
329.629654148
  0
ARC
  5
559
100
AcDbEntity
  8
0
100
AcDbCircle
 62
7
  6
CONTINUOUS
 10
12.9147132636
 20
26.645609914
 40
0.35
100
AcDbArc
 50
210.370345541
 51
213.8584366591
  0
ARC
  5
55A
100
AcDbEntity
  8
0
100
AcDbCircle
 62
7
  6
CONTINUOUS
 10
12.9147132636
 20
27.705609914
 40
0.35
100
AcDbArc
 50
146.1415633409
 51
149.629654459
  0
ARC
  5
55B
100
AcDbEntity
  8
0
100
AcDbCircle
 62
7
  6
CONTINUOUS
 10
13.4591576223
 20
25.953109914
 40
0.2
100
AcDbArc
 50
180.0
 51
270.0
  0
ARC
  5
55C
100
AcDbEntity
  8
0
100
AcDbCircle
 62
7
  6
CONTINUOUS
 10
13.4591576223
 20
28.398109914
 40
0.2
100
AcDbArc
 50
90.0
 51
180.0
  0
ARC
  5
55D
100
AcDbEntity
  8
0
100
AcDbCircle
 62
7
  6
CONTINUOUS
 10
13.2321576223
 20
28.198109914
 40
0.2
100
AcDbArc
 50
90.0
 51
180.0
  0
ARC
  5
55E
100
AcDbEntity
  8
0
100
AcDbCircle
 62
7
  6
CONTINUOUS
 10
13.2321576223
 20
26.153109914
 40
0.2
100
AcDbArc
 50
180.0
 51
270.0
  0
ARC
  5
55F
100
AcDbEntity
  8
0
100
AcDbCircle
 62
7
  6
CONTINUOUS
 10
13.0111576223
 20
26.330609914
 40
0.035
100
AcDbArc
 50
179.9999944813
 51
270.0
  0
ARC
  5
560
100
AcDbEntity
  8
0
100
AcDbCircle
 62
7
  6
CONTINUOUS
 10
13.0111576223
 20
28.020609914
 40
0.035
100
AcDbArc
 50
90.0
 51
180.0000055187
  0
SPLINE
  5
561
100
AcDbEntity
  8
0
100
AcDbSpline
 62
7
  6
CONTINUOUS
 70
0
 71
3
 72
13
 73
9
 74
0
 42
0.0000001
 43
0.0000001
 44
0.0000000001
 40
0.0
 40
0.0
 40
0.0
 40
0.0
 40
0.3230479268
 40
0.5911183977
 40
0.7067500257
 40
0.811887546
 40
0.9086828249
 40
1.0
 40
1.0
 40
1.0
 40
1.0
 10
8.256765354
 20
17.7594710606
 30
0.0
 10
8.2562906986
 20
17.7587980918
 30
0.0
 10
8.2553635808
 20
17.7576060024
 30
0.0
 10
8.2540562198
 20
17.7563497744
 30
0.0
 10
8.2530216471
 20
17.7556496888
 30
0.0
 10
8.2522931841
 20
17.7552895864
 30
0.0
 10
8.2515744964
 20
17.7550708231
 30
0.0
 10
8.2510938103
 20
17.7550203453
 30
0.0
 10
8.2508610229
 20
17.7550204838
 30
0.0
  0
SPLINE
  5
562
100
AcDbEntity
  8
0
100
AcDbSpline
 62
7
  6
CONTINUOUS
 70
0
 71
3
 72
11
 73
7
 74
0
 42
0.0000001
 43
0.0000001
 44
0.0000000001
 40
0.0
 40
0.0
 40
0.0
 40
0.0
 40
0.2885076622
 40
0.5549217022
 40
0.7933781846
 40
1.0
 40
1.0
 40
1.0
 40
1.0
 10
8.2281188563
 20
16.4678844731
 30
0.0
 10
8.2281188563
 20
16.4649353272
 30
0.0
 10
8.2280342933
 20
16.4592624105
 30
0.0
 10
8.2276371656
 20
16.451160217
 30
0.0
 10
8.2269809202
 20
16.4439148476
 30
0.0
 10
8.2263361498
 20
16.4394075333
 30
0.0
 10
8.2259559886
 20
16.437329925
 30
0.0
  0
SPLINE
  5
563
100
AcDbEntity
  8
0
100
AcDbSpline
 62
7
  6
CONTINUOUS
 70
0
 71
3
 72
16
 73
12
 74
0
 42
0.0000001
 43
0.0000001
 44
0.0000000001
 40
0.0
 40
0.0
 40
0.0
 40
0.0
 40
0.1989288818
 40
0.3756121375
 40
0.5296916078
 40
0.6611177809
 40
0.7706286869
 40
0.8602922221
 40
0.9341696315
 40
0.9675136273
 40
1.0
 40
1.0
 40
1.0
 40
1.0
 10
8.2259559886
 20
16.437329925
 30
0.0
 10
8.2257704832
 20
16.4363161247
 30
0.0
 10
8.2253829531
 20
16.4344083021
 30
0.0
 10
8.2247015452
 20
16.4317485179
 30
0.0
 10
8.2239589609
 20
16.4294697572
 30
0.0
 10
8.2231595443
 20
16.4275822086
 30
0.0
 10
8.2223040575
 20
16.426091479
 30
0.0
 10
8.2213941985
 20
16.4249963349
 30
0.0
 10
8.2205418547
 20
16.4243991576
 30
0.0
 10
8.2198490739
 20
16.4241736293
 30
0.0
 10
8.2195068865
 20
16.4241378309
 30
0.0
 10
8.2193385776
 20
16.4241379496
 30
0.0
  0
SPLINE
  5
564
100
AcDbEntity
  8
0
100
AcDbSpline
 62
7
  6
CONTINUOUS
 70
0
 71
3
 72
15
 73
11
 74
0
 42
0.0000001
 43
0.0000001
 44
0.0000000001
 40
0.0
 40
0.0
 40
0.0
 40
0.0
 40
0.1446870914
 40
0.2889591088
 40
0.4297416837
 40
0.5645244252
 40
0.6909618176
 40
0.806904425
 40
0.9104046012
 40
1.0
 40
1.0
 40
1.0
 40
1.0
 10
8.228114603
 20
17.2208435646
 30
0.0
 10
8.2280983601
 20
17.2175857144
 30
0.0
 10
8.2279742419
 20
17.2110794948
 30
0.0
 10
8.2275277293
 20
17.2014122393
 30
0.0
 10
8.2268271624
 20
17.1919835373
 30
0.0
 10
8.2258907422
 20
17.1829788249
 30
0.0
 10
8.2247360866
 20
17.1745635325
 30
0.0
 10
8.2233909211
 20
17.166890113
 30
0.0
 10
8.2218794261
 20
17.1600952444
 30
0.0
 10
8.2206940411
 20
17.1559077253
 30
0.0
 10
8.2200615802
 20
17.1539920261
 30
0.0
  0
SPLINE
  5
565
100
AcDbEntity
  8
0
100
AcDbSpline
 62
7
  6
CONTINUOUS
 70
0
 71
3
 72
15
 73
11
 74
0
 42
0.0000001
 43
0.0000001
 44
0.0000000001
 40
0.0
 40
0.0
 40
0.0
 40
0.0
 40
0.1915598706
 40
0.3629762036
 40
0.5140850741
 40
0.6450014597
 40
0.7564093974
 40
0.8501007282
 40
0.929405869
 40
1.0
 40
1.0
 40
1.0
 40
1.0
 10
8.2200615802
 20
17.1539920261
 30
0.0
 10
8.2197669996
 20
17.153099753
 30
0.0
 10
8.2191739562
 20
17.1514201215
 30
0.0
 10
8.2182101422
 20
17.1490883809
 30
0.0
 10
8.2172262014
 20
17.1470913566
 30
0.0
 10
8.216226746
 20
17.1454368151
 30
0.0
 10
8.2152137778
 20
17.1441303184
 30
0.0
 10
8.2141862269
 20
17.1431742619
 30
0.0
 10
8.2131365515
 20
17.1425741187
 30
0.0
 10
8.2123971566
 20
17.1424291774
 30
0.0
 10
8.212050877
 20
17.142429063
 30
0.0
  0
SPLINE
  5
566
100
AcDbEntity
  8
0
100
AcDbSpline
 62
7
  6
CONTINUOUS
 70
0
 71
3
 72
11
 73
7
 74
0
 42
0.0000001
 43
0.0000001
 44
0.0000000001
 40
0.0
 40
0.0
 40
0.0
 40
0.0
 40
0.2510262293
 40
0.5070822157
 40
0.7594859896
 40
1.0
 40
1.0
 40
1.0
 40
1.0
 10
8.2280516792
 20
17.5869027581
 30
0.0
 10
8.2279635176
 20
17.5825914649
 30
0.0
 10
8.227619536
 20
17.5738852581
 30
0.0
 10
8.2266574384
 20
17.5608717403
 30
0.0
 10
8.2252755393
 20
17.5480777115
 30
0.0
 10
8.2240683036
 20
17.5396942976
 30
0.0
 10
8.2233941411
 20
17.5356180581
 30
0.0
  0
SPLINE
  5
567
100
AcDbEntity
  8
0
100
AcDbSpline
 62
7
  6
CONTINUOUS
 70
0
 71
3
 72
9
 73
5
 74
0
 42
0.0000001
 43
0.0000001
 44
0.0000000001
 40
0.0
 40
0.0
 40
0.0
 40
0.0
 40
0.5325373741
 40
1.0
 40
1.0
 40
1.0
 40
1.0
 10
8.2281188563
 20
16.1354430096
 30
0.0
 10
8.2281188563
 20
16.1330854782
 30
0.0
 10
8.2280477983
 20
16.128658104
 30
0.0
 10
8.227795041
 20
16.1242362519
 30
0.0
 10
8.2276148777
 20
16.1221746623
 30
0.0
  0
SPLINE
  5
568
100
AcDbEntity
  8
0
100
AcDbSpline
 62
7
  6
CONTINUOUS
 70
0
 71
3
 72
17
 73
13
 74
0
 42
0.0000001
 43
0.0000001
 44
0.0000000001
 40
0.0
 40
0.0
 40
0.0
 40
0.0
 40
0.2070648518
 40
0.3899500005
 40
0.548120557
 40
0.6813001711
 40
0.7899262851
 40
0.8757017336
 40
0.9112251377
 40
0.9428700848
 40
0.9719089508
 40
1.0
 40
1.0
 40
1.0
 40
1.0
 10
8.2276148777
 20
16.1221746623
 30
0.0
 10
8.2275182092
 20
16.121068494
 30
0.0
 10
8.2273017528
 20
16.1189880308
 30
0.0
 10
8.226871143
 20
16.1160792543
 30
0.0
 10
8.2263589845
 20
16.1135867207
 30
0.0
 10
8.2257686787
 20
16.1115211595
 30
0.0
 10
8.225104288
 20
16.1098913972
 30
0.0
 10
8.2244523083
 20
16.1088307997
 30
0.0
 10
8.2238785422
 20
16.1082399
 30
0.0
 10
8.2234546877
 20
16.107939363
 30
0.0
 10
8.2230098194
 20
16.1077572532
 30
0.0
 10
8.2227018552
 20
16.1077178459
 30
0.0
 10
8.2225512172
 20
16.107717993
 30
0.0
  0
SPLINE
  5
569
100
AcDbEntity
  8
0
100
AcDbSpline
 62
7
  6
CONTINUOUS
 70
0
 71
3
 72
13
 73
9
 74
0
 42
0.0000001
 43
0.0000001
 44
0.0000000001
 40
0.0
 40
0.0
 40
0.0
 40
0.0
 40
0.2922613194
 40
0.5637532668
 40
0.687883327
 40
0.8026318554
 40
0.9069695918
 40
1.0
 40
1.0
 40
1.0
 40
1.0
 10
8.2281188563
 20
16.8386747455
 30
0.0
 10
8.2281188563
 20
16.8338478491
 30
0.0
 10
8.2279235341
 20
16.8245358947
 30
0.0
 10
8.2271669732
 20
16.8131948721
 30
0.0
 10
8.226244425
 20
16.8048152081
 30
0.0
 10
8.225441494
 20
16.7992026722
 30
0.0
 10
8.22451777
 20
16.7941299891
 30
0.0
 10
8.2237861864
 20
16.7909515671
 30
0.0
 10
8.2233941411
 20
16.7894659652
 30
0.0
  0
SPLINE
  5
56A
100
AcDbEntity
  8
0
100
AcDbSpline
 62
7
  6
CONTINUOUS
 70
0
 71
3
 72
15
 73
11
 74
0
 42
0.0000001
 43
0.0000001
 44
0.0000000001
 40
0.0
 40
0.0
 40
0.0
 40
0.0
 40
0.193882933
 40
0.3668117547
 40
0.5186127367
 40
0.6494193416
 40
0.7600324978
 40
0.8524382133
 40
0.9303218175
 40
1.0
 40
1.0
 40
1.0
 40
1.0
 10
8.2233941411
 20
16.7894659652
 30
0.0
 10
8.2231417272
 20
16.7885094775
 30
0.0
 10
8.2226266948
 20
16.7867093206
 30
0.0
 10
8.2217640257
 20
16.7842062334
 30
0.0
 10
8.2208600163
 20
16.782062574
 30
0.0
 10
8.2199187461
 20
16.7802868622
 30
0.0
 10
8.2189420493
 20
16.7788846172
 30
0.0
 10
8.2179288924
 20
16.7778573304
 30
0.0
 10
8.2168690277
 20
16.777211095
 30
0.0
 10
8.2161106767
 20
16.7770584638
 30
0.0
 10
8.2157551636
 20
16.7770587757
 30
0.0
  0
LINE
  5
56B
100
AcDbEntity
  8
0
100
AcDbLine
 62
7
  6
CONTINUOUS
 10
8.2567789958
 20
17.3659059538
 11
8.2554948242
 21
17.3657122534
  0
SPLINE
  5
56C
100
AcDbEntity
  8
0
100
AcDbSpline
 62
7
  6
CONTINUOUS
 70
0
 71
3
 72
12
 73
8
 74
0
 42
0.0000001
 43
0.0000001
 44
0.0000000001
 40
0.0
 40
0.0
 40
0.0
 40
0.0
 40
0.2663769331
 40
0.5352260219
 40
0.7861208484
 40
0.8987813454
 40
1.0
 40
1.0
 40
1.0
 40
1.0
 10
8.2231485122
 20
18.3456966107
 30
0.0
 10
8.2220942694
 20
18.3391138433
 30
0.0
 10
8.219820112
 20
18.325911792
 30
0.0
 10
8.2160810501
 20
18.3065949031
 30
0.0
 10
8.2127547912
 20
18.2911193007
 30
0.0
 10
8.2100716911
 20
18.2798006519
 30
0.0
 10
8.208752419
 20
18.2746126063
 30
0.0
 10
8.2081011298
 20
18.2721645475
 30
0.0
  0
SPLINE
  5
56D
100
AcDbEntity
  8
0
100
AcDbSpline
 62
7
  6
CONTINUOUS
 70
0
 71
3
 72
14
 73
10
 74
0
 42
0.0000001
 43
0.0000001
 44
0.0000000001
 40
0.0
 40
0.0
 40
0.0
 40
0.0
 40
0.3491819851
 40
0.5008265106
 40
0.6360270401
 40
0.7540083341
 40
0.8542464552
 40
0.9363321635
 40
1.0
 40
1.0
 40
1.0
 40
1.0
 10
8.2081011298
 20
18.2721645475
 30
0.0
 10
8.2075219753
 20
18.2699876281
 30
0.0
 10
8.206661506
 20
18.266872863
 30
0.0
 10
8.2054760732
 20
18.262944528
 30
0.0
 10
8.2046740509
 20
18.2604588771
 30
0.0
 10
8.2039205545
 20
18.2583067507
 30
0.0
 10
8.2032209125
 20
18.2564994969
 30
0.0
 10
8.2025799993
 20
18.2550473462
 30
0.0
 10
8.2021408552
 20
18.2542136693
 30
0.0
 10
8.2019235173
 20
18.2538651488
 30
0.0
  0
SPLINE
  5
56E
100
AcDbEntity
  8
0
100
AcDbSpline
 62
7
  6
CONTINUOUS
 70
0
 71
3
 72
11
 73
7
 74
0
 42
0.0000001
 43
0.0000001
 44
0.0000000001
 40
0.0
 40
0.0
 40
0.0
 40
0.0
 40
0.3512603248
 40
0.6287922437
 40
0.8395401491
 40
1.0
 40
1.0
 40
1.0
 40
1.0
 10
8.2019235173
 20
18.2538651488
 30
0.0
 10
8.2018250478
 20
18.2537072442
 30
0.0
 10
8.2016390272
 20
18.253430232
 30
0.0
 10
8.2013479442
 20
18.2530918665
 30
0.0
 10
8.2010777282
 20
18.2528750034
 30
0.0
 10
8.200882418
 20
18.252811509
 30
0.0
 10
8.2007974092
 20
18.2528114195
 30
0.0
  0
SPLINE
  5
56F
100
AcDbEntity
  8
0
100
AcDbSpline
 62
7
  6
CONTINUOUS
 70
0
 71
3
 72
19
 73
15
 74
0
 42
0.0000001
 43
0.0000001
 44
0.0000000001
 40
0.0
 40
0.0
 40
0.0
 40
0.0
 40
0.2080846429
 40
0.3944751055
 40
0.557571581
 40
0.6959686895
 40
0.7556282045
 40
0.8088242778
 40
0.8555246199
 40
0.8957590614
 40
0.9296901307
 40
0.9577299592
 40
0.9806709297
 40
1.0
 40
1.0
 40
1.0
 40
1.0
 10
8.2120144748
 20
18.0907530347
 30
0.0
 10
8.211579542
 20
18.0892075266
 30
0.0
 10
8.2107240915
 20
18.0862861782
 30
0.0
 10
8.20940563
 20
18.0821903858
 30
0.0
 10
8.2081321686
 20
18.0786471077
 30
0.0
 10
8.2070731387
 20
18.0760678273
 30
0.0
 10
8.2062459485
 20
18.0743140795
 30
0.0
 10
8.2056750285
 20
18.0732228694
 30
0.0
 10
8.2051238721
 20
18.07229193
 30
0.0
 10
8.2045934882
 20
18.0715236399
 30
0.0
 10
8.2040843674
 20
18.0709192606
 30
0.0
 10
8.2035955791
 20
18.0704786089
 30
0.0
 10
8.2031237913
 20
18.0702006116
 30
0.0
 10
8.2027969927
 20
18.0701280322
 30
0.0
 10
8.2026478537
 20
18.070127738
 30
0.0
  0
SPLINE
  5
570
100
AcDbEntity
  8
0
100
AcDbSpline
 62
7
  6
CONTINUOUS
 70
0
 71
3
 72
16
 73
12
 74
0
 42
0.0000001
 43
0.0000001
 44
0.0000000001
 40
0.0
 40
0.0
 40
0.0
 40
0.0
 40
0.1965850164
 40
0.3727458049
 40
0.5278656315
 40
0.6615384348
 40
0.7738999385
 40
0.8658156015
 40
0.90477289
 40
0.9396354267
 40
1.0
 40
1.0
 40
1.0
 40
1.0
 10
8.2567653447
 20
18.1033695275
 30
0.0
 10
8.2563251007
 20
18.1022942668
 30
0.0
 10
8.2554583251
 20
18.1002682696
 30
0.0
 10
8.2541165677
 20
18.0974504919
 30
0.0
 10
8.2528103923
 20
18.0950310906
 30
0.0
 10
8.2515459413
 20
18.0930223306
 30
0.0
 10
8.2503294151
 20
18.0914342717
 30
0.0
 10
8.2493078272
 20
18.0904117396
 30
0.0
 10
8.2485089344
 20
18.0898397457
 30
0.0
 10
8.2478086082
 20
18.0894665969
 30
0.0
 10
8.2472434748
 20
18.0893261216
 30
0.0
 10
8.2468866968
 20
18.0893266799
 30
0.0
  0
LINE
  5
571
100
AcDbEntity
  8
0
100
AcDbLine
 62
7
  6
CONTINUOUS
 10
8.2567653447
 20
18.3741612134
 11
8.2524806115
 21
18.3611666736
  0
SPLINE
  5
572
100
AcDbEntity
  8
0
100
AcDbSpline
 62
7
  6
CONTINUOUS
 70
0
 71
3
 72
17
 73
13
 74
0
 42
0.0000001
 43
0.0000001
 44
0.0000000001
 40
0.0
 40
0.0
 40
0.0
 40
0.0
 40
0.2064924691
 40
0.3905705865
 40
0.5513135618
 40
0.6879168299
 40
0.7999604808
 40
0.8468642557
 40
0.8878233028
 40
0.9230660949
 40
0.9530028954
 40
1.0
 40
1.0
 40
1.0
 40
1.0
 10
8.2522663596
 20
18.3605821683
 30
0.0
 10
8.2518526952
 20
18.3594602804
 30
0.0
 10
8.2510468394
 20
18.3573467511
 30
0.0
 10
8.2498241408
 20
18.3543971885
 30
0.0
 10
8.2486623417
 20
18.3518620436
 30
0.0
 10
8.2475679253
 20
18.3497579942
 30
0.0
 10
8.2466720606
 20
18.3482965995
 30
0.0
 10
8.2459823475
 20
18.347365772
 30
0.0
 10
8.2455170735
 20
18.3468251138
 30
0.0
 10
8.2450705209
 20
18.3463991712
 30
0.0
 10
8.2445483679
 20
18.3460164199
 30
0.0
 10
8.2441073558
 20
18.3458476152
 30
0.0
 10
8.2438352129
 20
18.3458477044
 30
0.0
  0
SPLINE
  5
573
100
AcDbEntity
  8
0
100
AcDbSpline
 62
7
  6
CONTINUOUS
 70
0
 71
3
 72
10
 73
6
 74
0
 42
0.0000001
 43
0.0000001
 44
0.0000000001
 40
0.0
 40
0.0
 40
0.0
 40
0.0
 40
0.549470844
 40
0.788966451
 40
1.0
 40
1.0
 40
1.0
 40
1.0
 10
8.2567653447
 20
18.5533920987
 30
0.0
 10
8.2553243569
 20
18.5477234838
 30
0.0
 10
8.253193645
 20
18.5395992503
 30
0.0
 10
8.2503146341
 20
18.5293511713
 30
0.0
 10
8.2489516786
 20
18.5247529213
 30
0.0
 10
8.2482907033
 20
18.5226059966
 30
0.0
  0
SPLINE
  5
574
100
AcDbEntity
  8
0
100
AcDbSpline
 62
7
  6
CONTINUOUS
 70
0
 71
3
 72
10
 73
6
 74
0
 42
0.0000001
 43
0.0000001
 44
0.0000000001
 40
0.0
 40
0.0
 40
0.0
 40
0.0
 40
0.5672503839
 40
0.801074318
 40
1.0
 40
1.0
 40
1.0
 40
1.0
 10
8.2477848214
 20
18.5209795612
 30
0.0
 10
8.2471899285
 20
18.5190872601
 30
0.0
 10
8.2463225731
 20
18.516422965
 30
0.0
 10
8.2451416764
 20
18.5131313019
 30
0.0
 10
8.2445943995
 20
18.5117201255
 30
0.0
 10
8.2443299327
 20
18.5110767406
 30
0.0
  0
SPLINE
  5
575
100
AcDbEntity
  8
0
100
AcDbSpline
 62
7
  6
CONTINUOUS
 70
0
 71
3
 72
17
 73
13
 74
0
 42
0.0000001
 43
0.0000001
 44
0.0000000001
 40
0.0
 40
0.0
 40
0.0
 40
0.0
 40
0.0285539183
 40
0.0580101919
 40
0.0899913849
 40
0.125756485
 40
0.2117511345
 40
0.3203172002
 40
0.4532386921
 40
0.6110249219
 40
0.7934446258
 40
1.0
 40
1.0
 40
1.0
 40
1.0
 10
8.2225521128
 20
17.9535019863
 30
0.0
 10
8.2226995979
 20
17.9535021238
 30
0.0
 10
8.2230007392
 20
17.9534644435
 30
0.0
 10
8.2234363734
 20
17.9532901753
 30
0.0
 10
8.2238520599
 20
17.9530024076
 30
0.0
 10
8.2244146342
 20
17.9524372276
 30
0.0
 10
8.2250561811
 20
17.951421527
 30
0.0
 10
8.2257120949
 20
17.9498587446
 30
0.0
 10
8.2262973818
 20
17.9478777737
 30
0.0
 10
8.2268082125
 20
17.9454864341
 30
0.0
 10
8.2272414546
 20
17.9426945815
 30
0.0
 10
8.2274621601
 20
17.9406970415
 30
0.0
 10
8.2275615588
 20
17.9396347931
 30
0.0
  0
LINE
  5
576
100
AcDbEntity
  8
0
100
AcDbLine
 62
7
  6
CONTINUOUS
 10
8.2275615588
 20
17.9396347931
 11
8.2278837724
 21
17.9351993306
  0
LINE
  5
577
100
AcDbEntity
  8
0
100
AcDbLine
 62
7
  6
CONTINUOUS
 10
8.2278837724
 20
17.9351993306
 11
8.2281188563
 21
17.9257768185
  0
SPLINE
  5
578
100
AcDbEntity
  8
0
100
AcDbSpline
 62
7
  6
CONTINUOUS
 70
0
 71
3
 72
10
 73
6
 74
0
 42
0.0000001
 43
0.0000001
 44
0.0000000001
 40
0.0
 40
0.0
 40
0.0
 40
0.0
 40
0.199320171
 40
0.433261014
 40
1.0
 40
1.0
 40
1.0
 40
1.0
 10
8.2443188463
 20
15.5501656252
 30
0.0
 10
8.2445791444
 20
15.5495337494
 30
0.0
 10
8.2451180028
 20
15.5481491358
 30
0.0
 10
8.2462803352
 20
15.5449233579
 30
0.0
 10
8.247133657
 20
15.5423134374
 30
0.0
 10
8.2477180854
 20
15.5404602845
 30
0.0
  0
SPLINE
  5
579
100
AcDbEntity
  8
0
100
AcDbSpline
 62
7
  6
CONTINUOUS
 70
0
 71
3
 72
10
 73
6
 74
0
 42
0.0000001
 43
0.0000001
 44
0.0000000001
 40
0.0
 40
0.0
 40
0.0
 40
0.0
 40
0.2109264449
 40
0.450388211
 40
1.0
 40
1.0
 40
1.0
 40
1.0
 10
8.2482844944
 20
15.5386418386
 30
0.0
 10
8.2489458217
 20
15.5364934315
 30
0.0
 10
8.2503086135
 20
15.5318907633
 30
0.0
 10
8.2531882434
 20
15.5216297722
 30
0.0
 10
8.2553234235
 20
15.513495262
 30
0.0
 10
8.2567669073
 20
15.5078185806
 30
0.0
  0
SPLINE
  5
57A
100
AcDbEntity
  8
0
100
AcDbSpline
 62
7
  6
CONTINUOUS
 70
0
 71
3
 72
17
 73
13
 74
0
 42
0.0000001
 43
0.0000001
 44
0.0000000001
 40
0.0
 40
0.0
 40
0.0
 40
0.0
 40
0.0469623874
 40
0.0769058462
 40
0.1121621375
 40
0.1531371737
 40
0.2000566189
 40
0.3121235917
 40
0.4487270516
 40
0.609445205
 40
0.7935013275
 40
1.0
 40
1.0
 40
1.0
 40
1.0
 10
8.243833277
 20
15.7153721895
 30
0.0
 10
8.2441062465
 20
15.7153722072
 30
0.0
 10
8.2445485996
 20
15.7152023478
 30
0.0
 10
8.2450725852
 20
15.7148181707
 30
0.0
 10
8.2455209996
 20
15.714390485
 30
0.0
 10
8.2459882588
 20
15.7138476366
 30
0.0
 10
8.2466808029
 20
15.7129130551
 30
0.0
 10
8.247579865
 20
15.7114457255
 30
0.0
 10
8.2486768336
 20
15.7093328903
 30
0.0
 10
8.2498405606
 20
15.7067873364
 30
0.0
 10
8.2510651072
 20
15.7038257387
 30
0.0
 10
8.2518724238
 20
15.7017037237
 30
0.0
 10
8.2522869983
 20
15.7005773175
 30
0.0
  0
LINE
  5
57B
100
AcDbEntity
  8
0
100
AcDbLine
 62
7
  6
CONTINUOUS
 10
8.2524566524
 20
15.7001142306
 11
8.2567669073
 21
15.6870508992
  0
SPLINE
  5
57C
100
AcDbEntity
  8
0
100
AcDbSpline
 62
7
  6
CONTINUOUS
 70
0
 71
3
 72
16
 73
12
 74
0
 42
0.0000001
 43
0.0000001
 44
0.0000000001
 40
0.0
 40
0.0
 40
0.0
 40
0.0
 40
0.060427873
 40
0.0952921858
 40
0.1342357362
 40
0.2261015607
 40
0.3384184912
 40
0.4720844007
 40
0.6272229766
 40
0.8034048184
 40
1.0
 40
1.0
 40
1.0
 40
1.0
 10
8.2468886689
 20
15.9718931943
 30
0.0
 10
8.247245215
 20
15.9718937805
 30
0.0
 10
8.247809829
 20
15.9717537416
 30
0.0
 10
8.248509344
 20
15.9713812541
 30
0.0
 10
8.2493066489
 20
15.9708105298
 30
0.0
 10
8.2503259319
 20
15.9697900379
 30
0.0
 10
8.2515397207
 20
15.9682049245
 30
0.0
 10
8.252801907
 20
15.9661997471
 30
0.0
 10
8.2541067602
 20
15.9637847289
 30
0.0
 10
8.2554476337
 20
15.96097207
 30
0.0
 10
8.2563139126
 20
15.958949725
 30
0.0
 10
8.2567538534
 20
15.9578764058
 30
0.0
  0
SPLINE
  5
57D
100
AcDbEntity
  8
0
100
AcDbSpline
 62
7
  6
CONTINUOUS
 70
0
 71
3
 72
13
 73
9
 74
0
 42
0.0000001
 43
0.0000001
 44
0.0000000001
 40
0.0
 40
0.0
 40
0.0
 40
0.0
 40
0.0912119757
 40
0.1879427499
 40
0.2930671552
 40
0.4087181777
 40
0.6768720758
 40
1.0
 40
1.0
 40
1.0
 40
1.0
 10
8.2508606615
 20
16.3061996099
 30
0.0
 10
8.2510932834
 20
16.3061997484
 30
0.0
 10
8.2515737514
 20
16.3061491787
 30
0.0
 10
8.2522921874
 20
16.3059300357
 30
0.0
 10
8.2530206332
 20
16.3055694453
 30
0.0
 10
8.2540556656
 20
16.304868671
 30
0.0
 10
8.2553639592
 20
16.3036116234
 30
0.0
 10
8.2562918927
 20
16.3024187865
 30
0.0
 10
8.2567669073
 20
16.3017453764
 30
0.0
  0
SPLINE
  5
57E
100
AcDbEntity
  8
0
100
AcDbSpline
 62
7
  6
CONTINUOUS
 70
0
 71
3
 72
19
 73
15
 74
0
 42
0.0000001
 43
0.0000001
 44
0.0000000001
 40
0.0
 40
0.0
 40
0.0
 40
0.0
 40
0.0195786486
 40
0.0427113387
 40
0.07087736
 40
0.1048779761
 40
0.1451302021
 40
0.1918007032
 40
0.2449327114
 40
0.3045064575
 40
0.4427131469
 40
0.6056399135
 40
0.7919175781
 40
1.0
 40
1.0
 40
1.0
 40
1.0
 10
8.2026484994
 20
15.9910921425
 30
0.0
 10
8.2027947052
 20
15.9910919123
 30
0.0
 10
8.2031143816
 20
15.9910225678
 30
0.0
 10
8.2035769131
 20
15.990755228
 30
0.0
 10
8.2040556887
 20
15.9903307372
 30
0.0
 10
8.204553846
 20
15.989748264
 30
0.0
 10
8.2050723669
 20
15.9890077556
 30
0.0
 10
8.2056109652
 20
15.9881104913
 30
0.0
 10
8.2061686909
 20
15.9870586094
 30
0.0
 10
8.2069767329
 20
15.9853676164
 30
0.0
 10
8.2080116244
 20
15.9828789729
 30
0.0
 10
8.2092570871
 20
15.9794581012
 30
0.0
 10
8.2105476405
 20
15.9755009721
 30
0.0
 10
8.2113853389
 20
15.9726773566
 30
0.0
 10
8.2118113921
 20
15.9711830255
 30
0.0
  0
SPLINE
  5
57F
100
AcDbEntity
  8
0
100
AcDbSpline
 62
7
  6
CONTINUOUS
 70
0
 71
3
 72
11
 73
7
 74
0
 42
0.0000001
 43
0.0000001
 44
0.0000000001
 40
0.0
 40
0.0
 40
0.0
 40
0.0
 40
0.2405312915
 40
0.493471978
 40
0.749824464
 40
1.0
 40
1.0
 40
1.0
 40
1.0
 10
8.2233158128
 20
16.5260796223
 30
0.0
 10
8.2240254932
 20
16.5218328549
 30
0.0
 10
8.2252894215
 20
16.5130874947
 30
0.0
 10
8.226718509
 20
16.4997387929
 30
0.0
 10
8.227690217
 20
16.486175913
 30
0.0
 10
8.2280131508
 20
16.4771119438
 30
0.0
 10
8.2280818275
 20
16.4726341758
 30
0.0
  0
LINE
  5
580
100
AcDbEntity
  8
0
100
AcDbLine
 62
7
  6
CONTINUOUS
 10
8.2554936434
 20
16.6955072612
 11
8.256778972
 21
16.6953135245
  0
SPLINE
  5
581
100
AcDbEntity
  8
0
100
AcDbSpline
 62
7
  6
CONTINUOUS
 70
0
 71
3
 72
15
 73
11
 74
0
 42
0.0000001
 43
0.0000001
 44
0.0000000001
 40
0.0
 40
0.0
 40
0.0
 40
0.0
 40
0.0702028497
 40
0.1484769385
 40
0.2410828765
 40
0.3517226496
 40
0.4824096392
 40
0.6339587175
 40
0.8065358236
 40
1.0
 40
1.0
 40
1.0
 40
1.0
 10
8.2157552847
 20
17.2841612821
 30
0.0
 10
8.2161062614
 20
17.2841614206
 30
0.0
 10
8.2168537704
 20
17.2840125447
 30
0.0
 10
8.2179007818
 20
17.2833829742
 30
0.0
 10
8.2189026267
 20
17.2823809689
 30
0.0
 10
8.2198689506
 20
17.2810127938
 30
0.0
 10
8.2208009704
 20
17.2792799418
 30
0.0
 10
8.2216971022
 20
17.2771877455
 30
0.0
 10
8.22255317
 20
17.274744196
 30
0.0
 10
8.2230648927
 20
17.2729863248
 30
0.0
 10
8.2233158128
 20
17.2720522215
 30
0.0
  0
SPLINE
  5
582
100
AcDbEntity
  8
0
100
AcDbSpline
 62
7
  6
CONTINUOUS
 70
0
 71
3
 72
13
 73
9
 74
0
 42
0.0000001
 43
0.0000001
 44
0.0000000001
 40
0.0
 40
0.0
 40
0.0
 40
0.0
 40
0.0924907214
 40
0.1964714635
 40
0.3110432031
 40
0.4351635588
 40
0.7070258308
 40
1.0
 40
1.0
 40
1.0
 40
1.0
 10
8.2233158128
 20
17.2720522215
 30
0.0
 10
8.223714563
 20
17.2705677891
 30
0.0
 10
8.2244581744
 20
17.2673865131
 30
0.0
 10
8.2253961832
 20
17.2623019128
 30
0.0
 10
8.2262120033
 20
17.2566646634
 30
0.0
 10
8.2271506018
 20
17.2482308774
 30
0.0
 10
8.227920421
 20
17.236801816
 30
0.0
 10
8.2281188563
 20
17.2274138706
 30
0.0
 10
8.2281188563
 20
17.2225450825
 30
0.0
  0
SPLINE
  5
583
100
AcDbEntity
  8
0
100
AcDbSpline
 62
7
  6
CONTINUOUS
 70
0
 71
3
 72
16
 73
12
 74
0
 42
0.0000001
 43
0.0000001
 44
0.0000000001
 40
0.0
 40
0.0
 40
0.0
 40
0.0
 40
0.0326569394
 40
0.066163428
 40
0.1402944359
 40
0.2300833135
 40
0.3396034374
 40
0.4709433553
 40
0.6248511139
 40
0.8013116568
 40
1.0
 40
1.0
 40
1.0
 40
1.0
 10
8.2193383473
 20
17.6370818517
 30
0.0
 10
8.2195053969
 20
17.6370819969
 30
0.0
 10
8.2198449529
 20
17.6370467737
 30
0.0
 10
8.2205322707
 20
17.6368247643
 30
0.0
 10
8.221378593
 20
17.6362374102
 30
0.0
 10
8.2222833414
 20
17.6351587871
 30
0.0
 10
8.2231342282
 20
17.633690201
 30
0.0
 10
8.2239295541
 20
17.631830468
 30
0.0
 10
8.2246688796
 20
17.629585153
 30
0.0
 10
8.2253480172
 20
17.626964036
 30
0.0
 10
8.2257348874
 20
17.6250836603
 30
0.0
 10
8.2259202687
 20
17.6240843618
 30
0.0
  0
SPLINE
  5
584
100
AcDbEntity
  8
0
100
AcDbSpline
 62
7
  6
CONTINUOUS
 70
0
 71
3
 72
11
 73
7
 74
0
 42
0.0000001
 43
0.0000001
 44
0.0000000001
 40
0.0
 40
0.0
 40
0.0
 40
0.0
 40
0.2060584878
 40
0.4443702875
 40
0.7109991533
 40
1.0
 40
1.0
 40
1.0
 40
1.0
 10
8.2259202687
 20
17.6240843618
 30
0.0
 10
8.2263069405
 20
17.622000006
 30
0.0
 10
8.2269624314
 20
17.6174718303
 30
0.0
 10
8.22762944
 20
17.6101854149
 30
0.0
 10
8.2280330021
 20
17.6020253466
 30
0.0
 10
8.2281188563
 20
17.5963085798
 30
0.0
 10
8.2281188563
 20
17.5933353549
 30
0.0
  0
SPLINE
  5
585
100
AcDbEntity
  8
0
100
AcDbSpline
 62
7
  6
CONTINUOUS
 70
0
 71
3
 72
16
 73
12
 74
0
 42
0.0000001
 43
0.0000001
 44
0.0000000001
 40
0.0
 40
0.0
 40
0.0
 40
0.0
 40
0.0712879299
 40
0.1510950684
 40
0.2450439208
 40
0.356491637
 40
0.4194187166
 40
0.4872924189
 40
0.6380632425
 40
0.8090065185
 40
1.0
 40
1.0
 40
1.0
 40
1.0
 10
8.21205071
 20
16.9187907076
 30
0.0
 10
8.2123909745
 20
16.9187905335
 30
0.0
 10
8.2131161439
 20
16.9186512259
 30
0.0
 10
8.2141482301
 20
16.9180722805
 30
0.0
 10
8.2151590854
 20
16.9171482576
 30
0.0
 10
8.2159548896
 20
16.9161395566
 30
0.0
 10
8.2165920579
 20
16.9151743147
 30
0.0
 10
8.2172743411
 20
16.9140157601
 30
0.0
 10
8.2181088061
 20
16.9123516699
 30
0.0
 10
8.2190591122
 20
16.9100951719
 30
0.0
 10
8.2196445889
 20
16.9084689976
 30
0.0
 10
8.2199355962
 20
16.907605061
 30
0.0
  0
SPLINE
  5
586
100
AcDbEntity
  8
0
100
AcDbSpline
 62
7
  6
CONTINUOUS
 70
0
 71
3
 72
15
 73
11
 74
0
 42
0.0000001
 43
0.0000001
 44
0.0000000001
 40
0.0
 40
0.0
 40
0.0
 40
0.0
 40
0.0889351465
 40
0.1919440276
 40
0.3075833626
 40
0.4339187173
 40
0.5688044037
 40
0.7098817849
 40
0.8546329936
 40
1.0
 40
1.0
 40
1.0
 40
1.0
 10
8.2199355962
 20
16.907605061
 30
0.0
 10
8.2205730056
 20
16.905712733
 30
0.0
 10
8.2217681698
 20
16.9015676837
 30
0.0
 10
8.2232928323
 20
16.8948296082
 30
0.0
 10
8.2246516069
 20
16.8872016268
 30
0.0
 10
8.2258208165
 20
16.8788197473
 30
0.0
 10
8.2267732557
 20
16.8698361091
 30
0.0
 10
8.2274907335
 20
16.8604160908
 30
0.0
 10
8.2279542256
 20
16.8507447039
 30
0.0
 10
8.2280892906
 20
16.844231321
 30
0.0
 10
8.2281111507
 20
16.8409675741
 30
0.0
  0
SPLINE
  5
587
100
AcDbEntity
  8
0
100
AcDbSpline
 62
7
  6
CONTINUOUS
 70
0
 71
3
 72
10
 73
6
 74
0
 42
0.0000001
 43
0.0000001
 44
0.0000000001
 40
0.0
 40
0.0
 40
0.0
 40
0.0
 40
0.3703751084
 40
0.6488329567
 40
1.0
 40
1.0
 40
1.0
 40
1.0
 10
8.2007972627
 20
15.8084085498
 30
0.0
 10
8.200983117
 20
15.8084083687
 30
0.0
 10
8.2012832301
 20
15.808200206
 30
0.0
 10
8.2016071636
 20
15.8078294427
 30
0.0
 10
8.2017887672
 20
15.807567008
 30
0.0
 10
8.2018835574
 20
15.8074184588
 30
0.0
  0
SPLINE
  5
588
100
AcDbEntity
  8
0
100
AcDbSpline
 62
7
  6
CONTINUOUS
 70
0
 71
3
 72
14
 73
10
 74
0
 42
0.0000001
 43
0.0000001
 44
0.0000000001
 40
0.0
 40
0.0
 40
0.0
 40
0.0
 40
0.0634260481
 40
0.1452666442
 40
0.2452979598
 40
0.3631449447
 40
0.4983109725
 40
0.6500549907
 40
1.0
 40
1.0
 40
1.0
 40
1.0
 10
8.2018835574
 20
15.8074184588
 30
0.0
 10
8.2020948842
 20
15.8070872807
 30
0.0
 10
8.2025217504
 20
15.8062929278
 30
0.0
 10
8.2031441048
 20
15.8049064766
 30
0.0
 10
8.203823164
 20
15.8031779989
 30
0.0
 10
8.204554222
 20
15.8011168193
 30
0.0
 10
8.2053322238
 20
15.7987333033
 30
0.0
 10
8.2064830945
 20
15.7949600932
 30
0.0
 10
8.2073183688
 20
15.7919664976
 30
0.0
 10
8.2078809936
 20
15.7898732427
 30
0.0
  0
SPLINE
  5
589
100
AcDbEntity
  8
0
100
AcDbSpline
 62
7
  6
CONTINUOUS
 70
0
 71
3
 72
13
 73
9
 74
0
 42
0.0000001
 43
0.0000001
 44
0.0000000001
 40
0.0
 40
0.0
 40
0.0
 40
0.0
 40
0.1001696177
 40
0.2122111016
 40
0.3339298026
 40
0.4629149487
 40
0.7325585074
 40
1.0
 40
1.0
 40
1.0
 40
1.0
 10
8.2078809936
 20
15.7898732427
 30
0.0
 10
8.2085388901
 20
15.7874255278
 30
0.0
 10
8.2098731058
 20
15.7822239483
 30
0.0
 10
8.2118353406
 20
15.7740052439
 30
0.0
 10
8.2138386931
 20
15.7650477195
 30
0.0
 10
8.2165559449
 20
15.7521645775
 30
0.0
 10
8.2197640105
 20
15.7356178828
 30
0.0
 10
8.2220759722
 20
15.722224857
 30
0.0
 10
8.2231464374
 20
15.715542999
 30
0.0
  0
SPLINE
  5
58A
100
AcDbEntity
  8
0
100
AcDbSpline
 62
9
  6
CONTINUOUS
 70
0
 71
3
 72
28
 73
24
 74
0
 42
0.0000001
 43
0.0000001
 44
0.0000000001
 40
0.0
 40
0.0
 40
0.0
 40
0.0
 40
0.082710931
 40
0.1522129248
 40
0.2084095741
 40
0.2513757707
 40
0.2680754825
 40
0.2818147967
 40
0.2929533986
 40
0.3021578984
 40
0.3105647753
 40
0.3196130273
 40
0.3304874555
 40
0.3438952788
 40
0.3602179836
 40
0.3796681895
 40
0.4283930731
 40
0.4906588892
 40
0.5667321675
 40
0.6565106058
 40
0.759236892
 40
0.8740327686
 40
1.0
 40
1.0
 40
1.0
 40
1.0
 10
8.094170639
 20
16.2087941144
 30
0.0
 10
8.0943344364
 20
16.2082244019
 30
0.0
 10
8.0946502159
 20
16.2071800023
 30
0.0
 10
8.0951393586
 20
16.2057678919
 30
0.0
 10
8.0956010959
 20
16.2046502687
 30
0.0
 10
8.0959860129
 20
16.2039112332
 30
0.0
 10
8.0962908467
 20
16.203481319
 30
0.0
 10
8.0964933469
 20
16.2032611567
 30
0.0
 10
8.0966909571
 20
16.2031141323
 30
0.0
 10
8.0968890137
 20
16.203042416
 30
0.0
 10
8.0970857881
 20
16.2030578397
 30
0.0
 10
8.097266859
 20
16.2031600515
 30
0.0
 10
8.0974312075
 20
16.2033364653
 30
0.0
 10
8.0975848216
 20
16.2035850398
 30
0.0
 10
8.0977295758
 20
16.203907165
 30
0.0
 10
8.0979261993
 20
16.2044805807
 30
0.0
 10
8.0981369486
 20
16.2053934001
 30
0.0
 10
8.098341854
 20
16.2067188194
 30
0.0
 10
8.0985096452
 20
16.208345705
 30
0.0
 10
8.0986392832
 20
16.2102664766
 30
0.0
 10
8.0987321075
 20
16.2124671365
 30
0.0
 10
8.0987887122
 20
16.2149283928
 30
0.0
 10
8.0988023307
 20
16.2166539573
 30
0.0
 10
8.0988041185
 20
16.2175567662
 30
0.0
  0
SPLINE
  5
58B
100
AcDbEntity
  8
0
100
AcDbSpline
 62
9
  6
CONTINUOUS
 70
0
 71
3
 72
35
 73
31
 74
0
 42
0.0000001
 43
0.0000001
 44
0.0000000001
 40
0.0
 40
0.0
 40
0.0
 40
0.0
 40
0.0140490241
 40
0.0319283338
 40
0.0535006409
 40
0.0785903244
 40
0.1384712657
 40
0.2096015243
 40
0.2896566419
 40
0.3760568484
 40
0.46605024
 40
0.5567781054
 40
0.64537609
 40
0.7290360986
 40
0.7681842821
 40
0.8051171887
 40
0.8395481894
 40
0.8712042538
 40
0.8998276668
 40
0.925193825
 40
0.9470903465
 40
0.9653448453
 40
0.9798073552
 40
0.9855835801
 40
0.9903775935
 40
0.9941851552
 40
0.9970150119
 40
0.9980734901
 40
0.9989064919
 40
1.0
 40
1.0
 40
1.0
 40
1.0
 10
8.0871073407
 20
17.9714778902
 30
0.0
 10
8.0871073441
 20
17.9708178875
 30
0.0
 10
8.0870675577
 20
17.969318036
 30
0.0
 10
8.0869348406
 20
17.9668080626
 30
0.0
 10
8.0867201093
 20
17.9637834721
 30
0.0
 10
8.0863006388
 20
17.9587957601
 30
0.0
 10
8.0855736759
 20
17.9514981027
 30
0.0
 10
8.0844663296
 20
17.9416443915
 30
0.0
 10
8.0831114142
 20
17.9305653498
 30
0.0
 10
8.0815526561
 20
17.9186189163
 30
0.0
 10
8.0798394377
 20
17.9061873313
 30
0.0
 10
8.0780264023
 20
17.89366558
 30
0.0
 10
8.0761712627
 20
17.881450861
 30
0.0
 10
8.0746064262
 20
17.871643237
 30
0.0
 10
8.0733746065
 20
17.8642405976
 30
0.0
 10
8.0724972189
 20
17.8591235516
 30
0.0
 10
8.0716528478
 20
17.8543580207
 30
0.0
 10
8.0708482897
 20
17.8499819705
 30
0.0
 10
8.0700899472
 20
17.846030522
 30
0.0
 10
8.0693843331
 20
17.8425359691
 30
0.0
 10
8.0687374601
 20
17.8395266777
 30
0.0
 10
8.0681549773
 20
17.837027896
 30
0.0
 10
8.06770091
 20
17.8352770447
 30
0.0
 10
8.0673660946
 20
17.8341495491
 30
0.0
 10
8.0671538553
 20
17.8335082158
 30
0.0
 10
8.0669608824
 20
17.8330065431
 30
0.0
 10
8.066807642
 20
17.8326790502
 30
0.0
 10
8.0666883663
 20
17.832490014
 30
0.0
 10
8.0666023113
 20
17.8323828938
 30
0.0
 10
8.0665197372
 20
17.8323220272
 30
0.0
 10
8.0664683657
 20
17.8323220538
 30
0.0
  0
SPLINE
  5
58C
100
AcDbEntity
  8
0
100
AcDbSpline
 62
9
  6
CONTINUOUS
 70
0
 71
3
 72
13
 73
9
 74
0
 42
0.0000001
 43
0.0000001
 44
0.0000000001
 40
0.0
 40
0.0
 40
0.0
 40
0.0
 40
0.2766797439
 40
0.5224089718
 40
0.6325573938
 40
0.7470985641
 40
0.8700521967
 40
1.0
 40
1.0
 40
1.0
 40
1.0
 10
8.0871073407
 20
17.9714778902
 30
0.0
 10
8.0886371114
 20
17.9714771906
 30
0.0
 10
8.0915560644
 20
17.9720289446
 30
0.0
 10
8.0945990932
 20
17.9738937561
 30
0.0
 10
8.0964136766
 20
17.9757700191
 30
0.0
 10
8.0975134049
 20
17.9773578809
 30
0.0
 10
8.0983670796
 20
17.9792132017
 30
0.0
 10
8.0987029743
 20
17.9805816124
 30
0.0
 10
8.098805403
 20
17.9812927592
 30
0.0
  0
SPLINE
  5
58D
100
AcDbEntity
  8
0
100
AcDbSpline
 62
9
  6
CONTINUOUS
 70
0
 71
3
 72
25
 73
21
 74
0
 42
0.0000001
 43
0.0000001
 44
0.0000000001
 40
0.0
 40
0.0
 40
0.0
 40
0.0
 40
0.1135568644
 40
0.2130969495
 40
0.2985062616
 40
0.3696872823
 40
0.4692514218
 40
0.498363027
 40
0.5161056709
 40
0.5234967617
 40
0.5321915418
 40
0.5434332027
 40
0.5577880496
 40
0.5755008035
 40
0.5966793321
 40
0.6495707841
 40
0.7165300068
 40
0.7974091702
 40
0.8919853043
 40
1.0
 40
1.0
 40
1.0
 40
1.0
 10
8.0972932007
 20
17.981240698
 30
0.0
 10
8.0973509556
 20
17.981477148
 30
0.0
 10
8.0974623549
 20
17.9819201857
 30
0.0
 10
8.0976299481
 20
17.9825375382
 30
0.0
 10
8.0977864881
 20
17.9830643511
 30
0.0
 10
8.0979615
 20
17.9835831324
 30
0.0
 10
8.0981226243
 20
17.9839871645
 30
0.0
 10
8.0982927863
 20
17.98424614
 30
0.0
 10
8.0983984626
 20
17.9843205677
 30
0.0
 10
8.0984729234
 20
17.9843028138
 30
0.0
 10
8.0985172741
 20
17.9842623463
 30
0.0
 10
8.0985566629
 20
17.9841998545
 30
0.0
 10
8.0985928556
 20
17.984114053
 30
0.0
 10
8.0986262052
 20
17.9840047874
 30
0.0
 10
8.098670182
 20
17.9838129115
 30
0.0
 10
8.0987144842
 20
17.9835135302
 30
0.0
 10
8.0987540441
 20
17.9830850194
 30
0.0
 10
8.0987824586
 20
17.9825660957
 30
0.0
 10
8.0987998099
 20
17.9819587038
 30
0.0
 10
8.0988036966
 20
17.981524455
 30
0.0
 10
8.0988041185
 20
17.9812929333
 30
0.0
  0
LINE
  5
58E
100
AcDbEntity
  8
0
100
AcDbLine
 62
9
  6
CONTINUOUS
 10
8.0871074693
 20
18.006654163
 11
8.0826235194
 21
17.9749471239
  0
LINE
  5
58F
100
AcDbEntity
  8
0
100
AcDbLine
 62
9
  6
CONTINUOUS
 10
8.0826235194
 20
17.9749471239
 11
8.0825318691
 21
17.97431869
  0
SPLINE
  5
590
100
AcDbEntity
  8
0
100
AcDbSpline
 62
9
  6
CONTINUOUS
 70
0
 71
3
 72
31
 73
27
 74
0
 42
0.0000001
 43
0.0000001
 44
0.0000000001
 40
0.0
 40
0.0
 40
0.0
 40
0.0
 40
0.0799920192
 40
0.1459758074
 40
0.1737146095
 40
0.1979584257
 40
0.2187241579
 40
0.2360457967
 40
0.2499911553
 40
0.2607036617
 40
0.268522753
 40
0.2743437559
 40
0.2800905809
 40
0.2877339046
 40
0.2982181128
 40
0.3119065142
 40
0.3289544914
 40
0.3494375213
 40
0.3733955663
 40
0.4008507428
 40
0.4662916639
 40
0.5457400759
 40
0.6390322915
 40
0.7459761298
 40
0.8663684945
 40
1.0
 40
1.0
 40
1.0
 40
1.0
 10
8.0778183202
 20
17.8222144911
 30
0.0
 10
8.0778183147
 20
17.8219158288
 30
0.0
 10
8.0778235044
 20
17.8213707855
 30
0.0
 10
8.0778481633
 20
17.8207224971
 30
0.0
 10
8.0778802536
 20
17.8202831745
 30
0.0
 10
8.0779079022
 20
17.8200129226
 30
0.0
 10
8.0779403942
 20
17.8197823945
 30
0.0
 10
8.0779777218
 20
17.8195916368
 30
0.0
 10
8.0780194935
 20
17.8194402839
 30
0.0
 10
8.0780663616
 20
17.8193280208
 30
0.0
 10
8.0781178665
 20
17.819251744
 30
0.0
 10
8.0781850633
 20
17.8192133556
 30
0.0
 10
8.0782598358
 20
17.819230985
 30
0.0
 10
8.0783282222
 20
17.8192902476
 30
0.0
 10
8.0784003919
 20
17.8193850352
 30
0.0
 10
8.0784770226
 20
17.8195188688
 30
0.0
 10
8.0785588027
 20
17.8196918427
 30
0.0
 10
8.0786454871
 20
17.819904525
 30
0.0
 10
8.07873706
 20
17.8201569068
 30
0.0
 10
8.0788736709
 20
17.8205713124
 30
0.0
 10
8.0790533308
 20
17.8211893769
 30
0.0
 10
8.0792769336
 20
17.82205016
 30
0.0
 10
8.0795185529
 20
17.8230661289
 30
0.0
 10
8.0797775785
 20
17.824234919
 30
0.0
 10
8.0800533523
 20
17.8255541566
 30
0.0
 10
8.0802384335
 20
17.8264843733
 30
0.0
 10
8.0803339327
 20
17.8269740819
 30
0.0
  0
SPLINE
  5
591
100
AcDbEntity
  8
0
100
AcDbSpline
 62
9
  6
CONTINUOUS
 70
0
 71
3
 72
19
 73
15
 74
0
 42
0.0000001
 43
0.0000001
 44
0.0000000001
 40
0.0
 40
0.0
 40
0.0
 40
0.0
 40
0.0376366942
 40
0.0840082299
 40
0.1382446346
 40
0.1993284076
 40
0.3374187944
 40
0.4881983121
 40
0.6406918873
 40
0.7837078153
 40
0.8482903173
 40
0.9065919592
 40
0.9574737691
 40
1.0
 40
1.0
 40
1.0
 40
1.0
 10
8.0803339327
 20
17.8269740819
 30
0.0
 10
8.0806885897
 20
17.8287927198
 30
0.0
 10
8.0814265659
 20
17.832862485
 30
0.0
 10
8.0825457823
 20
17.8395758667
 30
0.0
 10
8.0837741672
 20
17.847440906
 30
0.0
 10
8.0856025128
 20
17.8597819776
 30
0.0
 10
8.0879605195
 20
17.8768488718
 30
0.0
 10
8.0907285073
 20
17.898400936
 30
0.0
 10
8.0933341365
 20
17.9202174678
 30
0.0
 10
8.0952737399
 20
17.9378391427
 30
0.0
 10
8.0965887497
 20
17.9508635611
 30
0.0
 10
8.0973881883
 20
17.9593809169
 30
0.0
 10
8.0980198487
 20
17.9668230879
 30
0.0
 10
8.0983544528
 20
17.9714096988
 30
0.0
 10
8.0984857999
 20
17.9734991883
 30
0.0
  0
LINE
  5
592
100
AcDbEntity
  8
0
100
AcDbLine
 62
9
  6
CONTINUOUS
 10
8.0984857999
 20
17.9734991883
 11
8.0988041185
 21
17.9812929333
  0
SPLINE
  5
593
100
AcDbEntity
  8
0
100
AcDbSpline
 62
9
  6
CONTINUOUS
 70
0
 71
3
 72
22
 73
18
 74
0
 42
0.0000001
 43
0.0000001
 44
0.0000000001
 40
0.0
 40
0.0
 40
0.0
 40
0.0
 40
0.0080931253
 40
0.016545162
 40
0.0258027889
 40
0.0362079955
 40
0.0612924385
 40
0.092948074
 40
0.1316519799
 40
0.1775638502
 40
0.2306845725
 40
0.2909335117
 40
0.3581367232
 40
0.4320815304
 40
0.5990931497
 40
0.7894223097
 40
1.0
 40
1.0
 40
1.0
 40
1.0
 10
8.0819296909
 20
17.5610582188
 30
0.0
 10
8.0820272216
 20
17.5610578972
 30
0.0
 10
8.082227436
 20
17.561031369
 30
0.0
 10
8.0825182972
 20
17.5609138609
 30
0.0
 10
8.0827997072
 20
17.5607213119
 30
0.0
 10
8.083186868
 20
17.5603430012
 30
0.0
 10
8.0836403597
 20
17.5596643021
 30
0.0
 10
8.0841236344
 20
17.5586183469
 30
0.0
 10
8.0845773351
 20
17.5572905185
 30
0.0
 10
8.0849996692
 20
17.5556843324
 30
0.0
 10
8.0853886807
 20
17.5538039097
 30
0.0
 10
8.0857419264
 20
17.5516562
 30
0.0
 10
8.0860579749
 20
17.5492494511
 30
0.0
 10
8.0864428702
 20
17.5455554298
 30
0.0
 10
8.086803717
 20
17.5403690074
 30
0.0
 10
8.0870561394
 20
17.5335287991
 30
0.0
 10
8.0871073543
 20
17.5286971207
 30
0.0
 10
8.0871073496
 20
17.5261594221
 30
0.0
  0
SPLINE
  5
594
100
AcDbEntity
  8
0
100
AcDbSpline
 62
9
  6
CONTINUOUS
 70
0
 71
3
 72
11
 73
7
 74
0
 42
0.0000001
 43
0.0000001
 44
0.0000000001
 40
0.0
 40
0.0
 40
0.0
 40
0.0
 40
0.4473224684
 40
0.6736376393
 40
0.7486541219
 40
1.0
 40
1.0
 40
1.0
 40
1.0
 10
8.0988041185
 20
18.0168357428
 30
0.0
 10
8.0988040866
 20
18.016841359
 30
0.0
 10
8.0988026011
 20
18.0168480139
 30
0.0
 10
8.0988043376
 20
18.0168614121
 30
0.0
 10
8.0987959542
 20
18.0168609094
 30
0.0
 10
8.0987960223
 20
18.0168551376
 30
0.0
 10
8.0987949927
 20
18.0168521545
 30
0.0
  0
LINE
  5
595
100
AcDbEntity
  8
0
100
AcDbLine
 62
9
  6
CONTINUOUS
 10
8.0987949927
 20
18.0168521545
 11
8.0984958996
 21
18.0149349135
  0
LINE
  5
596
100
AcDbEntity
  8
0
100
AcDbLine
 62
9
  6
CONTINUOUS
 10
8.0939403079
 20
17.9768091691
 11
8.094002268
 21
17.9773041646
  0
LINE
  5
597
100
AcDbEntity
  8
0
100
AcDbLine
 62
9
  6
CONTINUOUS
 10
8.094002268
 20
17.9773041646
 11
8.0944767015
 21
17.9810986595
  0
LINE
  5
598
100
AcDbEntity
  8
0
100
AcDbLine
 62
9
  6
CONTINUOUS
 10
8.0974836155
 20
18.0054187942
 11
8.0984630043
 21
18.0136103895
  0
LINE
  5
599
100
AcDbEntity
  8
0
100
AcDbLine
 62
9
  6
CONTINUOUS
 10
8.0984630043
 20
18.0136103895
 11
8.0988041185
 21
18.0168357428
  0
SPLINE
  5
59A
100
AcDbEntity
  8
0
100
AcDbSpline
 62
9
  6
CONTINUOUS
 70
0
 71
3
 72
24
 73
20
 74
0
 42
0.0000001
 43
0.0000001
 44
0.0000000001
 40
0.0
 40
0.0
 40
0.0
 40
0.0
 40
0.0076947247
 40
0.0158804338
 40
0.0250444894
 40
0.0355337597
 40
0.0475669447
 40
0.061279184
 40
0.0940234344
 40
0.1341240596
 40
0.1816705381
 40
0.2365771491
 40
0.2985548167
 40
0.3672607312
 40
0.442332038
 40
0.5233850049
 40
0.6099342524
 40
0.7973193519
 40
1.0
 40
1.0
 40
1.0
 40
1.0
 10
8.0795818651
 20
17.3586537436
 30
0.0
 10
8.0797164054
 20
17.358653421
 30
0.0
 10
8.0799953994
 20
17.3586123848
 30
0.0
 10
8.0803993257
 20
17.3584323174
 30
0.0
 10
8.0807912924
 20
17.3581384006
 30
0.0
 10
8.0811727441
 20
17.3577338905
 30
0.0
 10
8.0815456315
 20
17.357220074
 30
0.0
 10
8.0820626897
 20
17.3563363048
 30
0.0
 10
8.0826697769
 20
17.3549451185
 30
0.0
 10
8.0833272686
 20
17.3529437471
 30
0.0
 10
8.0839446993
 20
17.3505273214
 30
0.0
 10
8.0845172395
 20
17.3477090338
 30
0.0
 10
8.0850419128
 20
17.3445060832
 30
0.0
 10
8.0855146639
 20
17.3409392416
 30
0.0
 10
8.0859317861
 20
17.3370299611
 30
0.0
 10
8.0862893282
 20
17.3328016574
 30
0.0
 10
8.086694421
 20
17.3266077083
 30
0.0
 10
8.0870257336
 20
17.3182793587
 30
0.0
 10
8.0871069013
 20
17.3114587765
 30
0.0
 10
8.0871064937
 20
17.3079149482
 30
0.0
  0
SPLINE
  5
59B
100
AcDbEntity
  8
0
100
AcDbSpline
 62
9
  6
CONTINUOUS
 70
0
 71
3
 72
11
 73
7
 74
0
 42
0.0000001
 43
0.0000001
 44
0.0000000001
 40
0.0
 40
0.0
 40
0.0
 40
0.0
 40
0.1984547719
 40
0.4209047903
 40
0.6846847897
 40
1.0
 40
1.0
 40
1.0
 40
1.0
 10
8.0770475576
 20
17.1409742604
 30
0.0
 10
8.0772424587
 20
17.1409740102
 30
0.0
 10
8.0776583376
 20
17.1408907433
 30
0.0
 10
8.078244328
 20
17.1405436669
 30
0.0
 10
8.0788124161
 20
17.139991758
 30
0.0
 10
8.0791513058
 20
17.1395325101
 30
0.0
 10
8.0793217646
 20
17.1392739781
 30
0.0
  0
SPLINE
  5
59C
100
AcDbEntity
  8
0
100
AcDbSpline
 62
9
  6
CONTINUOUS
 70
0
 71
3
 72
18
 73
14
 74
0
 42
0.0000001
 43
0.0000001
 44
0.0000000001
 40
0.0
 40
0.0
 40
0.0
 40
0.0
 40
0.0252469398
 40
0.0564228217
 40
0.0936133229
 40
0.136701504
 40
0.1855067712
 40
0.239817126
 40
0.3637817625
 40
0.5055021685
 40
0.6614899667
 40
0.8277463411
 40
1.0
 40
1.0
 40
1.0
 40
1.0
 10
8.0793217646
 20
17.1392739781
 30
0.0
 10
8.0796318955
 20
17.1388036079
 30
0.0
 10
8.0802253084
 20
17.137687323
 30
0.0
 10
8.0810033032
 20
17.1357465312
 30
0.0
 10
8.0817556289
 20
17.1333738715
 30
0.0
 10
8.0824775468
 20
17.1305841994
 30
0.0
 10
8.0831635354
 20
17.1273936667
 30
0.0
 10
8.084062376
 20
17.122405768
 30
0.0
 10
8.0850286855
 20
17.1153273989
 30
0.0
 10
8.0859382711
 20
17.1059598042
 30
0.0
 10
8.0866062153
 20
17.0956259646
 30
0.0
 10
8.0870167519
 20
17.0845972702
 30
0.0
 10
8.0871069182
 20
17.0770427262
 30
0.0
 10
8.0871064938
 20
17.0731987275
 30
0.0
  0
SPLINE
  5
59D
100
AcDbEntity
  8
0
100
AcDbSpline
 62
9
  6
CONTINUOUS
 70
0
 71
3
 72
25
 73
21
 74
0
 42
0.0000001
 43
0.0000001
 44
0.0000000001
 40
0.0
 40
0.0
 40
0.0
 40
0.0
 40
0.1878043758
 40
0.3695598901
 40
0.4559066466
 40
0.5381004723
 40
0.6153076298
 40
0.6867518462
 40
0.7518237747
 40
0.8099588877
 40
0.860624606
 40
0.9034698682
 40
0.9219169895
 40
0.938371887
 40
0.9528500384
 40
0.9653958183
 40
0.9761064115
 40
0.9851826692
 40
0.9929682059
 40
1.0
 40
1.0
 40
1.0
 40
1.0
 10
8.0871074694
 20
17.0731989606
 30
0.0
 10
8.087107603
 20
17.0684299228
 30
0.0
 10
8.0869672328
 20
17.0590449291
 30
0.0
 10
8.0864459897
 20
17.0474774292
 30
0.0
 10
8.0858161724
 20
17.0386040364
 30
0.0
 10
8.0852602832
 20
17.0323880203
 30
0.0
 10
8.084618649
 20
17.0265607695
 30
0.0
 10
8.0838966036
 20
17.0211811968
 30
0.0
 10
8.0831036932
 20
17.0163015791
 30
0.0
 10
8.0822497314
 20
17.0119685408
 30
0.0
 10
8.0813425557
 20
17.008224755
 30
0.0
 10
8.0805149756
 20
17.0055019797
 30
0.0
 10
8.0798187496
 20
17.0036537855
 30
0.0
 10
8.0793155229
 20
17.002504468
 30
0.0
 10
8.0788061695
 20
17.0015237383
 30
0.0
 10
8.0782914926
 20
17.0007135803
 30
0.0
 10
8.0777709896
 20
17.0000753195
 30
0.0
 10
8.0772427865
 20
16.999609189
 30
0.0
 10
8.0767030111
 20
16.9993174486
 30
0.0
 10
8.076325389
 20
16.9992459752
 30
0.0
 10
8.0761468363
 20
16.9992440703
 30
0.0
  0
SPLINE
  5
59E
100
AcDbEntity
  8
0
100
AcDbSpline
 62
9
  6
CONTINUOUS
 70
0
 71
3
 72
17
 73
13
 74
0
 42
0.0000001
 43
0.0000001
 44
0.0000000001
 40
0.0
 40
0.0
 40
0.0
 40
0.0
 40
0.2236976033
 40
0.4184101748
 40
0.584072122
 40
0.7207167667
 40
0.8285842153
 40
0.908420553
 40
0.9384909244
 40
0.9627468571
 40
0.98246905
 40
1.0
 40
1.0
 40
1.0
 40
1.0
 10
8.0871074697
 20
16.1160630063
 30
0.0
 10
8.0871075008
 20
16.1157153316
 30
0.0
 10
8.0871018219
 20
16.1150650059
 30
0.0
 10
8.0870720634
 20
16.1141575857
 30
0.0
 10
8.0870219859
 20
16.1133866218
 30
0.0
 10
8.0869523775
 20
16.1127524593
 30
0.0
 10
8.0868634405
 20
16.1122561236
 30
0.0
 10
8.0867682437
 20
16.1119293177
 30
0.0
 10
8.0866746919
 20
16.1117422019
 30
0.0
 10
8.0866054641
 20
16.1116492101
 30
0.0
 10
8.0865282216
 20
16.111589714
 30
0.0
 10
8.0864696752
 20
16.1115759306
 30
0.0
 10
8.0864424283
 20
16.1115758754
 30
0.0
  0
SPLINE
  5
59F
100
AcDbEntity
  8
0
100
AcDbSpline
 62
9
  6
CONTINUOUS
 70
0
 71
3
 72
13
 73
9
 74
0
 42
0.0000001
 43
0.0000001
 44
0.0000000001
 40
0.0
 40
0.0
 40
0.0
 40
0.0
 40
0.2798079376
 40
0.5266742938
 40
0.6365732326
 40
0.750334769
 40
0.8719269565
 40
1.0
 40
1.0
 40
1.0
 40
1.0
 10
8.0871073484
 20
16.1160630044
 30
0.0
 10
8.0886356341
 20
16.1160636966
 30
0.0
 10
8.0915414388
 20
16.1155320743
 30
0.0
 10
8.0945911217
 20
16.113721992
 30
0.0
 10
8.0964110521
 20
16.1118943376
 30
0.0
 10
8.0975113586
 20
16.1103514013
 30
0.0
 10
8.0983660556
 20
16.1085478213
 30
0.0
 10
8.0987030381
 20
16.1072151042
 30
0.0
 10
8.0988056031
 20
16.1065231407
 30
0.0
  0
SPLINE
  5
5A0
100
AcDbEntity
  8
0
100
AcDbSpline
 62
9
  6
CONTINUOUS
 70
0
 71
3
 72
15
 73
11
 74
0
 42
0.0000001
 43
0.0000001
 44
0.0000000001
 40
0.0
 40
0.0
 40
0.0
 40
0.0
 40
0.1385011917
 40
0.2798461976
 40
0.4205181412
 40
0.5577300825
 40
0.6877405398
 40
0.8055645135
 40
0.9104039024
 40
1.0
 40
1.0
 40
1.0
 40
1.0
 10
8.0889390655
 20
16.2080128722
 30
0.0
 10
8.0895037112
 20
16.2037531022
 30
0.0
 10
8.0906125058
 20
16.1951418231
 30
0.0
 10
8.0921919654
 20
16.1821910073
 30
0.0
 10
8.0936682249
 20
16.1692682628
 30
0.0
 10
8.0950212705
 20
16.1566857339
 30
0.0
 10
8.0962232456
 20
16.1448000366
 30
0.0
 10
8.0971971807
 20
16.1339014092
 30
0.0
 10
8.0979590944
 20
16.1242434257
 30
0.0
 10
8.0983639923
 20
16.1182242387
 30
0.0
 10
8.0985154182
 20
16.1154486276
 30
0.0
  0
LINE
  5
5A1
100
AcDbEntity
  8
0
100
AcDbLine
 62
9
  6
CONTINUOUS
 10
8.0985154182
 20
16.1154486276
 11
8.0988041185
 21
16.1065229468
  0
SPLINE
  5
5A2
100
AcDbEntity
  8
0
100
AcDbSpline
 62
9
  6
CONTINUOUS
 70
0
 71
3
 72
29
 73
25
 74
0
 42
0.0000001
 43
0.0000001
 44
0.0000000001
 40
0.0
 40
0.0
 40
0.0
 40
0.0
 40
0.0041673545
 40
0.007117794
 40
0.0107739917
 40
0.0151788987
 40
0.0203542659
 40
0.0263111714
 40
0.0330542519
 40
0.0488729773
 40
0.0677276293
 40
0.0895129032
 40
0.1141154868
 40
0.1712063912
 40
0.2375770987
 40
0.3116638604
 40
0.3916542092
 40
0.4756003301
 40
0.5614675599
 40
0.7304303032
 40
0.8093061858
 40
0.8816995134
 40
0.9458198177
 40
1.0
 40
1.0
 40
1.0
 40
1.0
 10
8.0679326133
 20
16.3552201483
 30
0.0
 10
8.0681152538
 20
16.3552196102
 30
0.0
 10
8.0684117299
 20
16.355042495
 30
0.0
 10
8.0687268015
 20
16.3546983769
 30
0.0
 10
8.0690077307
 20
16.3543021562
 30
0.0
 10
8.0692976712
 20
16.3537999297
 30
0.0
 10
8.0696004252
 20
16.3531893467
 30
0.0
 10
8.069914166
 20
16.3524713279
 30
0.0
 10
8.0703715634
 20
16.351307877
 30
0.0
 10
8.0709582756
 20
16.3495893144
 30
0.0
 10
8.0716678275
 20
16.3472184733
 30
0.0
 10
8.0724096477
 20
16.3444566835
 30
0.0
 10
8.0734893072
 20
16.340051665
 30
0.0
 10
8.07486148
 20
16.3337081166
 30
0.0
 10
8.0764905245
 20
16.3252043392
 30
0.0
 10
8.078126716
 20
16.3156818728
 30
0.0
 10
8.0797312635
 20
16.3053738859
 30
0.0
 10
8.0812626826
 20
16.2945330795
 30
0.0
 10
8.0831443745
 20
16.2798051123
 30
0.0
 10
8.0847223457
 20
16.2652630631
 30
0.0
 10
8.0859308831
 20
16.2512800417
 30
0.0
 10
8.0865845055
 20
16.2418622875
 30
0.0
 10
8.0869930306
 20
16.2335142486
 30
0.0
 10
8.0871069567
 20
16.2283295553
 30
0.0
 10
8.0871064938
 20
16.2259550182
 30
0.0
  0
SPLINE
  5
5A3
100
AcDbEntity
  8
0
100
AcDbSpline
 62
9
  6
CONTINUOUS
 70
0
 71
3
 72
17
 73
13
 74
0
 42
0.0000001
 43
0.0000001
 44
0.0000000001
 40
0.0
 40
0.0
 40
0.0
 40
0.0
 40
0.1998859022
 40
0.3847520347
 40
0.5465863824
 40
0.6814073608
 40
0.7898916581
 40
0.8823610372
 40
0.9218960152
 40
0.9553488135
 40
0.9816875219
 40
1.0
 40
1.0
 40
1.0
 40
1.0
 10
8.0871073489
 20
17.0731989401
 30
0.0
 10
8.0878880225
 20
17.0731989243
 30
0.0
 10
8.0893907168
 20
17.0732053987
 30
0.0
 10
8.0915253109
 20
17.0732331289
 30
0.0
 10
8.0934054954
 20
17.0732752221
 30
0.0
 10
8.0949869954
 20
17.0733272654
 30
0.0
 10
8.0962970435
 20
17.0733871676
 30
0.0
 10
8.0972345906
 20
17.0734457667
 30
0.0
 10
8.097878415
 20
17.0735011473
 30
0.0
 10
8.0982642356
 20
17.0735428258
 30
0.0
 10
8.0985659916
 20
17.0735866348
 30
0.0
 10
8.0987373715
 20
17.0736217671
 30
0.0
 10
8.0988056043
 20
17.0736432045
 30
0.0
  0
SPLINE
  5
5A4
100
AcDbEntity
  8
0
100
AcDbSpline
 62
9
  6
CONTINUOUS
 70
0
 71
3
 72
31
 73
27
 74
0
 42
0.0000001
 43
0.0000001
 44
0.0000000001
 40
0.0
 40
0.0
 40
0.0
 40
0.0
 40
0.0220750402
 40
0.041250392
 40
0.0575115292
 40
0.0709013315
 40
0.0815967604
 40
0.0900715373
 40
0.0937718839
 40
0.0973242762
 40
0.1009248384
 40
0.1047624295
 40
0.1089937073
 40
0.1137332292
 40
0.1250140603
 40
0.1389912179
 40
0.1558250215
 40
0.175581654
 40
0.1982771691
 40
0.2524243932
 40
0.3179422449
 40
0.3939011528
 40
0.4791766984
 40
0.5725502678
 40
0.7784524517
 40
1.0
 40
1.0
 40
1.0
 40
1.0
 10
8.0844848244
 20
17.1455100539
 30
0.0
 10
8.0846700886
 20
17.1461418614
 30
0.0
 10
8.0850393114
 20
17.1473160239
 30
0.0
 10
8.0856417793
 20
17.1489232545
 30
0.0
 10
8.0862516638
 20
17.1502475
 30
0.0
 10
8.0868687697
 20
17.1512847117
 30
0.0
 10
8.0874942974
 20
17.1520341223
 30
0.0
 10
8.0880635701
 20
17.1524363093
 30
0.0
 10
8.0885162185
 20
17.1525737243
 30
0.0
 10
8.0888425847
 20
17.152592575
 30
0.0
 10
8.0891677156
 20
17.1525312256
 30
0.0
 10
8.0894891289
 20
17.1523914082
 30
0.0
 10
8.089806474
 20
17.1521755575
 30
0.0
 10
8.0902510465
 20
17.1517641122
 30
0.0
 10
8.0907910536
 20
17.1510430876
 30
0.0
 10
8.0913952158
 20
17.1499403364
 30
0.0
 10
8.0919899925
 20
17.1485523198
 30
0.0
 10
8.0925733398
 20
17.1468820598
 30
0.0
 10
8.0933807992
 20
17.1441153007
 30
0.0
 10
8.0943129629
 20
17.1399691234
 30
0.0
 10
8.0952951018
 20
17.1342162444
 30
0.0
 10
8.0961830604
 20
17.1275103649
 30
0.0
 10
8.0969618629
 20
17.1199556475
 30
0.0
 10
8.0978684271
 20
17.1085210724
 30
0.0
 10
8.0986175067
 20
17.0930011195
 30
0.0
 10
8.0988009376
 20
17.0802510968
 30
0.0
 10
8.0988041185
 20
17.0736432235
 30
0.0
  0
SPLINE
  5
5A5
100
AcDbEntity
  8
0
100
AcDbSpline
 62
9
  6
CONTINUOUS
 70
0
 71
3
 72
19
 73
15
 74
0
 42
0.0000001
 43
0.0000001
 44
0.0000000001
 40
0.0
 40
0.0
 40
0.0
 40
0.0
 40
0.2157990177
 40
0.4079476272
 40
0.5745476889
 40
0.7138690399
 40
0.7729914815
 40
0.8250138744
 40
0.8699307427
 40
0.9078088523
 40
0.9388542547
 40
0.9635729087
 40
0.9831641691
 40
1.0
 40
1.0
 40
1.0
 40
1.0
 10
8.0871074751
 20
16.3836417326
 30
0.0
 10
8.0871075446
 20
16.3818582588
 30
0.0
 10
8.0870741071
 20
16.3784866106
 30
0.0
 10
8.0869068026
 20
16.3737405267
 30
0.0
 10
8.0866286663
 20
16.3696328727
 30
0.0
 10
8.0862926497
 20
16.366632919
 30
0.0
 10
8.0859553764
 20
16.3645901173
 30
0.0
 10
8.0856912452
 20
16.3633271823
 30
0.0
 10
8.085403161
 20
16.3622500827
 30
0.0
 10
8.085092041
 20
16.3613609489
 30
0.0
 10
8.0847584312
 20
16.3606601165
 30
0.0
 10
8.0843994836
 20
16.3601463614
 30
0.0
 10
8.0840040057
 20
16.3598160102
 30
0.0
 10
8.0837001546
 20
16.3597359712
 30
0.0
 10
8.0835610152
 20
16.359735563
 30
0.0
  0
SPLINE
  5
5A6
100
AcDbEntity
  8
0
100
AcDbSpline
 62
9
  6
CONTINUOUS
 70
0
 71
3
 72
14
 73
10
 74
0
 42
0.0000001
 43
0.0000001
 44
0.0000000001
 40
0.0
 40
0.0
 40
0.0
 40
0.0
 40
0.1622014289
 40
0.3148842986
 40
0.5754705781
 40
0.6831556877
 40
0.7884789592
 40
0.8943786472
 40
1.0
 40
1.0
 40
1.0
 40
1.0
 10
8.0871073489
 20
16.3836417172
 30
0.0
 10
8.0878897303
 20
16.3836419681
 30
0.0
 10
8.0894112647
 20
16.3835415567
 30
0.0
 10
8.0921374409
 20
16.3829984354
 30
0.0
 10
8.0945029839
 20
16.3820400055
 30
0.0
 10
8.0963770145
 20
16.3807209083
 30
0.0
 10
8.0974806311
 20
16.3796374262
 30
0.0
 10
8.0983468688
 20
16.3783641856
 30
0.0
 10
8.0987011218
 20
16.3773916604
 30
0.0
 10
8.0988055983
 20
16.3768930215
 30
0.0
  0
SPLINE
  5
5A7
100
AcDbEntity
  8
0
100
AcDbSpline
 62
9
  6
CONTINUOUS
 70
0
 71
3
 72
40
 73
36
 74
0
 42
0.0000001
 43
0.0000001
 44
0.0000000001
 40
0.0
 40
0.0
 40
0.0
 40
0.0
 40
0.0175948466
 40
0.025079349
 40
0.0316736889
 40
0.0373730988
 40
0.0421836741
 40
0.0461325846
 40
0.0492958839
 40
0.0518462367
 40
0.0541040054
 40
0.0565094947
 40
0.0594371643
 40
0.0631042465
 40
0.0676124312
 40
0.0730025088
 40
0.0792886703
 40
0.0864717305
 40
0.0945452004
 40
0.1133267845
 40
0.1355738531
 40
0.1612145989
 40
0.1901315233
 40
0.2221139791
 40
0.2569344068
 40
0.2943470848
 40
0.3340804435
 40
0.3758594778
 40
0.4644106095
 40
0.5576326531
 40
0.6528656788
 40
0.7473778541
 40
0.8385263477
 40
0.9235477781
 40
1.0
 40
1.0
 40
1.0
 40
1.0
 10
8.0787714836
 20
16.506994113
 30
0.0
 10
8.0788846691
 20
16.5078508203
 30
0.0
 10
8.079070528
 20
16.5090694067
 30
0.0
 10
8.079386412
 20
16.5105929671
 30
0.0
 10
8.0796252766
 20
16.5115349406
 30
0.0
 10
8.0798785311
 20
16.5123365761
 30
0.0
 10
8.0801458204
 20
16.5129955493
 30
0.0
 10
8.0804277766
 20
16.5135110376
 30
0.0
 10
8.0807272442
 20
16.5138835223
 30
0.0
 10
8.0810546686
 20
16.5141137239
 30
0.0
 10
8.0814171386
 20
16.5141760849
 30
0.0
 10
8.0817825424
 20
16.514058539
 30
0.0
 10
8.0821393643
 20
16.5137898765
 30
0.0
 10
8.0825006196
 20
16.5133782759
 30
0.0
 10
8.0828707273
 20
16.5128227887
 30
0.0
 10
8.0832509767
 20
16.5121239314
 30
0.0
 10
8.0836407512
 20
16.5112831715
 30
0.0
 10
8.0840393441
 20
16.5103027431
 30
0.0
 10
8.0846106514
 20
16.5087313318
 30
0.0
 10
8.0853296433
 20
16.5064281963
 30
0.0
 10
8.0861788143
 20
16.5032652683
 30
0.0
 10
8.0870447104
 20
16.4995933053
 30
0.0
 10
8.0879205045
 20
16.4954338746
 30
0.0
 10
8.0888008723
 20
16.4908156235
 30
0.0
 10
8.0896787485
 20
16.4857728467
 30
0.0
 10
8.0905476374
 20
16.4803426645
 30
0.0
 10
8.091402003
 20
16.4745644856
 30
0.0
 10
8.0925357024
 20
16.4662891698
 30
0.0
 10
8.093865325
 20
16.4553897506
 30
0.0
 10
8.0952764918
 20
16.4418576647
 30
0.0
 10
8.096494979
 20
16.4280129588
 30
0.0
 10
8.0974878078
 20
16.4142523756
 30
0.0
 10
8.0982290081
 20
16.4009781041
 30
0.0
 10
8.0986863473
 20
16.3885784724
 30
0.0
 10
8.0988017616
 20
16.3806477606
 30
0.0
 10
8.0988041185
 20
16.3768928931
 30
0.0
  0
LINE
  5
5A8
100
AcDbEntity
  8
0
100
AcDbLine
 62
9
  6
CONTINUOUS
 10
8.0833377253
 20
16.9957152733
 11
8.0841550704
 21
16.9928993612
  0
SPLINE
  5
5A9
100
AcDbEntity
  8
0
100
AcDbSpline
 62
9
  6
CONTINUOUS
 70
0
 71
3
 72
34
 73
30
 74
0
 42
0.0000001
 43
0.0000001
 44
0.0000000001
 40
0.0
 40
0.0
 40
0.0
 40
0.0
 40
0.0185806029
 40
0.0343238639
 40
0.0472855183
 40
0.0576323457
 40
0.0619532177
 40
0.0658201634
 40
0.0693689023
 40
0.0727725253
 40
0.0762251368
 40
0.0799123037
 40
0.0839869527
 40
0.0885626641
 40
0.0994922939
 40
0.1130759089
 40
0.1294643582
 40
0.1487183163
 40
0.1708449521
 40
0.1958077355
 40
0.2235533728
 40
0.2540198778
 40
0.3227445424
 40
0.4010382262
 40
0.4878014813
 40
0.5817146708
 40
0.6813972972
 40
0.785425639
 40
1.0
 40
1.0
 40
1.0
 40
1.0
 10
8.0841550704
 20
16.9928993612
 30
0.0
 10
8.0843389483
 20
16.9923404615
 30
0.0
 10
8.0847044913
 20
16.991316129
 30
0.0
 10
8.0853098911
 20
16.9899443316
 30
0.0
 10
8.0859246176
 20
16.9888688291
 30
0.0
 10
8.0864766976
 20
16.9881802684
 30
0.0
 10
8.0869318949
 20
16.9878062936
 30
0.0
 10
8.087256762
 20
16.9876212947
 30
0.0
 10
8.0875859174
 20
16.9875162005
 30
0.0
 10
8.0879180041
 20
16.9874935081
 30
0.0
 10
8.0882496332
 20
16.9875538176
 30
0.0
 10
8.0885782199
 20
16.9876950441
 30
0.0
 10
8.0889035555
 20
16.9879146342
 30
0.0
 10
8.0893609845
 20
16.9883358354
 30
0.0
 10
8.089918217
 20
16.9890772069
 30
0.0
 10
8.0905443818
 20
16.9902132275
 30
0.0
 10
8.0911639682
 20
16.9916456492
 30
0.0
 10
8.0917744761
 20
16.9933710636
 30
0.0
 10
8.0923734366
 20
16.9953854425
 30
0.0
 10
8.0929585611
 20
16.9976822734
 30
0.0
 10
8.0935273756
 20
17.0002543009
 30
0.0
 10
8.0942912981
 20
17.0042009827
 30
0.0
 10
8.0951702302
 20
17.0097536376
 30
0.0
 10
8.0960904641
 20
17.0171000206
 30
0.0
 10
8.0968955804
 20
17.0252617256
 30
0.0
 10
8.0975758685
 20
17.0341140044
 30
0.0
 10
8.0981196226
 20
17.0435233783
 30
0.0
 10
8.0986492885
 20
17.0567586758
 30
0.0
 10
8.0987967414
 20
17.0668485482
 30
0.0
 10
8.0988041185
 20
17.0736432235
 30
0.0
  0
SPLINE
  5
5AA
100
AcDbEntity
  8
0
100
AcDbSpline
 62
9
  6
CONTINUOUS
 70
0
 71
3
 72
21
 73
17
 74
0
 42
0.0000001
 43
0.0000001
 44
0.0000000001
 40
0.0
 40
0.0
 40
0.0
 40
0.0
 40
0.2207313765
 40
0.414572442
 40
0.58075019
 40
0.6532536027
 40
0.7186013498
 40
0.7767425533
 40
0.8276685162
 40
0.8714785188
 40
0.8907764235
 40
0.9083792342
 40
0.9386903008
 40
0.9630588679
 40
0.9827257893
 40
1.0
 40
1.0
 40
1.0
 40
1.0
 10
8.0871074694
 20
16.2259505507
 30
0.0
 10
8.0871075165
 20
16.224998364
 30
0.0
 10
8.0870910721
 20
16.223209887
 30
0.0
 10
8.0870063237
 20
16.2207058306
 30
0.0
 10
8.0868837
 20
16.2188435163
 30
0.0
 10
8.0867512861
 20
16.2175385679
 30
0.0
 10
8.0866423793
 20
16.2167000108
 30
0.0
 10
8.0865195932
 20
16.2159575062
 30
0.0
 10
8.0863829614
 20
16.2153120818
 30
0.0
 10
8.0862530539
 20
16.2148371665
 30
0.0
 10
8.0861401959
 20
16.2145076511
 30
0.0
 10
8.086032852
 20
16.2142382607
 30
0.0
 10
8.0858937159
 20
16.2139580578
 30
0.0
 10
8.0857029709
 20
16.2136974974
 30
0.0
 10
8.0854914912
 20
16.2135302368
 30
0.0
 10
8.0853306255
 20
16.213490334
 30
0.0
 10
8.0852561094
 20
16.2134899363
 30
0.0
  0
SPLINE
  5
5AB
100
AcDbEntity
  8
0
100
AcDbSpline
 62
9
  6
CONTINUOUS
 70
0
 71
3
 72
13
 73
9
 74
0
 42
0.0000001
 43
0.0000001
 44
0.0000000001
 40
0.0
 40
0.0
 40
0.0
 40
0.0
 40
0.2934196405
 40
0.5454613316
 40
0.6543748933
 40
0.7647831975
 40
0.8803526455
 40
1.0
 40
1.0
 40
1.0
 40
1.0
 10
8.0871073489
 20
16.225950539
 30
0.0
 10
8.0886298748
 20
16.2259511461
 30
0.0
 10
8.0914832428
 20
16.2254991208
 30
0.0
 10
8.0945560198
 20
16.2239180222
 30
0.0
 10
8.0963985778
 20
16.2222957272
 30
0.0
 10
8.0975009366
 20
16.2209406824
 30
0.0
 10
8.0983601312
 20
16.2193535126
 30
0.0
 10
8.098702469
 20
16.2181691425
 30
0.0
 10
8.0988056043
 20
16.2175569304
 30
0.0
  0
LINE
  5
5AC
100
AcDbEntity
  8
0
100
AcDbLine
 62
9
  6
CONTINUOUS
 10
8.0830572316
 20
16.3600899157
 11
8.0844848244
 21
16.3538706124
  0
SPLINE
  5
5AD
100
AcDbEntity
  8
0
100
AcDbSpline
 62
9
  6
CONTINUOUS
 70
0
 71
3
 72
19
 73
15
 74
0
 42
0.0000001
 43
0.0000001
 44
0.0000000001
 40
0.0
 40
0.0
 40
0.0
 40
0.0
 40
0.0452909389
 40
0.0970752168
 40
0.1547583412
 40
0.2174787777
 40
0.3542518267
 40
0.4995400036
 40
0.6450173391
 40
0.7821904163
 40
0.8451657424
 40
0.9030333232
 40
0.9548358576
 40
1.0
 40
1.0
 40
1.0
 40
1.0
 10
8.0844848244
 20
16.3538706124
 30
0.0
 10
8.0849117273
 20
16.3518436421
 30
0.0
 10
8.085768404
 20
16.3474867744
 30
0.0
 10
8.0870031575
 20
16.3405169502
 30
0.0
 10
8.0882577644
 20
16.3327420287
 30
0.0
 10
8.0899854645
 20
16.3211070721
 30
0.0
 10
8.0920438452
 20
16.3054718517
 30
0.0
 10
8.094259252
 20
16.2860428301
 30
0.0
 10
8.0961396433
 20
16.2665601143
 30
0.0
 10
8.097380328
 20
16.2508001285
 30
0.0
 10
8.0981135653
 20
16.2390220126
 30
0.0
 10
8.0985036712
 20
16.2311352083
 30
0.0
 10
8.0987396405
 20
16.2240572872
 30
0.0
 10
8.0988023737
 20
16.2196224041
 30
0.0
 10
8.0988041185
 20
16.2175567662
 30
0.0
  0
LINE
  5
5AE
100
AcDbEntity
  8
0
100
AcDbLine
 62
9
  6
CONTINUOUS
 10
8.0959628067
 20
16.1076636288
 11
8.0966452175
 21
16.1048617044
  0
SPLINE
  5
5AF
100
AcDbEntity
  8
0
100
AcDbSpline
 62
9
  6
CONTINUOUS
 70
0
 71
3
 72
25
 73
21
 74
0
 42
0.0000001
 43
0.0000001
 44
0.0000000001
 40
0.0
 40
0.0
 40
0.0
 40
0.0
 40
0.1008533109
 40
0.1878525057
 40
0.2609551966
 40
0.3201778135
 40
0.3656529366
 40
0.3978545727
 40
0.4094780767
 40
0.4187560725
 40
0.4267947852
 40
0.4352321807
 40
0.4455401773
 40
0.4585895591
 40
0.4944628056
 40
0.5444291949
 40
0.6085601969
 40
0.6865868483
 40
0.7781285735
 40
1.0
 40
1.0
 40
1.0
 40
1.0
 10
8.0966452175
 20
16.1048617044
 30
0.0
 10
8.0967260809
 20
16.1045582491
 30
0.0
 10
8.0968818982
 20
16.1039943904
 30
0.0
 10
8.0971183769
 20
16.1032168102
 30
0.0
 10
8.0973398872
 20
16.1025707232
 30
0.0
 10
8.0975455883
 20
16.1020559591
 30
0.0
 10
8.0977349356
 20
16.1016742305
 30
0.0
 10
8.097891552
 20
16.101440781
 30
0.0
 10
8.0980161824
 20
16.10133057
 30
0.0
 10
8.0980987142
 20
16.1012899828
 30
0.0
 10
8.0981820743
 20
16.1012882099
 30
0.0
 10
8.0982583282
 20
16.1013283698
 30
0.0
 10
8.0983251646
 20
16.101402978
 30
0.0
 10
8.0984166097
 20
16.101564097
 30
0.0
 10
8.0985094123
 20
16.1018601561
 30
0.0
 10
8.0985981833
 20
16.1023185685
 30
0.0
 10
8.0986712459
 20
16.1029128646
 30
0.0
 10
8.0987288327
 20
16.1036383552
 30
0.0
 10
8.0987881737
 20
16.1048559682
 30
0.0
 10
8.0988020037
 20
16.1058320703
 30
0.0
 10
8.0988041185
 20
16.1065229468
 30
0.0
  0
SPLINE
  5
5B0
100
AcDbEntity
  8
0
100
AcDbSpline
 62
9
  6
CONTINUOUS
 70
0
 71
3
 72
28
 73
24
 74
0
 42
0.0000001
 43
0.0000001
 44
0.0000000001
 40
0.0
 40
0.0
 40
0.0
 40
0.0
 40
0.0024096454
 40
0.0051120292
 40
0.0082641643
 40
0.0119621218
 40
0.0211894887
 40
0.0330297571
 40
0.0475523827
 40
0.0647661754
 40
0.0846174067
 40
0.1070140076
 40
0.1318552847
 40
0.1590357775
 40
0.2199381945
 40
0.2885248522
 40
0.3634619517
 40
0.4433132632
 40
0.5264620903
 40
0.6959890989
 40
0.8582522005
 40
0.932478395
 40
1.0
 40
1.0
 40
1.0
 40
1.0
 10
8.0696281993
 20
16.5014659473
 30
0.0
 10
8.0697248088
 20
16.5014661498
 30
0.0
 10
8.0699307047
 20
16.5014310781
 30
0.0
 10
8.0702313169
 20
16.5012846339
 30
0.0
 10
8.0705356378
 20
16.5010489251
 30
0.0
 10
8.0709820192
 20
16.5005816117
 30
0.0
 10
8.0715416787
 20
16.4997549386
 30
0.0
 10
8.0721993821
 20
16.4984873441
 30
0.0
 10
8.0728818662
 20
16.4968774183
 30
0.0
 10
8.0735847921
 20
16.4949315809
 30
0.0
 10
8.074304583
 20
16.4926583113
 30
0.0
 10
8.0750374555
 20
16.4900699469
 30
0.0
 10
8.0757793236
 20
16.4871797373
 30
0.0
 10
8.0768147706
 20
16.4827720101
 30
0.0
 10
8.0780865462
 20
16.4766196372
 30
0.0
 10
8.0795386103
 20
16.468552591
 30
0.0
 10
8.0809363859
 20
16.4597059633
 30
0.0
 10
8.082249638
 20
16.4502566928
 30
0.0
 10
8.0838643512
 20
16.4370223283
 30
0.0
 10
8.0854848026
 20
16.4204625749
 30
0.0
 10
8.0865668838
 20
16.4042166156
 30
0.0
 10
8.0870231178
 20
16.3920357509
 30
0.0
 10
8.0871068724
 20
16.3863525286
 30
0.0
 10
8.0871064722
 20
16.3836453901
 30
0.0
  0
SPLINE
  5
5B1
100
AcDbEntity
  8
0
100
AcDbSpline
 62
9
  6
CONTINUOUS
 70
0
 71
3
 72
18
 73
14
 74
0
 42
0.0000001
 43
0.0000001
 44
0.0000000001
 40
0.0
 40
0.0
 40
0.0
 40
0.0
 40
0.153535084
 40
0.3099382405
 40
0.4632184665
 40
0.6075730383
 40
0.7376369807
 40
0.7958184086
 40
0.8487263787
 40
0.8959336651
 40
0.9370418241
 40
0.9717715333
 40
1.0
 40
1.0
 40
1.0
 40
1.0
 10
8.0871072534
 20
17.3079163675
 30
0.0
 10
8.0871072734
 20
17.3033565126
 30
0.0
 10
8.0869653789
 20
17.2941511782
 30
0.0
 10
8.0863713651
 20
17.2804052238
 30
0.0
 10
8.0854152551
 20
17.266952705
 30
0.0
 10
8.0841362059
 20
17.2543130682
 30
0.0
 10
8.0828022869
 20
17.2445226114
 30
0.0
 10
8.0815888655
 20
17.2374634257
 30
0.0
 10
8.0806669268
 20
17.2328527092
 30
0.0
 10
8.0797100567
 20
17.228768239
 30
0.0
 10
8.0787273215
 20
17.2252468049
 30
0.0
 10
8.0777286796
 20
17.2223203257
 30
0.0
 10
8.0769842963
 20
17.2206004337
 30
0.0
 10
8.0765972309
 20
17.219856775
 30
0.0
  0
SPLINE
  5
5B2
100
AcDbEntity
  8
0
100
AcDbSpline
 62
9
  6
CONTINUOUS
 70
0
 71
3
 72
13
 73
9
 74
0
 42
0.0000001
 43
0.0000001
 44
0.0000000001
 40
0.0
 40
0.0
 40
0.0
 40
0.0
 40
0.3403625191
 40
0.6122067693
 40
0.7252507534
 40
0.8254150041
 40
0.9156464389
 40
1.0
 40
1.0
 40
1.0
 40
1.0
 10
8.0765972309
 20
17.219856775
 30
0.0
 10
8.0763684372
 20
17.2194171995
 30
0.0
 10
8.0759226419
 20
17.2186435838
 30
0.0
 10
8.0752660366
 20
17.2178071297
 30
0.0
 10
8.0747333696
 20
17.2173402185
 30
0.0
 10
8.0743583507
 20
17.2171024369
 30
0.0
 10
8.0739826469
 20
17.2169567015
 30
0.0
 10
8.0737275646
 20
17.2169228467
 30
0.0
 10
8.0736047494
 20
17.2169227268
 30
0.0
  0
SPLINE
  5
5B3
100
AcDbEntity
  8
0
100
AcDbSpline
 62
9
  6
CONTINUOUS
 70
0
 71
3
 72
34
 73
30
 74
0
 42
0.0000001
 43
0.0000001
 44
0.0000000001
 40
0.0
 40
0.0
 40
0.0
 40
0.0
 40
0.0975604616
 40
0.1974611798
 40
0.2973338339
 40
0.3956258841
 40
0.4903412202
 40
0.5793477671
 40
0.661063411
 40
0.7341654997
 40
0.7975913675
 40
0.8253244446
 40
0.8501803931
 40
0.871999248
 40
0.8906798184
 40
0.9062897659
 40
0.9189698585
 40
0.9289470724
 40
0.9330419937
 40
0.9366334264
 40
0.939851085
 40
0.9428874108
 40
0.9459832308
 40
0.9493799156
 40
0.9532746629
 40
0.9577977752
 40
0.9689436046
 40
0.9830214127
 40
1.0
 40
1.0
 40
1.0
 40
1.0
 10
8.0988041185
 20
17.3108092074
 30
0.0
 10
8.0988133381
 20
17.3070719824
 30
0.0
 10
8.0987515628
 20
17.2995075112
 30
0.0
 10
8.0984385845
 20
17.288121226
 30
0.0
 10
8.0979163844
 20
17.2767147034
 30
0.0
 10
8.0972418658
 20
17.2655153157
 30
0.0
 10
8.0964157056
 20
17.2547431836
 30
0.0
 10
8.0954155199
 20
17.2446235301
 30
0.0
 10
8.0942793595
 20
17.2353517332
 30
0.0
 10
8.0930389801
 20
17.2270829727
 30
0.0
 10
8.091897253
 20
17.220893091
 30
0.0
 10
8.0909309973
 20
17.2165547161
 30
0.0
 10
8.0902284384
 20
17.2137918007
 30
0.0
 10
8.089518863
 20
17.2113899944
 30
0.0
 10
8.088802842
 20
17.2093621966
 30
0.0
 10
8.0880857286
 20
17.2077093725
 30
0.0
 10
8.0873711029
 20
17.2064268875
 30
0.0
 10
8.0867421481
 20
17.2056077517
 30
0.0
 10
8.0862312402
 20
17.2051604914
 30
0.0
 10
8.0858724332
 20
17.204941517
 30
0.0
 10
8.0855109784
 20
17.2048204743
 30
0.0
 10
8.0851479274
 20
17.2048047973
 30
0.0
 10
8.0847900038
 20
17.2048989874
 30
0.0
 10
8.0844425123
 20
17.2051005255
 30
0.0
 10
8.0841054403
 20
17.2054062346
 30
0.0
 10
8.0836344266
 20
17.2059918852
 30
0.0
 10
8.0830815456
 20
17.206995869
 30
0.0
 10
8.0824772186
 20
17.2084967121
 30
0.0
 10
8.0821216501
 20
17.2096333387
 30
0.0
 10
8.0819431821
 20
17.2102587705
 30
0.0
  0
LINE
  5
5B4
100
AcDbEntity
  8
0
100
AcDbLine
 62
9
  6
CONTINUOUS
 10
8.0819431821
 20
17.2102587705
 11
8.0812611969
 21
17.2129800912
  0
SPLINE
  5
5B5
100
AcDbEntity
  8
0
100
AcDbSpline
 62
9
  6
CONTINUOUS
 70
0
 71
3
 72
16
 73
12
 74
0
 42
0.0000001
 43
0.0000001
 44
0.0000000001
 40
0.0
 40
0.0
 40
0.0
 40
0.0
 40
0.1894368927
 40
0.3652066662
 40
0.5201650692
 40
0.6508472018
 40
0.7581742132
 40
0.8531863072
 40
0.8961429099
 40
0.9350698305
 40
1.0
 40
1.0
 40
1.0
 40
1.0
 10
8.0871072534
 20
17.3079163676
 30
0.0
 10
8.0878882376
 20
17.3079162607
 30
0.0
 10
8.0893942263
 20
17.3079585569
 30
0.0
 10
8.0915321919
 20
17.3081397237
 30
0.0
 10
8.0934157111
 20
17.3084147589
 30
0.0
 10
8.0950010342
 20
17.3087555029
 30
0.0
 10
8.0963180127
 20
17.30914861
 30
0.0
 10
8.0972558233
 20
17.3095342672
 30
0.0
 10
8.0978929864
 20
17.3098929754
 30
0.0
 10
8.0983846966
 20
17.3102433814
 30
0.0
 10
8.0986878608
 20
17.3105686455
 30
0.0
 10
8.0988053921
 20
17.3108091486
 30
0.0
  0
SPLINE
  5
5B6
100
AcDbEntity
  8
0
100
AcDbSpline
 62
9
  6
CONTINUOUS
 70
0
 71
3
 72
31
 73
27
 74
0
 42
0.0000001
 43
0.0000001
 44
0.0000000001
 40
0.0
 40
0.0
 40
0.0
 40
0.0
 40
0.025535016
 40
0.0481047993
 40
0.0677186894
 40
0.0844168692
 40
0.098297202
 40
0.1095859951
 40
0.1187441274
 40
0.1266168917
 40
0.1344749239
 40
0.1435940463
 40
0.1548258144
 40
0.1686341017
 40
0.1852670827
 40
0.204864518
 40
0.2274846808
 40
0.2531016159
 40
0.3130977109
 40
0.3843091914
 40
0.4660032709
 40
0.5573644037
 40
0.6575277433
 40
0.7655888908
 40
0.8803340667
 40
1.0
 40
1.0
 40
1.0
 40
1.0
 10
8.0869161482
 20
17.3627104413
 30
0.0
 10
8.0870898614
 20
17.3632749525
 30
0.0
 10
8.0874349372
 20
17.3643331239
 30
0.0
 10
8.087986063
 20
17.3657999841
 30
0.0
 10
8.0885371557
 20
17.3670465228
 30
0.0
 10
8.0890866372
 20
17.3680708947
 30
0.0
 10
8.0896342093
 20
17.3688728606
 30
0.0
 10
8.0901823169
 20
17.3694535482
 30
0.0
 10
8.090740348
 20
17.3698150699
 30
0.0
 10
8.0913220756
 20
17.3699335168
 30
0.0
 10
8.0918946166
 20
17.3697796277
 30
0.0
 10
8.0924262122
 20
17.3693842445
 30
0.0
 10
8.0929318793
 20
17.3687712217
 30
0.0
 10
8.0934213676
 20
17.3679376957
 30
0.0
 10
8.0938966635
 20
17.3668806914
 30
0.0
 10
8.094356748
 20
17.3655984898
 30
0.0
 10
8.0948002092
 20
17.364092739
 30
0.0
 10
8.0954003814
 20
17.3616616342
 30
0.0
 10
8.0960789103
 20
17.358095867
 30
0.0
 10
8.096776949
 20
17.3532200838
 30
0.0
 10
8.0973854546
 20
17.3476020338
 30
0.0
 10
8.0978968345
 20
17.3413025152
 30
0.0
 10
8.0983027193
 20
17.3343843728
 30
0.0
 10
8.0985935503
 20
17.3269191959
 30
0.0
 10
8.0987647917
 20
17.3189992098
 30
0.0
 10
8.098802729
 20
17.3135771256
 30
0.0
 10
8.0988041185
 20
17.3108092074
 30
0.0
  0
SPLINE
  5
5B7
100
AcDbEntity
  8
0
100
AcDbSpline
 62
9
  6
CONTINUOUS
 70
0
 71
3
 72
31
 73
27
 74
0
 42
0.0000001
 43
0.0000001
 44
0.0000000001
 40
0.0
 40
0.0
 40
0.0
 40
0.0
 40
0.0631408963
 40
0.0901521853
 40
0.114112518
 40
0.135036215
 40
0.1529689454
 40
0.1680189758
 40
0.1804168969
 40
0.1905909065
 40
0.1993135255
 40
0.2077755157
 40
0.2172755927
 40
0.2287722017
 40
0.2428068748
 40
0.2596539084
 40
0.2794536975
 40
0.3022773744
 40
0.3281581965
 40
0.3891165262
 40
0.4623088211
 40
0.5476140599
 40
0.6448584732
 40
0.7534667761
 40
0.8722614742
 40
1.0
 40
1.0
 40
1.0
 40
1.0
 10
8.0918205807
 20
16.3550228437
 30
0.0
 10
8.0920506988
 20
16.354305632
 30
0.0
 10
8.0924001827
 20
16.3532876835
 30
0.0
 10
8.0929100057
 20
16.3520251627
 30
0.0
 10
8.0932651788
 20
16.3512441339
 30
0.0
 10
8.0936127514
 20
16.3505797039
 30
0.0
 10
8.0939523473
 20
16.3500327119
 30
0.0
 10
8.0942841637
 20
16.3496033
 30
0.0
 10
8.0946093664
 20
16.3492907334
 30
0.0
 10
8.094932185
 20
16.3490944834
 30
0.0
 10
8.0952594353
 20
16.3490239078
 30
0.0
 10
8.0955793644
 20
16.3490948236
 30
0.0
 10
8.0958740708
 20
16.3492972396
 30
0.0
 10
8.0961478206
 20
16.3496167655
 30
0.0
 10
8.0964074618
 20
16.3500524261
 30
0.0
 10
8.0966551241
 20
16.3506049679
 30
0.0
 10
8.0968911291
 20
16.3512746165
 30
0.0
 10
8.0971152705
 20
16.3520608812
 30
0.0
 10
8.0974141673
 20
16.3533348527
 30
0.0
 10
8.0977427526
 20
16.3552168318
 30
0.0
 10
8.0980674735
 20
16.3578151538
 30
0.0
 10
8.0983361638
 20
16.3608546695
 30
0.0
 10
8.0985447623
 20
16.3643220398
 30
0.0
 10
8.0986919159
 20
16.3681922938
 30
0.0
 10
8.0987809004
 20
16.3724280907
 30
0.0
 10
8.0988018564
 20
16.3753690682
 30
0.0
 10
8.0988041185
 20
16.3768928931
 30
0.0
  0
SPLINE
  5
5B8
100
AcDbEntity
  8
0
100
AcDbSpline
 62
9
  6
CONTINUOUS
 70
0
 71
3
 72
31
 73
27
 74
0
 42
0.0000001
 43
0.0000001
 44
0.0000000001
 40
0.0
 40
0.0
 40
0.0
 40
0.0
 40
0.1252236836
 40
0.2426258297
 40
0.3509942538
 40
0.4493229737
 40
0.5369031851
 40
0.6130828907
 40
0.6773786107
 40
0.7049669161
 40
0.7294735514
 40
0.7508954016
 40
0.7692822979
 40
0.7847366925
 40
0.7974496771
 40
0.8077875165
 40
0.8164509784
 40
0.8246101215
 40
0.8336267791
 40
0.8445334366
 40
0.8579219657
 40
0.8741054205
 40
0.8932403766
 40
0.9153893411
 40
0.9405718527
 40
1.0
 40
1.0
 40
1.0
 40
1.0
 10
8.0988041185
 20
17.5313289416
 30
0.0
 10
8.0988038594
 20
17.5334547326
 30
0.0
 10
8.098776155
 20
17.5375736075
 30
0.0
 10
8.0986459943
 20
17.5435308944
 30
0.0
 10
8.0984292909
 20
17.5490288636
 30
0.0
 10
8.0981274366
 20
17.5540157937
 30
0.0
 10
8.0977450365
 20
17.5584492023
 30
0.0
 10
8.0972851752
 20
17.5622939987
 30
0.0
 10
8.096822608
 20
17.565110946
 30
0.0
 10
8.0964043506
 20
17.5670424421
 30
0.0
 10
8.0960903647
 20
17.5682507696
 30
0.0
 10
8.0957605483
 20
17.5692922531
 30
0.0
 10
8.0954157885
 20
17.5701658075
 30
0.0
 10
8.0950567028
 20
17.5708716569
 30
0.0
 10
8.0946822765
 20
17.571410923
 30
0.0
 10
8.0942881308
 20
17.5717857104
 30
0.0
 10
8.0938606557
 20
17.5719876046
 30
0.0
 10
8.0934078019
 20
17.5719881867
 30
0.0
 10
8.0929619888
 20
17.5717933508
 30
0.0
 10
8.0925234794
 20
17.5714293609
 30
0.0
 10
8.0920815011
 20
17.5708999286
 30
0.0
 10
8.091633049
 20
17.570203594
 30
0.0
 10
8.0911775471
 20
17.5693399169
 30
0.0
 10
8.0907153842
 20
17.5683099523
 30
0.0
 10
8.0900546801
 20
17.5666217958
 30
0.0
 10
8.0896111651
 20
17.5652542112
 30
0.0
 10
8.0893211814
 20
17.5642879368
 30
0.0
  0
LINE
  5
5B9
100
AcDbEntity
  8
0
100
AcDbLine
 62
9
  6
CONTINUOUS
 10
8.0755435716
 20
16.2137414429
 11
8.0758086401
 21
16.2121217893
  0
SPLINE
  5
5BA
100
AcDbEntity
  8
0
100
AcDbSpline
 62
9
  6
CONTINUOUS
 70
0
 71
3
 72
17
 73
13
 74
0
 42
0.0000001
 43
0.0000001
 44
0.0000000001
 40
0.0
 40
0.0
 40
0.0
 40
0.0
 40
0.1434359725
 40
0.2936313121
 40
0.4444528646
 40
0.5896549719
 40
0.7231314162
 40
0.839186805
 40
0.889082604
 40
0.9328140925
 40
0.9699145529
 40
1.0
 40
1.0
 40
1.0
 40
1.0
 10
8.0758086401
 20
16.2121217893
 30
0.0
 10
8.0765523821
 20
16.2075550284
 30
0.0
 10
8.078015097
 20
16.1981964999
 30
0.0
 10
8.0800775238
 20
16.1840083112
 30
0.0
 10
8.0820021473
 20
16.1697432654
 30
0.0
 10
8.0837089935
 20
16.155993773
 30
0.0
 10
8.0851258637
 20
16.1433393027
 30
0.0
 10
8.0860599047
 20
16.1337250821
 30
0.0
 10
8.086602397
 20
16.12698283
 30
0.0
 10
8.0868833287
 20
16.1227750099
 30
0.0
 10
8.0870570694
 20
16.1192011099
 30
0.0
 10
8.0871073309
 20
16.1170339092
 30
0.0
 10
8.0871073314
 20
16.1160634192
 30
0.0
  0
SPLINE
  5
5BB
100
AcDbEntity
  8
0
100
AcDbSpline
 62
9
  6
CONTINUOUS
 70
0
 71
3
 72
28
 73
24
 74
0
 42
0.0000001
 43
0.0000001
 44
0.0000000001
 40
0.0
 40
0.0
 40
0.0
 40
0.0
 40
0.0764693099
 40
0.1573092929
 40
0.3265367182
 40
0.4120103775
 40
0.4960706375
 40
0.5773130486
 40
0.6543833057
 40
0.7259739619
 40
0.7909704369
 40
0.848323289
 40
0.8971186109
 40
0.9181092229
 40
0.9367369295
 40
0.9529467616
 40
0.9667112889
 40
0.9780734499
 40
0.9871556744
 40
0.9909264315
 40
0.9942561118
 40
0.9972371031
 40
1.0
 40
1.0
 40
1.0
 40
1.0
 10
8.0871074692
 20
17.526159627
 30
0.0
 10
8.0871075598
 20
17.5233718355
 30
0.0
 10
8.0870401547
 20
17.5176367742
 30
0.0
 10
8.0866666382
 20
17.5057377904
 30
0.0
 10
8.0859506455
 20
17.4935232273
 30
0.0
 10
8.0849278219
 20
17.4812152843
 30
0.0
 10
8.0840157598
 20
17.4721180029
 30
0.0
 10
8.0829792469
 20
17.4633425027
 30
0.0
 10
8.0818381971
 20
17.4550385149
 30
0.0
 10
8.0806101364
 20
17.4473460787
 30
0.0
 10
8.0793196726
 20
17.4403935128
 30
0.0
 10
8.0779898208
 20
17.4342964714
 30
0.0
 10
8.0768164777
 20
17.4298100684
 30
0.0
 10
8.0758569945
 20
17.4267323579
 30
0.0
 10
8.0751783858
 20
17.4248128628
 30
0.0
 10
8.0745075372
 20
17.4231720375
 30
0.0
 10
8.0738464131
 20
17.4218159095
 30
0.0
 10
8.073198304
 20
17.4207484011
 30
0.0
 10
8.0726386821
 20
17.4200582526
 30
0.0
 10
8.0721906012
 20
17.4196719783
 30
0.0
 10
8.0718781333
 20
17.4194751435
 30
0.0
 10
8.0715677454
 20
17.4193541263
 30
0.0
 10
8.0713576657
 20
17.4193255809
 30
0.0
 10
8.0712569407
 20
17.4193254316
 30
0.0
  0
SPLINE
  5
5BC
100
AcDbEntity
  8
0
100
AcDbSpline
 62
9
  6
CONTINUOUS
 70
0
 71
3
 72
15
 73
11
 74
0
 42
0.0000001
 43
0.0000001
 44
0.0000000001
 40
0.0
 40
0.0
 40
0.0
 40
0.0
 40
0.1735798285
 40
0.3357966411
 40
0.4809857684
 40
0.6065002988
 40
0.7135335934
 40
0.814100107
 40
0.9099575868
 40
1.0
 40
1.0
 40
1.0
 40
1.0
 10
8.0871073488
 20
17.5261596221
 30
0.0
 10
8.0878890226
 20
17.5261594309
 30
0.0
 10
8.0894023687
 20
17.5262356177
 30
0.0
 10
8.0915473599
 20
17.5265616597
 30
0.0
 10
8.093437024
 20
17.5270567127
 30
0.0
 10
8.0950274914
 20
17.5276709738
 30
0.0
 10
8.0963530962
 20
17.5283820924
 30
0.0
 10
8.0974535473
 20
17.529203219
 30
0.0
 10
8.0983246803
 20
17.5301690286
 30
0.0
 10
8.0986986166
 20
17.5309377245
 30
0.0
 10
8.0988056044
 20
17.5313288392
 30
0.0
  0
SPLINE
  5
5BD
100
AcDbEntity
  8
0
100
AcDbSpline
 62
9
  6
CONTINUOUS
 70
0
 71
3
 72
36
 73
32
 74
0
 42
0.0000001
 43
0.0000001
 44
0.0000000001
 40
0.0
 40
0.0
 40
0.0
 40
0.0
 40
0.0190651358
 40
0.0346647976
 40
0.0411661865
 40
0.0468195356
 40
0.0516535143
 40
0.0557192389
 40
0.0591097315
 40
0.0619941751
 40
0.0646382306
 40
0.0673716413
 40
0.0704901096
 40
0.0741934341
 40
0.0785987083
 40
0.083773115
 40
0.0965642107
 40
0.1127349886
 40
0.1323222343
 40
0.1552465115
 40
0.181386047
 40
0.2106019371
 40
0.2775422179
 40
0.3545164378
 40
0.4397399669
 40
0.5311952633
 40
0.6266099711
 40
0.7236281787
 40
0.8198212887
 40
0.9126886053
 40
1.0
 40
1.0
 40
1.0
 40
1.0
 10
8.0796744004
 20
17.4145732059
 30
0.0
 10
8.0798186884
 20
17.4137248468
 30
0.0
 10
8.0801129962
 20
17.4121874998
 30
0.0
 10
8.0805799258
 20
17.4103863389
 30
0.0
 10
8.0809922066
 20
17.4092026101
 30
0.0
 10
8.0812935342
 20
17.4084966392
 30
0.0
 10
8.0816056261
 20
17.4079172765
 30
0.0
 10
8.0819290805
 20
17.4074640918
 30
0.0
 10
8.0822667086
 20
17.4071367091
 30
0.0
 10
8.0826240943
 20
17.4069377215
 30
0.0
 10
8.0830012852
 20
17.4068792168
 30
0.0
 10
8.0833827441
 20
17.4069658224
 30
0.0
 10
8.0837598576
 20
17.4071842888
 30
0.0
 10
8.08413725
 20
17.4075262234
 30
0.0
 10
8.0845187436
 20
17.4079907006
 30
0.0
 10
8.0850741321
 20
17.4088355902
 30
0.0
 10
8.0857605972
 20
17.4102200727
 30
0.0
 10
8.0865567091
 20
17.412263006
 30
0.0
 10
8.0873658418
 20
17.4147865735
 30
0.0
 10
8.0881843233
 20
17.4177758482
 30
0.0
 10
8.0890059653
 20
17.4212128288
 30
0.0
 10
8.0901499719
 20
17.4266135058
 30
0.0
 10
8.0915226456
 20
17.4343085094
 30
0.0
 10
8.0930379863
 20
17.4445405062
 30
0.0
 10
8.0944446813
 20
17.4559038548
 30
0.0
 10
8.0957050811
 20
17.4681212197
 30
0.0
 10
8.0967856636
 20
17.4808901002
 30
0.0
 10
8.0976609156
 20
17.4938889674
 30
0.0
 10
8.0983099523
 20
17.5067860558
 30
0.0
 10
8.0987029135
 20
17.519255183
 30
0.0
 10
8.0987992479
 20
17.527387976
 30
0.0
 10
8.0988041185
 20
17.5313289416
 30
0.0
  0
SPLINE
  5
5BE
100
AcDbEntity
  8
0
100
AcDbSpline
 62
9
  6
CONTINUOUS
 70
0
 71
3
 72
16
 73
12
 74
0
 42
0.0000001
 43
0.0000001
 44
0.0000000001
 40
0.0
 40
0.0
 40
0.0
 40
0.0
 40
0.1758891481
 40
0.3365425232
 40
0.4810243627
 40
0.6094925262
 40
0.7229280701
 40
0.8234040821
 40
0.9142263177
 40
0.9574520413
 40
1.0
 40
1.0
 40
1.0
 40
1.0
 10
10.966568581
 20
8.9439197732
 30
0.0
 10
10.9669873996
 20
8.9425257462
 30
0.0
 10
10.9678718788
 20
8.9398821283
 30
0.0
 10
10.9694156586
 20
8.9362081903
 30
0.0
 10
10.971105046
 20
8.9330355292
 30
0.0
 10
10.9729185751
 20
8.9303920828
 30
0.0
 10
10.974841619
 20
8.9282949336
 30
0.0
 10
10.9768660901
 20
8.9267630221
 30
0.0
 10
10.9786618792
 20
8.9259685241
 30
0.0
 10
10.9800946513
 20
8.9256608674
 30
0.0
 10
10.9808055152
 20
8.925609936
 30
0.0
 10
10.9811576237
 20
8.925609914
 30
0.0
  0
SPLINE
  5
5BF
100
AcDbEntity
  8
0
100
AcDbSpline
 62
9
  6
CONTINUOUS
 70
0
 71
3
 72
10
 73
6
 74
0
 42
0.0000001
 43
0.0000001
 44
0.0000000001
 40
0.0
 40
0.0
 40
0.0
 40
0.0
 40
0.2243206804
 40
0.4674032911
 40
1.0
 40
1.0
 40
1.0
 40
1.0
 10
10.9665685812
 20
8.9439197732
 30
0.0
 10
10.9676030353
 20
8.9435021779
 30
0.0
 10
10.9698036144
 20
8.9427399072
 30
0.0
 10
10.9746367869
 20
8.941551142
 30
0.0
 10
10.9785089798
 20
8.9411734125
 30
0.0
 10
10.9811576223
 20
8.9411734125
 30
0.0
  0
SPLINE
  5
5C0
100
AcDbEntity
  8
0
100
AcDbSpline
 62
9
  6
CONTINUOUS
 70
0
 71
3
 72
19
 73
15
 74
0
 42
0.0000001
 43
0.0000001
 44
0.0000000001
 40
0.0
 40
0.0
 40
0.0
 40
0.0
 40
0.1472276573
 40
0.2963268651
 40
0.4415544426
 40
0.5111927791
 40
0.5779819367
 40
0.6414968309
 40
0.7017530369
 40
0.7588012014
 40
0.8126362063
 40
0.8633217872
 40
0.9112512715
 40
1.0
 40
1.0
 40
1.0
 40
1.0
 10
10.9811576223
 20
8.9411734125
 30
0.0
 10
10.9831634111
 20
8.9411734125
 30
0.0
 10
10.987205761
 20
8.9414750524
 30
0.0
 10
10.993098702
 20
8.9427937473
 30
0.0
 10
10.9977132628
 20
8.9446833978
 30
0.0
 10
11.0010445359
 20
8.9465963422
 30
0.0
 10
11.0032729327
 20
8.9481711108
 30
0.0
 10
11.0052286803
 20
8.9498858304
 30
0.0
 10
11.0069015036
 20
8.9517005907
 30
0.0
 10
11.0082899661
 20
8.9535794834
 30
0.0
 10
11.0093945815
 20
8.9554889814
 30
0.0
 10
11.0102161278
 20
8.9574023753
 30
0.0
 10
11.010939791
 20
8.959854419
 30
0.0
 10
11.0111576223
 20
8.9617247696
 30
0.0
 10
11.0111576223
 20
8.9629338577
 30
0.0
  0
SPLINE
  5
5C1
100
AcDbEntity
  8
0
100
AcDbSpline
 62
9
  6
CONTINUOUS
 70
0
 71
3
 72
19
 73
15
 74
0
 42
0.0000001
 43
0.0000001
 44
0.0000000001
 40
0.0
 40
0.0
 40
0.0
 40
0.0
 40
0.0887481704
 40
0.1366773864
 40
0.1873627233
 40
0.2411975214
 40
0.2982455278
 40
0.3585016333
 40
0.4220164916
 40
0.4888056809
 40
0.5584441129
 40
0.7036720465
 40
0.8527717681
 40
1.0
 40
1.0
 40
1.0
 40
1.0
 10
11.0111576223
 20
9.8882858054
 30
0.0
 10
11.0111576223
 20
9.8894948811
 30
0.0
 10
11.0109397908
 20
9.8913652131
 30
0.0
 10
11.0102161275
 20
9.8938172311
 30
0.0
 10
11.0093945811
 20
9.8957306053
 30
0.0
 10
11.0082899655
 20
9.8976400836
 30
0.0
 10
11.0069015027
 20
9.8995189568
 30
0.0
 10
11.0052286793
 20
9.9013336982
 30
0.0
 10
11.0032729316
 20
9.9030483999
 30
0.0
 10
11.0010445348
 20
9.9046231519
 30
0.0
 10
10.9977132606
 20
9.9065360769
 30
0.0
 10
10.9930986991
 20
9.9084257076
 30
0.0
 10
10.9872057597
 20
9.909744388
 30
0.0
 10
10.983163411
 20
9.9100460247
 30
0.0
 10
10.9811576223
 20
9.9100460247
 30
0.0
  0
SPLINE
  5
5C2
100
AcDbEntity
  8
0
100
AcDbSpline
 62
9
  6
CONTINUOUS
 70
0
 71
3
 72
10
 73
6
 74
0
 42
0.0000001
 43
0.0000001
 44
0.0000000001
 40
0.0
 40
0.0
 40
0.0
 40
0.0
 40
0.5325968431
 40
0.7756794124
 40
1.0
 40
1.0
 40
1.0
 40
1.0
 10
10.9811576223
 20
9.9100460247
 30
0.0
 10
10.9785089804
 20
9.9100460247
 30
0.0
 10
10.974636789
 20
9.9096682994
 30
0.0
 10
10.9698036159
 20
9.9084795464
 30
0.0
 10
10.967603036
 20
9.9077172835
 30
0.0
 10
10.9665685812
 20
9.9072996925
 30
0.0
  0
SPLINE
  5
5C3
100
AcDbEntity
  8
0
100
AcDbSpline
 62
9
  6
CONTINUOUS
 70
0
 71
3
 72
16
 73
12
 74
0
 42
0.0000001
 43
0.0000001
 44
0.0000000001
 40
0.0
 40
0.0
 40
0.0
 40
0.0
 40
0.0425478278
 40
0.0857629479
 40
0.1765548608
 40
0.2770334365
 40
0.3905040007
 40
0.5190152264
 40
0.6635010167
 40
0.8241224394
 40
1.0
 40
1.0
 40
1.0
 40
1.0
 10
10.9811576233
 20
9.925609914
 30
0.0
 10
10.9808055127
 20
9.9256098986
 30
0.0
 10
10.9800947311
 20
9.9255590547
 30
0.0
 10
10.9786622218
 20
9.925251692
 30
0.0
 10
10.976866745
 20
9.9244571985
 30
0.0
 10
10.9748421111
 20
9.9229254688
 30
0.0
 10
10.9729178526
 20
9.9208284405
 30
0.0
 10
10.9711045433
 20
9.918183916
 30
0.0
 10
10.9694154939
 20
9.915010942
 30
0.0
 10
10.967871772
 20
9.9113372954
 30
0.0
 10
10.9669874223
 20
9.9086939888
 30
0.0
 10
10.966568581
 20
9.9073000549
 30
0.0
  0
LINE
  5
5C4
100
AcDbEntity
  8
0
100
AcDbLine
 62
7
  6
CONTINUOUS
 10
11.4876787717
 20
9.9306984553
 11
11.3988155544
 21
9.9278504137
  0
SPLINE
  5
5C5
100
AcDbEntity
  8
0
100
AcDbSpline
 62
7
  6
CONTINUOUS
 70
0
 71
3
 72
23
 73
19
 74
0
 42
0.0000001
 43
0.0000001
 44
0.0000000001
 40
0.0
 40
0.0
 40
0.0
 40
0.0
 40
0.0053266038
 40
0.0123257325
 40
0.021042498
 40
0.0314983175
 40
0.0437039292
 40
0.057661433
 40
0.09081649
 40
0.1309207732
 40
0.1779166823
 40
0.2317202032
 40
0.2922147712
 40
0.3592795943
 40
0.432788743
 40
0.5985425441
 40
0.7881953156
 40
1.0
 40
1.0
 40
1.0
 40
1.0
 10
10.9276648885
 20
9.9574217218
 30
0.0
 10
10.9278458325
 20
9.9575221441
 30
0.0
 10
10.9282878782
 20
9.957711285
 30
0.0
 10
10.9290666426
 20
9.957960905
 30
0.0
 10
10.9300524714
 20
9.9582122227
 30
0.0
 10
10.9312452702
 20
9.9584647826
 30
0.0
 10
10.9326453812
 20
9.958718136
 30
0.0
 10
10.9349218679
 20
9.9590776036
 30
0.0
 10
10.938282329
 20
9.9595162572
 30
0.0
 10
10.9429272341
 20
9.9600205617
 30
0.0
 10
10.9483782076
 20
9.9605265039
 30
0.0
 10
10.9546241366
 20
9.9610338026
 30
0.0
 10
10.9616519516
 20
9.9615420304
 30
0.0
 10
10.96944708
 20
9.962050958
 30
0.0
 10
10.9813271475
 20
9.9627586841
 30
0.0
 10
10.9979682367
 20
9.9636306106
 30
0.0
 10
11.0199816845
 20
9.9646426631
 30
0.0
 10
11.0355654477
 20
9.965285054
 30
0.0
 10
11.043787814
 20
9.965609914
 30
0.0
  0
SPLINE
  5
5C6
100
AcDbEntity
  8
0
100
AcDbSpline
 62
7
  6
CONTINUOUS
 70
0
 71
3
 72
12
 73
8
 74
0
 42
0.0000001
 43
0.0000001
 44
0.0000000001
 40
0.0
 40
0.0
 40
0.0
 40
0.0
 40
0.2499939151
 40
0.3750028505
 40
0.500007048
 40
0.750002047
 40
1.0
 40
1.0
 40
1.0
 40
1.0
 10
11.3988211332
 20
9.9457108165
 30
0.0
 10
11.4062597786
 20
9.9466632234
 30
0.0
 10
11.41739448
 20
9.9482837062
 30
0.0
 10
11.4321845267
 20
9.9507823535
 30
0.0
 10
11.4469376648
 20
9.9534915456
 30
0.0
 10
11.4653055167
 20
9.9572641097
 30
0.0
 10
11.4799129102
 20
9.9606770912
 30
0.0
 10
11.4871939844
 20
9.962473838
 30
0.0
  0
SPLINE
  5
5C7
100
AcDbEntity
  8
0
100
AcDbSpline
 62
7
  6
CONTINUOUS
 70
0
 71
3
 72
10
 73
6
 74
0
 42
0.0000001
 43
0.0000001
 44
0.0000000001
 40
0.0
 40
0.0
 40
0.0
 40
0.0
 40
0.2500129102
 40
0.6250083779
 40
1.0
 40
1.0
 40
1.0
 40
1.0
 10
11.1516149443
 20
9.9608202177
 30
0.0
 10
11.1616302334
 20
9.9584621624
 30
0.0
 10
11.1867691904
 20
9.9529900988
 30
0.0
 10
11.2273712212
 20
9.9461292847
 30
0.0
 10
11.2580972574
 20
9.942917641
 30
0.0
 10
11.2734941113
 20
9.9418682887
 30
0.0
  0
SPLINE
  5
5C8
100
AcDbEntity
  8
0
100
AcDbSpline
 62
7
  6
CONTINUOUS
 70
0
 71
3
 72
19
 73
15
 74
0
 42
0.0000001
 43
0.0000001
 44
0.0000000001
 40
0.0
 40
0.0
 40
0.0
 40
0.0
 40
0.1746595962
 40
0.3412598523
 40
0.4965156233
 40
0.6371696896
 40
0.7600163553
 40
0.8139664235
 40
0.862630571
 40
0.9057861035
 40
0.9432115262
 40
0.9746875484
 40
0.9881273578
 40
1.0
 40
1.0
 40
1.0
 40
1.0
 10
11.2734991954
 20
9.9418686936
 30
0.0
 10
11.2562264716
 20
9.9413339353
 30
0.0
 10
11.2224784328
 20
9.9402762729
 30
0.0
 10
11.1733790989
 20
9.9386642275
 30
0.0
 10
11.1276460714
 20
9.9370560874
 30
0.0
 10
11.0862447516
 20
9.9354542984
 30
0.0
 10
11.0548659897
 20
9.9340717276
 30
0.0
 10
11.0325871847
 20
9.9329422421
 30
0.0
 10
11.0181871782
 20
9.9321336299
 30
0.0
 10
11.0054248296
 20
9.9313272523
 30
0.0
 10
10.9943667988
 20
9.9305235613
 30
0.0
 10
10.9862492686
 20
9.9298266976
 30
0.0
 10
10.9806594314
 20
9.929256764
 30
0.0
 10
10.9781713791
 20
9.9289696625
 30
0.0
 10
10.977005745
 20
9.9288240702
 30
0.0
  0
SPLINE
  5
5C9
100
AcDbEntity
  8
0
100
AcDbSpline
 62
7
  6
CONTINUOUS
 70
0
 71
3
 72
19
 73
15
 74
0
 42
0.0000001
 43
0.0000001
 44
0.0000000001
 40
0.0
 40
0.0
 40
0.0
 40
0.0
 40
0.2253141673
 40
0.4210389753
 40
0.5872948889
 40
0.7243007463
 40
0.7819463119
 40
0.832437506
 40
0.8758764423
 40
0.91242116
 40
0.9423352059
 40
0.9660987579
 40
0.9846688778
 40
1.0
 40
1.0
 40
1.0
 40
1.0
 10
10.977005745
 20
9.9288240702
 30
0.0
 10
10.9761359657
 20
9.9287154312
 30
0.0
 10
10.9745120147
 20
9.9285009835
 30
0.0
 10
10.9722530187
 20
9.9281575022
 30
0.0
 10
10.970342017
 20
9.9278151036
 30
0.0
 10
10.9689693811
 20
9.9275169554
 30
0.0
 10
10.9680473149
 20
9.9272728029
 30
0.0
 10
10.9674831475
 20
9.9271006629
 30
0.0
 10
10.9670052066
 20
9.9269289238
 30
0.0
 10
10.9666130582
 20
9.9267575839
 30
0.0
 10
10.9663055946
 20
9.9265865816
 30
0.0
 10
10.966081503
 20
9.9264146858
 30
0.0
 10
10.9659375695
 20
9.926238131
 30
0.0
 10
10.9659005517
 20
9.9261056043
 30
0.0
 10
10.9659005578
 20
9.9260459617
 30
0.0
  0
SPLINE
  5
5CA
100
AcDbEntity
  8
0
100
AcDbSpline
 62
7
  6
CONTINUOUS
 70
0
 71
3
 72
35
 73
31
 74
0
 42
0.0000001
 43
0.0000001
 44
0.0000000001
 40
0.0
 40
0.0
 40
0.0
 40
0.0
 40
0.2149903431
 40
0.3153998575
 40
0.4104003121
 40
0.4995645435
 40
0.5824807156
 40
0.658754788
 40
0.7280150765
 40
0.7899452369
 40
0.8442473517
 40
0.8684604782
 40
0.8906779234
 40
0.910872287
 40
0.9290193222
 40
0.9451027047
 40
0.9591083451
 40
0.971023928
 40
0.9761951235
 40
0.9808412426
 40
0.9849635587
 40
0.9885644606
 40
0.9916479281
 40
0.9942207974
 40
0.9962955232
 40
0.9978969621
 40
0.9985370172
 40
0.9990852777
 40
0.9995625555
 40
1.0
 40
1.0
 40
1.0
 40
1.0
 10
11.1516149443
 20
9.9608202177
 30
0.0
 10
11.1354819197
 20
9.9603125023
 30
0.0
 10
11.1118142388
 20
9.9595623101
 30
0.0
 10
11.0810203161
 20
9.9585072634
 30
0.0
 10
11.059669211
 20
9.9577303538
 30
0.0
 10
11.0396323667
 20
9.9569540655
 30
0.0
 10
11.0210025073
 20
9.9561796075
 30
0.0
 10
11.0038683353
 20
9.955406205
 30
0.0
 10
10.9883114613
 20
9.9546333396
 30
0.0
 10
10.9744063809
 20
9.9538618129
 30
0.0
 10
10.9638828047
 20
9.9531977813
 30
0.0
 10
10.9563391288
 20
9.9526598144
 30
0.0
 10
10.9513520702
 20
9.952272234
 30
0.0
 10
10.9468219021
 20
9.9518850587
 30
0.0
 10
10.9427540788
 20
9.951498294
 30
0.0
 10
10.9391531317
 20
9.9511122679
 30
0.0
 10
10.9360229809
 20
9.9507271519
 30
0.0
 10
10.9337122547
 20
9.9503937772
 30
0.0
 10
10.9321032249
 20
9.9501225201
 30
0.0
 10
10.9310746338
 20
9.9499290069
 30
0.0
 10
10.9301661865
 20
9.9497357991
 30
0.0
 10
10.9293779062
 20
9.9495429832
 30
0.0
 10
10.9287098066
 20
9.949350713
 30
0.0
 10
10.9281612968
 20
9.9491591969
 30
0.0
 10
10.9277321657
 20
9.9489685547
 30
0.0
 10
10.9274531802
 20
9.9487995745
 30
0.0
 10
10.9272965314
 20
9.9486595553
 30
0.0
 10
10.9272176894
 20
9.9485615142
 30
0.0
 10
10.9271689447
 20
9.9484618055
 30
0.0
 10
10.9271576247
 20
9.9483927629
 30
0.0
 10
10.9271576224
 20
9.9483599206
 30
0.0
  0
SPLINE
  5
5CB
100
AcDbEntity
  8
0
100
AcDbSpline
 62
7
  6
CONTINUOUS
 70
0
 71
3
 72
9
 73
5
 74
0
 42
0.0000001
 43
0.0000001
 44
0.0000000001
 40
0.0
 40
0.0
 40
0.0
 40
0.0
 40
0.2552102018
 40
1.0
 40
1.0
 40
1.0
 40
1.0
 10
8.0291653343
 20
16.2369413761
 30
0.0
 10
8.0273215055
 20
16.2356360648
 30
0.0
 10
8.0201458079
 20
16.2304526871
 30
0.0
 10
8.0131709769
 20
16.2249896184
 30
0.0
 10
8.0081173124
 20
16.2207557291
 30
0.0
  0
SPLINE
  5
5CC
100
AcDbEntity
  8
0
100
AcDbSpline
 62
7
  6
CONTINUOUS
 70
0
 71
3
 72
9
 73
5
 74
0
 42
0.0000001
 43
0.0000001
 44
0.0000000001
 40
0.0
 40
0.0
 40
0.0
 40
0.0
 40
0.255409793
 40
1.0
 40
1.0
 40
1.0
 40
1.0
 10
8.0081173124
 20
16.2207557291
 30
0.0
 10
8.0064697564
 20
16.2193754298
 30
0.0
 10
8.0000775433
 20
16.2139020379
 30
0.0
 10
7.9939245057
 20
16.2081476266
 30
0.0
 10
7.9895094054
 20
16.2037014272
 30
0.0
  0
SPLINE
  5
5CD
100
AcDbEntity
  8
0
100
AcDbSpline
 62
7
  6
CONTINUOUS
 70
0
 71
3
 72
9
 73
5
 74
0
 42
0.0000001
 43
0.0000001
 44
0.0000000001
 40
0.0
 40
0.0
 40
0.0
 40
0.0
 40
0.2572168785
 40
1.0
 40
1.0
 40
1.0
 40
1.0
 10
7.9895094054
 20
16.2037014272
 30
0.0
 10
7.9876047727
 20
16.2017833786
 30
0.0
 10
7.9803199833
 20
16.1942090419
 30
0.0
 10
7.9735303973
 20
16.1861523541
 30
0.0
 10
7.9688538216
 20
16.1799025211
 30
0.0
  0
SPLINE
  5
5CE
100
AcDbEntity
  8
0
100
AcDbSpline
 62
7
  6
CONTINUOUS
 70
0
 71
3
 72
9
 73
5
 74
0
 42
0.0000001
 43
0.0000001
 44
0.0000000001
 40
0.0
 40
0.0
 40
0.0
 40
0.0
 40
0.2552030533
 40
1.0
 40
1.0
 40
1.0
 40
1.0
 10
7.9688538216
 20
16.1799025211
 30
0.0
 10
7.9676836729
 20
16.1783387201
 30
0.0
 10
7.9631877832
 20
16.1721450169
 30
0.0
 10
7.9590585098
 20
16.1656830915
 30
0.0
 10
7.9562314538
 20
16.1607334409
 30
0.0
  0
SPLINE
  5
5CF
100
AcDbEntity
  8
0
100
AcDbSpline
 62
7
  6
CONTINUOUS
 70
0
 71
3
 72
9
 73
5
 74
0
 42
0.0000001
 43
0.0000001
 44
0.0000000001
 40
0.0
 40
0.0
 40
0.0
 40
0.0
 40
0.2554718877
 40
1.0
 40
1.0
 40
1.0
 40
1.0
 10
7.9562314538
 20
16.1607334409
 30
0.0
 10
7.9550843296
 20
16.1587250391
 30
0.0
 10
7.9507530052
 20
16.1507744091
 30
0.0
 10
7.9470797751
 20
16.1424605823
 30
0.0
 10
7.9447922611
 20
16.1361200187
 30
0.0
  0
SPLINE
  5
5D0
100
AcDbEntity
  8
0
100
AcDbSpline
 62
7
  6
CONTINUOUS
 70
0
 71
3
 72
9
 73
5
 74
0
 42
0.0000001
 43
0.0000001
 44
0.0000000001
 40
0.0
 40
0.0
 40
0.0
 40
0.0
 40
0.5048593094
 40
1.0
 40
1.0
 40
1.0
 40
1.0
 10
7.9447922611
 20
16.1361200187
 30
0.0
 10
7.9430416447
 20
16.1312676355
 30
0.0
 10
7.9400851374
 20
16.1214627507
 30
0.0
 10
7.9382535543
 20
16.1113846181
 30
0.0
 10
7.9376413699
 20
16.10636258
 30
0.0
  0
SPLINE
  5
5D1
100
AcDbEntity
  8
0
100
AcDbSpline
 62
7
  6
CONTINUOUS
 70
0
 71
3
 72
15
 73
11
 74
0
 42
0.0000001
 43
0.0000001
 44
0.0000000001
 40
0.0
 40
0.0
 40
0.0
 40
0.0
 40
0.1215518082
 40
0.2425785323
 40
0.3642729918
 40
0.4872406383
 40
0.6116877976
 40
0.738148162
 40
0.8674000296
 40
1.0
 40
1.0
 40
1.0
 40
1.0
 10
7.9366963159
 20
16.1067893264
 30
0.0
 10
7.9366947478
 20
16.1148273647
 30
0.0
 10
7.9377782666
 20
16.1308898941
 30
0.0
 10
7.9426055983
 20
16.1545580286
 30
0.0
 10
7.9504725471
 20
16.1774926728
 30
0.0
 10
7.9611274227
 20
16.1995135311
 30
0.0
 10
7.9743483901
 20
16.2204629456
 30
0.0
 10
7.9899351623
 20
16.2402403787
 30
0.0
 10
8.0076842148
 20
16.2588426907
 30
0.0
 10
8.0206731554
 20
16.2703270373
 30
0.0
 10
8.027459052
 20
16.2758804687
 30
0.0
  0
SPLINE
  5
5D2
100
AcDbEntity
  8
0
100
AcDbSpline
 62
9
  6
CONTINUOUS
 70
0
 71
3
 72
15
 73
11
 74
0
 42
0.0000001
 43
0.0000001
 44
0.0000000001
 40
0.0
 40
0.0
 40
0.0
 40
0.0
 40
0.1424013578
 40
0.2847218737
 40
0.4241909711
 40
0.5581869989
 40
0.6843121441
 40
0.8007535792
 40
0.9062067641
 40
1.0
 40
1.0
 40
1.0
 40
1.0
 10
8.1187280029
 20
15.9189122768
 30
0.0
 10
8.1149358427
 20
15.9186515178
 30
0.0
 10
8.1073288073
 20
15.9184447747
 30
0.0
 10
8.0960097862
 20
15.9190382432
 30
0.0
 10
8.0849987024
 20
15.920529949
 30
0.0
 10
8.0745770638
 20
15.9228689458
 30
0.0
 10
8.0650095906
 20
15.9260056478
 30
0.0
 10
8.0565300031
 20
15.9298565058
 30
0.0
 10
8.0493626044
 20
15.934336871
 30
0.0
 10
8.0453366273
 20
15.9378686103
 30
0.0
 10
8.0436491901
 20
15.9397181151
 30
0.0
  0
LINE
  5
5D3
100
AcDbEntity
  8
0
100
AcDbLine
 62
9
  6
CONTINUOUS
 10
8.0423398201
 20
16.1239838211
 11
8.0427730647
 21
16.1244596819
  0
SPLINE
  5
5D4
100
AcDbEntity
  8
0
100
AcDbSpline
 62
9
  6
CONTINUOUS
 70
0
 71
3
 72
9
 73
5
 74
0
 42
0.0000001
 43
0.0000001
 44
0.0000000001
 40
0.0
 40
0.0
 40
0.0
 40
0.0
 40
0.4963573835
 40
1.0
 40
1.0
 40
1.0
 40
1.0
 10
7.9366968259
 20
16.1068190371
 30
0.0
 10
7.9366974882
 20
16.1126619798
 30
0.0
 10
7.9375086758
 20
16.1244470349
 30
0.0
 10
7.9399008887
 20
16.1360124006
 30
0.0
 10
7.9414711463
 20
16.1417293751
 30
0.0
  0
SPLINE
  5
5D5
100
AcDbEntity
  8
0
100
AcDbSpline
 62
9
  6
CONTINUOUS
 70
0
 71
3
 72
15
 73
11
 74
0
 42
0.0000001
 43
0.0000001
 44
0.0000000001
 40
0.0
 40
0.0
 40
0.0
 40
0.0
 40
0.1167037635
 40
0.2344061651
 40
0.3539646538
 40
0.476168667
 40
0.601653283
 40
0.7308679481
 40
0.8637937733
 40
1.0
 40
1.0
 40
1.0
 40
1.0
 10
7.9947903285
 20
15.9525680209
 30
0.0
 10
7.9961779624
 20
15.9510479217
 30
0.0
 10
7.999200773
 20
15.9482012211
 30
0.0
 10
8.0043437216
 20
15.9446256735
 30
0.0
 10
8.0100361867
 20
15.9417857927
 30
0.0
 10
8.0161980824
 20
15.9397267711
 30
0.0
 10
8.0227434316
 20
15.9384660339
 30
0.0
 10
8.0295831205
 20
15.9380301066
 30
0.0
 10
8.0366125847
 20
15.9384130286
 30
0.0
 10
8.0413051682
 20
15.9391964625
 30
0.0
 10
8.0436501696
 20
15.9397173644
 30
0.0
  0
SPLINE
  5
5D6
100
AcDbEntity
  8
0
100
AcDbSpline
 62
7
  6
CONTINUOUS
 70
0
 71
3
 72
9
 73
5
 74
0
 42
0.0000001
 43
0.0000001
 44
0.0000000001
 40
0.0
 40
0.0
 40
0.0
 40
0.0
 40
0.2552101761
 40
1.0
 40
1.0
 40
1.0
 40
1.0
 10
8.0291652342
 20
16.236941305
 30
0.0
 10
8.0273214145
 20
16.2356359992
 30
0.0
 10
8.0201457518
 20
16.2304526433
 30
0.0
 10
8.0131709539
 20
16.2249895988
 30
0.0
 10
8.0081173124
 20
16.2207557291
 30
0.0
  0
SPLINE
  5
5D7
100
AcDbEntity
  8
0
100
AcDbSpline
 62
7
  6
CONTINUOUS
 70
0
 71
3
 72
9
 73
5
 74
0
 42
0.0000001
 43
0.0000001
 44
0.0000000001
 40
0.0
 40
0.0
 40
0.0
 40
0.0
 40
0.2554097958
 40
1.0
 40
1.0
 40
1.0
 40
1.0
 10
8.0081173124
 20
16.2207557291
 30
0.0
 10
8.0064697564
 20
16.2193754298
 30
0.0
 10
8.0000775432
 20
16.213902038
 30
0.0
 10
7.9939245056
 20
16.2081476267
 30
0.0
 10
7.9895094054
 20
16.2037014272
 30
0.0
  0
SPLINE
  5
5D8
100
AcDbEntity
  8
0
100
AcDbSpline
 62
7
  6
CONTINUOUS
 70
0
 71
3
 72
9
 73
5
 74
0
 42
0.0000001
 43
0.0000001
 44
0.0000000001
 40
0.0
 40
0.0
 40
0.0
 40
0.0
 40
0.2572168754
 40
1.0
 40
1.0
 40
1.0
 40
1.0
 10
7.9895094054
 20
16.2037014272
 30
0.0
 10
7.9876047728
 20
16.2017833785
 30
0.0
 10
7.9803199836
 20
16.1942090418
 30
0.0
 10
7.9735303978
 20
16.1861523539
 30
0.0
 10
7.9688538218
 20
16.1799025211
 30
0.0
  0
SPLINE
  5
5D9
100
AcDbEntity
  8
0
100
AcDbSpline
 62
7
  6
CONTINUOUS
 70
0
 71
3
 72
9
 73
5
 74
0
 42
0.0000001
 43
0.0000001
 44
0.0000000001
 40
0.0
 40
0.0
 40
0.0
 40
0.0
 40
0.2552030602
 40
1.0
 40
1.0
 40
1.0
 40
1.0
 10
7.9688538218
 20
16.1799025211
 30
0.0
 10
7.967683673
 20
16.1783387201
 30
0.0
 10
7.9631877831
 20
16.172145017
 30
0.0
 10
7.9590585098
 20
16.1656830915
 30
0.0
 10
7.9562314539
 20
16.1607334409
 30
0.0
  0
SPLINE
  5
5DA
100
AcDbEntity
  8
0
100
AcDbSpline
 62
7
  6
CONTINUOUS
 70
0
 71
3
 72
9
 73
5
 74
0
 42
0.0000001
 43
0.0000001
 44
0.0000000001
 40
0.0
 40
0.0
 40
0.0
 40
0.0
 40
0.2554718898
 40
1.0
 40
1.0
 40
1.0
 40
1.0
 10
7.9562314539
 20
16.1607334409
 30
0.0
 10
7.9550843297
 20
16.1587250391
 30
0.0
 10
7.9507530054
 20
16.1507744089
 30
0.0
 10
7.9470797752
 20
16.1424605822
 30
0.0
 10
7.9447922607
 20
16.1361200187
 30
0.0
  0
SPLINE
  5
5DB
100
AcDbEntity
  8
0
100
AcDbSpline
 62
7
  6
CONTINUOUS
 70
0
 71
3
 72
9
 73
5
 74
0
 42
0.0000001
 43
0.0000001
 44
0.0000000001
 40
0.0
 40
0.0
 40
0.0
 40
0.0
 40
0.504859266
 40
1.0
 40
1.0
 40
1.0
 40
1.0
 10
7.9447922607
 20
16.1361200187
 30
0.0
 10
7.9430416481
 20
16.1312676472
 30
0.0
 10
7.9400851466
 20
16.1214627851
 30
0.0
 10
7.9382535646
 20
16.1113846761
 30
0.0
 10
7.9376413791
 20
16.1063626493
 30
0.0
  0
SPLINE
  5
5DC
100
AcDbEntity
  8
0
100
AcDbSpline
 62
7
  6
CONTINUOUS
 70
0
 71
3
 72
15
 73
11
 74
0
 42
0.0000001
 43
0.0000001
 44
0.0000000001
 40
0.0
 40
0.0
 40
0.0
 40
0.0
 40
0.1215518075
 40
0.2425785323
 40
0.364272993
 40
0.4872406403
 40
0.6116877999
 40
0.7381481642
 40
0.8674000311
 40
1.0
 40
1.0
 40
1.0
 40
1.0
 10
7.9366963314
 20
16.1067893473
 30
0.0
 10
7.9366947639
 20
16.1148273843
 30
0.0
 10
7.9377782835
 20
16.1308899111
 30
0.0
 10
7.9426056156
 20
16.1545580417
 30
0.0
 10
7.950472564
 20
16.1774926821
 30
0.0
 10
7.9611274384
 20
16.1995135368
 30
0.0
 10
7.9743484041
 20
16.220462948
 30
0.0
 10
7.9899351738
 20
16.2402403778
 30
0.0
 10
8.0076842233
 20
16.2588426869
 30
0.0
 10
8.0206731617
 20
16.2703270316
 30
0.0
 10
8.0274590571
 20
16.2758804621
 30
0.0
  0
SPLINE
  5
5DD
100
AcDbEntity
  8
0
100
AcDbSpline
 62
7
  6
CONTINUOUS
 70
0
 71
3
 72
11
 73
7
 74
0
 42
0.0000001
 43
0.0000001
 44
0.0000000001
 40
0.0
 40
0.0
 40
0.0
 40
0.0
 40
0.2453107018
 40
0.4930340855
 40
0.743784195
 40
1.0
 40
1.0
 40
1.0
 40
1.0
 10
7.9423951123
 20
16.0459335967
 30
0.0
 10
7.9445899736
 20
16.0373731005
 30
0.0
 10
7.9502393618
 20
16.0204640965
 30
0.0
 10
7.962026865
 20
15.9963241713
 30
0.0
 10
7.9769120671
 20
15.9734982668
 30
0.0
 10
7.988569191
 20
15.9593873384
 30
0.0
 10
7.9947902019
 20
15.9525684981
 30
0.0
  0
SPLINE
  5
5DE
100
AcDbEntity
  8
0
100
AcDbSpline
 62
7
  6
CONTINUOUS
 70
0
 71
3
 72
11
 73
7
 74
0
 42
0.0000001
 43
0.0000001
 44
0.0000000001
 40
0.0
 40
0.0
 40
0.0
 40
0.0
 40
0.2493672177
 40
0.4978139067
 40
0.747528501
 40
1.0
 40
1.0
 40
1.0
 40
1.0
 10
7.9947902467
 20
15.9525680733
 30
0.0
 10
7.9976201929
 20
15.949466251
 30
0.0
 10
8.0036607677
 20
15.9436198454
 30
0.0
 10
8.0136801386
 20
15.9359616035
 30
0.0
 10
8.0244855732
 20
15.929365812
 30
0.0
 10
8.032101894
 20
15.9256616199
 30
0.0
 10
8.0360017314
 20
15.9239696289
 30
0.0
  0
SPLINE
  5
5DF
100
AcDbEntity
  8
0
100
AcDbSpline
 62
7
  6
CONTINUOUS
 70
0
 71
3
 72
11
 73
7
 74
0
 42
0.0000001
 43
0.0000001
 44
0.0000000001
 40
0.0
 40
0.0
 40
0.0
 40
0.0
 40
0.2426033563
 40
0.4913087579
 40
0.7448271058
 40
1.0
 40
1.0
 40
1.0
 40
1.0
 10
8.0360017314
 20
15.9239696289
 30
0.0
 10
8.042363678
 20
15.9212094224
 30
0.0
 10
8.0556516367
 20
15.9165195286
 30
0.0
 10
8.0764808034
 20
15.9119014354
 30
0.0
 10
8.0980444828
 20
15.9095610666
 30
0.0
 10
8.1126166655
 20
15.9095064192
 30
0.0
 10
8.1199021
 20
15.909864412
 30
0.0
  0
SPLINE
  5
5E0
100
AcDbEntity
  8
0
100
AcDbSpline
 62
9
  6
CONTINUOUS
 70
0
 71
3
 72
20
 73
16
 74
0
 42
0.0000001
 43
0.0000001
 44
0.0000000001
 40
0.0
 40
0.0
 40
0.0
 40
0.0
 40
0.1376375019
 40
0.2655817987
 40
0.3266415208
 40
0.3862195579
 40
0.4447499502
 40
0.5027000353
 40
0.5605518133
 40
0.6187881998
 40
0.6778819691
 40
0.7382760306
 40
0.8003694072
 40
0.8645157259
 40
1.0
 40
1.0
 40
1.0
 40
1.0
 10
8.0436491934
 20
15.939718116
 30
0.0
 10
8.0373382879
 20
15.9466354924
 30
0.0
 10
8.0260249873
 20
15.9608175608
 30
0.0
 10
8.0150753756
 20
15.9802941002
 30
0.0
 10
8.0089422271
 20
15.9960794909
 30
0.0
 10
8.0056523161
 20
16.0078376298
 30
0.0
 10
8.0036158128
 20
16.0196625372
 30
0.0
 10
8.0028417718
 20
16.0315195837
 30
0.0
 10
8.0033292062
 20
16.0433718202
 30
0.0
 10
8.0050766804
 20
16.0551830028
 30
0.0
 10
8.008082624
 20
16.066915915
 30
0.0
 10
8.012332862
 20
16.0785354462
 30
0.0
 10
8.0178115586
 20
16.0900102969
 30
0.0
 10
8.0268951235
 20
16.1053449317
 30
0.0
 10
8.0352876172
 20
16.1161151567
 30
0.0
 10
8.0414363574
 20
16.122981654
 30
0.0
  0
LINE
  5
5E1
100
AcDbEntity
  8
0
100
AcDbLine
 62
9
  6
CONTINUOUS
 10
8.0423398194
 20
16.1239838219
 11
8.0427730639
 21
16.1244596824
  0
SPLINE
  5
5E2
100
AcDbEntity
  8
0
100
AcDbSpline
 62
9
  6
CONTINUOUS
 70
0
 71
3
 72
14
 73
10
 74
0
 42
0.0000001
 43
0.0000001
 44
0.0000000001
 40
0.0
 40
0.0
 40
0.0
 40
0.0
 40
0.1092173326
 40
0.2217553431
 40
0.3383650196
 40
0.4596827959
 40
0.5862017352
 40
0.7182906214
 40
1.0
 40
1.0
 40
1.0
 40
1.0
 10
7.9414711462
 20
16.1417293749
 30
0.0
 10
7.9428307779
 20
16.1466795054
 30
0.0
 10
7.9461512611
 20
16.1565842334
 30
0.0
 10
7.9527481556
 20
16.1710829049
 30
0.0
 10
7.9609987721
 20
16.1853685797
 30
0.0
 10
7.9708762817
 20
16.1993893615
 30
0.0
 10
7.9823425003
 20
16.2131044258
 30
0.0
 10
8.000071695
 20
16.2313130623
 30
0.0
 10
8.0150987017
 20
16.2437738488
 30
0.0
 10
8.0257459814
 20
16.2516452323
 30
0.0
  0
SPLINE
  5
5E3
100
AcDbEntity
  8
0
100
AcDbSpline
 62
9
  6
CONTINUOUS
 70
0
 71
3
 72
15
 73
11
 74
0
 42
0.0000001
 43
0.0000001
 44
0.0000000001
 40
0.0
 40
0.0
 40
0.0
 40
0.0
 40
0.1167037555
 40
0.2344061464
 40
0.353964625
 40
0.4761686313
 40
0.6016532457
 40
0.7308679159
 40
0.8637937541
 40
1.0
 40
1.0
 40
1.0
 40
1.0
 10
7.994790226
 20
15.9525680544
 30
0.0
 10
7.9961778615
 20
15.9510479504
 30
0.0
 10
7.9992006764
 20
15.9482012408
 30
0.0
 10
8.0043436344
 20
15.9446256822
 30
0.0
 10
8.0100361114
 20
15.9417857932
 30
0.0
 10
8.016198021
 20
15.9397267668
 30
0.0
 10
8.0227433856
 20
15.938466028
 30
0.0
 10
8.0295830908
 20
15.9380301027
 30
0.0
 10
8.0366125717
 20
15.93841303
 30
0.0
 10
8.041305166
 20
15.9391964695
 30
0.0
 10
8.0436501727
 20
15.9397173747
 30
0.0
  0
SPLINE
  5
5E4
100
AcDbEntity
  8
0
100
AcDbSpline
 62
7
  6
CONTINUOUS
 70
0
 71
3
 72
27
 73
23
 74
0
 42
0.0000001
 43
0.0000001
 44
0.0000000001
 40
0.0
 40
0.0
 40
0.0
 40
0.0
 40
0.0327297735
 40
0.0650789622
 40
0.0970969135
 40
0.1288365899
 40
0.1916330658
 40
0.2538185526
 40
0.3156173921
 40
0.3771836064
 40
0.4386204793
 40
0.5000000571
 40
0.5613796344
 40
0.6228165062
 40
0.6843827212
 40
0.7461815658
 40
0.8083670544
 40
0.8711635105
 40
0.9029031502
 40
0.9349210662
 40
0.9672702232
 40
1.0
 40
1.0
 40
1.0
 40
1.0
 10
12.7469216356
 20
27.900609914
 30
0.0
 10
12.740693273
 20
27.8947168233
 30
0.0
 10
12.7288334773
 20
27.8824321296
 30
0.0
 10
12.7127553141
 20
27.8626871656
 30
0.0
 10
12.6984094931
 20
27.84196659
 30
0.0
 10
12.6815198992
 20
27.8134102308
 30
0.0
 10
12.6641245829
 20
27.7760982488
 30
0.0
 10
12.6483889293
 20
27.7296842753
 30
0.0
 10
12.63703351
 20
27.6823600623
 30
0.0
 10
12.629404044
 20
27.6345096239
 30
0.0
 10
12.6250201054
 20
27.5863722903
 30
0.0
 10
12.6235913134
 20
27.5381098694
 30
0.0
 10
12.6250201158
 20
27.4898474493
 30
0.0
 10
12.6294040579
 20
27.4417101163
 30
0.0
 10
12.6370335273
 20
27.3938596774
 30
0.0
 10
12.6483889493
 20
27.3465354625
 30
0.0
 10
12.6641246211
 20
27.3001214989
 30
0.0
 10
12.6815199325
 20
27.2628095306
 30
0.0
 10
12.6984095223
 20
27.2342531968
 30
0.0
 10
12.7127553287
 20
27.2135326443
 30
0.0
 10
12.7288334819
 20
27.1937876938
 30
0.0
 10
12.7406932724
 20
27.1815030054
 30
0.0
 10
12.7469216356
 20
27.175609914
 30
0.0
  0
SPLINE
  5
5E5
100
AcDbEntity
  8
0
100
AcDbSpline
 62
7
  6
CONTINUOUS
 70
0
 71
3
 72
27
 73
23
 74
0
 42
0.0000001
 43
0.0000001
 44
0.0000000001
 40
0.0
 40
0.0
 40
0.0
 40
0.0
 40
0.0327297554
 40
0.0650789027
 40
0.0970968282
 40
0.1288364912
 40
0.1916329981
 40
0.2538184884
 40
0.3156173288
 40
0.3771835496
 40
0.4386204264
 40
0.500000008
 40
0.5613795913
 40
0.6228164693
 40
0.6843826913
 40
0.7461815355
 40
0.8083670234
 40
0.8711635207
 40
0.9029031816
 40
0.9349211153
 40
0.9672702588
 40
1.0
 40
1.0
 40
1.0
 40
1.0
 10
12.7469216356
 20
27.175609914
 30
0.0
 10
12.7406932764
 20
27.1697168265
 30
0.0
 10
12.7288334902
 20
27.1574321454
 30
0.0
 10
12.7127553416
 20
27.1376871984
 30
0.0
 10
12.6984095291
 20
27.1169666429
 30
0.0
 10
12.6815199266
 20
27.088410291
 30
0.0
 10
12.6641246078
 20
27.0510983038
 30
0.0
 10
12.6483889409
 20
27.0046843253
 30
0.0
 10
12.6370335182
 20
26.9573601099
 30
0.0
 10
12.6294040517
 20
26.9095096686
 30
0.0
 10
12.6250201099
 20
26.8613723316
 30
0.0
 10
12.6235913134
 20
26.8131099073
 30
0.0
 10
12.6250201115
 20
26.7648474828
 30
0.0
 10
12.6294040535
 20
26.7167101446
 30
0.0
 10
12.6370335217
 20
26.6688597021
 30
0.0
 10
12.6483889443
 20
26.6215354859
 30
0.0
 10
12.6641246144
 20
26.5751215106
 30
0.0
 10
12.6815199324
 20
26.5378095272
 30
0.0
 10
12.6984095342
 20
26.509253176
 30
0.0
 10
12.712755349
 20
26.4885326214
 30
0.0
 10
12.7288334952
 20
26.4687876758
 30
0.0
 10
12.7406932791
 20
26.456502999
 30
0.0
 10
12.7469216356
 20
26.450609914
 30
0.0
  0
SPLINE
  5
5E6
100
AcDbEntity
  8
0
100
AcDbSpline
 62
7
  6
CONTINUOUS
 70
0
 71
3
 72
45
 73
41
 74
0
 42
0.0000001
 43
0.0000001
 44
0.0000000001
 40
0.0
 40
0.0
 40
0.0
 40
0.0
 40
0.0173067093
 40
0.0345436805
 40
0.0516509656
 40
0.068586489
 40
0.0853264322
 40
0.1018640344
 40
0.1343344883
 40
0.1661443552
 40
0.1974364094
 40
0.2283408484
 40
0.2589622301
 40
0.2893803929
 40
0.319654316
 40
0.3498263547
 40
0.3799276214
 40
0.4099811763
 40
0.4400029835
 40
0.4700059711
 40
0.5000000354
 40
0.529994101
 40
0.5599970829
 40
0.5900188886
 40
0.6200724427
 40
0.6501737027
 40
0.6803457296
 40
0.71061962
 40
0.7410377769
 40
0.7716591423
 40
0.8025635232
 40
0.8338555453
 40
0.8656653775
 40
0.8981358628
 40
0.9146734607
 40
0.9314134036
 40
0.9483489766
 40
0.9654562894
 40
0.9826932913
 40
1.0
 40
1.0
 40
1.0
 40
1.0
 10
13.1695075617
 20
10.8443827307
 30
0.0
 10
13.1652679625
 20
10.8443827307
 30
0.0
 10
13.1567982029
 20
10.8448591981
 30
0.0
 10
13.1442986464
 20
10.8469742411
 30
0.0
 10
13.1321890681
 20
10.8504043763
 30
0.0
 10
13.1206162733
 20
10.8550252014
 30
0.0
 10
13.109678099
 20
10.8606936376
 30
0.0
 10
13.0961024024
 20
10.8693947978
 30
0.0
 10
13.0808563132
 20
10.8821685312
 30
0.0
 10
13.0652399574
 20
10.8997007716
 30
0.0
 10
13.0521201136
 20
10.918686755
 30
0.0
 10
13.0411889864
 20
10.9386632639
 30
0.0
 10
13.0321476303
 20
10.9593192108
 30
0.0
 10
13.024734063
 20
10.980442818
 30
0.0
 10
13.0187255816
 20
11.0018890659
 30
0.0
 10
13.0139361281
 20
11.0235571628
 30
0.0
 10
13.0102130949
 20
11.0453767028
 30
0.0
 10
13.0074391055
 20
11.0672984443
 30
0.0
 10
13.0055209582
 20
11.0892863676
 30
0.0
 10
13.0043946607
 20
11.1113138713
 30
0.0
 10
13.0040248463
 20
11.1333599403
 30
0.0
 10
13.0043946557
 20
11.1554060083
 30
0.0
 10
13.0055209746
 20
11.1774335092
 30
0.0
 10
13.007439101
 20
11.1994214324
 30
0.0
 10
13.0102131036
 20
11.2213431704
 30
0.0
 10
13.0139361417
 20
11.2431627042
 30
0.0
 10
13.0187255846
 20
11.2648307909
 30
0.0
 10
13.0247340745
 20
11.2862770234
 30
0.0
 10
13.032147628
 20
11.3074006212
 30
0.0
 10
13.0411889817
 20
11.3280565477
 30
0.0
 10
13.0521200903
 20
11.3480330368
 30
0.0
 10
13.0652399133
 20
11.3670189969
 30
0.0
 10
13.08085625
 20
11.3845512432
 30
0.0
 10
13.0961023373
 20
11.3973249751
 30
0.0
 10
13.1096780284
 20
11.4060261563
 30
0.0
 10
13.1206162144
 20
11.411694594
 30
0.0
 10
13.1321890222
 20
11.4163154369
 30
0.0
 10
13.1442986254
 20
11.4197455825
 30
0.0
 10
13.1567981956
 20
11.4218606298
 30
0.0
 10
13.1652679626
 20
11.4223370974
 30
0.0
 10
13.1695075617
 20
11.4223370974
 30
0.0
  0
SPLINE
  5
5E7
100
AcDbEntity
  8
0
100
AcDbSpline
 62
7
  6
CONTINUOUS
 70
0
 71
3
 72
45
 73
41
 74
0
 42
0.0000001
 43
0.0000001
 44
0.0000000001
 40
0.0
 40
0.0
 40
0.0
 40
0.0
 40
0.017306708
 40
0.0345436864
 40
0.0516509827
 40
0.0685865241
 40
0.0853264708
 40
0.1018640709
 40
0.1343345219
 40
0.166144409
 40
0.1974365029
 40
0.2283409414
 40
0.2589623152
 40
0.2893804784
 40
0.319654404
 40
0.3498264362
 40
0.3799277084
 40
0.4099812702
 40
0.4400030769
 40
0.4700060677
 40
0.5000001302
 40
0.5299941985
 40
0.5599971806
 40
0.5900189922
 40
0.6200725427
 40
0.6501737952
 40
0.6803458279
 40
0.7106197328
 40
0.7410379029
 40
0.7716592647
 40
0.8025636173
 40
0.8338556113
 40
0.8656654168
 40
0.898135888
 40
0.9146734931
 40
0.9314134377
 40
0.9483489957
 40
0.9654563018
 40
0.9826932924
 40
1.0
 40
1.0
 40
1.0
 40
1.0
 10
13.1695075617
 20
10.2518827307
 30
0.0
 10
13.1652679628
 20
10.2518827307
 30
0.0
 10
13.1567982018
 20
10.2523591981
 30
0.0
 10
13.1442986411
 20
10.2544742421
 30
0.0
 10
13.1321890544
 20
10.2579043808
 30
0.0
 10
13.1206162535
 20
10.262525212
 30
0.0
 10
13.1096780748
 20
10.2681936499
 30
0.0
 10
13.0961023817
 20
10.276894815
 30
0.0
 10
13.0808562905
 20
10.2896685514
 30
0.0
 10
13.0652399293
 20
10.3072008061
 30
0.0
 10
13.0521200821
 20
10.3261868049
 30
0.0
 10
13.0411889536
 20
10.3461633217
 30
0.0
 10
13.0321476046
 20
10.3668192696
 30
0.0
 10
13.0247340426
 20
10.3879428776
 30
0.0
 10
13.0187255747
 20
10.4093891281
 30
0.0
 10
13.0139361113
 20
10.431057223
 30
0.0
 10
13.0102130795
 20
10.4528767651
 30
0.0
 10
13.0074391115
 20
10.4747985119
 30
0.0
 10
13.0055209387
 20
10.4967864354
 30
0.0
 10
13.004394667
 20
10.518813941
 30
0.0
 10
13.0040248458
 20
10.5408600103
 30
0.0
 10
13.0043946501
 20
10.5629060792
 30
0.0
 10
13.0055209941
 20
10.5849335807
 30
0.0
 10
13.0074390928
 20
10.6069215068
 30
0.0
 10
13.0102131219
 20
10.6288432406
 30
0.0
 10
13.0139361602
 20
10.6506627725
 30
0.0
 10
13.0187255956
 20
10.6723308643
 30
0.0
 10
13.0247340946
 20
10.6937771031
 30
0.0
 10
13.0321476669
 20
10.7149007005
 30
0.0
 10
13.041189024
 20
10.7355566202
 30
0.0
 10
13.0521201267
 20
10.7555330957
 30
0.0
 10
13.0652399447
 20
10.7745190348
 30
0.0
 10
13.0808562744
 20
10.7920512641
 30
0.0
 10
13.0961023556
 20
10.8048249908
 30
0.0
 10
13.1096780489
 20
10.813526166
 30
0.0
 10
13.1206162329
 20
10.8191946045
 30
0.0
 10
13.1321890376
 20
10.8238154419
 30
0.0
 10
13.1442986332
 20
10.8272455842
 30
0.0
 10
13.1567981989
 20
10.8293606299
 30
0.0
 10
13.1652679629
 20
10.8298370974
 30
0.0
 10
13.1695075617
 20
10.8298370974
 30
0.0
  0
SPLINE
  5
5E8
100
AcDbEntity
  8
0
100
AcDbSpline
 62
7
  6
CONTINUOUS
 70
0
 71
3
 72
25
 73
21
 74
0
 42
0.0000001
 43
0.0000001
 44
0.0000000001
 40
0.0
 40
0.0
 40
0.0
 40
0.0
 40
0.0371329313
 40
0.071898901
 40
0.1050172291
 40
0.1370658205
 40
0.1993048953
 40
0.2599091251
 40
0.3195082742
 40
0.3785061627
 40
0.4958310111
 40
0.6137797304
 40
0.6735722291
 40
0.7342810628
 40
0.7962867863
 40
0.8601950604
 40
0.8931497425
 40
0.9271347451
 40
0.9625811286
 40
1.0
 40
1.0
 40
1.0
 40
1.0
 10
8.394895876
 20
14.8809014845
 30
0.0
 10
8.3927181912
 20
14.8811258968
 30
0.0
 10
8.3885188749
 20
14.8817589719
 30
0.0
 10
8.3825038501
 20
14.8832598176
 30
0.0
 10
8.3769235617
 20
14.8851690802
 30
0.0
 10
8.3699985172
 20
14.8880874219
 30
0.0
 10
8.3618474623
 20
14.8922355145
 30
0.0
 10
8.352714977
 20
14.8979394602
 30
0.0
 10
8.3441905305
 20
14.9041964028
 30
0.0
 10
8.3335798765
 20
14.9132055506
 30
0.0
 10
8.3214970709
 20
14.9257151677
 30
0.0
 10
8.3108180473
 20
14.9394979996
 30
0.0
 10
8.3032800529
 20
14.9513751385
 30
0.0
 10
8.2981193861
 20
14.9608258348
 30
0.0
 10
8.2935127894
 20
14.9708280144
 30
0.0
 10
8.2902722398
 20
14.9796282296
 30
0.0
 10
8.2880743824
 20
14.9870255148
 30
0.0
 10
8.286685383
 20
14.9929040641
 30
0.0
 10
8.2856525939
 20
14.999123419
 30
0.0
 10
8.2852660787
 20
15.0034068622
 30
0.0
 10
8.2851506217
 20
15.005609914
 30
0.0
  0
SPLINE
  5
5E9
100
AcDbEntity
  8
0
100
AcDbSpline
 62
7
  6
CONTINUOUS
 70
0
 71
3
 72
25
 73
21
 74
0
 42
0.0000001
 43
0.0000001
 44
0.0000000001
 40
0.0
 40
0.0
 40
0.0
 40
0.0
 40
0.0371329313
 40
0.071898901
 40
0.1050172291
 40
0.1370658205
 40
0.1993048953
 40
0.2599091251
 40
0.3195082742
 40
0.3785061627
 40
0.4958310111
 40
0.6137797304
 40
0.6735722291
 40
0.7342810628
 40
0.7962867863
 40
0.8601950604
 40
0.8931497425
 40
0.9271347451
 40
0.9625811286
 40
1.0
 40
1.0
 40
1.0
 40
1.0
 10
8.394895876
 20
19.1803183436
 30
0.0
 10
8.3927181912
 20
19.1800939312
 30
0.0
 10
8.3885188749
 20
19.1794608562
 30
0.0
 10
8.3825038501
 20
19.1779600105
 30
0.0
 10
8.3769235617
 20
19.1760507479
 30
0.0
 10
8.3699985172
 20
19.1731324061
 30
0.0
 10
8.3618474623
 20
19.1689843135
 30
0.0
 10
8.352714977
 20
19.1632803679
 30
0.0
 10
8.3441905305
 20
19.1570234253
 30
0.0
 10
8.3335798765
 20
19.1480142774
 30
0.0
 10
8.3214970709
 20
19.1355046604
 30
0.0
 10
8.3108180473
 20
19.1217218284
 30
0.0
 10
8.3032800529
 20
19.1098446896
 30
0.0
 10
8.2981193861
 20
19.1003939932
 30
0.0
 10
8.2935127894
 20
19.0903918136
 30
0.0
 10
8.2902722398
 20
19.0815915985
 30
0.0
 10
8.2880743824
 20
19.0741943133
 30
0.0
 10
8.286685383
 20
19.0683157639
 30
0.0
 10
8.2856525939
 20
19.062096409
 30
0.0
 10
8.2852660787
 20
19.0578129658
 30
0.0
 10
8.2851506217
 20
19.055609914
 30
0.0
  0
SPLINE
  5
5EA
100
AcDbEntity
  8
0
100
AcDbSpline
 62
7
  6
CONTINUOUS
 70
0
 71
3
 72
11
 73
7
 74
0
 42
0.0000001
 43
0.0000001
 44
0.0000000001
 40
0.0
 40
0.0
 40
0.0
 40
0.0
 40
0.1834838969
 40
0.405859187
 40
0.6756255506
 40
1.0
 40
1.0
 40
1.0
 40
1.0
 10
11.4888395826
 20
9.2421141922
 30
0.0
 10
11.4880623402
 20
9.2415154395
 30
0.0
 10
11.4865046315
 20
9.2399798154
 30
0.0
 10
11.4843907286
 20
9.237036833
 30
0.0
 10
11.4822984366
 20
9.2331950218
 30
0.0
 10
11.4810427146
 20
9.2302725735
 30
0.0
 10
11.4804092963
 20
9.2286578699
 30
0.0
  0
SPLINE
  5
5EB
100
AcDbEntity
  8
0
100
AcDbSpline
 62
7
  6
CONTINUOUS
 70
0
 71
3
 72
9
 73
5
 74
0
 42
0.0000001
 43
0.0000001
 44
0.0000000001
 40
0.0
 40
0.0
 40
0.0
 40
0.0
 40
0.4284445156
 40
1.0
 40
1.0
 40
1.0
 40
1.0
 10
11.4804092963
 20
9.2286578699
 30
0.0
 10
11.478930227
 20
9.2248874413
 30
0.0
 10
11.4761219166
 20
9.2158375006
 30
0.0
 10
11.4741111504
 20
9.2065934707
 30
0.0
 10
11.4731041381
 20
9.2012851339
 30
0.0
  0
SPLINE
  5
5EC
100
AcDbEntity
  8
0
100
AcDbSpline
 62
7
  6
CONTINUOUS
 70
0
 71
3
 72
11
 73
7
 74
0
 42
0.0000001
 43
0.0000001
 44
0.0000000001
 40
0.0
 40
0.0
 40
0.0
 40
0.0
 40
0.1834838969
 40
0.405859187
 40
0.6756255506
 40
1.0
 40
1.0
 40
1.0
 40
1.0
 10
12.3954756619
 20
9.2421141922
 30
0.0
 10
12.3962529044
 20
9.2415154395
 30
0.0
 10
12.397810613
 20
9.2399798154
 30
0.0
 10
12.399924516
 20
9.237036833
 30
0.0
 10
12.4020168079
 20
9.2331950218
 30
0.0
 10
12.40327253
 20
9.2302725735
 30
0.0
 10
12.4039059482
 20
9.2286578699
 30
0.0
  0
SPLINE
  5
5ED
100
AcDbEntity
  8
0
100
AcDbSpline
 62
7
  6
CONTINUOUS
 70
0
 71
3
 72
9
 73
5
 74
0
 42
0.0000001
 43
0.0000001
 44
0.0000000001
 40
0.0
 40
0.0
 40
0.0
 40
0.0
 40
0.4284445156
 40
1.0
 40
1.0
 40
1.0
 40
1.0
 10
12.4039059482
 20
9.2286578699
 30
0.0
 10
12.4053850175
 20
9.2248874413
 30
0.0
 10
12.408193328
 20
9.2158375006
 30
0.0
 10
12.4102040941
 20
9.2065934707
 30
0.0
 10
12.4112111064
 20
9.2012851339
 30
0.0
  0
SPLINE
  5
5EE
100
AcDbEntity
  8
0
100
AcDbSpline
 62
7
  6
CONTINUOUS
 70
0
 71
3
 72
12
 73
8
 74
0
 42
0.0000001
 43
0.0000001
 44
0.0000000001
 40
0.0
 40
0.0
 40
0.0
 40
0.0
 40
0.3799145547
 40
0.6605233646
 40
0.7697900149
 40
0.8612952985
 40
1.0
 40
1.0
 40
1.0
 40
1.0
 10
12.4112111064
 20
8.7959346941
 30
0.0
 10
12.4101635139
 20
8.7904124438
 30
0.0
 10
12.4080752937
 20
8.7808561006
 30
0.0
 10
12.4046311685
 20
8.7699737334
 30
0.0
 10
12.4017302983
 20
8.7634538482
 30
0.0
 10
12.3992769978
 20
8.7590811626
 30
0.0
 10
12.3971030313
 20
8.7563500434
 30
0.0
 10
12.3954757061
 20
8.7550998718
 30
0.0
  0
SPLINE
  5
5EF
100
AcDbEntity
  8
0
100
AcDbSpline
 62
7
  6
CONTINUOUS
 70
0
 71
3
 72
31
 73
27
 74
0
 42
0.0000001
 43
0.0000001
 44
0.0000000001
 40
0.0
 40
0.0
 40
0.0
 40
0.0
 40
0.0850957661
 40
0.1701042858
 40
0.2541977197
 40
0.3366563078
 40
0.4167632341
 40
0.4938089695
 40
0.5671339534
 40
0.6361221672
 40
0.7002147862
 40
0.7589369021
 40
0.8119053972
 40
0.8361552504
 40
0.8588924026
 40
0.8801468656
 40
0.8999648207
 40
0.9184122799
 40
0.9355864956
 40
0.9516940218
 40
0.9595414032
 40
0.9673804142
 40
0.9753050555
 40
0.9833599872
 40
0.9915761453
 40
1.0
 40
1.0
 40
1.0
 40
1.0
 10
10.981545831
 20
-5.3461250356
 30
0.0
 10
10.9806500223
 20
-5.458393818
 30
0.0
 10
10.9799512261
 20
-5.6828264481
 30
0.0
 10
10.9821260147
 20
-6.0182038597
 30
0.0
 10
10.9875135411
 20
-6.3500657168
 30
0.0
 10
10.9960615598
 20
-6.6753922371
 30
0.0
 10
11.0076898776
 20
-6.9913191845
 30
0.0
 10
11.0223038745
 20
-7.2950588907
 30
0.0
 10
11.0397722297
 20
-7.5839538655
 30
0.0
 10
11.059954903
 20
-7.8555391497
 30
0.0
 10
11.0826862749
 20
-8.1075868941
 30
0.0
 10
11.1078215132
 20
-8.3381577554
 30
0.0
 10
11.1313004989
 20
-8.5159923891
 30
0.0
 10
11.1514785143
 20
-8.6463223436
 30
0.0
 10
11.166734049
 20
-8.7350608619
 30
0.0
 10
11.1826383291
 20
-8.8177397239
 30
0.0
 10
11.1992859244
 20
-8.8944917909
 30
0.0
 10
11.2168082302
 20
-8.9655201044
 30
0.0
 10
11.235421129
 20
-9.0311961528
 30
0.0
 10
11.2523730041
 20
-9.0827734059
 30
0.0
 10
11.2673463717
 20
-9.1219662513
 30
0.0
 10
11.2794936909
 20
-9.150659135
 30
0.0
 10
11.2928237749
 20
-9.1791268701
 30
0.0
 10
11.307711631
 20
-9.207382707
 30
0.0
 10
11.3245597429
 20
-9.2352935347
 30
0.0
 10
11.3371605233
 20
-9.253298968
 30
0.0
 10
11.3438661269
 20
-9.2621623153
 30
0.0
  0
SPLINE
  5
5F0
100
AcDbEntity
  8
0
100
AcDbSpline
 62
7
  6
CONTINUOUS
 70
0
 71
3
 72
24
 73
20
 74
0
 42
0.0000001
 43
0.0000001
 44
0.0000000001
 40
0.0
 40
0.0
 40
0.0
 40
0.0
 40
0.1674289587
 40
0.3321426367
 40
0.4119396626
 40
0.4892266089
 40
0.5634117254
 40
0.6339283813
 40
0.7002242144
 40
0.7617629433
 40
0.8180268661
 40
0.8685085472
 40
0.9126761999
 40
0.9322112032
 40
0.9499386849
 40
0.9657434738
 40
0.9794785415
 40
0.990971005
 40
1.0
 40
1.0
 40
1.0
 40
1.0
 10
11.5415280052
 20
-5.3505932138
 30
0.0
 10
11.5399385316
 20
-5.5497967537
 30
0.0
 10
11.5402293896
 20
-5.9450082146
 30
0.0
 10
11.5490801666
 20
-6.4350889281
 30
0.0
 10
11.5613676661
 20
-6.8177773201
 30
0.0
 10
11.5729009796
 20
-7.0927083465
 30
0.0
 10
11.5867560452
 20
-7.3564760375
 30
0.0
 10
11.6028125937
 20
-7.6070167945
 30
0.0
 10
11.6209273493
 20
-7.842329651
 30
0.0
 10
11.6409275751
 20
-8.0604670482
 30
0.0
 10
11.6625961529
 20
-8.2595307475
 30
0.0
 10
11.6856724305
 20
-8.4376145841
 30
0.0
 10
11.7065129966
 20
-8.5718873728
 30
0.0
 10
11.7238208264
 20
-8.6672209421
 30
0.0
 10
11.7363177658
 20
-8.7291171351
 30
0.0
 10
11.748698253
 20
-8.7839825215
 30
0.0
 10
11.7607249712
 20
-8.8313071008
 30
0.0
 10
11.7720685795
 20
-8.8704632434
 30
0.0
 10
11.7798462594
 20
-8.8936224203
 30
0.0
 10
11.7836156802
 20
-8.9036822612
 30
0.0
  0
SPLINE
  5
5F1
100
AcDbEntity
  8
0
100
AcDbSpline
 62
7
  6
CONTINUOUS
 70
0
 71
3
 72
12
 73
8
 74
0
 42
0.0000001
 43
0.0000001
 44
0.0000000001
 40
0.0
 40
0.0
 40
0.0
 40
0.0
 40
0.3799145547
 40
0.6605233646
 40
0.7697900149
 40
0.8612952985
 40
1.0
 40
1.0
 40
1.0
 40
1.0
 10
11.4731041381
 20
8.7959346941
 30
0.0
 10
11.4741517306
 20
8.7904124438
 30
0.0
 10
11.4762399508
 20
8.7808561006
 30
0.0
 10
11.479684076
 20
8.7699737334
 30
0.0
 10
11.4825849462
 20
8.7634538482
 30
0.0
 10
11.4850382468
 20
8.7590811626
 30
0.0
 10
11.4872122133
 20
8.7563500434
 30
0.0
 10
11.4888395385
 20
8.7550998718
 30
0.0
  0
SPLINE
  5
5F2
100
AcDbEntity
  8
0
100
AcDbSpline
 62
9
  6
CONTINUOUS
 70
0
 71
3
 72
24
 73
20
 74
0
 42
0.0000001
 43
0.0000001
 44
0.0000000001
 40
0.0
 40
0.0
 40
0.0
 40
0.0
 40
0.1875510453
 40
0.3712285794
 40
0.5425766362
 40
0.694440128
 40
0.7610105384
 40
0.8203164937
 40
0.8717797183
 40
0.9148801371
 40
0.9331458309
 40
0.9491754401
 40
0.9629547557
 40
0.9744811811
 40
0.9837753593
 40
0.9909106957
 40
0.9937322863
 40
0.9961228918
 40
1.0
 40
1.0
 40
1.0
 40
1.0
 10
11.3638792111
 20
3.9225830718
 30
0.0
 10
11.3444183308
 20
3.9225830718
 30
0.0
 10
11.305897845
 20
3.9229014347
 30
0.0
 10
11.2496125484
 20
3.9242760655
 30
0.0
 10
11.1970601958
 20
3.9264958204
 30
0.0
 10
11.1566911958
 20
3.9290511766
 30
0.0
 10
11.1279760744
 20
3.9315107946
 30
0.0
 10
11.1096718073
 20
3.9334115532
 30
0.0
 10
11.0938317496
 20
3.9354238641
 30
0.0
 10
11.0822644926
 20
3.937253112
 30
0.0
 10
11.0743829565
 20
3.9387989876
 30
0.0
 10
11.069518147
 20
3.9399071932
 30
0.0
 10
11.0653759466
 20
3.9410245777
 30
0.0
 10
11.06196201
 20
3.942145943
 30
0.0
 10
11.0592847701
 20
3.9432689616
 30
0.0
 10
11.0575391527
 20
3.9442639909
 30
0.0
 10
11.0565585205
 20
3.9450977789
 30
0.0
 10
11.055945443
 20
3.9458138346
 30
0.0
 10
11.0556973505
 20
3.946466528
 30
0.0
 10
11.0557016481
 20
3.9468688059
 30
0.0
  0
SPLINE
  5
5F3
100
AcDbEntity
  8
0
100
AcDbSpline
 62
9
  6
CONTINUOUS
 70
0
 71
3
 72
24
 73
20
 74
0
 42
0.0000001
 43
0.0000001
 44
0.0000000001
 40
0.0
 40
0.0
 40
0.0
 40
0.0
 40
0.1978044935
 40
0.3857069904
 40
0.5567529032
 40
0.6342259427
 40
0.705473573
 40
0.7699445685
 40
0.8271052917
 40
0.8764476095
 40
0.91762706
 40
0.9350825827
 40
0.9504155102
 40
0.9636106122
 40
0.9746681665
 40
0.9836326443
 40
0.9906177436
 40
0.9958757403
 40
1.0
 40
1.0
 40
1.0
 40
1.0
 10
11.2897290782
 20
-5.3704108151
 30
0.0
 10
11.306513086
 20
-5.3704108151
 30
0.0
 10
11.3392415005
 20
-5.3701764206
 30
0.0
 10
11.3864727964
 20
-5.3691190563
 30
0.0
 10
11.4234769314
 20
-5.3676360797
 30
0.0
 10
11.4505658293
 20
-5.3660847258
 30
0.0
 10
11.468611292
 20
-5.364812311
 30
0.0
 10
11.4849176829
 20
-5.3634068056
 30
0.0
 10
11.4993461209
 20
-5.3618830609
 30
0.0
 10
11.5117719695
 20
-5.3602517973
 30
0.0
 10
11.520813439
 20
-5.3587501136
 30
0.0
 10
11.5269590222
 20
-5.3574715036
 30
0.0
 10
11.5307511
 20
-5.3565490649
 30
0.0
 10
11.5339784859
 20
-5.3556128491
 30
0.0
 10
11.536634758
 20
-5.354664193
 30
0.0
 10
11.5387222268
 20
-5.3537067935
 30
0.0
 10
11.5402452593
 20
-5.3527354772
 30
0.0
 10
11.5412402202
 20
-5.3517361575
 30
0.0
 10
11.5415185827
 20
-5.350943098
 30
0.0
 10
11.5415223211
 20
-5.3505931683
 30
0.0
  0
SPLINE
  5
5F4
100
AcDbEntity
  8
0
100
AcDbSpline
 62
9
  6
CONTINUOUS
 70
0
 71
3
 72
22
 73
18
 74
0
 42
0.0000001
 43
0.0000001
 44
0.0000000001
 40
0.0
 40
0.0
 40
0.0
 40
0.0
 40
0.1249753934
 40
0.1877969182
 40
0.2506210597
 40
0.3134624467
 40
0.3763131442
 40
0.4391210698
 40
0.5018565195
 40
0.5644947496
 40
0.6270207149
 40
0.6894287575
 40
0.7517145164
 40
0.8138955003
 40
0.8759821262
 40
0.9380082627
 40
1.0
 40
1.0
 40
1.0
 40
1.0
 10
11.5709038459
 20
-8.815689365
 30
0.0
 10
11.5451174279
 20
-8.815689365
 30
0.0
 10
11.5061002326
 20
-8.8211505559
 30
0.0
 10
11.4573355763
 20
-8.8386838164
 30
0.0
 10
11.4227632825
 20
-8.8567838079
 30
0.0
 10
11.3910024446
 20
-8.8794455686
 30
0.0
 10
11.3626362991
 20
-8.9062327588
 30
0.0
 10
11.3381968111
 20
-8.9366185987
 30
0.0
 10
11.3182051772
 20
-8.9700473049
 30
0.0
 10
11.302986982
 20
-9.0058395841
 30
0.0
 10
11.2929034811
 20
-9.0433338059
 30
0.0
 10
11.2880813201
 20
-9.0817863504
 30
0.0
 10
11.2886750897
 20
-9.1204664934
 30
0.0
 10
11.2946334278
 20
-9.1586209459
 30
0.0
 10
11.3058584372
 20
-9.195518904
 30
0.0
 10
11.3221389269
 20
-9.2304289965
 30
0.0
 10
11.336147316
 20
-9.2519629778
 30
0.0
 10
11.3438670663
 20
-9.2621616043
 30
0.0
  0
SPLINE
  5
5F5
100
AcDbEntity
  8
0
100
AcDbSpline
 62
7
  6
CONTINUOUS
 70
0
 71
3
 72
19
 73
15
 74
0
 42
0.0000001
 43
0.0000001
 44
0.0000000001
 40
0.0
 40
0.0
 40
0.0
 40
0.0
 40
0.0644794164
 40
0.1281766306
 40
0.1912675301
 40
0.2537865273
 40
0.3158878705
 40
0.3777448705
 40
0.4394625568
 40
0.501102077
 40
0.624343199
 40
0.7479835506
 40
0.8728614096
 40
1.0
 40
1.0
 40
1.0
 40
1.0
 10
12.0424509044
 20
8.7959346941
 30
0.0
 10
12.0483616592
 20
8.7920548411
 30
0.0
 10
12.0605180839
 20
8.784945421
 30
0.0
 10
12.0795634821
 20
8.7761003548
 30
0.0
 10
12.0990759365
 20
8.7689552056
 30
0.0
 10
12.1188834423
 20
8.7632983095
 30
0.0
 10
12.1388911496
 20
8.7590099169
 30
0.0
 10
12.1590353647
 20
8.7559760298
 30
0.0
 10
12.1792640609
 20
8.7540619572
 30
0.0
 10
12.206290201
 20
8.7529089503
 30
0.0
 10
12.2401619812
 20
8.7541216981
 30
0.0
 10
12.2806154865
 20
8.7598207845
 30
0.0
 10
12.3204664191
 20
8.7707007916
 30
0.0
 10
12.3458583405
 20
8.7820272666
 30
0.0
 10
12.3579772226
 20
8.788918478
 30
0.0
  0
SPLINE
  5
5F6
100
AcDbEntity
  8
0
100
AcDbSpline
 62
9
  6
CONTINUOUS
 70
0
 71
3
 72
13
 73
9
 74
0
 42
0.0000001
 43
0.0000001
 44
0.0000000001
 40
0.0
 40
0.0
 40
0.0
 40
0.0
 40
0.2490271102
 40
0.3738234587
 40
0.498748375
 40
0.6238949989
 40
0.7493428447
 40
1.0
 40
1.0
 40
1.0
 40
1.0
 10
11.7904562651
 20
-8.9242926231
 30
0.0
 10
11.7777551304
 20
-8.9075130481
 30
0.0
 10
11.7556405327
 20
-8.8844339386
 30
0.0
 10
11.7216053815
 20
-8.8594640519
 30
0.0
 10
11.6940021826
 20
-8.8437678506
 30
0.0
 10
11.6647264191
 20
-8.831327169
 30
0.0
 10
11.6240229302
 20
-8.8193698349
 30
0.0
 10
11.5920861433
 20
-8.815689365
 30
0.0
 10
11.5709038459
 20
-8.815689365
 30
0.0
  0
SPLINE
  5
5F7
100
AcDbEntity
  8
0
100
AcDbSpline
 62
7
  6
CONTINUOUS
 70
0
 71
3
 72
21
 73
17
 74
0
 42
0.0000001
 43
0.0000001
 44
0.0000000001
 40
0.0
 40
0.0
 40
0.0
 40
0.0
 40
0.0643663189
 40
0.1279280939
 40
0.1908578818
 40
0.2532055144
 40
0.3151632263
 40
0.3768989701
 40
0.4999994269
 40
0.6230991865
 40
0.6848340019
 40
0.7467912523
 40
0.8091398435
 40
0.8720710628
 40
0.9356334601
 40
1.0
 40
1.0
 40
1.0
 40
1.0
 10
12.3694547644
 20
9.2012851339
 30
0.0
 10
12.3633121561
 20
9.2053171769
 30
0.0
 10
12.3506641686
 20
9.2126793441
 30
0.0
 10
12.3308286578
 20
9.2217617072
 30
0.0
 10
12.3105081437
 20
9.2290270636
 30
0.0
 10
12.289883369
 20
9.2347032645
 30
0.0
 10
12.2690513406
 20
9.2389153679
 30
0.0
 10
12.2411275357
 20
9.2427541595
 30
0.0
 10
12.2059530337
 20
9.2446499101
 30
0.0
 10
12.1707787086
 20
9.2427536727
 30
0.0
 10
12.1428550732
 20
9.2389154357
 30
0.0
 10
12.1220230266
 20
9.2347036788
 30
0.0
 10
12.1013978929
 20
9.2290279531
 30
0.0
 10
12.0810769927
 20
9.2217625945
 30
0.0
 10
12.0612414678
 20
9.212679611
 30
0.0
 10
12.0485935338
 20
9.2053171908
 30
0.0
 10
12.0424509044
 20
9.2012851339
 30
0.0
  0
SPLINE
  5
5F8
100
AcDbEntity
  8
0
100
AcDbSpline
 62
9
  6
CONTINUOUS
 70
0
 71
3
 72
21
 73
17
 74
0
 42
0.0000001
 43
0.0000001
 44
0.0000000001
 40
0.0
 40
0.0
 40
0.0
 40
0.0
 40
0.119278341
 40
0.1812427379
 40
0.2444374573
 40
0.308522422
 40
0.3731822179
 40
0.4381535765
 40
0.5032523282
 40
0.5683274256
 40
0.6331453527
 40
0.6974002574
 40
0.7607425332
 40
0.8228085574
 40
0.8833965667
 40
1.0
 40
1.0
 40
1.0
 40
1.0
 10
12.2235520145
 20
-10.4249078618
 30
0.0
 10
12.2141090297
 20
-10.4124183715
 30
0.0
 10
12.2013735608
 20
-10.3921272026
 30
0.0
 10
12.1881807217
 20
-10.3628435359
 30
0.0
 10
12.1800065162
 20
-10.3393486172
 30
0.0
 10
12.1738444142
 20
-10.3148847961
 30
0.0
 10
12.169851638
 20
-10.2897364019
 30
0.0
 10
12.1681809827
 20
-10.2641899374
 30
0.0
 10
12.1690286227
 20
-10.238546188
 30
0.0
 10
12.1723148097
 20
-10.2131248791
 30
0.0
 10
12.1778476433
 20
-10.1882132281
 30
0.0
 10
12.1854664364
 20
-10.1640982705
 30
0.0
 10
12.19499963
 20
-10.1410655834
 30
0.0
 10
12.2063076281
 20
-10.1193868056
 30
0.0
 10
12.223287084
 20
-10.0929305343
 30
0.0
 10
12.2382829357
 20
-10.074976315
 30
0.0
 10
12.2489945512
 20
-10.0640425948
 30
0.0
  0
SPLINE
  5
5F9
100
AcDbEntity
  8
0
100
AcDbSpline
 62
9
  6
CONTINUOUS
 70
0
 71
3
 72
9
 73
5
 74
0
 42
0.0000001
 43
0.0000001
 44
0.0000000001
 40
0.0
 40
0.0
 40
0.0
 40
0.0
 40
0.5205494224
 40
1.0
 40
1.0
 40
1.0
 40
1.0
 10
12.2489945512
 20
-10.0640425948
 30
0.0
 10
12.2596806328
 20
-10.0531349379
 30
0.0
 10
12.2818946213
 20
-10.0337579969
 30
0.0
 10
12.3068321019
 20
-10.0180784916
 30
0.0
 10
12.3192710222
 20
-10.0115151613
 30
0.0
  0
SPLINE
  5
5FA
100
AcDbEntity
  8
0
100
AcDbSpline
 62
9
  6
CONTINUOUS
 70
0
 71
3
 72
24
 73
20
 74
0
 42
0.0000001
 43
0.0000001
 44
0.0000000001
 40
0.0
 40
0.0
 40
0.0
 40
0.0
 40
0.0038771082
 40
0.0062677137
 40
0.0090893043
 40
0.0162246407
 40
0.0255188189
 40
0.0370452443
 40
0.0508245599
 40
0.0668541691
 40
0.0851198629
 40
0.1282202817
 40
0.1796835063
 40
0.2389894616
 40
0.305559872
 40
0.4574233638
 40
0.6287714206
 40
0.8124489547
 40
1.0
 40
1.0
 40
1.0
 40
1.0
 10
10.9815515152
 20
-5.346125081
 30
0.0
 10
10.9815472176
 20
-5.3465273589
 30
0.0
 10
10.9817953101
 20
-5.3471800524
 30
0.0
 10
10.9824083876
 20
-5.347896108
 30
0.0
 10
10.9833890198
 20
-5.348729896
 30
0.0
 10
10.9851346372
 20
-5.3497249253
 30
0.0
 10
10.9878118771
 20
-5.3508479439
 30
0.0
 10
10.9912258137
 20
-5.3519693092
 30
0.0
 10
10.9953680141
 20
-5.3530866937
 30
0.0
 10
11.0002328236
 20
-5.3541948994
 30
0.0
 10
11.0081143596
 20
-5.3557407749
 30
0.0
 10
11.0196816166
 20
-5.3575700229
 30
0.0
 10
11.0355216744
 20
-5.3595823337
 30
0.0
 10
11.0538259415
 20
-5.3614830923
 30
0.0
 10
11.0825410629
 20
-5.3639427103
 30
0.0
 10
11.1229100629
 20
-5.3664980666
 30
0.0
 10
11.1754624155
 20
-5.3687178214
 30
0.0
 10
11.2317477121
 20
-5.3700924523
 30
0.0
 10
11.2702681978
 20
-5.3704108151
 30
0.0
 10
11.2897290782
 20
-5.3704108151
 30
0.0
  0
SPLINE
  5
5FB
100
AcDbEntity
  8
0
100
AcDbSpline
 62
7
  6
CONTINUOUS
 70
0
 71
3
 72
21
 73
17
 74
0
 42
0.0000001
 43
0.0000001
 44
0.0000000001
 40
0.0
 40
0.0
 40
0.0
 40
0.0
 40
0.0632048531
 40
0.1261675275
 40
0.1889121742
 40
0.2513658313
 40
0.3136318939
 40
0.3758096708
 40
0.4999999776
 40
0.6241904505
 40
0.6863682206
 40
0.7486341436
 40
0.8110876444
 40
0.873832268
 40
0.9367950433
 40
1.0
 40
1.0
 40
1.0
 40
1.0
 10
11.9411206926
 20
9.2012851339
 30
0.0
 10
11.9341772563
 20
9.2053381521
 30
0.0
 10
11.9198944585
 20
9.2127227999
 30
0.0
 10
11.8976112133
 20
9.2217882176
 30
0.0
 10
11.8747798215
 20
9.2290421141
 30
0.0
 10
11.8516011517
 20
9.2347117285
 30
0.0
 10
11.8281881205
 20
9.2389201232
 30
0.0
 10
11.7967826262
 20
9.2427579796
 30
0.0
 10
11.7572590369
 20
9.2446482888
 30
0.0
 10
11.7177355593
 20
9.2427568484
 30
0.0
 10
11.6863300133
 20
9.2389195005
 30
0.0
 10
11.6629169141
 20
9.2347117068
 30
0.0
 10
11.6397381608
 20
9.2290425703
 30
0.0
 10
11.616906782
 20
9.2217886288
 30
0.0
 10
11.5946236232
 20
9.2127229308
 30
0.0
 10
11.580340868
 20
9.2053381588
 30
0.0
 10
11.5733974203
 20
9.2012851339
 30
0.0
  0
SPLINE
  5
5FC
100
AcDbEntity
  8
0
100
AcDbSpline
 62
7
  6
CONTINUOUS
 70
0
 71
3
 72
9
 73
5
 74
0
 42
0.0000001
 43
0.0000001
 44
0.0000000001
 40
0.0
 40
0.0
 40
0.0
 40
0.0
 40
0.5715412348
 40
1.0
 40
1.0
 40
1.0
 40
1.0
 10
11.5138235504
 20
9.2012851339
 30
0.0
 10
11.512816694
 20
9.2065926494
 30
0.0
 10
11.510806183
 20
9.2158354838
 30
0.0
 10
11.5079983177
 20
9.2248842544
 30
0.0
 10
11.5065195946
 20
9.2286543988
 30
0.0
  0
SPLINE
  5
5FD
100
AcDbEntity
  8
0
100
AcDbSpline
 62
7
  6
CONTINUOUS
 70
0
 71
3
 72
9
 73
5
 74
0
 42
0.0000001
 43
0.0000001
 44
0.0000000001
 40
0.0
 40
0.0
 40
0.0
 40
0.0
 40
0.5669333265
 40
1.0
 40
1.0
 40
1.0
 40
1.0
 10
11.5065195946
 20
9.2286543988
 30
0.0
 10
11.5056481633
 20
9.2308761954
 30
0.0
 10
11.5039430503
 20
9.2347334084
 30
0.0
 10
11.501680351
 20
9.2383196599
 30
0.0
 10
11.5005174964
 20
9.2397236857
 30
0.0
  0
SPLINE
  5
5FE
100
AcDbEntity
  8
0
100
AcDbSpline
 62
7
  6
CONTINUOUS
 70
0
 71
3
 72
9
 73
5
 74
0
 42
0.0000001
 43
0.0000001
 44
0.0000000001
 40
0.0
 40
0.0
 40
0.0
 40
0.0
 40
0.271925605
 40
1.0
 40
1.0
 40
1.0
 40
1.0
 10
11.5005174964
 20
9.2397236857
 30
0.0
 10
11.5003099644
 20
9.2399742589
 30
0.0
 10
11.4995248936
 20
9.2408767963
 30
0.0
 10
11.4986448379
 20
9.2417011499
 30
0.0
 10
11.497946765
 20
9.2422222699
 30
0.0
  0
SPLINE
  5
5FF
100
AcDbEntity
  8
0
100
AcDbSpline
 62
7
  6
CONTINUOUS
 70
0
 71
3
 72
11
 73
7
 74
0
 42
0.0000001
 43
0.0000001
 44
0.0000000001
 40
0.0
 40
0.0
 40
0.0
 40
0.0
 40
0.2637542606
 40
0.498159295
 40
0.7335738977
 40
1.0
 40
1.0
 40
1.0
 40
1.0
 10
11.497946765
 20
9.2422222699
 30
0.0
 10
11.497251291
 20
9.2427414497
 30
0.0
 10
11.4958158628
 20
9.2435873381
 30
0.0
 10
11.4933875591
 20
9.2440489437
 30
0.0
 10
11.490963474
 20
9.2435264127
 30
0.0
 10
11.4895340835
 20
9.2426492045
 30
0.0
 10
11.4888395826
 20
9.2421141922
 30
0.0
  0
SPLINE
  5
600
100
AcDbEntity
  8
0
100
AcDbSpline
 62
9
  6
CONTINUOUS
 70
0
 71
3
 72
24
 73
20
 74
0
 42
0.0000001
 43
0.0000001
 44
0.0000000001
 40
0.0
 40
0.0
 40
0.0
 40
0.0
 40
0.0041242597
 40
0.0093822564
 40
0.0163673557
 40
0.0253318335
 40
0.0363893878
 40
0.0495844898
 40
0.0649174173
 40
0.08237294
 40
0.1235523905
 40
0.1728947083
 40
0.2300554315
 40
0.294526427
 40
0.3657740573
 40
0.4432470968
 40
0.6142930096
 40
0.8021955065
 40
1.0
 40
1.0
 40
1.0
 40
1.0
 10
11.615672454
 20
3.9424007186
 30
0.0
 10
11.6156687156
 20
3.942050789
 30
0.0
 10
11.6153903531
 20
3.9412577295
 30
0.0
 10
11.6143953922
 20
3.9402584097
 30
0.0
 10
11.6128723597
 20
3.9392870935
 30
0.0
 10
11.610784891
 20
3.9383296939
 30
0.0
 10
11.6081286188
 20
3.9373810379
 30
0.0
 10
11.6049012329
 20
3.9364448221
 30
0.0
 10
11.6011091551
 20
3.9355223833
 30
0.0
 10
11.5949635719
 20
3.9342437733
 30
0.0
 10
11.5859221025
 20
3.9327420896
 30
0.0
 10
11.5734962538
 20
3.931110826
 30
0.0
 10
11.5590678158
 20
3.9295870813
 30
0.0
 10
11.5427614249
 20
3.9281815759
 30
0.0
 10
11.5247159622
 20
3.9269091611
 30
0.0
 10
11.4976270643
 20
3.9253578073
 30
0.0
 10
11.4606229293
 20
3.9238748307
 30
0.0
 10
11.4133916334
 20
3.9228174663
 30
0.0
 10
11.3806632189
 20
3.9225830718
 30
0.0
 10
11.3638792111
 20
3.9225830718
 30
0.0
  0
SPLINE
  5
601
100
AcDbEntity
  8
0
100
AcDbSpline
 62
7
  6
CONTINUOUS
 70
0
 71
3
 72
19
 73
15
 74
0
 42
0.0000001
 43
0.0000001
 44
0.0000000001
 40
0.0
 40
0.0
 40
0.0
 40
0.0
 40
0.126070791
 40
0.1888639339
 40
0.251369065
 40
0.3136433529
 40
0.3758097164
 40
0.4999996456
 40
0.6241902963
 40
0.6863572517
 40
0.748631835
 40
0.81113662
 40
0.8739293931
 40
1.0
 40
1.0
 40
1.0
 40
1.0
 10
11.5733974203
 20
8.7959346941
 30
0.0
 10
11.5872435958
 20
8.7878524135
 30
0.0
 10
11.6092676378
 20
8.7778443769
 30
0.0
 10
11.6397467006
 20
8.7681716547
 30
0.0
 10
11.6629377704
 20
8.762505262
 30
0.0
 10
11.6863489589
 20
8.758291734
 30
0.0
 10
11.7177466186
 20
8.7544534962
 30
0.0
 10
11.7572590539
 20
8.7525797954
 30
0.0
 10
11.7967715728
 20
8.7544532697
 30
0.0
 10
11.8281694645
 20
8.7582913124
 30
0.0
 10
11.8515807157
 20
8.7625049146
 30
0.0
 10
11.8747716685
 20
8.7681715646
 30
0.0
 10
11.9052505524
 20
8.7778444521
 30
0.0
 10
11.9272745373
 20
8.7878524253
 30
0.0
 10
11.9411206926
 20
8.7959346941
 30
0.0
  0
SPLINE
  5
602
100
AcDbEntity
  8
0
100
AcDbSpline
 62
9
  6
CONTINUOUS
 70
0
 71
3
 72
33
 73
29
 74
0
 42
0.0000001
 43
0.0000001
 44
0.0000000001
 40
0.0
 40
0.0
 40
0.0
 40
0.0
 40
0.0294526774
 40
0.0603418357
 40
0.0925130157
 40
0.1258167177
 40
0.1952414214
 40
0.2675138798
 40
0.3415708853
 40
0.4163725276
 40
0.4909125595
 40
0.5641924797
 40
0.635234827
 40
0.7030791007
 40
0.7355124033
 40
0.766804337
 40
0.7968487893
 40
0.8255438279
 40
0.8528106248
 40
0.878581323
 40
0.9028070635
 40
0.9254792424
 40
0.9466278913
 40
0.9662711358
 40
0.9755004756
 40
0.9842633457
 40
0.9924664953
 40
1.0
 40
1.0
 40
1.0
 40
1.0
 10
11.9716411399
 20
7.743609914
 30
0.0
 10
11.9733778124
 20
7.5683839169
 30
0.0
 10
11.9783452934
 20
7.2093988362
 30
0.0
 10
11.9895316311
 20
6.6590847893
 30
0.0
 10
12.0043906456
 20
6.0859375289
 30
0.0
 10
12.0290645598
 20
5.2837022889
 30
0.0
 10
12.0676268902
 20
4.2432035809
 30
0.0
 10
12.1230345114
 20
2.960722036
 30
0.0
 10
12.1857522209
 20
1.6465506715
 30
0.0
 10
12.2533130463
 20
0.3191123134
 30
0.0
 10
12.3232129708
 20
-1.003574105
 30
0.0
 10
12.3929736144
 20
-2.3038692006
 30
0.0
 10
12.4601107496
 20
-3.564409944
 30
0.0
 10
12.512601672
 20
-4.5823609742
 30
0.0
 10
12.5509280616
 20
-5.3642217968
 30
0.0
 10
12.5770252072
 20
-5.9215131874
 30
0.0
 10
12.6006046325
 20
-6.4566547864
 30
0.0
 10
12.6213726946
 20
-6.9679460661
 30
0.0
 10
12.639001934
 20
-7.4539123609
 30
0.0
 10
12.653174186
 20
-7.9133897657
 30
0.0
 10
12.663560168
 20
-8.3456255406
 30
0.0
 10
12.6697717383
 20
-8.7504414689
 30
0.0
 10
12.6712863248
 20
-9.1280396929
 30
0.0
 10
12.6680100657
 20
-9.4256516179
 30
0.0
 10
12.661932456
 20
-9.6494934234
 30
0.0
 10
12.6557329863
 20
-9.8052299529
 30
0.0
 10
12.6476666672
 20
-9.9507778055
 30
0.0
 10
12.6406961579
 20
-10.0441552514
 30
0.0
 10
12.6367965719
 20
-10.0888073895
 30
0.0
  0
SPLINE
  5
603
100
AcDbEntity
  8
0
100
AcDbSpline
 62
9
  6
CONTINUOUS
 70
0
 71
3
 72
22
 73
18
 74
0
 42
0.0000001
 43
0.0000001
 44
0.0000000001
 40
0.0
 40
0.0
 40
0.0
 40
0.0
 40
0.2241932369
 40
0.4189608245
 40
0.5049709554
 40
0.583328991
 40
0.6540016909
 40
0.7170800969
 40
0.7728394461
 40
0.821607072
 40
0.8637709507
 40
0.8998136518
 40
0.9303473584
 40
0.9562446224
 40
0.9788240542
 40
0.9894632043
 40
1.0
 40
1.0
 40
1.0
 40
1.0
 10
12.6367965719
 20
-10.0888073895
 30
0.0
 10
12.6333930243
 20
-10.127779649
 30
0.0
 10
12.6262350089
 20
-10.2005438525
 30
0.0
 10
12.6148904538
 20
-10.287947723
 30
0.0
 10
12.6048175684
 20
-10.349805511
 30
0.0
 10
12.5972245382
 20
-10.3901150361
 30
0.0
 10
12.5892960461
 20
-10.4262745757
 30
0.0
 10
12.5810396859
 20
-10.4583051372
 30
0.0
 10
12.5724665923
 20
-10.4862795019
 30
0.0
 10
12.5635802487
 20
-10.5103029228
 30
0.0
 10
12.5543781335
 20
-10.5304860506
 30
0.0
 10
12.5448583939
 20
-10.5469444357
 30
0.0
 10
12.5349780289
 20
-10.5597822259
 30
0.0
 10
12.5246537396
 20
-10.56907029
 30
0.0
 10
12.5153589587
 20
-10.5738945878
 30
0.0
 10
12.507912798
 20
-10.575710782
 30
0.0
 10
12.5042102729
 20
-10.5760015284
 30
0.0
 10
12.5023716552
 20
-10.5760003618
 30
0.0
  0
SPLINE
  5
604
100
AcDbEntity
  8
0
100
AcDbSpline
 62
7
  6
CONTINUOUS
 70
0
 71
3
 72
15
 73
11
 74
0
 42
0.0000001
 43
0.0000001
 44
0.0000000001
 40
0.0
 40
0.0
 40
0.0
 40
0.0
 40
0.101834686
 40
0.1920835985
 40
0.2806081625
 40
0.3777907741
 40
0.4918948978
 40
0.6298611999
 40
0.7975973315
 40
1.0
 40
1.0
 40
1.0
 40
1.0
 10
11.4888395385
 20
8.7550998718
 30
0.0
 10
11.4894955425
 20
8.7545959052
 30
0.0
 10
11.4908406722
 20
8.7537645874
 30
0.0
 10
11.4930963635
 20
8.7532031351
 30
0.0
 10
11.4953691597
 20
8.753494043
 30
0.0
 10
11.4975779277
 20
8.7545997183
 30
0.0
 10
11.4997407409
 20
8.7564678919
 30
0.0
 10
11.5018694215
 20
8.7591510414
 30
0.0
 10
11.5039727429
 20
8.7627127956
 30
0.0
 10
11.5052340058
 20
8.7654471362
 30
0.0
 10
11.5058707108
 20
8.7669630381
 30
0.0
  0
SPLINE
  5
605
100
AcDbEntity
  8
0
100
AcDbSpline
 62
7
  6
CONTINUOUS
 70
0
 71
3
 72
9
 73
5
 74
0
 42
0.0000001
 43
0.0000001
 44
0.0000000001
 40
0.0
 40
0.0
 40
0.0
 40
0.0
 40
0.4218248488
 40
1.0
 40
1.0
 40
1.0
 40
1.0
 10
11.5058707108
 20
8.7669630381
 30
0.0
 10
11.5075086515
 20
8.7708627371
 30
0.0
 10
11.5105948014
 20
8.7804362264
 30
0.0
 10
11.5127430187
 20
8.7902388086
 30
0.0
 10
11.5138235504
 20
8.7959346941
 30
0.0
  0
ENDSEC
  0
SECTION
  2
OBJECTS
  0
DICTIONARY
  5
C
100
AcDbDictionary
280
0
281
1
  3
ACAD_GROUP
350
D
  3
ACAD_MLINESTYLE
350
17
  3
ACAD_LAYOUT
350
1A
  3
ACAD_PLOTSETTINGS
350
19
  3
ACAD_PLOTSTYLENAME
350
E
  0
DICTIONARY
  5
D
102
{ACAD_REACTORS
330
C
102
}
100
AcDbDictionary
280
0
281
1
  0
ACDBDICTIONARYWDFLT
  5
E
102
{ACAD_REACTORS
330
C
102
}
100
AcDbDictionary
281
1
  3
Normal
350
F
100
AcDbDictionaryWithDefault
340
F
  0
DICTIONARY
  5
17
102
{ACAD_REACTORS
330
C
102
}
100
AcDbDictionary
280
0
281
1
  3
Standard
350
18
  0
DICTIONARY
  5
19
102
{ACAD_REACTORS
330
C
102
}
100
AcDbDictionary
281
1
  0
DICTIONARY
  5
1A
102
{ACAD_REACTORS
330
C
102
}
100
AcDbDictionary
281
1
  3
Model
350
606
  3
Layout1
350
607
  0
ACDBPLACEHOLDER
  5
F
102
{ACAD_REACTORS
330
E
102
}
  0
MLINESTYLE
  5
18
102
{ACAD_REACTORS
330
17
102
}
100
AcDbMlineStyle
  2
STANDARD
 70
0
  3

 62
256
 51
90.0
 52
90.0
 71
2
 49
0.5
 62
256
  6
BYLAYER
 49
-0.5
 62
256
  6
BYLAYER
  0
LAYOUT
  5
606
102
{ACAD_REACTORS
330
1A
102
}
100
AcDbPlotSettings
  1

  2
none_device
  4
ANSI_C_(22.00_x_17.00_Inches)
  6

 40
0.0
 41
0.0
 42
0.0
 43
0.0
 44
558.8
 45
431.8
 46
0.0
 47
0.0
 48
0.0
 49
0.0
140
0.0
141
0.0
142
1.0
143
1.0
 70
1024
 72
0
 73
0
 74
0
  7

 75
0
147
1.0
148
0.0
149
0.0
100
AcDbLayout
  1
Model
 70
0
 71
0
 10
0.0
 20
0.0
 11
22.0
 21
17.0
 12
0.0
 22
0.0
 32
0.0
 14
0.0
 24
0.0
 34
0.0
 15
0.0
 25
0.0
 35
0.0
146
0.0
 13
0.0
 23
0.0
 33
0.0
 16
1.0
 26
0.0
 36
0.0
 17
0.0
 27
1.0
 37
0.0
 76
0
330
202
345
0
346
0
  0
LAYOUT
  5
607
102
{ACAD_REACTORS
330
1A
102
}
100
AcDbPlotSettings
  1

  2
none_device
  4
ANSI_C_(22.00_x_17.00_Inches)
  6

 40
0.0
 41
0.0
 42
0.0
 43
0.0
 44
558.8
 45
431.8
 46
0.0
 47
0.0
 48
0.0
 49
0.0
140
0.0
141
0.0
142
1.0
143
1.0
 70
0
 72
0
 73
0
 74
0
  7

 75
0
147
1.0
148
0.0
149
0.0
100
AcDbLayout
  1
Layout1
 70
0
 71
1
 10
0.0
 20
0.0
 11
22.0
 21
17.0
 12
0.0
 22
0.0
 32
0.0
 14
0.0
 24
0.0
 34
0.0
 15
0.0
 25
0.0
 35
0.0
146
0.0
 13
0.0
 23
0.0
 33
0.0
 16
1.0
 26
0.0
 36
0.0
 17
0.0
 27
1.0
 37
0.0
 76
0
330
203
345
0
346
0
  0
ENDSEC
  0
EOF
