999
DXF file: E:\BT Custom\CADOUTPUT\_FRONT.dxf
999
Pro/ENGINEER 2018400 by Parametric Technology Corporation
  0
SECTION
  2
HEADER
  9
$ACADVER
  1
AC1018
  9
$DWGCODEPAGE
  3
ANSI_1252
  9
$EXTMAX
 10
22.0
 20
17.0
 30
0.0
  9
$EXTMIN
 10
0.0
 20
0.0
 30
0.0
  9
$LIMMIN
 10
0.0
 20
0.0
  9
$LIMMAX
 10
22.0
 20
17.0
  9
$VIEWCTR
 10
11.0
 20
8.5
  9
$VIEWSIZE
 40
17.0
  9
$CLAYER
  8
0
  9
$LTSCALE
 40
1.21
  9
$CELTYPE
  6
BYLAYER
  9
$DIMSCALE
 40
1.0
  9
$DIMASZ
 40
0.1
  9
$DIMEXO
 40
0.0625
  9
$DIMDLI
 40
0.836
  9
$DIMEXE
 40
0.125
  9
$DIMCEN
 40
0.198
  9
$DIMLFAC
 40
1.0
  9
$DIMBLK
  1
_FILLED
  9
$DIMALT
 70
1
  9
$DIMALTD
 70
2
  9
$DIMALTTD
 70
2
  9
$DIMALTF
 40
25.4
  9
$DIMTXT
 40
0.08
  9
$DIMTOL
 70
1
  9
$DIMLIM
 70
0
  9
$DIMTFAC
 40
1.0
  9
$DIMTP
 40
0.001
  9
$DIMTM
 40
0.001
  9
$DIMGAP
 40
0.09
  9
$DIMDSEP
 70
46
  9
$AUNITS
 70
0
  9
$PDMODE
 70
3
  9
$PDSIZE
 40
0.06
  9
$HANDSEED
  5
559
  9
$TILEMODE
 70
1
  9
$MEASUREMENT
 70
0
  9
$INSUNITS
 70
1
  0
ENDSEC
  0
SECTION
  2
CLASSES
  0
CLASS
  1
ACDBDICTIONARYWDFLT
  2
AcDbDictionaryWithDefault
  3
AutoCAD 2000
 90
0
 91
1
280
0
281
0
  0
CLASS
  1
ACDBPLACEHOLDER
  2
AcDbPlaceHolder
  3
AutoCAD 2000
 90
0
 91
1
280
0
281
0
  0
CLASS
  1
LAYOUT
  2
AcDbLayout
  3
AutoCAD 2000
 90
0
 91
0
280
0
281
0
  0
ENDSEC
  0
SECTION
  2
TABLES
  0
TABLE
  2
VPORT
  5
8
100
AcDbSymbolTable
 70
2
  0
VPORT
  5
1F4
100
AcDbSymbolTableRecord
100
AcDbViewportTableRecord
  2
*ACTIVE
 70
0
 10
0.0
 20
0.0
 11
1.0
 21
1.0
 12
11.0
 22
8.5
 13
0.0
 23
0.0
 14
1.0
 24
1.0
 15
0.0
 25
0.0
 16
0.0
 26
0.0
 36
1.0
 17
0.0
 27
0.0
 37
0.0
 40
17.0
 41
1.2941176471
 42
50.0
 43
0.0
 44
0.0
 50
0.0
 51
0.0
 71
0
 72
100
 73
1
 74
1
 75
0
 76
0
 77
0
 78
0
  0
ENDTAB
  0
TABLE
  2
LTYPE
  5
5
100
AcDbSymbolTable
 70
6
  0
LTYPE
  5
14
100
AcDbSymbolTableRecord
100
AcDbLinetypeTableRecord
  2
BYBLOCK
 70
0
  3

 72
65
 73
0
 40
0.0
  0
LTYPE
  5
15
100
AcDbSymbolTableRecord
100
AcDbLinetypeTableRecord
  2
BYLAYER
 70
0
  3

 72
65
 73
0
 40
0.0
  0
LTYPE
  5
16
100
AcDbSymbolTableRecord
100
AcDbLinetypeTableRecord
  2
CONTINUOUS
 70
64
  3
Solid line
 72
65
 73
0
 40
0.0
  0
LTYPE
  5
1F5
100
AcDbSymbolTableRecord
100
AcDbLinetypeTableRecord
  2
CENTER
 70
64
  3
____ _ ____ _ ____ _ ____ _ ____ _ ____ _ ____
 72
65
 73
4
 40
0.6
 49
0.375
 74
0
 49
-0.075
 74
0
 49
0.075
 74
0
 49
-0.075
 74
0
  0
LTYPE
  5
1F6
100
AcDbSymbolTableRecord
100
AcDbLinetypeTableRecord
  2
HIDDEN
 70
64
  3
- - - - - - - - - - - - - - - - - - - -
 72
65
 73
2
 40
0.2
 49
0.1
 74
0
 49
-0.1
 74
0
  0
LTYPE
  5
1F7
100
AcDbSymbolTableRecord
100
AcDbLinetypeTableRecord
  2
PHANTOM
 70
64
  3
_____ _ _ _____ _ _ _____ _ _ _____
 72
65
 73
6
 40
0.8
 49
0.45
 74
0
 49
-0.05
 74
0
 49
0.1
 74
0
 49
-0.05
 74
0
 49
0.1
 74
0
 49
-0.05
 74
0
  0
LTYPE
  5
1F8
100
AcDbSymbolTableRecord
100
AcDbLinetypeTableRecord
  2
DOT
 70
64
  3
. . . . . . . . . . . . . . . . . . . .
 72
65
 73
2
 40
0.2
 49
0.1
 74
0
 49
-0.1
 74
0
  0
LTYPE
  5
1F9
100
AcDbSymbolTableRecord
100
AcDbLinetypeTableRecord
  2
DASHED
 70
64
  3
- - - - - - - - - - - - - - - - - - - -
 72
65
 73
2
 40
0.2
 49
0.1
 74
0
 49
-0.1
 74
0
  0
ENDTAB
  0
TABLE
  2
LAYER
  5
2
100
AcDbSymbolTable
 70
36
  0
LAYER
  5
10
100
AcDbSymbolTableRecord
100
AcDbLayerTableRecord
  2
0
 70
0
 62
7
  6
CONTINUOUS
370
-3
390
F
  0
LAYER
  5
1FA
100
AcDbSymbolTableRecord
100
AcDbLayerTableRecord
  2
DEFAULT_1
 70
0
 62
7
  6
CENTER
370
-3
390
F
  0
LAYER
  5
1FB
100
AcDbSymbolTableRecord
100
AcDbLayerTableRecord
  2
DEFAULT_2
 70
0
 62
8
  6
HIDDEN
370
-3
390
F
  0
LAYER
  5
1FC
100
AcDbSymbolTableRecord
100
AcDbLayerTableRecord
  2
DEFAULT_3
 70
0
 62
7
  6
PHANTOM
370
-3
390
F
  0
LAYER
  5
1FD
100
AcDbSymbolTableRecord
100
AcDbLayerTableRecord
  2
ALL_FEATURES
 70
0
 62
7
  6
CONTINUOUS
370
-3
390
F
  0
LAYER
  5
1FE
100
AcDbSymbolTableRecord
100
AcDbLayerTableRecord
  2
AXES_FEATURES
 70
0
 62
7
  6
CONTINUOUS
370
-3
390
F
  0
LAYER
  5
1FF
100
AcDbSymbolTableRecord
100
AcDbLayerTableRecord
  2
DIMENSIONS
 70
0
 62
7
  6
CONTINUOUS
370
-3
390
F
  0
ENDTAB
  0
TABLE
  2
STYLE
  5
3
100
AcDbSymbolTable
 70
1
  0
STYLE
  5
11
100
AcDbSymbolTableRecord
100
AcDbTextStyleTableRecord
  2
STANDARD
 70
0
 40
0.0
 41
0.8
 50
0.0
 71
0
 42
0.2
  3
txt
  4

  0
STYLE
  5
200
100
AcDbSymbolTableRecord
100
AcDbTextStyleTableRecord
  2
TEXTSTYLE_1
 70
0
 40
0.0
 41
0.8
 50
0.0
 71
0
 42
0.2
  3
gdt
  4

  0
ENDTAB
  0
TABLE
  2
VIEW
  5
6
100
AcDbSymbolTable
 70
0
  0
ENDTAB
  0
TABLE
  2
UCS
  5
7
100
AcDbSymbolTable
 70
0
  0
ENDTAB
  0
TABLE
  2
APPID
  5
9
100
AcDbSymbolTable
 70
1
  0
APPID
  5
201
100
AcDbSymbolTableRecord
100
AcDbRegAppTableRecord
  2
ACAD
 70
0
  0
ENDTAB
  0
TABLE
  2
BLOCK_RECORD
  5
1
100
AcDbSymbolTable
 70
0
  0
BLOCK_RECORD
  5
202
100
AcDbSymbolTableRecord
100
AcDbBlockTableRecord
  2
*Model_Space
  0
BLOCK_RECORD
  5
203
100
AcDbSymbolTableRecord
100
AcDbBlockTableRecord
  2
*Paper_Space
  0
BLOCK_RECORD
  5
204
100
AcDbSymbolTableRecord
100
AcDbBlockTableRecord
  2
_FILLED
  0
ENDTAB
  0
TABLE
  2
DIMSTYLE
  5
A
100
AcDbSymbolTable
 70
1
100
AcDbDimStyleTable
 71
0
  0
DIMSTYLE
105
205
100
AcDbSymbolTableRecord
100
AcDbDimStyleTableRecord
  2
STANDARD
 70
0
  3

  4

 40
1.0
 41
0.1
 42
0.0625
 43
0.38
 44
0.125
 45
0.0
 46
0.0
 47
0.001
 48
0.001
140
0.08
141
0.09
142
0.0
143
25.4
144
1.0
145
0.0
146
1.0
147
0.09
 71
1.0
 72
0.0
 73
1
 74
1
 75
0
 76
0
 77
0
 78
4
 79
1
170
1
171
2
172
0
173
0
174
0
175
0
176
0
177
0
178
0
270
2
179
3
271
3
272
3
273
2
274
2
275
0
280
0
281
0
282
0
283
1
284
4
285
0
286
0
287
3
288
0
340
11
278
46
341
204
342
204
343
204
344
204
  0
ENDTAB
  0
ENDSEC
  0
SECTION
  2
BLOCKS
  0
BLOCK
  5
20
100
AcDbEntity
  8
0
100
AcDbBlockBegin
  2
*Model_Space
 70
0
 10
0.0
 20
0.0
 30
0.0
  3
*Model_Space
  1

  0
ENDBLK
  5
21
100
AcDbEntity
  8
0
100
AcDbBlockEnd
  0
BLOCK
  5
1C
100
AcDbEntity
  8
0
100
AcDbBlockBegin
  2
*Paper_Space
 70
0
 10
0.0
 20
0.0
 30
0.0
  3
*Paper_Space
  1

  0
ENDBLK
  5
1D
100
AcDbEntity
  8
0
100
AcDbBlockEnd
  0
BLOCK
  5
206
100
AcDbEntity
  8
0
100
AcDbBlockBegin
  2
_FILLED
 70
64
 10
0.0
 20
0.0
  3
_FILLED
  1

  0
SOLID
  5
207
100
AcDbEntity
  8
0
  6
BYBLOCK
 62
0
100
AcDbTrace
 10
0.0
 20
0.0
 11
-1.0
 21
0.2
 12
-1.0
 22
-0.2
 13
-1.0
 23
-0.2
  0
ENDBLK
  5
208
100
AcDbEntity
  8
0
  6
BYBLOCK
 62
0
100
AcDbBlockEnd
  0
ENDSEC
  0
SECTION
  2
ENTITIES
  0
LWPOLYLINE
  5
209
100
AcDbEntity
  8
0
100
AcDbPolyline
 62
7
  6
CONTINUOUS
 90
36
 70
0
 10
16.9063888938
 20
-5.6109938464
 10
17.0658465651
 20
-5.607006958
 10
17.4169098482
 20
-5.5647339634
 10
17.7310150611
 20
-5.4723624986
 10
18.0072387649
 20
-5.3231720513
 10
18.2368167712
 20
-5.1125098237
 10
18.4083406405
 20
-4.8422289175
 10
18.5146801585
 20
-4.5217627902
 10
18.5569689058
 20
-4.1661723419
 10
18.5441929434
 20
-3.7885991354
 10
18.4879643398
 20
-3.4001912473
 10
18.397468223
 20
-3.0020364773
 10
18.2789555953
 20
-2.5942326758
 10
18.1363699776
 20
-2.1757066756
 10
17.9725411248
 20
-1.7453785969
 10
17.7899513693
 20
-1.3034335371
 10
17.5901711676
 20
-0.8491341058
 10
17.3739888103
 20
-0.380783697
 10
17.1424268193
 20
0.1021923295
 10
16.8962645787
 20
0.6006021898
 10
16.6358394585
 20
1.1159785699
 10
16.3613474888
 20
1.6500033173
 10
16.0732201555
 20
2.2039232653
 10
15.7717595404
 20
2.779392093
 10
15.4571732891
 20
3.3785089234
 10
15.1296607812
 20
4.0038080752
 10
14.7894094594
 20
4.6584652801
 10
14.4369015187
 20
5.3460333767
 10
14.0732010501
 20
6.0703501335
 10
13.7001304814
 20
6.8358698434
 10
13.3207601738
 20
7.6476902433
 10
12.9374687892
 20
8.5179962181
 10
12.5552029792
 20
9.465073306
 10
12.1917310881
 20
10.4982550461
 10
11.8843171632
 20
11.6095398599
 10
11.7003383469
 20
12.7086158361
  0
LINE
  5
20A
100
AcDbEntity
  8
0
100
AcDbLine
 62
7
  6
CONTINUOUS
 10
16.9063888938
 20
-5.6109938464
 11
16.906123402
 21
-5.6109938647
  0
LINE
  5
20B
100
AcDbEntity
  8
0
100
AcDbLine
 62
9
  6
CONTINUOUS
 10
16.3267670608
 20
-5.5688781916
 11
16.3274220784
 21
-5.5689219126
  0
LINE
  5
20C
100
AcDbEntity
  8
0
100
AcDbLine
 62
9
  6
CONTINUOUS
 10
4.8189157623
 20
21.4842316573
 11
4.8086134247
 21
21.4760368161
  0
LINE
  5
20D
100
AcDbEntity
  8
0
100
AcDbLine
 62
9
  6
CONTINUOUS
 10
4.6976917498
 20
21.3878057458
 11
4.6897209881
 21
21.3814655073
  0
LINE
  5
20E
100
AcDbEntity
  8
0
100
AcDbLine
 62
7
  6
CONTINUOUS
 10
4.7592125168
 20
21.4605960408
 11
4.7238798302
 21
21.4328037336
  0
LINE
  5
20F
100
AcDbEntity
  8
0
100
AcDbLine
 62
7
  6
CONTINUOUS
 10
4.7821227933
 20
21.4285435664
 11
4.7495974206
 21
21.4029652554
  0
LINE
  5
210
100
AcDbEntity
  8
0
100
AcDbLine
 62
9
  6
CONTINUOUS
 10
3.9190161751
 20
21.1954326252
 11
3.919552887
 21
21.195817864
  0
LINE
  5
211
100
AcDbEntity
  8
0
100
AcDbLine
 62
9
  6
CONTINUOUS
 10
3.8916633502
 20
21.2036479709
 11
3.8922015042
 21
21.2040340427
  0
LINE
  5
212
100
AcDbEntity
  8
0
100
AcDbLine
 62
9
  6
CONTINUOUS
 10
4.0118859995
 20
21.0454557189
 11
3.9914780581
 21
21.0320820791
  0
LINE
  5
213
100
AcDbEntity
  8
0
100
AcDbLine
 62
9
  6
CONTINUOUS
 10
3.7402000909
 20
20.9119411347
 11
3.740293395
 21
20.9119978576
  0
LINE
  5
214
100
AcDbEntity
  8
0
100
AcDbLine
 62
9
  6
CONTINUOUS
 10
6.1696261017
 20
22.4125491522
 11
6.1809687383
 21
22.4192304664
  0
LINE
  5
215
100
AcDbEntity
  8
0
100
AcDbLine
 62
9
  6
CONTINUOUS
 10
6.3030902648
 20
22.4911655442
 11
6.3118658355
 21
22.4963347612
  0
LINE
  5
216
100
AcDbEntity
  8
0
100
AcDbLine
 62
9
  6
CONTINUOUS
 10
3.6625170323
 20
21.0464918645
 11
3.6626125649
 21
21.0465441746
  0
LINE
  5
217
100
AcDbEntity
  8
0
100
AcDbLine
 62
9
  6
CONTINUOUS
 10
3.8922012134
 20
21.204034618
 11
3.9139871942
 21
21.2150216445
  0
LINE
  5
218
100
AcDbEntity
  8
0
100
AcDbLine
 62
9
  6
CONTINUOUS
 10
3.9908743208
 20
21.0318095378
 11
3.9914777457
 21
21.0320825568
  0
LINE
  5
219
100
AcDbEntity
  8
0
100
AcDbLine
 62
9
  6
CONTINUOUS
 10
3.9980379315
 20
21.0598776738
 11
3.9974352609
 21
21.0596050891
  0
LINE
  5
21A
100
AcDbEntity
  8
0
100
AcDbLine
 62
9
  6
CONTINUOUS
 10
6.2494663332
 20
22.2289291441
 11
6.2620880818
 21
22.2326678764
  0
LINE
  5
21B
100
AcDbEntity
  8
0
100
AcDbLine
 62
9
  6
CONTINUOUS
 10
6.3979846883
 20
22.2729222897
 11
6.4077505578
 21
22.2758150706
  0
LINE
  5
21C
100
AcDbEntity
  8
0
100
AcDbLine
 62
7
  6
CONTINUOUS
 10
16.9066636035
 20
-5.0509692202
 11
16.9057112362
 21
-5.0509693937
  0
LWPOLYLINE
  5
21D
100
AcDbEntity
  8
0
100
AcDbPolyline
 62
7
  6
CONTINUOUS
 90
4
 70
0
 10
16.9057112362
 20
-5.0509693937
 10
16.8362705778
 20
-5.0501421386
 10
16.6095710869
 20
-5.0371994254
 10
16.4015223115
 20
-5.0138902165
  0
LINE
  5
21E
100
AcDbEntity
  8
0
100
AcDbLine
 62
9
  6
CONTINUOUS
 10
7.6919523731
 20
-4.4057589403
 11
7.6912973554
 21
-4.4057152193
  0
LWPOLYLINE
  5
21F
100
AcDbEntity
  8
0
100
AcDbPolyline
 62
7
  6
CONTINUOUS
 90
3
 70
0
 10
16.326766241
 20
-5.5688780811
 10
16.668172155
 20
-5.6032104162
 10
16.906123402
 20
-5.6109938647
  0
LINE
  5
220
100
AcDbEntity
  8
0
100
AcDbLine
 62
7
  6
CONTINUOUS
 10
7.6912973554
 20
-4.4057152193
 11
16.3267670608
 21
-5.5688781916
  0
LINE
  5
221
100
AcDbEntity
  8
0
100
AcDbLine
 62
7
  6
CONTINUOUS
 10
7.7660520101
 20
-3.8507271639
 11
16.4015217153
 21
-5.0138901362
  0
LINE
  5
222
100
AcDbEntity
  8
0
100
AcDbLine
 62
7
  6
CONTINUOUS
 10
5.6148304363
 20
22.2435353309
 11
5.6051931505
 21
22.2309719235
  0
LINE
  5
223
100
AcDbEntity
  8
0
100
AcDbLine
 62
7
  6
CONTINUOUS
 10
5.2717112238
 20
21.7963751879
 11
5.2619455699
 21
21.7836468193
  0
LINE
  5
224
100
AcDbEntity
  8
0
100
AcDbLine
 62
9
  6
CONTINUOUS
 10
4.8674330293
 20
21.2210037499
 11
4.8612317852
 21
21.2129221678
  0
LINE
  5
225
100
AcDbEntity
  8
0
100
AcDbLine
 62
9
  6
CONTINUOUS
 10
4.961727604
 20
21.3438908287
 11
4.9537140018
 21
21.3334472995
  0
LINE
  5
226
100
AcDbEntity
  8
0
100
AcDbLine
 62
7
  6
CONTINUOUS
 10
5.3087971451
 20
21.7476963412
 11
5.318436405
 21
21.7602584972
  0
LINE
  5
227
100
AcDbEntity
  8
0
100
AcDbLine
 62
7
  6
CONTINUOUS
 10
5.6520413865
 20
22.1950239493
 11
5.6616820115
 21
22.2075848529
  0
LINE
  5
228
100
AcDbEntity
  8
0
100
AcDbLine
 62
9
  6
CONTINUOUS
 10
5.1342488541
 20
21.2422680612
 11
5.1289996467
 21
21.2301957298
  0
LINE
  5
229
100
AcDbEntity
  8
0
100
AcDbLine
 62
9
  6
CONTINUOUS
 10
5.0724836229
 20
21.100217802
 11
5.0684224246
 21
21.0908776679
  0
LINE
  5
22A
100
AcDbEntity
  8
0
100
AcDbLine
 62
7
  6
CONTINUOUS
 10
5.071770674
 20
19.2056159308
 11
4.9278240164
 21
19.0278566126
  0
LINE
  5
22B
100
AcDbEntity
  8
0
100
AcDbLine
 62
9
  6
CONTINUOUS
 10
4.4504093347
 20
-0.3614961115
 11
4.4529030482
 21
-0.3613015122
  0
LINE
  5
22C
100
AcDbEntity
  8
0
100
AcDbLine
 62
9
  6
CONTINUOUS
 10
5.7227395734
 20
22.9364838123
 11
5.7254614785
 21
22.9462986812
  0
LINE
  5
22D
100
AcDbEntity
  8
0
100
AcDbLine
 62
9
  6
CONTINUOUS
 10
5.6813451398
 20
22.7872202917
 11
5.6848630229
 21
22.7999053684
  0
LINE
  5
22E
100
AcDbEntity
  8
0
100
AcDbLine
 62
7
  6
CONTINUOUS
 10
5.0518137907
 20
13.7086158361
 11
5.0456547383
 21
13.8906158361
  0
LINE
  5
22F
100
AcDbEntity
  8
0
100
AcDbLine
 62
7
  6
CONTINUOUS
 10
4.8268137907
 20
15.0456158361
 11
4.8268137907
 21
15.1156158361
  0
LINE
  5
230
100
AcDbEntity
  8
0
100
AcDbLine
 62
7
  6
CONTINUOUS
 10
4.8268137907
 20
18.8956158361
 11
4.8268137907
 21
18.9656158361
  0
LINE
  5
231
100
AcDbEntity
  8
0
100
AcDbLine
 62
7
  6
CONTINUOUS
 10
5.0868137907
 20
19.2453510367
 11
5.0868137907
 21
19.8827951266
  0
LINE
  5
232
100
AcDbEntity
  8
0
100
AcDbLine
 62
7
  6
CONTINUOUS
 10
5.0968137907
 20
14.8906158361
 11
5.0968137907
 21
15.0056158361
  0
LINE
  5
233
100
AcDbEntity
  8
0
100
AcDbLine
 62
9
  6
CONTINUOUS
 10
5.0999090179
 20
14.872305978
 11
5.0999090189
 21
13.9089256946
  0
LINE
  5
234
100
AcDbEntity
  8
0
100
AcDbLine
 62
7
  6
CONTINUOUS
 10
5.1368137907
 20
13.9156158361
 11
5.1368137907
 21
14.8656158361
  0
LINE
  5
235
100
AcDbEntity
  8
0
100
AcDbLine
 62
7
  6
CONTINUOUS
 10
5.1818137907
 20
13.7086158361
 11
5.1818137907
 21
9.0277747402
  0
LINE
  5
236
100
AcDbEntity
  8
0
100
AcDbLine
 62
9
  6
CONTINUOUS
 10
5.4833176648
 20
22.816815715
 11
5.4836622706
 21
22.8299753735
  0
LINE
  5
237
100
AcDbEntity
  8
0
100
AcDbLine
 62
9
  6
CONTINUOUS
 10
5.4873724144
 20
22.971660085
 11
5.4876390137
 21
22.9818414587
  0
LINE
  5
238
100
AcDbEntity
  8
0
100
AcDbLine
 62
7
  6
CONTINUOUS
 10
5.1780504356
 20
8.9314977754
 11
4.4504093347
 21
-0.3614961115
  0
LINE
  5
239
100
AcDbEntity
  8
0
100
AcDbLine
 62
7
  6
CONTINUOUS
 10
5.7418137907
 20
13.7086158361
 11
5.7418137907
 21
9.0277747402
  0
LINE
  5
23A
100
AcDbEntity
  8
0
100
AcDbLine
 62
7
  6
CONTINUOUS
 10
5.7868137907
 20
14.8656158361
 11
5.7868137907
 21
13.9156158361
  0
LINE
  5
23B
100
AcDbEntity
  8
0
100
AcDbLine
 62
9
  6
CONTINUOUS
 10
5.823718564
 20
13.9089256941
 11
5.8237185623
 21
14.8723059779
  0
LINE
  5
23C
100
AcDbEntity
  8
0
100
AcDbLine
 62
7
  6
CONTINUOUS
 10
5.8268137907
 20
15.0056158361
 11
5.8268137907
 21
14.8906158361
  0
LINE
  5
23D
100
AcDbEntity
  8
0
100
AcDbLine
 62
7
  6
CONTINUOUS
 10
5.8368137907
 20
19.2453510369
 11
5.8368137907
 21
19.8827951266
  0
LINE
  5
23E
100
AcDbEntity
  8
0
100
AcDbLine
 62
7
  6
CONTINUOUS
 10
6.0968137907
 20
15.0456158361
 11
6.0968137907
 21
15.1156158361
  0
LINE
  5
23F
100
AcDbEntity
  8
0
100
AcDbLine
 62
7
  6
CONTINUOUS
 10
6.0968137907
 20
18.8956158361
 11
6.0968137907
 21
18.9656158361
  0
LINE
  5
240
100
AcDbEntity
  8
0
100
AcDbLine
 62
7
  6
CONTINUOUS
 10
5.8718137907
 20
13.7086158361
 11
5.8779728432
 21
13.8906158361
  0
LINE
  5
241
100
AcDbEntity
  8
0
100
AcDbLine
 62
7
  6
CONTINUOUS
 10
5.7363416412
 20
8.8877835933
 11
5.0087005404
 21
-0.4052102937
  0
LINE
  5
242
100
AcDbEntity
  8
0
100
AcDbLine
 62
7
  6
CONTINUOUS
 10
11.0395395711
 20
14.2221158361
 11
11.0360395711
 21
14.2186158361
  0
LINE
  5
243
100
AcDbEntity
  8
0
100
AcDbLine
 62
7
  6
CONTINUOUS
 10
5.4683037875
 20
21.7201017174
 11
5.4703703456
 21
21.7044029327
  0
LINE
  5
244
100
AcDbEntity
  8
0
100
AcDbLine
 62
7
  6
CONTINUOUS
 10
5.3947073425
 20
22.2791204998
 11
5.3967747616
 21
22.263421867
  0
LINE
  5
245
100
AcDbEntity
  8
0
100
AcDbLine
 62
7
  6
CONTINUOUS
 10
5.528920239
 20
21.7121111724
 11
5.5268530806
 21
21.7278098637
  0
LINE
  5
246
100
AcDbEntity
  8
0
100
AcDbLine
 62
7
  6
CONTINUOUS
 10
5.4553710882
 20
22.2707818783
 11
5.4532572358
 21
22.2868287395
  0
LINE
  5
247
100
AcDbEntity
  8
0
100
AcDbLine
 62
7
  6
CONTINUOUS
 10
10.9147631404
 20
14.166291056
 11
10.9208937176
 21
14.1740759774
  0
LINE
  5
248
100
AcDbEntity
  8
0
100
AcDbLine
 62
7
  6
CONTINUOUS
 10
11.8961326482
 20
13.7534782871
 11
11.9023160018
 21
13.7609406162
  0
LINE
  5
249
100
AcDbEntity
  8
0
100
AcDbLine
 62
9
  6
CONTINUOUS
 10
5.2840126803
 20
22.7976248279
 11
5.2811634398
 21
22.8104769558
  0
LINE
  5
24A
100
AcDbEntity
  8
0
100
AcDbLine
 62
9
  6
CONTINUOUS
 10
5.2504867536
 20
22.9488505933
 11
5.248282339
 21
22.9587940331
  0
LINE
  5
24B
100
AcDbEntity
  8
0
100
AcDbLine
 62
7
  6
CONTINUOUS
 10
10.8535395711
 20
14.4021158361
 11
10.8535395711
 21
14.3021158361
  0
LINE
  5
24C
100
AcDbEntity
  8
0
100
AcDbLine
 62
7
  6
CONTINUOUS
 10
10.9147631404
 20
13.7609406162
 11
10.9147631404
 21
14.166291056
  0
LINE
  5
24D
100
AcDbEntity
  8
0
100
AcDbLine
 62
7
  6
CONTINUOUS
 10
10.9283055888
 20
14.166291056
 11
10.9283055888
 21
13.7609406162
  0
LINE
  5
24E
100
AcDbEntity
  8
0
100
AcDbLine
 62
7
  6
CONTINUOUS
 10
10.9535395711
 20
14.5021158361
 11
10.9535395711
 21
15.1621158361
  0
LINE
  5
24F
100
AcDbEntity
  8
0
100
AcDbLine
 62
7
  6
CONTINUOUS
 10
11.0435395711
 20
14.2221158361
 11
11.0435395711
 21
14.3021158361
  0
LINE
  5
250
100
AcDbEntity
  8
0
100
AcDbLine
 62
9
  6
CONTINUOUS
 10
5.180544149
 20
8.9316923748
 11
5.1780504356
 21
8.9314977754
  0
LINE
  5
251
100
AcDbEntity
  8
0
100
AcDbLine
 62
9
  6
CONTINUOUS
 10
5.1818137907
 20
9.0277747402
 11
5.7418137907
 21
9.0277747402
  0
LINE
  5
252
100
AcDbEntity
  8
0
100
AcDbLine
 62
7
  6
CONTINUOUS
 10
3.5984540413
 20
20.9080889649
 11
3.5883080192
 21
20.9256623907
  0
LINE
  5
253
100
AcDbEntity
  8
0
100
AcDbLine
 62
9
  6
CONTINUOUS
 10
3.6676961753
 20
20.9487149363
 11
3.6581122075
 21
20.9653148554
  0
LINE
  5
254
100
AcDbEntity
  8
0
100
AcDbLine
 62
7
  6
CONTINUOUS
 10
3.811320374
 20
21.1332465651
 11
3.8116811283
 21
21.1325580328
  0
LINE
  5
255
100
AcDbEntity
  8
0
100
AcDbLine
 62
7
  6
CONTINUOUS
 10
3.8113203708
 20
21.1332465633
 11
3.8116811267
 21
21.1325580359
  0
LINE
  5
256
100
AcDbEntity
  8
0
100
AcDbLine
 62
9
  6
CONTINUOUS
 10
5.7495026348
 20
21.2261570737
 11
5.7541128183
 21
21.2138265549
  0
LINE
  5
257
100
AcDbEntity
  8
0
100
AcDbLine
 62
9
  6
CONTINUOUS
 10
5.8037488633
 20
21.0810689265
 11
5.8073156817
 21
21.0715290628
  0
LINE
  5
258
100
AcDbEntity
  8
0
100
AcDbLine
 62
7
  6
CONTINUOUS
 10
11.1025395711
 20
13.7086158361
 11
11.1025395711
 21
12.7086158361
  0
LINE
  5
259
100
AcDbEntity
  8
0
100
AcDbLine
 62
7
  6
CONTINUOUS
 10
11.1745209851
 20
13.7609406162
 11
11.1745209851
 21
14.166291056
  0
LINE
  5
25A
100
AcDbEntity
  8
0
100
AcDbLine
 62
7
  6
CONTINUOUS
 10
11.2687146121
 20
14.166291056
 11
11.2687146121
 21
13.7609406162
  0
LINE
  5
25B
100
AcDbEntity
  8
0
100
AcDbLine
 62
7
  6
CONTINUOUS
 10
11.6682974158
 20
13.7609406162
 11
11.6682974158
 21
14.166291056
  0
LINE
  5
25C
100
AcDbEntity
  8
0
100
AcDbLine
 62
7
  6
CONTINUOUS
 10
11.7145395711
 20
13.7086158361
 11
11.7145395711
 21
12.7086158361
  0
LINE
  5
25D
100
AcDbEntity
  8
0
100
AcDbLine
 62
7
  6
CONTINUOUS
 10
11.7489485944
 20
14.166291056
 11
11.7489485944
 21
13.7609406162
  0
LINE
  5
25E
100
AcDbEntity
  8
0
100
AcDbLine
 62
7
  6
CONTINUOUS
 10
11.7735395711
 20
14.2221158361
 11
11.7735395711
 21
14.3021158361
  0
LINE
  5
25F
100
AcDbEntity
  8
0
100
AcDbLine
 62
7
  6
CONTINUOUS
 10
11.8635395711
 20
14.5021158361
 11
11.8635395711
 21
15.1621158361
  0
LINE
  5
260
100
AcDbEntity
  8
0
100
AcDbLine
 62
7
  6
CONTINUOUS
 10
11.9023160018
 20
13.7609406162
 11
11.9023160018
 21
14.166291056
  0
LINE
  5
261
100
AcDbEntity
  8
0
100
AcDbLine
 62
7
  6
CONTINUOUS
 10
11.9635395711
 20
14.4021158361
 11
11.9635395711
 21
14.3021158361
  0
LINE
  5
262
100
AcDbEntity
  8
0
100
AcDbLine
 62
7
  6
CONTINUOUS
 10
3.889313589
 20
20.9980941314
 11
3.8893173248
 21
20.9980882423
  0
LINE
  5
263
100
AcDbEntity
  8
0
100
AcDbLine
 62
7
  6
CONTINUOUS
 10
3.8893221895
 20
20.9980907014
 11
3.8897333969
 21
20.9974312504
  0
LINE
  5
264
100
AcDbEntity
  8
0
100
AcDbLine
 62
9
  6
CONTINUOUS
 10
4.2309834918
 20
21.2979814129
 11
4.2422305755
 21
21.2785033389
  0
LINE
  5
265
100
AcDbEntity
  8
0
100
AcDbLine
 62
7
  6
CONTINUOUS
 10
4.2492936171
 20
21.3085169229
 11
4.2548863391
 21
21.298795945
  0
LWPOLYLINE
  5
266
100
AcDbEntity
  8
0
100
AcDbPolyline
 62
7
  6
CONTINUOUS
 90
49
 70
0
 10
11.1378825233
 20
12.7086158361
 10
11.2551418088
 20
11.8818898594
 10
11.4360489928
 20
11.0880576497
 10
11.6512394492
 20
10.3499962166
 10
11.8856407126
 20
9.660057272
 10
12.130611033
 20
9.01074205
 10
12.3813127495
 20
8.395202294
 10
12.6341294772
 20
7.8095483055
 10
12.8865829364
 20
7.2506268317
 10
13.1371781751
 20
6.7153328055
 10
13.3848178327
 20
6.2012497076
 10
13.6286114588
 20
5.706611349
 10
13.86799862
 20
5.2297448796
 10
14.1026590851
 20
4.7690472015
 10
14.3323530883
 20
4.3231677875
 10
14.5568260226
 20
3.8910882666
 10
14.7758982362
 20
3.4718774023
 10
14.9894432035
 20
3.0646831799
 10
15.1973660628
 20
2.6687377716
 10
15.3995635499
 20
2.2834020797
 10
15.5959982906
 20
1.9079941699
 10
15.7866262423
 20
1.5419055186
 10
15.9713674755
 20
1.1846402561
 10
16.1501055494
 20
0.8358023158
 10
16.3226643859
 20
0.4951295097
 10
16.4889953205
 20
0.1621126421
 10
16.6490771307
 20
-0.1638237866
 10
16.8027679686
 20
-0.4830484985
 10
16.9498139796
 20
-0.7957504908
 10
17.0898387378
 20
-1.1019151664
 10
17.2224387994
 20
-1.4015220778
 10
17.347581362
 20
-1.6955154706
 10
17.4649773401
 20
-1.9845314892
 10
17.5740023658
 20
-2.2687227051
 10
17.6737372385
 20
-2.5477536781
 10
17.7628534497
 20
-2.8202480067
 10
17.8407311016
 20
-3.0876587862
 10
17.9061907703
 20
-3.3517479948
 10
17.9567326787
 20
-3.6118647383
 10
17.9887845139
 20
-3.8648389612
 10
17.99818527
 20
-4.1085591445
 10
17.9784036988
 20
-4.3446382698
 10
17.9188664314
 20
-4.5642425874
 10
17.8101554035
 20
-4.7497652821
 10
17.6502263597
 20
-4.8882226611
 10
17.4473690841
 20
-4.9797289666
 10
17.2229077099
 20
-5.0299999125
 10
16.9771815852
 20
-5.0500349359
 10
16.9066636035
 20
-5.0509692202
  0
LINE
  5
267
100
AcDbEntity
  8
0
100
AcDbLine
 62
7
  6
CONTINUOUS
 10
5.8518569056
 20
19.205615933
 11
5.995803565
 21
19.0278566126
  0
LINE
  5
268
100
AcDbEntity
  8
0
100
AcDbLine
 62
7
  6
CONTINUOUS
 10
11.1026394937
 20
12.7086158361
 11
11.7144396486
 21
12.7086158361
  0
LINE
  5
269
100
AcDbEntity
  8
0
100
AcDbLine
 62
7
  6
CONTINUOUS
 10
10.920946494
 20
13.7534782871
 11
10.9147631404
 21
13.7609406162
  0
LINE
  5
26A
100
AcDbEntity
  8
0
100
AcDbLine
 62
9
  6
CONTINUOUS
 10
5.9271059659
 20
21.318611516
 11
5.9345622275
 21
21.3077625748
  0
LINE
  5
26B
100
AcDbEntity
  8
0
100
AcDbLine
 62
9
  6
CONTINUOUS
 10
6.0148408327
 20
21.190956461
 11
6.0206096084
 21
21.1825628525
  0
LINE
  5
26C
100
AcDbEntity
  8
0
100
AcDbLine
 62
7
  6
CONTINUOUS
 10
5.0518767587
 20
13.7086158361
 11
5.8717508227
 21
13.7086158361
  0
LINE
  5
26D
100
AcDbEntity
  8
0
100
AcDbLine
 62
7
  6
CONTINUOUS
 10
10.9716310345
 20
13.7086158361
 11
11.8454481077
 21
13.7086158361
  0
LINE
  5
26E
100
AcDbEntity
  8
0
100
AcDbLine
 62
7
  6
CONTINUOUS
 10
10.9147631404
 20
13.7609406162
 11
10.9283055888
 21
13.7609406162
  0
LINE
  5
26F
100
AcDbEntity
  8
0
100
AcDbLine
 62
7
  6
CONTINUOUS
 10
11.1745209851
 20
13.7609406162
 11
11.2687146121
 21
13.7609406162
  0
LINE
  5
270
100
AcDbEntity
  8
0
100
AcDbLine
 62
7
  6
CONTINUOUS
 10
11.6682974158
 20
13.7609406162
 11
11.7489485944
 21
13.7609406162
  0
LINE
  5
271
100
AcDbEntity
  8
0
100
AcDbLine
 62
7
  6
CONTINUOUS
 10
11.7775395711
 20
14.2221158361
 11
11.7795786743
 21
14.2200767329
  0
LINE
  5
272
100
AcDbEntity
  8
0
100
AcDbLine
 62
7
  6
CONTINUOUS
 10
11.9023160018
 20
14.166291056
 11
11.8961854246
 21
14.1740759774
  0
LINE
  5
273
100
AcDbEntity
  8
0
100
AcDbLine
 62
7
  6
CONTINUOUS
 10
4.9126328977
 20
13.8906158361
 11
5.1118139478
 21
13.8906158361
  0
LINE
  5
274
100
AcDbEntity
  8
0
100
AcDbLine
 62
7
  6
CONTINUOUS
 10
5.8118136339
 20
13.8906158361
 11
6.0109856292
 21
13.8906158361
  0
LINE
  5
275
100
AcDbEntity
  8
0
100
AcDbLine
 62
9
  6
CONTINUOUS
 10
5.0999090189
 20
13.9089256946
 11
4.8739509604
 21
13.9089341054
  0
LINE
  5
276
100
AcDbEntity
  8
0
100
AcDbLine
 62
9
  6
CONTINUOUS
 10
6.0496720304
 20
13.9089284997
 11
5.823718564
 21
13.9089256941
  0
LINE
  5
277
100
AcDbEntity
  8
0
100
AcDbLine
 62
7
  6
CONTINUOUS
 10
11.7489485944
 20
14.166291056
 11
11.6682974158
 21
14.166291056
  0
LINE
  5
278
100
AcDbEntity
  8
0
100
AcDbLine
 62
7
  6
CONTINUOUS
 10
11.2687146121
 20
14.166291056
 11
11.1745209851
 21
14.166291056
  0
LINE
  5
279
100
AcDbEntity
  8
0
100
AcDbLine
 62
7
  6
CONTINUOUS
 10
10.9283055888
 20
14.166291056
 11
10.9147631404
 21
14.166291056
  0
LINE
  5
27A
100
AcDbEntity
  8
0
100
AcDbLine
 62
7
  6
CONTINUOUS
 10
5.7868137907
 20
14.1886158361
 11
5.1368137907
 21
14.1886158361
  0
LINE
  5
27B
100
AcDbEntity
  8
0
100
AcDbLine
 62
7
  6
CONTINUOUS
 10
5.1368137907
 20
14.1911158361
 11
5.7868137907
 21
14.1911158361
  0
LINE
  5
27C
100
AcDbEntity
  8
0
100
AcDbLine
 62
7
  6
CONTINUOUS
 10
11.8454116623
 20
14.2186158361
 11
10.97166748
 21
14.2186158361
  0
LINE
  5
27D
100
AcDbEntity
  8
0
100
AcDbLine
 62
7
  6
CONTINUOUS
 10
11.7775333113
 20
14.2221158361
 11
11.039545831
 21
14.2221158361
  0
LINE
  5
27E
100
AcDbEntity
  8
0
100
AcDbLine
 62
7
  6
CONTINUOUS
 10
5.1368137907
 20
14.2236158361
 11
5.7868137907
 21
14.2236158361
  0
LINE
  5
27F
100
AcDbEntity
  8
0
100
AcDbLine
 62
7
  6
CONTINUOUS
 10
5.7868137907
 20
14.2286158361
 11
5.1368137907
 21
14.2286158361
  0
LINE
  5
280
100
AcDbEntity
  8
0
100
AcDbLine
 62
7
  6
CONTINUOUS
 10
5.1368137907
 20
14.2586158361
 11
5.7868137907
 21
14.2586158361
  0
LINE
  5
281
100
AcDbEntity
  8
0
100
AcDbLine
 62
7
  6
CONTINUOUS
 10
10.853546678
 20
14.3021158361
 11
11.9635324642
 21
14.3021158361
  0
LINE
  5
282
100
AcDbEntity
  8
0
100
AcDbLine
 62
7
  6
CONTINUOUS
 10
11.9635395711
 20
14.4021158361
 11
10.8535395711
 21
14.4021158361
  0
LINE
  5
283
100
AcDbEntity
  8
0
100
AcDbLine
 62
9
  6
CONTINUOUS
 10
10.9535395711
 20
14.5021158361
 11
11.8635395711
 21
14.5021158361
  0
LINE
  5
284
100
AcDbEntity
  8
0
100
AcDbLine
 62
9
  6
CONTINUOUS
 10
5.0968136934
 20
14.8723060814
 11
5.0999090179
 21
14.872305978
  0
LINE
  5
285
100
AcDbEntity
  8
0
100
AcDbLine
 62
9
  6
CONTINUOUS
 10
5.8237185623
 20
14.8723059779
 11
6.0496704797
 21
14.8723050649
  0
LINE
  5
286
100
AcDbEntity
  8
0
100
AcDbLine
 62
9
  6
CONTINUOUS
 10
4.8739570281
 20
14.8723049751
 11
5.0968136934
 21
14.8723060814
  0
LINE
  5
287
100
AcDbEntity
  8
0
100
AcDbLine
 62
7
  6
CONTINUOUS
 10
6.0109946837
 20
14.8906158361
 11
4.9126419522
 21
14.8906158361
  0
LINE
  5
288
100
AcDbEntity
  8
0
100
AcDbLine
 62
7
  6
CONTINUOUS
 10
5.0968137907
 20
14.9306158361
 11
5.8268137907
 21
14.9306158361
  0
LINE
  5
289
100
AcDbEntity
  8
0
100
AcDbLine
 62
7
  6
CONTINUOUS
 10
4.8668137907
 20
15.0056158361
 11
6.0568126622
 21
15.0056158361
  0
LINE
  5
28A
100
AcDbEntity
  8
0
100
AcDbLine
 62
9
  6
CONTINUOUS
 10
4.8268137907
 20
15.0456158361
 11
6.0968137907
 21
15.0456158361
  0
LINE
  5
28B
100
AcDbEntity
  8
0
100
AcDbLine
 62
9
  6
CONTINUOUS
 10
6.0968137907
 20
15.1156158361
 11
4.8268137907
 21
15.1156158361
  0
LINE
  5
28C
100
AcDbEntity
  8
0
100
AcDbLine
 62
9
  6
CONTINUOUS
 10
4.8645508179
 20
15.1555517717
 11
6.0590767635
 21
15.1555517717
  0
LINE
  5
28D
100
AcDbEntity
  8
0
100
AcDbLine
 62
7
  6
CONTINUOUS
 10
11.8885395711
 20
15.1621158361
 11
10.9285395711
 21
15.1621158361
  0
LINE
  5
28E
100
AcDbEntity
  8
0
100
AcDbLine
 62
9
  6
CONTINUOUS
 10
6.0027064842
 20
15.2207637853
 11
4.9209210972
 21
15.2207637853
  0
LINE
  5
28F
100
AcDbEntity
  8
0
100
AcDbLine
 62
7
  6
CONTINUOUS
 10
5.6612209142
 20
21.805387165
 11
5.6737828075
 21
21.7957476153
  0
LINE
  5
290
100
AcDbEntity
  8
0
100
AcDbLine
 62
7
  6
CONTINUOUS
 10
5.2138942959
 20
22.1486324817
 11
5.226456513
 21
22.1389933184
  0
LINE
  5
291
100
AcDbEntity
  8
0
100
AcDbLine
 62
7
  6
CONTINUOUS
 10
5.262406681
 20
22.1858445222
 11
5.249844774
 21
22.1954840569
  0
LINE
  5
292
100
AcDbEntity
  8
0
100
AcDbLine
 62
7
  6
CONTINUOUS
 10
5.7097332856
 20
21.8425991905
 11
5.6971705309
 21
21.8522375059
  0
LINE
  5
293
100
AcDbEntity
  8
0
100
AcDbLine
 62
7
  6
CONTINUOUS
 10
6.168614882
 20
21.4025393011
 11
6.1464283127
 21
21.4211560432
  0
LINE
  5
294
100
AcDbEntity
  8
0
100
AcDbLine
 62
9
  6
CONTINUOUS
 10
6.0770669636
 20
21.451285805
 11
6.0869262506
 21
21.4425630376
  0
LINE
  5
295
100
AcDbEntity
  8
0
100
AcDbLine
 62
9
  6
CONTINUOUS
 10
6.193078281
 20
21.3486476392
 11
6.2007063039
 21
21.3418989435
  0
LINE
  5
296
100
AcDbEntity
  8
0
100
AcDbLine
 62
9
  6
CONTINUOUS
 10
4.776792117
 20
22.449021794
 11
4.7658147266
 21
22.4562875787
  0
LINE
  5
297
100
AcDbEntity
  8
0
100
AcDbLine
 62
9
  6
CONTINUOUS
 10
4.6476253401
 20
22.53451544
 11
4.639132322
 21
22.5401368378
  0
LINE
  5
298
100
AcDbEntity
  8
0
100
AcDbLine
 62
9
  6
CONTINUOUS
 10
4.9209210972
 20
18.7904678869
 11
6.0027064842
 21
18.7904678869
  0
LINE
  5
299
100
AcDbEntity
  8
0
100
AcDbLine
 62
9
  6
CONTINUOUS
 10
4.8645508179
 20
18.8556799005
 11
6.0590767635
 21
18.8556799005
  0
LINE
  5
29A
100
AcDbEntity
  8
0
100
AcDbLine
 62
9
  6
CONTINUOUS
 10
4.8268137907
 20
18.8956158361
 11
6.0968137907
 21
18.8956158361
  0
LINE
  5
29B
100
AcDbEntity
  8
0
100
AcDbLine
 62
9
  6
CONTINUOUS
 10
6.0968137907
 20
18.9656158361
 11
4.8268137907
 21
18.9656158361
  0
LINE
  5
29C
100
AcDbEntity
  8
0
100
AcDbLine
 62
7
  6
CONTINUOUS
 10
6.0568126622
 20
19.0056158361
 11
4.8668149193
 21
19.0056158361
  0
LINE
  5
29D
100
AcDbEntity
  8
0
100
AcDbLine
 62
9
  6
CONTINUOUS
 10
4.9278240164
 20
19.0278566126
 11
5.995803565
 21
19.0278566126
  0
LINE
  5
29E
100
AcDbEntity
  8
0
100
AcDbLine
 62
7
  6
CONTINUOUS
 10
5.8518569056
 20
19.205615933
 11
5.071770674
 21
19.2056159308
  0
LINE
  5
29F
100
AcDbEntity
  8
0
100
AcDbLine
 62
9
  6
CONTINUOUS
 10
5.0868137907
 20
19.2453510367
 11
5.8368137907
 21
19.2453510369
  0
LINE
  5
2A0
100
AcDbEntity
  8
0
100
AcDbLine
 62
9
  6
CONTINUOUS
 10
4.6874513586
 20
22.2698319578
 11
4.6750422685
 21
22.274226255
  0
LINE
  5
2A1
100
AcDbEntity
  8
0
100
AcDbLine
 62
9
  6
CONTINUOUS
 10
4.5414386017
 20
22.3215378058
 11
4.5318379247
 21
22.3249375765
  0
LINE
  5
2A2
100
AcDbEntity
  8
0
100
AcDbLine
 62
7
  6
CONTINUOUS
 10
4.5354418228
 20
22.0668962743
 11
4.5828086905
 21
22.0632515924
  0
LINE
  5
2A3
100
AcDbEntity
  8
0
100
AcDbLine
 62
9
  6
CONTINUOUS
 10
4.6441143744
 20
22.0743513319
 11
4.6310110347
 21
22.0756130419
  0
LINE
  5
2A4
100
AcDbEntity
  8
0
100
AcDbLine
 62
9
  6
CONTINUOUS
 10
4.4899304211
 20
22.0891975609
 11
4.4797920134
 21
22.0901737795
  0
LINE
  5
2A5
100
AcDbEntity
  8
0
100
AcDbLine
 62
7
  6
CONTINUOUS
 10
5.736754962
 20
22.0020279205
 11
5.7530266941
 21
22.004172391
  0
LINE
  5
2A6
100
AcDbEntity
  8
0
100
AcDbLine
 62
7
  6
CONTINUOUS
 10
5.178309127
 20
21.9285093878
 11
5.1942148912
 21
21.9306033397
  0
LINE
  5
2A7
100
AcDbEntity
  8
0
100
AcDbLine
 62
7
  6
CONTINUOUS
 10
5.1862996644
 20
21.9891260228
 11
5.1706008873
 21
21.9870592812
  0
LINE
  5
2A8
100
AcDbEntity
  8
0
100
AcDbLine
 62
7
  6
CONTINUOUS
 10
5.7453184544
 20
22.0627222844
 11
5.7296200189
 21
22.0606539844
  0
LINE
  5
2A9
100
AcDbEntity
  8
0
100
AcDbLine
 62
9
  6
CONTINUOUS
 10
6.2825133026
 20
22.0314483482
 11
6.2956649432
 21
22.0320225538
  0
LINE
  5
2AA
100
AcDbEntity
  8
0
100
AcDbLine
 62
9
  6
CONTINUOUS
 10
6.4372633249
 20
22.0382048622
 11
6.4474384941
 21
22.0386491265
  0
ARC
  5
2AB
100
AcDbEntity
  8
0
100
AcDbCircle
 62
7
  6
CONTINUOUS
 10
3.9477749303
 20
9.0277998568
 40
1.7940388605
100
AcDbArc
 50
355.5237828769
 51
359.9991978583
  0
ARC
  5
2AC
100
AcDbEntity
  8
0
100
AcDbCircle
 62
7
  6
CONTINUOUS
 10
3.9479885296
 20
9.0277915071
 40
1.2338252612
100
AcDbArc
 50
355.5238064035
 51
359.9992213849
  0
ARC
  5
2AD
100
AcDbEntity
  8
0
100
AcDbCircle
 62
7
  6
CONTINUOUS
 10
4.912632582
 20
13.9406158361
 40
0.05
100
AcDbArc
 50
219.3312480846
 51
270.0
  0
ARC
  5
2AE
100
AcDbEntity
  8
0
100
AcDbCircle
 62
7
  6
CONTINUOUS
 10
4.912632582
 20
14.8406158361
 40
0.05
100
AcDbArc
 50
90.0
 51
140.6687519154
  0
ARC
  5
2AF
100
AcDbEntity
  8
0
100
AcDbCircle
 62
7
  6
CONTINUOUS
 10
4.8668137907
 20
15.1156158361
 40
0.04
100
AcDbArc
 50
93.2432014018
 51
180.0
  0
ARC
  5
2B0
100
AcDbEntity
  8
0
100
AcDbCircle
 62
7
  6
CONTINUOUS
 10
4.8668137907
 20
15.0456158361
 40
0.04
100
AcDbArc
 50
180.0
 51
270.0
  0
ARC
  5
2B1
100
AcDbEntity
  8
0
100
AcDbCircle
 62
7
  6
CONTINUOUS
 10
5.1118137907
 20
13.9156158361
 40
0.025
100
AcDbArc
 50
270.0
 51
0.0000000575
  0
ARC
  5
2B2
100
AcDbEntity
  8
0
100
AcDbCircle
 62
7
  6
CONTINUOUS
 10
5.4618137907
 20
14.3906158361
 40
1.047
100
AcDbArc
 50
121.4463233885
 51
254.4512654056
  0
ARC
  5
2B3
100
AcDbEntity
  8
0
100
AcDbCircle
 62
7
  6
CONTINUOUS
 10
5.4618137907
 20
14.3906158361
 40
1.047
100
AcDbArc
 50
285.5487345944
 51
58.5536766115
  0
ARC
  5
2B4
100
AcDbEntity
  8
0
100
AcDbCircle
 62
7
  6
CONTINUOUS
 10
5.4618137907
 20
14.3906158361
 40
1.0001323881
100
AcDbArc
 50
122.8435283939
 51
253.704446735
  0
ARC
  5
2B5
100
AcDbEntity
  8
0
100
AcDbCircle
 62
7
  6
CONTINUOUS
 10
5.4618137907
 20
14.3906158361
 40
1.0001323881
100
AcDbArc
 50
286.2936029055
 51
57.1499762346
  0
ARC
  5
2B6
100
AcDbEntity
  8
0
100
AcDbCircle
 62
9
  6
CONTINUOUS
 10
5.4618137907
 20
14.3906158361
 40
0.9751323688
100
AcDbArc
 50
123.9405692286
 51
128.3324081913
  0
ARC
  5
2B7
100
AcDbEntity
  8
0
100
AcDbCircle
 62
9
  6
CONTINUOUS
 10
5.4618137907
 20
14.3906158361
 40
0.9751323688
100
AcDbArc
 50
51.6909645629
 51
56.0885415346
  0
ARC
  5
2B8
100
AcDbEntity
  8
0
100
AcDbCircle
 62
9
  6
CONTINUOUS
 10
5.4618137907
 20
14.3906158361
 40
0.9751323688
100
AcDbArc
 50
286.6983453664
 51
49.7281576063
  0
ARC
  5
2B9
100
AcDbEntity
  8
0
100
AcDbCircle
 62
9
  6
CONTINUOUS
 10
5.4618137907
 20
14.3906158361
 40
0.9751323688
100
AcDbArc
 50
130.2120340443
 51
253.3094328675
  0
ARC
  5
2BA
100
AcDbEntity
  8
0
100
AcDbCircle
 62
9
  6
CONTINUOUS
 10
5.4618137907
 20
14.3906158361
 40
0.9499999928
100
AcDbArc
 50
132.0011918045
 51
252.8370205707
  0
ARC
  5
2BB
100
AcDbEntity
  8
0
100
AcDbCircle
 62
9
  6
CONTINUOUS
 10
5.4618137907
 20
14.3906158361
 40
0.9499999928
100
AcDbArc
 50
287.1539190839
 51
47.9766115705
  0
ARC
  5
2BC
100
AcDbEntity
  8
0
100
AcDbCircle
 62
7
  6
CONTINUOUS
 10
5.4618137907
 20
14.3906158361
 40
0.76
100
AcDbArc
 50
320.6687917471
 51
39.3312480846
  0
ARC
  5
2BD
100
AcDbEntity
  8
0
100
AcDbCircle
 62
7
  6
CONTINUOUS
 10
5.4618137907
 20
14.3906158361
 40
0.76
100
AcDbArc
 50
140.6687519154
 51
219.3310431831
  0
ARC
  5
2BE
100
AcDbEntity
  8
0
100
AcDbCircle
 62
7
  6
CONTINUOUS
 10
5.4618137907
 20
14.3906158361
 40
0.6925
100
AcDbArc
 50
226.3591737507
 51
233.167131752
  0
ARC
  5
2BF
100
AcDbEntity
  8
0
100
AcDbCircle
 62
7
  6
CONTINUOUS
 10
5.4618137907
 20
14.3906158361
 40
0.6925
100
AcDbArc
 50
121.8301762121
 51
133.6408262493
  0
ARC
  5
2C0
100
AcDbEntity
  8
0
100
AcDbCircle
 62
7
  6
CONTINUOUS
 10
5.4618137907
 20
14.3906158361
 40
0.6925
100
AcDbArc
 50
46.3591737507
 51
58.1698237879
  0
ARC
  5
2C1
100
AcDbEntity
  8
0
100
AcDbCircle
 62
7
  6
CONTINUOUS
 10
5.4618137907
 20
14.3906158361
 40
0.6925
100
AcDbArc
 50
306.832868248
 51
313.6408262493
  0
ARC
  5
2C2
100
AcDbEntity
  8
0
100
AcDbCircle
 62
7
  6
CONTINUOUS
 10
5.4618137355
 20
14.3906160115
 40
0.6499996816
100
AcDbArc
 50
124.167565609
 51
129.597579995
  0
ARC
  5
2C3
100
AcDbEntity
  8
0
100
AcDbCircle
 62
7
  6
CONTINUOUS
 10
5.4618138463
 20
14.390616016
 40
0.6499996813
100
AcDbArc
 50
50.3878773001
 51
55.7565223128
  0
ARC
  5
2C4
100
AcDbEntity
  8
0
100
AcDbCircle
 62
9
  6
CONTINUOUS
 10
5.4618136254
 20
14.3906161244
 40
0.6288929843
100
AcDbArc
 50
125.5430479671
 51
127.3256392902
  0
ARC
  5
2C5
100
AcDbEntity
  8
0
100
AcDbCircle
 62
9
  6
CONTINUOUS
 10
5.4618139443
 20
14.3906161169
 40
0.6288929756
100
AcDbArc
 50
52.6746044129
 51
54.4568703509
  0
ARC
  5
2C6
100
AcDbEntity
  8
0
100
AcDbCircle
 62
7
  6
CONTINUOUS
 10
5.1118137907
 20
14.8656158361
 40
0.025
100
AcDbArc
 50
359.9999999355
 51
90.0
  0
ARC
  5
2C7
100
AcDbEntity
  8
0
100
AcDbCircle
 62
7
  6
CONTINUOUS
 10
6.0109949994
 20
13.9406158361
 40
0.05
100
AcDbArc
 50
270.0
 51
320.6687519154
  0
ARC
  5
2C8
100
AcDbEntity
  8
0
100
AcDbCircle
 62
7
  6
CONTINUOUS
 10
5.8118137907
 20
13.9156158361
 40
0.025
100
AcDbArc
 50
179.9999999355
 51
270.0
  0
ARC
  5
2C9
100
AcDbEntity
  8
0
100
AcDbCircle
 62
7
  6
CONTINUOUS
 10
6.0109949994
 20
14.8406158361
 40
0.05
100
AcDbArc
 50
39.3312480846
 51
90.0
  0
ARC
  5
2CA
100
AcDbEntity
  8
0
100
AcDbCircle
 62
7
  6
CONTINUOUS
 10
6.0568137907
 20
15.1156158361
 40
0.04
100
AcDbArc
 50
0.0
 51
86.7567985982
  0
ARC
  5
2CB
100
AcDbEntity
  8
0
100
AcDbCircle
 62
7
  6
CONTINUOUS
 10
6.0568137907
 20
15.0456158361
 40
0.04
100
AcDbArc
 50
270.0
 51
360.0
  0
ARC
  5
2CC
100
AcDbEntity
  8
0
100
AcDbCircle
 62
7
  6
CONTINUOUS
 10
5.8118137907
 20
14.8656158361
 40
0.025
100
AcDbArc
 50
90.0
 51
180.0000000575
  0
ARC
  5
2CD
100
AcDbEntity
  8
0
100
AcDbCircle
 62
7
  6
CONTINUOUS
 10
-14.0931868315
 20
17.0056158361
 40
20.175
100
AcDbArc
 50
354.9244926841
 51
5.0755073159
  0
ARC
  5
2CE
100
AcDbEntity
  8
0
100
AcDbCircle
 62
9
  6
CONTINUOUS
 10
-20.4518336204
 20
63.1504333056
 40
48.5217850036
100
AcDbArc
 50
299.8006707521
 51
300.0045987721
  0
ARC
  5
2CF
100
AcDbEntity
  8
0
100
AcDbCircle
 62
9
  6
CONTINUOUS
 10
-20.4518046455
 20
63.1503830324
 40
48.5217269783
100
AcDbArc
 50
299.8006705644
 51
300.0045988291
  0
ARC
  5
2D0
100
AcDbEntity
  8
0
100
AcDbCircle
 62
9
  6
CONTINUOUS
 10
-19.1541147437
 20
60.7148294564
 40
45.9175274054
100
AcDbArc
 50
299.9073029667
 51
300.1220751206
  0
ARC
  5
2D1
100
AcDbEntity
  8
0
100
AcDbCircle
 62
9
  6
CONTINUOUS
 10
-19.1496530154
 20
60.7071063575
 40
45.9086081591
100
AcDbArc
 50
299.9072839804
 51
300.1220958168
  0
ARC
  5
2D2
100
AcDbEntity
  8
0
100
AcDbCircle
 62
9
  6
CONTINUOUS
 10
-0.1789482746
 20
28.9833346143
 40
8.8607082825
100
AcDbArc
 50
299.8476389377
 51
299.9842293647
  0
ARC
  5
2D3
100
AcDbEntity
  8
0
100
AcDbCircle
 62
9
  6
CONTINUOUS
 10
-0.1785904907
 20
28.9827162234
 40
8.8599938572
100
AcDbArc
 50
299.8476224193
 51
299.9842240026
  0
ARC
  5
2D4
100
AcDbEntity
  8
0
100
AcDbCircle
 62
7
  6
CONTINUOUS
 10
1.0158372844
 20
25.640667202
 40
5.4573752211
100
AcDbArc
 50
299.6684351533
 51
299.7939545147
  0
ARC
  5
2D5
100
AcDbEntity
  8
0
100
AcDbCircle
 62
7
  6
CONTINUOUS
 10
1.0158630567
 20
25.6406102574
 40
5.4573130017
100
AcDbArc
 50
299.6684965671
 51
299.7940172055
  0
ARC
  5
2D6
100
AcDbEntity
  8
0
100
AcDbCircle
 62
7
  6
CONTINUOUS
 10
4.8611563587
 20
15.2154556752
 40
0.06
100
AcDbArc
 50
273.2432014018
 51
5.0755073159
  0
CIRCLE
  5
2D7
100
AcDbEntity
  8
0
100
AcDbCircle
 62
7
  6
CONTINUOUS
 10
4.1687461773
 20
21.4600096936
 40
0.0708661417
  0
CIRCLE
  5
2D8
100
AcDbEntity
  8
0
100
AcDbCircle
 62
9
  6
CONTINUOUS
 10
4.1687461773
 20
21.4600096936
 40
0.0651002345
  0
CIRCLE
  5
2D9
100
AcDbEntity
  8
0
100
AcDbCircle
 62
9
  6
CONTINUOUS
 10
4.1687461773
 20
21.4600096936
 40
0.0569463945
  0
CIRCLE
  5
2DA
100
AcDbEntity
  8
0
100
AcDbCircle
 62
9
  6
CONTINUOUS
 10
4.1687461773
 20
21.4600096936
 40
0.0430269203
  0
CIRCLE
  5
2DB
100
AcDbEntity
  8
0
100
AcDbCircle
 62
7
  6
CONTINUOUS
 10
3.9026421813
 20
21.5778370625
 40
0.0826771654
  0
CIRCLE
  5
2DC
100
AcDbEntity
  8
0
100
AcDbCircle
 62
9
  6
CONTINUOUS
 10
3.9026421813
 20
21.5778370625
 40
0.0769109535
  0
CIRCLE
  5
2DD
100
AcDbEntity
  8
0
100
AcDbCircle
 62
9
  6
CONTINUOUS
 10
3.9026421813
 20
21.5778370625
 40
0.0687574628
  0
CIRCLE
  5
2DE
100
AcDbEntity
  8
0
100
AcDbCircle
 62
9
  6
CONTINUOUS
 10
3.9026421813
 20
21.5778370625
 40
0.0548379698
  0
CIRCLE
  5
2DF
100
AcDbEntity
  8
0
100
AcDbCircle
 62
7
  6
CONTINUOUS
 10
3.8476405624
 20
21.9956158361
 40
0.0826771654
  0
CIRCLE
  5
2E0
100
AcDbEntity
  8
0
100
AcDbCircle
 62
9
  6
CONTINUOUS
 10
3.8476405624
 20
21.9956158361
 40
0.0769109535
  0
CIRCLE
  5
2E1
100
AcDbEntity
  8
0
100
AcDbCircle
 62
9
  6
CONTINUOUS
 10
3.8476405624
 20
21.9956158361
 40
0.0687574628
  0
CIRCLE
  5
2E2
100
AcDbEntity
  8
0
100
AcDbCircle
 62
9
  6
CONTINUOUS
 10
3.8476405624
 20
21.9956158361
 40
0.0548379698
  0
CIRCLE
  5
2E3
100
AcDbEntity
  8
0
100
AcDbCircle
 62
7
  6
CONTINUOUS
 10
4.0741813174
 20
21.8129305553
 40
0.0708661417
  0
CIRCLE
  5
2E4
100
AcDbEntity
  8
0
100
AcDbCircle
 62
9
  6
CONTINUOUS
 10
4.0741813174
 20
21.8129305553
 40
0.0651002345
  0
CIRCLE
  5
2E5
100
AcDbEntity
  8
0
100
AcDbCircle
 62
9
  6
CONTINUOUS
 10
4.0741813174
 20
21.8129305553
 40
0.0569463945
  0
CIRCLE
  5
2E6
100
AcDbEntity
  8
0
100
AcDbCircle
 62
9
  6
CONTINUOUS
 10
4.0741813174
 20
21.8129305553
 40
0.0430269203
  0
ARC
  5
2E7
100
AcDbEntity
  8
0
100
AcDbCircle
 62
7
  6
CONTINUOUS
 10
4.0742793583
 20
21.8129323759
 40
0.0176203964
100
AcDbArc
 50
7.5357461483
 51
187.4642538127
  0
ARC
  5
2E8
100
AcDbEntity
  8
0
100
AcDbCircle
 62
7
  6
CONTINUOUS
 10
4.0742764888
 20
21.8129541715
 40
0.0176203964
100
AcDbArc
 50
187.5357415515
 51
7.464258489
  0
CIRCLE
  5
2E9
100
AcDbEntity
  8
0
100
AcDbCircle
 62
7
  6
CONTINUOUS
 10
4.3204209549
 20
20.8542230003
 40
0.0826771654
  0
CIRCLE
  5
2EA
100
AcDbEntity
  8
0
100
AcDbCircle
 62
9
  6
CONTINUOUS
 10
4.3204209549
 20
20.8542230003
 40
0.0769109535
  0
CIRCLE
  5
2EB
100
AcDbEntity
  8
0
100
AcDbCircle
 62
7
  6
CONTINUOUS
 10
4.3514314581
 20
21.1435895053
 40
0.0708661417
  0
CIRCLE
  5
2EC
100
AcDbEntity
  8
0
100
AcDbCircle
 62
9
  6
CONTINUOUS
 10
4.3204209549
 20
20.8542230003
 40
0.0687574628
  0
CIRCLE
  5
2ED
100
AcDbEntity
  8
0
100
AcDbCircle
 62
9
  6
CONTINUOUS
 10
4.3514314581
 20
21.1435895053
 40
0.0651002345
  0
CIRCLE
  5
2EE
100
AcDbEntity
  8
0
100
AcDbCircle
 62
9
  6
CONTINUOUS
 10
4.3514314581
 20
21.1435895053
 40
0.0569463945
  0
CIRCLE
  5
2EF
100
AcDbEntity
  8
0
100
AcDbCircle
 62
9
  6
CONTINUOUS
 10
4.3204209549
 20
20.8542230003
 40
0.0548379698
  0
CIRCLE
  5
2F0
100
AcDbEntity
  8
0
100
AcDbCircle
 62
9
  6
CONTINUOUS
 10
4.3514314581
 20
21.1435895053
 40
0.0430269203
  0
ARC
  5
2F1
100
AcDbEntity
  8
0
100
AcDbCircle
 62
7
  6
CONTINUOUS
 10
4.3515154537
 20
21.1436401025
 40
0.0176203964
100
AcDbArc
 50
37.5357461391
 51
217.4642538203
  0
ARC
  5
2F2
100
AcDbEntity
  8
0
100
AcDbCircle
 62
7
  6
CONTINUOUS
 10
4.3515020709
 20
21.1436575433
 40
0.0176203964
100
AcDbArc
 50
217.5357415617
 51
37.4642584771
  0
CIRCLE
  5
2F3
100
AcDbEntity
  8
0
100
AcDbCircle
 62
7
  6
CONTINUOUS
 10
4.5604707764
 20
22.082405297
 40
0.0708661417
  0
ARC
  5
2F4
100
AcDbEntity
  8
0
100
AcDbCircle
 62
7
  6
CONTINUOUS
 10
4.5604707764
 20
22.082405297
 40
0.0708661417
100
AcDbArc
 50
174.5
 51
354.5000009079
  0
CIRCLE
  5
2F5
100
AcDbEntity
  8
0
100
AcDbCircle
 62
9
  6
CONTINUOUS
 10
4.5604707764
 20
22.082405297
 40
0.0674067293
  0
CIRCLE
  5
2F6
100
AcDbEntity
  8
0
100
AcDbCircle
 62
9
  6
CONTINUOUS
 10
4.5604707764
 20
22.082405297
 40
0.0546404342
  0
CIRCLE
  5
2F7
100
AcDbEntity
  8
0
100
AcDbCircle
 62
9
  6
CONTINUOUS
 10
4.5604707764
 20
22.082405297
 40
0.0462887627
  0
CIRCLE
  5
2F8
100
AcDbEntity
  8
0
100
AcDbCircle
 62
7
  6
CONTINUOUS
 10
4.5604707764
 20
22.082405297
 40
0.0295275591
  0
CIRCLE
  5
2F9
100
AcDbEntity
  8
0
100
AcDbCircle
 62
7
  6
CONTINUOUS
 10
5.0440350171
 20
20.4364442267
 40
0.0826771654
  0
CIRCLE
  5
2FA
100
AcDbEntity
  8
0
100
AcDbCircle
 62
9
  6
CONTINUOUS
 10
5.0440350171
 20
20.4364442267
 40
0.0769109535
  0
CIRCLE
  5
2FB
100
AcDbEntity
  8
0
100
AcDbCircle
 62
9
  6
CONTINUOUS
 10
5.0440350171
 20
20.4364442267
 40
0.0687574628
  0
ARC
  5
2FC
100
AcDbEntity
  8
0
100
AcDbCircle
 62
7
  6
CONTINUOUS
 10
5.0268137907
 20
19.2453510367
 40
0.06
100
AcDbArc
 50
318.5281678499
 51
360.0
  0
ARC
  5
2FD
100
AcDbEntity
  8
0
100
AcDbCircle
 62
7
  6
CONTINUOUS
 10
4.8811952588
 20
19.0656158361
 40
0.06
100
AcDbArc
 50
270.0
 51
321.0
  0
ARC
  5
2FE
100
AcDbEntity
  8
0
100
AcDbCircle
 62
7
  6
CONTINUOUS
 10
4.8611563587
 20
18.795775997
 40
0.06
100
AcDbArc
 50
354.9244926841
 51
86.7567985982
  0
CIRCLE
  5
2FF
100
AcDbEntity
  8
0
100
AcDbCircle
 62
9
  6
CONTINUOUS
 10
5.0440350171
 20
20.4364442267
 40
0.0548379698
  0
ARC
  5
300
100
AcDbEntity
  8
0
100
AcDbCircle
 62
7
  6
CONTINUOUS
 10
4.8668137907
 20
18.9656158361
 40
0.04
100
AcDbArc
 50
90.0
 51
180.0
  0
ARC
  5
301
100
AcDbEntity
  8
0
100
AcDbCircle
 62
7
  6
CONTINUOUS
 10
4.8668137907
 20
18.8956158361
 40
0.04
100
AcDbArc
 50
180.0
 51
266.7567985982
  0
CIRCLE
  5
302
100
AcDbEntity
  8
0
100
AcDbCircle
 62
7
  6
CONTINUOUS
 10
4.6547271765
 20
20.5977008142
 40
0.0826771654
  0
CIRCLE
  5
303
100
AcDbEntity
  8
0
100
AcDbCircle
 62
9
  6
CONTINUOUS
 10
4.6547271765
 20
20.5977008142
 40
0.0769109535
  0
CIRCLE
  5
304
100
AcDbEntity
  8
0
100
AcDbCircle
 62
9
  6
CONTINUOUS
 10
4.6547271765
 20
20.5977008142
 40
0.0687574628
  0
CIRCLE
  5
305
100
AcDbEntity
  8
0
100
AcDbCircle
 62
9
  6
CONTINUOUS
 10
4.6547271765
 20
20.5977008142
 40
0.0548379698
  0
CIRCLE
  5
306
100
AcDbEntity
  8
0
100
AcDbCircle
 62
7
  6
CONTINUOUS
 10
4.60978746
 20
20.8852335035
 40
0.0708661417
  0
CIRCLE
  5
307
100
AcDbEntity
  8
0
100
AcDbCircle
 62
9
  6
CONTINUOUS
 10
4.60978746
 20
20.8852335035
 40
0.0651002345
  0
CIRCLE
  5
308
100
AcDbEntity
  8
0
100
AcDbCircle
 62
9
  6
CONTINUOUS
 10
4.60978746
 20
20.8852335035
 40
0.0569463945
  0
CIRCLE
  5
309
100
AcDbEntity
  8
0
100
AcDbCircle
 62
9
  6
CONTINUOUS
 10
4.60978746
 20
20.8852335035
 40
0.0430269203
  0
CIRCLE
  5
30A
100
AcDbEntity
  8
0
100
AcDbCircle
 62
7
  6
CONTINUOUS
 10
4.9262076482
 20
20.7025482227
 40
0.0708661417
  0
CIRCLE
  5
30B
100
AcDbEntity
  8
0
100
AcDbCircle
 62
9
  6
CONTINUOUS
 10
4.9262076482
 20
20.7025482227
 40
0.0651002345
  0
CIRCLE
  5
30C
100
AcDbEntity
  8
0
100
AcDbCircle
 62
9
  6
CONTINUOUS
 10
4.9262076482
 20
20.7025482227
 40
0.0569463945
  0
CIRCLE
  5
30D
100
AcDbEntity
  8
0
100
AcDbCircle
 62
9
  6
CONTINUOUS
 10
4.9262076482
 20
20.7025482227
 40
0.0430269203
  0
ARC
  5
30E
100
AcDbEntity
  8
0
100
AcDbCircle
 62
7
  6
CONTINUOUS
 10
4.9262347816
 20
20.7026424516
 40
0.0176203964
100
AcDbArc
 50
247.5357416306
 51
67.4642584058
  0
ARC
  5
30F
100
AcDbEntity
  8
0
100
AcDbCircle
 62
7
  6
CONTINUOUS
 10
4.9262550918
 20
20.7026340389
 40
0.0176203964
100
AcDbArc
 50
67.5357460631
 51
247.4642538938
  0
ARC
  5
310
100
AcDbEntity
  8
0
100
AcDbCircle
 62
9
  6
CONTINUOUS
 10
4.7391884767
 20
21.4189524623
 40
0.1030426648
100
AcDbArc
 50
39.3099687354
 51
40.1923584251
  0
ARC
  5
311
100
AcDbEntity
  8
0
100
AcDbCircle
 62
9
  6
CONTINUOUS
 10
4.7614660858
 20
21.4376497778
 40
0.0911266627
100
AcDbArc
 50
217.2473919177
 51
218.0648420492
  0
ARC
  5
312
100
AcDbEntity
  8
0
100
AcDbCircle
 62
9
  6
CONTINUOUS
 10
4.7581494586
 20
21.4362849573
 40
0.0876793227
100
AcDbArc
 50
218.6989391184
 51
219.4991405653
  0
ARC
  5
313
100
AcDbEntity
  8
0
100
AcDbCircle
 62
9
  6
CONTINUOUS
 10
4.7545392354
 20
21.4327458299
 40
0.0824324545
100
AcDbArc
 50
37.5789761614
 51
38.6514521006
  0
ARC
  5
314
100
AcDbEntity
  8
0
100
AcDbCircle
 62
9
  6
CONTINUOUS
 10
4.7559918972
 20
21.4337277471
 40
0.0806824458
100
AcDbArc
 50
24.7306737913
 51
37.6554792412
  0
ARC
  5
315
100
AcDbEntity
  8
0
100
AcDbCircle
 62
9
  6
CONTINUOUS
 10
4.7514792606
 20
21.4317676617
 40
0.0795111312
100
AcDbArc
 50
202.8800029393
 51
204.7489077797
  0
CIRCLE
  5
316
100
AcDbEntity
  8
0
100
AcDbCircle
 62
7
  6
CONTINUOUS
 10
4.7531528613
 20
21.4319214801
 40
0.0708661417
  0
CIRCLE
  5
317
100
AcDbEntity
  8
0
100
AcDbCircle
 62
7
  6
CONTINUOUS
 10
4.7531528613
 20
21.4319214801
 40
0.0708661417
  0
CIRCLE
  5
318
100
AcDbEntity
  8
0
100
AcDbCircle
 62
9
  6
CONTINUOUS
 10
4.7531528613
 20
21.4319214801
 40
0.0674067293
  0
CIRCLE
  5
319
100
AcDbEntity
  8
0
100
AcDbCircle
 62
9
  6
CONTINUOUS
 10
4.7531528613
 20
21.4319214801
 40
0.0546404342
  0
CIRCLE
  5
31A
100
AcDbEntity
  8
0
100
AcDbCircle
 62
9
  6
CONTINUOUS
 10
4.7531528613
 20
21.4319214801
 40
0.0462887627
  0
CIRCLE
  5
31B
100
AcDbEntity
  8
0
100
AcDbCircle
 62
7
  6
CONTINUOUS
 10
4.7531528613
 20
21.4319214801
 40
0.0295275591
  0
ARC
  5
31C
100
AcDbEntity
  8
0
100
AcDbCircle
 62
9
  6
CONTINUOUS
 10
4.9016186419
 20
21.2670254661
 40
0.0975773886
100
AcDbArc
 50
51.0684632129
 51
51.974476933
  0
ARC
  5
31D
100
AcDbEntity
  8
0
100
AcDbCircle
 62
9
  6
CONTINUOUS
 10
4.9126592742
 20
21.2800550982
 40
0.0845673549
100
AcDbArc
 50
232.5459276925
 51
233.3881410284
  0
ARC
  5
31E
100
AcDbEntity
  8
0
100
AcDbCircle
 62
9
  6
CONTINUOUS
 10
4.9116589344
 20
21.2785609666
 40
0.0827735886
100
AcDbArc
 50
218.6477721504
 51
231.596321902
  0
ARC
  5
31F
100
AcDbEntity
  8
0
100
AcDbCircle
 62
9
  6
CONTINUOUS
 10
4.9112582311
 20
21.278229402
 40
0.0822535674
100
AcDbArc
 50
216.8728602157
 51
218.6417116848
  0
ARC
  5
320
100
AcDbEntity
  8
0
100
AcDbCircle
 62
9
  6
CONTINUOUS
 10
4.9108720574
 20
21.2776148123
 40
0.08154333
100
AcDbArc
 50
231.6166210292
 51
232.5000919095
  0
ARC
  5
321
100
AcDbEntity
  8
0
100
AcDbCircle
 62
9
  6
CONTINUOUS
 10
4.9163322223
 20
21.2823441001
 40
0.0763054995
100
AcDbArc
 50
36.0636271027
 51
38.8884994229
  0
CIRCLE
  5
322
100
AcDbEntity
  8
0
100
AcDbCircle
 62
7
  6
CONTINUOUS
 10
4.9105731266
 20
21.2772250161
 40
0.0708661417
  0
ARC
  5
323
100
AcDbEntity
  8
0
100
AcDbCircle
 62
7
  6
CONTINUOUS
 10
4.9105731266
 20
21.2772250161
 40
0.0708661417
100
AcDbArc
 50
37.585184388
 51
232.5
  0
CIRCLE
  5
324
100
AcDbEntity
  8
0
100
AcDbCircle
 62
9
  6
CONTINUOUS
 10
4.9105731266
 20
21.2772250161
 40
0.0674067293
  0
CIRCLE
  5
325
100
AcDbEntity
  8
0
100
AcDbCircle
 62
9
  6
CONTINUOUS
 10
4.9105731266
 20
21.2772250161
 40
0.0546404342
  0
CIRCLE
  5
326
100
AcDbEntity
  8
0
100
AcDbCircle
 62
9
  6
CONTINUOUS
 10
4.9105731266
 20
21.2772250161
 40
0.0462887628
  0
CIRCLE
  5
327
100
AcDbEntity
  8
0
100
AcDbCircle
 62
7
  6
CONTINUOUS
 10
4.9105731266
 20
21.2772250161
 40
0.0295275591
  0
CIRCLE
  5
328
100
AcDbEntity
  8
0
100
AcDbCircle
 62
7
  6
CONTINUOUS
 10
4.9606101121
 20
21.7062457574
 40
0.0295275591
  0
ARC
  5
329
100
AcDbEntity
  8
0
100
AcDbCircle
 62
9
  6
CONTINUOUS
 10
5.1058036219
 20
21.1749685293
 40
0.0920253488
100
AcDbArc
 50
245.2316351992
 51
246.0332620348
  0
ARC
  5
32A
100
AcDbEntity
  8
0
100
AcDbCircle
 62
9
  6
CONTINUOUS
 10
5.1033146186
 20
21.1721295217
 40
0.0884271759
100
AcDbArc
 50
246.7597439308
 51
247.5533664272
  0
ARC
  5
32B
100
AcDbEntity
  8
0
100
AcDbCircle
 62
9
  6
CONTINUOUS
 10
5.1008643772
 20
21.1653033976
 40
0.0838931748
100
AcDbArc
 50
65.4854276176
 51
66.5505503116
  0
ARC
  5
32C
100
AcDbEntity
  8
0
100
AcDbCircle
 62
9
  6
CONTINUOUS
 10
5.0991849686
 20
21.164091404
 40
0.0792654041
100
AcDbArc
 50
230.9082375105
 51
232.7624767323
  0
CIRCLE
  5
32D
100
AcDbEntity
  8
0
100
AcDbCircle
 62
7
  6
CONTINUOUS
 10
5.1007417992
 20
21.1652071073
 40
0.0708661417
  0
ARC
  5
32E
100
AcDbEntity
  8
0
100
AcDbCircle
 62
7
  6
CONTINUOUS
 10
5.1007417992
 20
21.1652071073
 40
0.0708661417
100
AcDbArc
 50
246.5
 51
66.4999995299
  0
CIRCLE
  5
32F
100
AcDbEntity
  8
0
100
AcDbCircle
 62
9
  6
CONTINUOUS
 10
5.1007417992
 20
21.1652071073
 40
0.0674067293
  0
CIRCLE
  5
330
100
AcDbEntity
  8
0
100
AcDbCircle
 62
9
  6
CONTINUOUS
 10
5.1007417992
 20
21.1652071073
 40
0.0546404342
  0
CIRCLE
  5
331
100
AcDbEntity
  8
0
100
AcDbCircle
 62
9
  6
CONTINUOUS
 10
5.1007417992
 20
21.1652071073
 40
0.0462887626
  0
CIRCLE
  5
332
100
AcDbEntity
  8
0
100
AcDbCircle
 62
7
  6
CONTINUOUS
 10
5.1007417992
 20
21.1652071073
 40
0.0295275591
  0
CIRCLE
  5
333
100
AcDbEntity
  8
0
100
AcDbCircle
 62
7
  6
CONTINUOUS
 10
5.2791285099
 20
20.6079833628
 40
0.0708661417
  0
CIRCLE
  5
334
100
AcDbEntity
  8
0
100
AcDbCircle
 62
9
  6
CONTINUOUS
 10
5.2791285099
 20
20.6079833628
 40
0.0651002345
  0
CIRCLE
  5
335
100
AcDbEntity
  8
0
100
AcDbCircle
 62
9
  6
CONTINUOUS
 10
5.2791285099
 20
20.6079833628
 40
0.0569463945
  0
CIRCLE
  5
336
100
AcDbEntity
  8
0
100
AcDbCircle
 62
9
  6
CONTINUOUS
 10
5.2791285099
 20
20.6079833628
 40
0.0430269203
  0
CIRCLE
  5
337
100
AcDbEntity
  8
0
100
AcDbCircle
 62
9
  6
CONTINUOUS
 10
4.9992696329
 20
21.9347207425
 40
0.1439792358
  0
CIRCLE
  5
338
100
AcDbEntity
  8
0
100
AcDbCircle
 62
9
  6
CONTINUOUS
 10
5.1778050138
 20
21.6254883919
 40
0.1439792321
  0
CIRCLE
  5
339
100
AcDbEntity
  8
0
100
AcDbCircle
 62
9
  6
CONTINUOUS
 10
4.9992696329
 20
21.9347207425
 40
0.130060568
  0
CIRCLE
  5
33A
100
AcDbEntity
  8
0
100
AcDbCircle
 62
9
  6
CONTINUOUS
 10
5.1778050138
 20
21.6254883919
 40
0.1300605664
  0
CIRCLE
  5
33B
100
AcDbEntity
  8
0
100
AcDbCircle
 62
9
  6
CONTINUOUS
 10
4.9992696329
 20
21.9347207425
 40
0.1219067236
  0
CIRCLE
  5
33C
100
AcDbEntity
  8
0
100
AcDbCircle
 62
9
  6
CONTINUOUS
 10
5.1778050138
 20
21.6254883919
 40
0.1219067236
  0
CIRCLE
  5
33D
100
AcDbEntity
  8
0
100
AcDbCircle
 62
9
  6
CONTINUOUS
 10
4.9992696329
 20
21.9347207425
 40
0.1079869821
  0
CIRCLE
  5
33E
100
AcDbEntity
  8
0
100
AcDbCircle
 62
9
  6
CONTINUOUS
 10
5.1778050138
 20
21.6254883919
 40
0.1079869821
  0
CIRCLE
  5
33F
100
AcDbEntity
  8
0
100
AcDbCircle
 62
7
  6
CONTINUOUS
 10
4.9992696329
 20
21.9347207425
 40
0.0885826772
  0
CIRCLE
  5
340
100
AcDbEntity
  8
0
100
AcDbCircle
 62
7
  6
CONTINUOUS
 10
5.1778050138
 20
21.6254883919
 40
0.0885826772
  0
CIRCLE
  5
341
100
AcDbEntity
  8
0
100
AcDbCircle
 62
7
  6
CONTINUOUS
 10
5.3120248158
 20
21.4365957713
 40
0.0295275591
  0
ARC
  5
342
100
AcDbEntity
  8
0
100
AcDbCircle
 62
7
  6
CONTINUOUS
 10
6.0624712227
 20
15.2154556752
 40
0.06
100
AcDbArc
 50
174.9244926841
 51
266.7567985982
  0
CIRCLE
  5
343
100
AcDbEntity
  8
0
100
AcDbCircle
 62
7
  6
CONTINUOUS
 10
5.4618137907
 20
20.3814426078
 40
0.0826771654
  0
CIRCLE
  5
344
100
AcDbEntity
  8
0
100
AcDbCircle
 62
9
  6
CONTINUOUS
 10
5.4618137907
 20
20.3814426078
 40
0.0769109535
  0
CIRCLE
  5
345
100
AcDbEntity
  8
0
100
AcDbCircle
 62
9
  6
CONTINUOUS
 10
5.4618137907
 20
20.3814426078
 40
0.0687574628
  0
ARC
  5
346
100
AcDbEntity
  8
0
100
AcDbCircle
 62
7
  6
CONTINUOUS
 10
6.0424323227
 20
19.0656158361
 40
0.06
100
AcDbArc
 50
219.0
 51
270.0
  0
ARC
  5
347
100
AcDbEntity
  8
0
100
AcDbCircle
 62
7
  6
CONTINUOUS
 10
5.8968137907
 20
19.2453510369
 40
0.06
100
AcDbArc
 50
180.0
 51
221.4718295498
  0
ARC
  5
348
100
AcDbEntity
  8
0
100
AcDbCircle
 62
7
  6
CONTINUOUS
 10
6.0624712227
 20
18.795775997
 40
0.06
100
AcDbArc
 50
93.2432014018
 51
185.0755073159
  0
CIRCLE
  5
349
100
AcDbEntity
  8
0
100
AcDbCircle
 62
9
  6
CONTINUOUS
 10
5.4618137907
 20
20.3814426078
 40
0.0548379698
  0
ARC
  5
34A
100
AcDbEntity
  8
0
100
AcDbCircle
 62
7
  6
CONTINUOUS
 10
6.0568137907
 20
18.9656158361
 40
0.04
100
AcDbArc
 50
0.0
 51
90.0
  0
ARC
  5
34B
100
AcDbEntity
  8
0
100
AcDbCircle
 62
7
  6
CONTINUOUS
 10
6.0568137907
 20
18.8956158361
 40
0.04
100
AcDbArc
 50
273.2432014018
 51
360.0
  0
CIRCLE
  5
34C
100
AcDbEntity
  8
0
100
AcDbCircle
 62
7
  6
CONTINUOUS
 10
5.6444990716
 20
20.6079833628
 40
0.0708661417
  0
CIRCLE
  5
34D
100
AcDbEntity
  8
0
100
AcDbCircle
 62
9
  6
CONTINUOUS
 10
5.6444990716
 20
20.6079833628
 40
0.0651002345
  0
CIRCLE
  5
34E
100
AcDbEntity
  8
0
100
AcDbCircle
 62
9
  6
CONTINUOUS
 10
5.6444990716
 20
20.6079833628
 40
0.0569463945
  0
CIRCLE
  5
34F
100
AcDbEntity
  8
0
100
AcDbCircle
 62
9
  6
CONTINUOUS
 10
5.6444990716
 20
20.6079833628
 40
0.0430269203
  0
ARC
  5
350
100
AcDbEntity
  8
0
100
AcDbCircle
 62
7
  6
CONTINUOUS
 10
5.6444754553
 20
20.6080785342
 40
0.0176203964
100
AcDbArc
 50
277.5357416358
 51
97.4642584047
  0
ARC
  5
351
100
AcDbEntity
  8
0
100
AcDbCircle
 62
7
  6
CONTINUOUS
 10
5.6444972509
 20
20.6080814036
 40
0.0176203964
100
AcDbArc
 50
97.535746062
 51
277.464253899
  0
ARC
  5
352
100
AcDbEntity
  8
0
100
AcDbCircle
 62
9
  6
CONTINUOUS
 10
5.7846180287
 20
21.1352605029
 40
0.0974436076
100
AcDbArc
 50
111.1226712881
 51
112.0556617787
  0
ARC
  5
353
100
AcDbEntity
  8
0
100
AcDbCircle
 62
9
  6
CONTINUOUS
 10
5.7814734786
 20
21.1430888876
 40
0.0760832396
100
AcDbArc
 50
289.8560325185
 51
290.7420277765
  0
CIRCLE
  5
354
100
AcDbEntity
  8
0
100
AcDbCircle
 62
7
  6
CONTINUOUS
 10
5.7789307108
 20
21.1474481057
 40
0.0708661417
  0
CIRCLE
  5
355
100
AcDbEntity
  8
0
100
AcDbCircle
 62
9
  6
CONTINUOUS
 10
5.7789307108
 20
21.1474481057
 40
0.0674067293
  0
CIRCLE
  5
356
100
AcDbEntity
  8
0
100
AcDbCircle
 62
9
  6
CONTINUOUS
 10
5.7789307108
 20
21.1474481057
 40
0.0546404342
  0
CIRCLE
  5
357
100
AcDbEntity
  8
0
100
AcDbCircle
 62
9
  6
CONTINUOUS
 10
5.7789307108
 20
21.1474481057
 40
0.0462887627
  0
CIRCLE
  5
358
100
AcDbEntity
  8
0
100
AcDbCircle
 62
7
  6
CONTINUOUS
 10
5.7789307108
 20
21.1474481057
 40
0.0295275591
  0
CIRCLE
  5
359
100
AcDbEntity
  8
0
100
AcDbCircle
 62
9
  6
CONTINUOUS
 10
5.5227088843
 20
21.5330716783
 40
0.1439792358
  0
CIRCLE
  5
35A
100
AcDbEntity
  8
0
100
AcDbCircle
 62
9
  6
CONTINUOUS
 10
5.5227088843
 20
21.5330716783
 40
0.130060568
  0
CIRCLE
  5
35B
100
AcDbEntity
  8
0
100
AcDbCircle
 62
9
  6
CONTINUOUS
 10
5.5227088843
 20
21.5330716783
 40
0.1219067236
  0
CIRCLE
  5
35C
100
AcDbEntity
  8
0
100
AcDbCircle
 62
9
  6
CONTINUOUS
 10
5.5227088843
 20
21.5330716783
 40
0.1079869821
  0
CIRCLE
  5
35D
100
AcDbEntity
  8
0
100
AcDbCircle
 62
7
  6
CONTINUOUS
 10
5.5227088843
 20
21.5330716783
 40
0.0885826772
  0
ARC
  5
35E
100
AcDbEntity
  8
0
100
AcDbCircle
 62
7
  6
CONTINUOUS
 10
5.4618137907
 20
21.9956158361
 40
2.1497084296
100
AcDbArc
 50
211.3267920237
 51
208.7632150813
  0
ARC
  5
35F
100
AcDbEntity
  8
0
100
AcDbCircle
 62
9
  6
CONTINUOUS
 10
5.4618137907
 20
21.9956158361
 40
2.025
100
AcDbArc
 50
212.2046302397
 51
207.7953725402
  0
ARC
  5
360
100
AcDbEntity
  8
0
100
AcDbCircle
 62
7
  6
CONTINUOUS
 10
5.4618137907
 20
21.9956158361
 40
1.877
100
AcDbArc
 50
212.3603575934
 51
207.6178448732
  0
ARC
  5
361
100
AcDbEntity
  8
0
100
AcDbCircle
 62
7
  6
CONTINUOUS
 10
5.4618137907
 20
21.9956158361
 40
1.8749065617
100
AcDbArc
 50
212.3645156414
 51
207.6167076399
  0
ARC
  5
362
100
AcDbEntity
  8
0
100
AcDbCircle
 62
7
  6
CONTINUOUS
 10
5.4618137907
 20
21.9956158361
 40
1.865
100
AcDbArc
 50
30.0803854403
 51
92.0678528912
  0
ARC
  5
363
100
AcDbEntity
  8
0
100
AcDbCircle
 62
7
  6
CONTINUOUS
 10
5.4618137907
 20
21.9956158361
 40
1.865
100
AcDbArc
 50
206.4122277444
 51
207.6114599196
  0
ARC
  5
364
100
AcDbEntity
  8
0
100
AcDbCircle
 62
7
  6
CONTINUOUS
 10
5.4618137907
 20
21.9956158361
 40
1.865
100
AcDbArc
 50
212.3840401833
 51
215.0781478226
  0
ARC
  5
365
100
AcDbEntity
  8
0
100
AcDbCircle
 62
7
  6
CONTINUOUS
 10
5.4618137907
 20
21.9956158361
 40
1.865
100
AcDbArc
 50
268.334002653
 51
271.6906948663
  0
ARC
  5
366
100
AcDbEntity
  8
0
100
AcDbCircle
 62
7
  6
CONTINUOUS
 10
5.4618137907
 20
21.9956158361
 40
1.8622047244
100
AcDbArc
 50
212.4133019933
 51
207.5866972358
  0
ARC
  5
367
100
AcDbEntity
  8
0
100
AcDbCircle
 62
9
  6
CONTINUOUS
 10
5.4618137907
 20
21.9956158361
 40
1.7683598047
100
AcDbArc
 50
213.1646759673
 51
206.8353242141
  0
ARC
  5
368
100
AcDbEntity
  8
0
100
AcDbCircle
 62
9
  6
CONTINUOUS
 10
5.4618137907
 20
21.9956158361
 40
1.75857485
100
AcDbArc
 50
213.2340769713
 51
206.7659278357
  0
ARC
  5
369
100
AcDbEntity
  8
0
100
AcDbCircle
 62
9
  6
CONTINUOUS
 10
5.4618137907
 20
21.9956158361
 40
1.7579204953
100
AcDbArc
 50
213.2374412786
 51
206.7625587217
  0
ARC
  5
36A
100
AcDbEntity
  8
0
100
AcDbCircle
 62
9
  6
CONTINUOUS
 10
5.4618137907
 20
21.9956158361
 40
1.7335217585
100
AcDbArc
 50
213.2374456713
 51
206.7625528486
  0
CIRCLE
  5
36B
100
AcDbEntity
  8
0
100
AcDbCircle
 62
9
  6
CONTINUOUS
 10
5.4618137907
 20
21.9956158361
 40
1.2864016238
  0
ARC
  5
36C
100
AcDbEntity
  8
0
100
AcDbCircle
 62
9
  6
CONTINUOUS
 10
5.4618137907
 20
21.9956158361
 40
1.2864016238
100
AcDbArc
 50
210.0
 51
210.7172245659
  0
ARC
  5
36D
100
AcDbEntity
  8
0
100
AcDbCircle
 62
9
  6
CONTINUOUS
 10
5.4618137907
 20
21.9956158361
 40
1.2864016238
100
AcDbArc
 50
30.0
 51
30.7172245658
  0
CIRCLE
  5
36E
100
AcDbEntity
  8
0
100
AcDbCircle
 62
9
  6
CONTINUOUS
 10
5.4618137907
 20
21.9956158361
 40
1.270345173
  0
CIRCLE
  5
36F
100
AcDbEntity
  8
0
100
AcDbCircle
 62
9
  6
CONTINUOUS
 10
5.4618137907
 20
21.9956158361
 40
1.270345173
  0
CIRCLE
  5
370
100
AcDbEntity
  8
0
100
AcDbCircle
 62
9
  6
CONTINUOUS
 10
5.4618137907
 20
21.9956158361
 40
1.2686221422
  0
ARC
  5
371
100
AcDbEntity
  8
0
100
AcDbCircle
 62
9
  6
CONTINUOUS
 10
5.4618137907
 20
21.9956158361
 40
1.2686221422
100
AcDbArc
 50
30.0
 51
210.0
  0
CIRCLE
  5
372
100
AcDbEntity
  8
0
100
AcDbCircle
 62
9
  6
CONTINUOUS
 10
5.4618137907
 20
21.9956158361
 40
1.2621655827
  0
ARC
  5
373
100
AcDbEntity
  8
0
100
AcDbCircle
 62
9
  6
CONTINUOUS
 10
5.4618137907
 20
21.9956158361
 40
1.2621655774
100
AcDbArc
 50
209.0671034207
 51
210.0
  0
CIRCLE
  5
374
100
AcDbEntity
  8
0
100
AcDbCircle
 62
7
  6
CONTINUOUS
 10
5.4618137907
 20
21.9956158361
 40
1.1732283464
  0
ARC
  5
375
100
AcDbEntity
  8
0
100
AcDbCircle
 62
7
  6
CONTINUOUS
 10
5.4618137906
 20
21.9956158363
 40
1.1732283462
100
AcDbArc
 50
29.9996511208
 51
210.0003488792
  0
CIRCLE
  5
376
100
AcDbEntity
  8
0
100
AcDbCircle
 62
7
  6
CONTINUOUS
 10
5.4618137907
 20
21.9956158361
 40
1.1653404974
  0
CIRCLE
  5
377
100
AcDbEntity
  8
0
100
AcDbCircle
 62
7
  6
CONTINUOUS
 10
5.4618137907
 20
21.9956158361
 40
1.1653404974
  0
CIRCLE
  5
378
100
AcDbEntity
  8
0
100
AcDbCircle
 62
7
  6
CONTINUOUS
 10
5.4618137907
 20
21.9956158361
 40
1.1614173228
  0
ARC
  5
379
100
AcDbEntity
  8
0
100
AcDbCircle
 62
7
  6
CONTINUOUS
 10
5.4618137907
 20
21.9956158361
 40
0.8937007874
100
AcDbArc
 50
316.802340994
 51
320.0
  0
ARC
  5
37A
100
AcDbEntity
  8
0
100
AcDbCircle
 62
7
  6
CONTINUOUS
 10
5.4618137907
 20
21.9956158361
 40
0.8937007874
100
AcDbArc
 50
14.8055325994
 51
18.1914279563
  0
ARC
  5
37B
100
AcDbEntity
  8
0
100
AcDbCircle
 62
7
  6
CONTINUOUS
 10
5.4618137907
 20
21.9956158361
 40
0.8937007874
100
AcDbArc
 50
72.8085922347
 51
76.1926660052
  0
CIRCLE
  5
37C
100
AcDbEntity
  8
0
100
AcDbCircle
 62
9
  6
CONTINUOUS
 10
5.4618137907
 20
21.9956158361
 40
0.7233776624
  0
CIRCLE
  5
37D
100
AcDbEntity
  8
0
100
AcDbCircle
 62
9
  6
CONTINUOUS
 10
5.4618137907
 20
21.9956158361
 40
0.6903545
  0
CIRCLE
  5
37E
100
AcDbEntity
  8
0
100
AcDbCircle
 62
9
  6
CONTINUOUS
 10
5.4618137907
 20
21.9956158361
 40
0.6619775031
  0
CIRCLE
  5
37F
100
AcDbEntity
  8
0
100
AcDbCircle
 62
9
  6
CONTINUOUS
 10
5.4618137907
 20
21.9956158361
 40
0.6434795449
  0
CIRCLE
  5
380
100
AcDbEntity
  8
0
100
AcDbCircle
 62
7
  6
CONTINUOUS
 10
5.4618137907
 20
21.9956158361
 40
0.2913385827
  0
CIRCLE
  5
381
100
AcDbEntity
  8
0
100
AcDbCircle
 62
7
  6
CONTINUOUS
 10
5.4618137907
 20
21.9956158361
 40
0.2755905512
  0
CIRCLE
  5
382
100
AcDbEntity
  8
0
100
AcDbCircle
 62
9
  6
CONTINUOUS
 10
5.4618137907
 20
21.9956158361
 40
0.2650026166
  0
CIRCLE
  5
383
100
AcDbEntity
  8
0
100
AcDbCircle
 62
7
  6
CONTINUOUS
 10
5.7511838695
 20
21.4944121575
 40
0.0295275591
  0
ARC
  5
384
100
AcDbEntity
  8
0
100
AcDbCircle
 62
9
  6
CONTINUOUS
 10
5.9835646327
 20
21.2384135232
 40
0.0980779186
100
AcDbArc
 50
125.1452014575
 51
126.0719655968
  0
CIRCLE
  5
385
100
AcDbEntity
  8
0
100
AcDbCircle
 62
7
  6
CONTINUOUS
 10
5.8795925643
 20
20.4364442267
 40
0.0826771654
  0
CIRCLE
  5
386
100
AcDbEntity
  8
0
100
AcDbCircle
 62
9
  6
CONTINUOUS
 10
5.8795925643
 20
20.4364442267
 40
0.0769109535
  0
CIRCLE
  5
387
100
AcDbEntity
  8
0
100
AcDbCircle
 62
7
  6
CONTINUOUS
 10
5.9974199333
 20
20.7025482227
 40
0.0708661417
  0
CIRCLE
  5
388
100
AcDbEntity
  8
0
100
AcDbCircle
 62
9
  6
CONTINUOUS
 10
5.8795925643
 20
20.4364442267
 40
0.0687574628
  0
CIRCLE
  5
389
100
AcDbEntity
  8
0
100
AcDbCircle
 62
9
  6
CONTINUOUS
 10
5.9974199333
 20
20.7025482227
 40
0.0651002345
  0
CIRCLE
  5
38A
100
AcDbEntity
  8
0
100
AcDbCircle
 62
9
  6
CONTINUOUS
 10
5.9974199333
 20
20.7025482227
 40
0.0569463945
  0
CIRCLE
  5
38B
100
AcDbEntity
  8
0
100
AcDbCircle
 62
9
  6
CONTINUOUS
 10
5.8795925643
 20
20.4364442267
 40
0.0548379698
  0
CIRCLE
  5
38C
100
AcDbEntity
  8
0
100
AcDbCircle
 62
9
  6
CONTINUOUS
 10
5.9974199333
 20
20.7025482227
 40
0.0430269203
  0
ARC
  5
38D
100
AcDbEntity
  8
0
100
AcDbCircle
 62
9
  6
CONTINUOUS
 10
5.9692491938
 20
21.2585839967
 40
0.0917449965
100
AcDbArc
 50
303.2360377698
 51
304.0432417897
  0
ARC
  5
38E
100
AcDbEntity
  8
0
100
AcDbCircle
 62
9
  6
CONTINUOUS
 10
5.9707111057
 20
21.2546305958
 40
0.0876564679
100
AcDbArc
 50
304.6980883817
 51
305.4979861828
  0
CIRCLE
  5
38F
100
AcDbEntity
  8
0
100
AcDbCircle
 62
7
  6
CONTINUOUS
 10
5.9747013281
 20
21.2493598385
 40
0.0708661417
  0
CIRCLE
  5
390
100
AcDbEntity
  8
0
100
AcDbCircle
 62
9
  6
CONTINUOUS
 10
5.9747013281
 20
21.2493598385
 40
0.0674067293
  0
CIRCLE
  5
391
100
AcDbEntity
  8
0
100
AcDbCircle
 62
9
  6
CONTINUOUS
 10
5.9747013281
 20
21.2493598385
 40
0.0546404342
  0
CIRCLE
  5
392
100
AcDbEntity
  8
0
100
AcDbCircle
 62
9
  6
CONTINUOUS
 10
5.9747013281
 20
21.2493598385
 40
0.0462887627
  0
CIRCLE
  5
393
100
AcDbEntity
  8
0
100
AcDbCircle
 62
7
  6
CONTINUOUS
 10
5.9747013281
 20
21.2493598385
 40
0.0295275591
  0
CIRCLE
  5
394
100
AcDbEntity
  8
0
100
AcDbCircle
 62
9
  6
CONTINUOUS
 10
5.9243579485
 20
22.0565109297
 40
0.1439792358
  0
CIRCLE
  5
395
100
AcDbEntity
  8
0
100
AcDbCircle
 62
9
  6
CONTINUOUS
 10
5.8319412349
 20
21.7116070592
 40
0.1439792321
  0
CIRCLE
  5
396
100
AcDbEntity
  8
0
100
AcDbCircle
 62
9
  6
CONTINUOUS
 10
5.9243579485
 20
22.0565109297
 40
0.130060568
  0
CIRCLE
  5
397
100
AcDbEntity
  8
0
100
AcDbCircle
 62
9
  6
CONTINUOUS
 10
5.8319412349
 20
21.7116070592
 40
0.1300605664
  0
CIRCLE
  5
398
100
AcDbEntity
  8
0
100
AcDbCircle
 62
9
  6
CONTINUOUS
 10
5.9243579485
 20
22.0565109297
 40
0.1219067236
  0
CIRCLE
  5
399
100
AcDbEntity
  8
0
100
AcDbCircle
 62
9
  6
CONTINUOUS
 10
5.8319412349
 20
21.7116070592
 40
0.1219067236
  0
CIRCLE
  5
39A
100
AcDbEntity
  8
0
100
AcDbCircle
 62
9
  6
CONTINUOUS
 10
5.9243579485
 20
22.0565109297
 40
0.1079869821
  0
CIRCLE
  5
39B
100
AcDbEntity
  8
0
100
AcDbCircle
 62
9
  6
CONTINUOUS
 10
5.8319412349
 20
21.7116070592
 40
0.1079869821
  0
CIRCLE
  5
39C
100
AcDbEntity
  8
0
100
AcDbCircle
 62
7
  6
CONTINUOUS
 10
5.8319412349
 20
21.7116070592
 40
0.0885826772
  0
CIRCLE
  5
39D
100
AcDbEntity
  8
0
100
AcDbCircle
 62
7
  6
CONTINUOUS
 10
5.9243579485
 20
22.0565109297
 40
0.0885826772
  0
ARC
  5
39E
100
AcDbEntity
  8
0
100
AcDbCircle
 62
9
  6
CONTINUOUS
 10
6.1497411045
 20
21.3882382868
 40
0.0962106998
100
AcDbArc
 50
139.0571460343
 51
139.9928033558
  0
ARC
  5
39F
100
AcDbEntity
  8
0
100
AcDbCircle
 62
9
  6
CONTINUOUS
 10
6.1325277985
 20
21.4031899561
 40
0.0916784297
100
AcDbArc
 50
317.2355091174
 51
318.0451461563
  0
ARC
  5
3A0
100
AcDbEntity
  8
0
100
AcDbCircle
 62
9
  6
CONTINUOUS
 10
6.1349286712
 20
21.3996977167
 40
0.0875638688
100
AcDbArc
 50
318.694249532
 51
319.5001877398
  0
ARC
  5
3A1
100
AcDbEntity
  8
0
100
AcDbCircle
 62
9
  6
CONTINUOUS
 10
6.1365073795
 20
21.3993571538
 40
0.0789286398
100
AcDbArc
 50
137.7659184158
 51
138.858714226
  0
CIRCLE
  5
3A2
100
AcDbEntity
  8
0
100
AcDbCircle
 62
7
  6
CONTINUOUS
 10
6.1400020418
 20
21.3956055562
 40
0.0708661417
  0
ARC
  5
3A3
100
AcDbEntity
  8
0
100
AcDbCircle
 62
7
  6
CONTINUOUS
 10
6.1400020418
 20
21.3956055562
 40
0.0708661417
100
AcDbArc
 50
138.499998711
 51
318.5
  0
CIRCLE
  5
3A4
100
AcDbEntity
  8
0
100
AcDbCircle
 62
9
  6
CONTINUOUS
 10
6.1400020418
 20
21.3956055562
 40
0.0674067292
  0
CIRCLE
  5
3A5
100
AcDbEntity
  8
0
100
AcDbCircle
 62
9
  6
CONTINUOUS
 10
6.1400020418
 20
21.3956055562
 40
0.0546404346
  0
CIRCLE
  5
3A6
100
AcDbEntity
  8
0
100
AcDbCircle
 62
9
  6
CONTINUOUS
 10
6.1400020418
 20
21.3956055562
 40
0.0462887633
  0
CIRCLE
  5
3A7
100
AcDbEntity
  8
0
100
AcDbCircle
 62
7
  6
CONTINUOUS
 10
6.1400020418
 20
21.3956055562
 40
0.0295275591
  0
CIRCLE
  5
3A8
100
AcDbEntity
  8
0
100
AcDbCircle
 62
7
  6
CONTINUOUS
 10
6.0208338555
 20
21.8458268612
 40
0.0295275591
  0
CIRCLE
  5
3A9
100
AcDbEntity
  8
0
100
AcDbCircle
 62
7
  6
CONTINUOUS
 10
6.2689004049
 20
20.5977008142
 40
0.0826771654
  0
CIRCLE
  5
3AA
100
AcDbEntity
  8
0
100
AcDbCircle
 62
9
  6
CONTINUOUS
 10
6.2689004049
 20
20.5977008142
 40
0.0769109536
  0
CIRCLE
  5
3AB
100
AcDbEntity
  8
0
100
AcDbCircle
 62
9
  6
CONTINUOUS
 10
6.2689004049
 20
20.5977008142
 40
0.0687574628
  0
CIRCLE
  5
3AC
100
AcDbEntity
  8
0
100
AcDbCircle
 62
9
  6
CONTINUOUS
 10
6.2689004049
 20
20.5977008142
 40
0.0548379698
  0
CIRCLE
  5
3AD
100
AcDbEntity
  8
0
100
AcDbCircle
 62
7
  6
CONTINUOUS
 10
6.3138401215
 20
20.8852335035
 40
0.0708661417
  0
CIRCLE
  5
3AE
100
AcDbEntity
  8
0
100
AcDbCircle
 62
9
  6
CONTINUOUS
 10
6.3138401215
 20
20.8852335035
 40
0.0651002345
  0
CIRCLE
  5
3AF
100
AcDbEntity
  8
0
100
AcDbCircle
 62
9
  6
CONTINUOUS
 10
6.3138401215
 20
20.8852335035
 40
0.0569463945
  0
CIRCLE
  5
3B0
100
AcDbEntity
  8
0
100
AcDbCircle
 62
9
  6
CONTINUOUS
 10
6.3138401215
 20
20.8852335035
 40
0.0430269203
  0
ARC
  5
3B1
100
AcDbEntity
  8
0
100
AcDbCircle
 62
7
  6
CONTINUOUS
 10
6.3137720835
 20
20.8853041163
 40
0.0176203964
100
AcDbArc
 50
307.5357416369
 51
127.4642584019
  0
ARC
  5
3B2
100
AcDbEntity
  8
0
100
AcDbCircle
 62
7
  6
CONTINUOUS
 10
6.3137895243
 20
20.885317499
 40
0.0176203964
100
AcDbArc
 50
127.5357460611
 51
307.4642538982
  0
CIRCLE
  5
3B3
100
AcDbEntity
  8
0
100
AcDbCircle
 62
7
  6
CONTINUOUS
 10
6.6032066265
 20
20.8542230003
 40
0.0826771654
  0
CIRCLE
  5
3B4
100
AcDbEntity
  8
0
100
AcDbCircle
 62
9
  6
CONTINUOUS
 10
6.6032066265
 20
20.8542230003
 40
0.0769109535
  0
CIRCLE
  5
3B5
100
AcDbEntity
  8
0
100
AcDbCircle
 62
9
  6
CONTINUOUS
 10
6.6032066265
 20
20.8542230003
 40
0.0687574628
  0
CIRCLE
  5
3B6
100
AcDbEntity
  8
0
100
AcDbCircle
 62
9
  6
CONTINUOUS
 10
6.6032066265
 20
20.8542230003
 40
0.0548379698
  0
CIRCLE
  5
3B7
100
AcDbEntity
  8
0
100
AcDbCircle
 62
7
  6
CONTINUOUS
 10
6.5721961233
 20
21.1435895053
 40
0.0708661417
  0
CIRCLE
  5
3B8
100
AcDbEntity
  8
0
100
AcDbCircle
 62
9
  6
CONTINUOUS
 10
6.5721961233
 20
21.1435895053
 40
0.0651002345
  0
CIRCLE
  5
3B9
100
AcDbEntity
  8
0
100
AcDbCircle
 62
9
  6
CONTINUOUS
 10
6.5721961233
 20
21.1435895053
 40
0.0569463945
  0
CIRCLE
  5
3BA
100
AcDbEntity
  8
0
100
AcDbCircle
 62
9
  6
CONTINUOUS
 10
6.5721961233
 20
21.1435895053
 40
0.0430269203
  0
CIRCLE
  5
3BB
100
AcDbEntity
  8
0
100
AcDbCircle
 62
7
  6
CONTINUOUS
 10
6.3664637551
 20
22.0351137065
 40
0.0708661417
  0
CIRCLE
  5
3BC
100
AcDbEntity
  8
0
100
AcDbCircle
 62
9
  6
CONTINUOUS
 10
6.3664637551
 20
22.0351137065
 40
0.0674067293
  0
CIRCLE
  5
3BD
100
AcDbEntity
  8
0
100
AcDbCircle
 62
9
  6
CONTINUOUS
 10
6.3664637551
 20
22.0351137065
 40
0.0546404342
  0
CIRCLE
  5
3BE
100
AcDbEntity
  8
0
100
AcDbCircle
 62
9
  6
CONTINUOUS
 10
6.3664637551
 20
22.0351137065
 40
0.0462887627
  0
CIRCLE
  5
3BF
100
AcDbEntity
  8
0
100
AcDbCircle
 62
7
  6
CONTINUOUS
 10
6.3664637551
 20
22.0351137065
 40
0.0295275591
  0
CIRCLE
  5
3C0
100
AcDbEntity
  8
0
100
AcDbCircle
 62
7
  6
CONTINUOUS
 10
6.8597288126
 20
21.1885292219
 40
0.0826771654
  0
CIRCLE
  5
3C1
100
AcDbEntity
  8
0
100
AcDbCircle
 62
9
  6
CONTINUOUS
 10
6.8597288126
 20
21.1885292219
 40
0.0769109535
  0
CIRCLE
  5
3C2
100
AcDbEntity
  8
0
100
AcDbCircle
 62
9
  6
CONTINUOUS
 10
6.8597288126
 20
21.1885292219
 40
0.0687574628
  0
CIRCLE
  5
3C3
100
AcDbEntity
  8
0
100
AcDbCircle
 62
9
  6
CONTINUOUS
 10
6.8597288126
 20
21.1885292219
 40
0.0548379698
  0
CIRCLE
  5
3C4
100
AcDbEntity
  8
0
100
AcDbCircle
 62
7
  6
CONTINUOUS
 10
6.7548814041
 20
21.4600096936
 40
0.0708661417
  0
CIRCLE
  5
3C5
100
AcDbEntity
  8
0
100
AcDbCircle
 62
9
  6
CONTINUOUS
 10
6.7548814041
 20
21.4600096936
 40
0.0651002345
  0
CIRCLE
  5
3C6
100
AcDbEntity
  8
0
100
AcDbCircle
 62
9
  6
CONTINUOUS
 10
6.7548814041
 20
21.4600096936
 40
0.0569463945
  0
CIRCLE
  5
3C7
100
AcDbEntity
  8
0
100
AcDbCircle
 62
9
  6
CONTINUOUS
 10
6.7548814041
 20
21.4600096936
 40
0.0430269203
  0
ARC
  5
3C8
100
AcDbEntity
  8
0
100
AcDbCircle
 62
7
  6
CONTINUOUS
 10
6.7547871752
 20
21.460036827
 40
0.0176203964
100
AcDbArc
 50
337.5357416343
 51
157.4642584021
  0
ARC
  5
3C9
100
AcDbEntity
  8
0
100
AcDbCircle
 62
7
  6
CONTINUOUS
 10
6.7547955879
 20
21.4600571372
 40
0.0176203964
100
AcDbArc
 50
157.5357460624
 51
337.4642538945
  0
CIRCLE
  5
3CA
100
AcDbEntity
  8
0
100
AcDbCircle
 62
7
  6
CONTINUOUS
 10
6.849446264
 20
21.8129305553
 40
0.0708661417
  0
CIRCLE
  5
3CB
100
AcDbEntity
  8
0
100
AcDbCircle
 62
9
  6
CONTINUOUS
 10
6.849446264
 20
21.8129305553
 40
0.0651002345
  0
CIRCLE
  5
3CC
100
AcDbEntity
  8
0
100
AcDbCircle
 62
9
  6
CONTINUOUS
 10
6.849446264
 20
21.8129305553
 40
0.0569463945
  0
CIRCLE
  5
3CD
100
AcDbEntity
  8
0
100
AcDbCircle
 62
9
  6
CONTINUOUS
 10
6.849446264
 20
21.8129305553
 40
0.0430269203
  0
CIRCLE
  5
3CE
100
AcDbEntity
  8
0
100
AcDbCircle
 62
7
  6
CONTINUOUS
 10
7.0209854001
 20
21.5778370625
 40
0.0826771654
  0
CIRCLE
  5
3CF
100
AcDbEntity
  8
0
100
AcDbCircle
 62
9
  6
CONTINUOUS
 10
7.0209854001
 20
21.5778370625
 40
0.0769109535
  0
CIRCLE
  5
3D0
100
AcDbEntity
  8
0
100
AcDbCircle
 62
9
  6
CONTINUOUS
 10
7.0209854001
 20
21.5778370625
 40
0.0687574628
  0
CIRCLE
  5
3D1
100
AcDbEntity
  8
0
100
AcDbCircle
 62
9
  6
CONTINUOUS
 10
7.0209854001
 20
21.5778370625
 40
0.0548379698
  0
CIRCLE
  5
3D2
100
AcDbEntity
  8
0
100
AcDbCircle
 62
7
  6
CONTINUOUS
 10
7.0759870191
 20
21.9956158361
 40
0.0826771654
  0
CIRCLE
  5
3D3
100
AcDbEntity
  8
0
100
AcDbCircle
 62
9
  6
CONTINUOUS
 10
7.0759870191
 20
21.9956158361
 40
0.0769109535
  0
CIRCLE
  5
3D4
100
AcDbEntity
  8
0
100
AcDbCircle
 62
9
  6
CONTINUOUS
 10
7.0759870191
 20
21.9956158361
 40
0.0687574628
  0
CIRCLE
  5
3D5
100
AcDbEntity
  8
0
100
AcDbCircle
 62
9
  6
CONTINUOUS
 10
7.0759870191
 20
21.9956158361
 40
0.0548379698
  0
CIRCLE
  5
3D6
100
AcDbEntity
  8
0
100
AcDbCircle
 62
7
  6
CONTINUOUS
 10
4.0741813174
 20
22.1783011169
 40
0.0708661417
  0
CIRCLE
  5
3D7
100
AcDbEntity
  8
0
100
AcDbCircle
 62
9
  6
CONTINUOUS
 10
4.0741813174
 20
22.1783011169
 40
0.0651002345
  0
CIRCLE
  5
3D8
100
AcDbEntity
  8
0
100
AcDbCircle
 62
9
  6
CONTINUOUS
 10
4.0741813174
 20
22.1783011169
 40
0.0569463945
  0
CIRCLE
  5
3D9
100
AcDbEntity
  8
0
100
AcDbCircle
 62
9
  6
CONTINUOUS
 10
4.0741813174
 20
22.1783011169
 40
0.0430269203
  0
CIRCLE
  5
3DA
100
AcDbEntity
  8
0
100
AcDbCircle
 62
7
  6
CONTINUOUS
 10
3.9026421813
 20
22.4133946097
 40
0.0826771654
  0
CIRCLE
  5
3DB
100
AcDbEntity
  8
0
100
AcDbCircle
 62
9
  6
CONTINUOUS
 10
3.9026421813
 20
22.4133946097
 40
0.0769109535
  0
CIRCLE
  5
3DC
100
AcDbEntity
  8
0
100
AcDbCircle
 62
9
  6
CONTINUOUS
 10
3.9026421813
 20
22.4133946097
 40
0.0687574628
  0
CIRCLE
  5
3DD
100
AcDbEntity
  8
0
100
AcDbCircle
 62
9
  6
CONTINUOUS
 10
3.9026421813
 20
22.4133946097
 40
0.0548379698
  0
ARC
  5
3DE
100
AcDbEntity
  8
0
100
AcDbCircle
 62
9
  6
CONTINUOUS
 10
4.6179301465
 20
22.2936858737
 40
0.0915891769
100
AcDbArc
 50
159.2388524227
 51
160.0489770544
  0
ARC
  5
3DF
100
AcDbEntity
  8
0
100
AcDbCircle
 62
9
  6
CONTINUOUS
 10
4.6088358923
 20
22.2975214097
 40
0.0833491419
100
AcDbArc
 50
339.532046651
 51
340.5970322006
  0
CIRCLE
  5
3E0
100
AcDbEntity
  8
0
100
AcDbCircle
 62
7
  6
CONTINUOUS
 10
4.608240787
 20
22.2978818897
 40
0.0708661417
  0
ARC
  5
3E1
100
AcDbEntity
  8
0
100
AcDbCircle
 62
7
  6
CONTINUOUS
 10
4.608240787
 20
22.2978818897
 40
0.0708661417
100
AcDbArc
 50
340.4999991536
 51
160.5000000001
  0
CIRCLE
  5
3E2
100
AcDbEntity
  8
0
100
AcDbCircle
 62
9
  6
CONTINUOUS
 10
4.608240787
 20
22.2978818897
 40
0.0674067293
  0
CIRCLE
  5
3E3
100
AcDbEntity
  8
0
100
AcDbCircle
 62
9
  6
CONTINUOUS
 10
4.608240787
 20
22.2978818897
 40
0.0546404342
  0
CIRCLE
  5
3E4
100
AcDbEntity
  8
0
100
AcDbCircle
 62
9
  6
CONTINUOUS
 10
4.608240787
 20
22.2978818897
 40
0.0462887627
  0
CIRCLE
  5
3E5
100
AcDbEntity
  8
0
100
AcDbCircle
 62
7
  6
CONTINUOUS
 10
4.608240787
 20
22.2978818897
 40
0.0295275591
  0
CIRCLE
  5
3E6
100
AcDbEntity
  8
0
100
AcDbCircle
 62
7
  6
CONTINUOUS
 10
4.1687461773
 20
22.5312219786
 40
0.0708661417
  0
CIRCLE
  5
3E7
100
AcDbEntity
  8
0
100
AcDbCircle
 62
9
  6
CONTINUOUS
 10
4.1687461773
 20
22.5312219786
 40
0.0651002345
  0
CIRCLE
  5
3E8
100
AcDbEntity
  8
0
100
AcDbCircle
 62
9
  6
CONTINUOUS
 10
4.1687461773
 20
22.5312219786
 40
0.0569463945
  0
CIRCLE
  5
3E9
100
AcDbEntity
  8
0
100
AcDbCircle
 62
9
  6
CONTINUOUS
 10
4.1687461773
 20
22.5312219786
 40
0.0430269203
  0
ARC
  5
3EA
100
AcDbEntity
  8
0
100
AcDbCircle
 62
7
  6
CONTINUOUS
 10
4.1688319935
 20
22.5311745349
 40
0.0176203964
100
AcDbArc
 50
337.5357415749
 51
157.4642583837
  0
ARC
  5
3EB
100
AcDbEntity
  8
0
100
AcDbCircle
 62
7
  6
CONTINUOUS
 10
4.1688404063
 20
22.5311948452
 40
0.0176203964
100
AcDbArc
 50
157.5357461214
 51
337.4642539166
  0
CIRCLE
  5
3EC
100
AcDbEntity
  8
0
100
AcDbCircle
 62
7
  6
CONTINUOUS
 10
4.0638987689
 20
22.8027024503
 40
0.0826771654
  0
CIRCLE
  5
3ED
100
AcDbEntity
  8
0
100
AcDbCircle
 62
9
  6
CONTINUOUS
 10
4.0638987689
 20
22.8027024503
 40
0.0769109535
  0
CIRCLE
  5
3EE
100
AcDbEntity
  8
0
100
AcDbCircle
 62
9
  6
CONTINUOUS
 10
4.0638987689
 20
22.8027024503
 40
0.0687574628
  0
CIRCLE
  5
3EF
100
AcDbEntity
  8
0
100
AcDbCircle
 62
9
  6
CONTINUOUS
 10
4.0638987689
 20
22.8027024503
 40
0.0548379698
  0
CIRCLE
  5
3F0
100
AcDbEntity
  8
0
100
AcDbCircle
 62
7
  6
CONTINUOUS
 10
4.3514314581
 20
22.8476421669
 40
0.0708661417
  0
CIRCLE
  5
3F1
100
AcDbEntity
  8
0
100
AcDbCircle
 62
9
  6
CONTINUOUS
 10
4.3514314581
 20
22.8476421669
 40
0.0651002345
  0
CIRCLE
  5
3F2
100
AcDbEntity
  8
0
100
AcDbCircle
 62
9
  6
CONTINUOUS
 10
4.3514314581
 20
22.8476421669
 40
0.0569463945
  0
CIRCLE
  5
3F3
100
AcDbEntity
  8
0
100
AcDbCircle
 62
9
  6
CONTINUOUS
 10
4.3514314581
 20
22.8476421669
 40
0.0430269203
  0
CIRCLE
  5
3F4
100
AcDbEntity
  8
0
100
AcDbCircle
 62
7
  6
CONTINUOUS
 10
4.9027937259
 20
22.145404811
 40
0.0295275591
  0
ARC
  5
3F5
100
AcDbEntity
  8
0
100
AcDbCircle
 62
9
  6
CONTINUOUS
 10
4.7151536863
 20
22.4889499144
 40
0.091648168
100
AcDbArc
 50
145.2375363394
 51
146.046723149
  0
ARC
  5
3F6
100
AcDbEntity
  8
0
100
AcDbCircle
 62
9
  6
CONTINUOUS
 10
4.7123954426
 20
22.4920085944
 40
0.0876575655
100
AcDbArc
 50
146.6981659872
 51
147.4980579692
  0
ARC
  5
3F7
100
AcDbEntity
  8
0
100
AcDbCircle
 62
9
  6
CONTINUOUS
 10
4.7072108753
 20
22.4949073069
 40
0.0833487342
100
AcDbArc
 50
325.5320597725
 51
326.5970508612
  0
CIRCLE
  5
3F8
100
AcDbEntity
  8
0
100
AcDbCircle
 62
7
  6
CONTINUOUS
 10
4.7067203298
 20
22.4954012952
 40
0.0708661417
  0
CIRCLE
  5
3F9
100
AcDbEntity
  8
0
100
AcDbCircle
 62
9
  6
CONTINUOUS
 10
4.7067203298
 20
22.4954012952
 40
0.0674067293
  0
CIRCLE
  5
3FA
100
AcDbEntity
  8
0
100
AcDbCircle
 62
9
  6
CONTINUOUS
 10
4.7067203298
 20
22.4954012952
 40
0.0546404338
  0
CIRCLE
  5
3FB
100
AcDbEntity
  8
0
100
AcDbCircle
 62
9
  6
CONTINUOUS
 10
4.7067203298
 20
22.4954012952
 40
0.0462887621
  0
CIRCLE
  5
3FC
100
AcDbEntity
  8
0
100
AcDbCircle
 62
7
  6
CONTINUOUS
 10
4.7067203298
 20
22.4954012952
 40
0.0295275591
  0
CIRCLE
  5
3FD
100
AcDbEntity
  8
0
100
AcDbCircle
 62
9
  6
CONTINUOUS
 10
5.0916863465
 20
22.279624613
 40
0.1439792321
  0
CIRCLE
  5
3FE
100
AcDbEntity
  8
0
100
AcDbCircle
 62
9
  6
CONTINUOUS
 10
5.0916863465
 20
22.279624613
 40
0.1300605664
  0
CIRCLE
  5
3FF
100
AcDbEntity
  8
0
100
AcDbCircle
 62
9
  6
CONTINUOUS
 10
5.0916863465
 20
22.279624613
 40
0.1219067236
  0
CIRCLE
  5
400
100
AcDbEntity
  8
0
100
AcDbCircle
 62
9
  6
CONTINUOUS
 10
5.0916863465
 20
22.279624613
 40
0.1079869821
  0
CIRCLE
  5
401
100
AcDbEntity
  8
0
100
AcDbCircle
 62
7
  6
CONTINUOUS
 10
5.0916863465
 20
22.279624613
 40
0.0885826772
  0
CIRCLE
  5
402
100
AcDbEntity
  8
0
100
AcDbCircle
 62
9
  6
CONTINUOUS
 10
5.4009186971
 20
22.4581599939
 40
0.1439792358
  0
CIRCLE
  5
403
100
AcDbEntity
  8
0
100
AcDbCircle
 62
9
  6
CONTINUOUS
 10
5.4009186971
 20
22.4581599939
 40
0.130060568
  0
CIRCLE
  5
404
100
AcDbEntity
  8
0
100
AcDbCircle
 62
9
  6
CONTINUOUS
 10
5.4009186971
 20
22.4581599939
 40
0.1219067236
  0
CIRCLE
  5
405
100
AcDbEntity
  8
0
100
AcDbCircle
 62
9
  6
CONTINUOUS
 10
5.4009186971
 20
22.4581599939
 40
0.1079869821
  0
CIRCLE
  5
406
100
AcDbEntity
  8
0
100
AcDbCircle
 62
7
  6
CONTINUOUS
 10
5.4009186971
 20
22.4581599939
 40
0.0885826772
  0
CIRCLE
  5
407
100
AcDbEntity
  8
0
100
AcDbCircle
 62
7
  6
CONTINUOUS
 10
5.172443712
 20
22.4968195147
 40
0.0295275591
  0
ARC
  5
408
100
AcDbEntity
  8
0
100
AcDbCircle
 62
9
  6
CONTINUOUS
 10
5.2675503733
 20
22.8732816767
 40
0.0876564681
100
AcDbArc
 50
102.6980883849
 51
103.4979861842
  0
CIRCLE
  5
409
100
AcDbEntity
  8
0
100
AcDbCircle
 62
7
  6
CONTINUOUS
 10
4.3204209549
 20
23.1370086719
 40
0.0826771654
  0
CIRCLE
  5
40A
100
AcDbEntity
  8
0
100
AcDbCircle
 62
9
  6
CONTINUOUS
 10
4.3204209549
 20
23.1370086719
 40
0.0769109535
  0
CIRCLE
  5
40B
100
AcDbEntity
  8
0
100
AcDbCircle
 62
7
  6
CONTINUOUS
 10
4.60978746
 20
23.1059981687
 40
0.0708661417
  0
CIRCLE
  5
40C
100
AcDbEntity
  8
0
100
AcDbCircle
 62
9
  6
CONTINUOUS
 10
4.3204209549
 20
23.1370086719
 40
0.0687574628
  0
CIRCLE
  5
40D
100
AcDbEntity
  8
0
100
AcDbCircle
 62
9
  6
CONTINUOUS
 10
4.60978746
 20
23.1059981687
 40
0.0651002345
  0
CIRCLE
  5
40E
100
AcDbEntity
  8
0
100
AcDbCircle
 62
9
  6
CONTINUOUS
 10
4.60978746
 20
23.1059981687
 40
0.0569463945
  0
CIRCLE
  5
40F
100
AcDbEntity
  8
0
100
AcDbCircle
 62
9
  6
CONTINUOUS
 10
4.3204209549
 20
23.1370086719
 40
0.0548379698
  0
CIRCLE
  5
410
100
AcDbEntity
  8
0
100
AcDbCircle
 62
9
  6
CONTINUOUS
 10
4.60978746
 20
23.1059981687
 40
0.0430269203
  0
ARC
  5
411
100
AcDbEntity
  8
0
100
AcDbCircle
 62
7
  6
CONTINUOUS
 10
4.6098380571
 20
23.1059141731
 40
0.0176203964
100
AcDbArc
 50
307.5357415656
 51
127.4642583955
  0
ARC
  5
412
100
AcDbEntity
  8
0
100
AcDbCircle
 62
7
  6
CONTINUOUS
 10
4.6098554979
 20
23.1059275559
 40
0.0176203964
100
AcDbArc
 50
127.5357461325
 51
307.464253908
  0
CIRCLE
  5
413
100
AcDbEntity
  8
0
100
AcDbCircle
 62
7
  6
CONTINUOUS
 10
4.6547271765
 20
23.393530858
 40
0.0826771654
  0
CIRCLE
  5
414
100
AcDbEntity
  8
0
100
AcDbCircle
 62
9
  6
CONTINUOUS
 10
4.6547271765
 20
23.393530858
 40
0.0769109536
  0
CIRCLE
  5
415
100
AcDbEntity
  8
0
100
AcDbCircle
 62
9
  6
CONTINUOUS
 10
4.6547271765
 20
23.393530858
 40
0.0687574628
  0
CIRCLE
  5
416
100
AcDbEntity
  8
0
100
AcDbCircle
 62
9
  6
CONTINUOUS
 10
4.6547271765
 20
23.393530858
 40
0.0548379698
  0
CIRCLE
  5
417
100
AcDbEntity
  8
0
100
AcDbCircle
 62
7
  6
CONTINUOUS
 10
5.2658251639
 20
22.8796634016
 40
0.0708661417
  0
CIRCLE
  5
418
100
AcDbEntity
  8
0
100
AcDbCircle
 62
7
  6
CONTINUOUS
 10
5.2658251639
 20
22.8796634016
 40
0.0708661417
  0
CIRCLE
  5
419
100
AcDbEntity
  8
0
100
AcDbCircle
 62
9
  6
CONTINUOUS
 10
5.2658251639
 20
22.8796634016
 40
0.0674067293
  0
CIRCLE
  5
41A
100
AcDbEntity
  8
0
100
AcDbCircle
 62
9
  6
CONTINUOUS
 10
5.2658251639
 20
22.8796634016
 40
0.0546404342
  0
CIRCLE
  5
41B
100
AcDbEntity
  8
0
100
AcDbCircle
 62
9
  6
CONTINUOUS
 10
5.2658251639
 20
22.8796634016
 40
0.0462887627
  0
CIRCLE
  5
41C
100
AcDbEntity
  8
0
100
AcDbCircle
 62
7
  6
CONTINUOUS
 10
5.2658251639
 20
22.8796634016
 40
0.0295275591
  0
CIRCLE
  5
41D
100
AcDbEntity
  8
0
100
AcDbCircle
 62
7
  6
CONTINUOUS
 10
4.9262076482
 20
23.2886834495
 40
0.0708661417
  0
CIRCLE
  5
41E
100
AcDbEntity
  8
0
100
AcDbCircle
 62
9
  6
CONTINUOUS
 10
4.9262076482
 20
23.2886834495
 40
0.0651002345
  0
CIRCLE
  5
41F
100
AcDbEntity
  8
0
100
AcDbCircle
 62
9
  6
CONTINUOUS
 10
4.9262076482
 20
23.2886834495
 40
0.0569463945
  0
CIRCLE
  5
420
100
AcDbEntity
  8
0
100
AcDbCircle
 62
9
  6
CONTINUOUS
 10
4.9262076482
 20
23.2886834495
 40
0.0430269203
  0
CIRCLE
  5
421
100
AcDbEntity
  8
0
100
AcDbCircle
 62
7
  6
CONTINUOUS
 10
5.0440350171
 20
23.5547874455
 40
0.0826771654
  0
CIRCLE
  5
422
100
AcDbEntity
  8
0
100
AcDbCircle
 62
9
  6
CONTINUOUS
 10
5.0440350171
 20
23.5547874455
 40
0.0769109535
  0
CIRCLE
  5
423
100
AcDbEntity
  8
0
100
AcDbCircle
 62
9
  6
CONTINUOUS
 10
5.0440350171
 20
23.5547874455
 40
0.0687574628
  0
CIRCLE
  5
424
100
AcDbEntity
  8
0
100
AcDbCircle
 62
9
  6
CONTINUOUS
 10
5.0440350171
 20
23.5547874455
 40
0.0548379698
  0
CIRCLE
  5
425
100
AcDbEntity
  8
0
100
AcDbCircle
 62
7
  6
CONTINUOUS
 10
5.2791285099
 20
23.3832483094
 40
0.0708661417
  0
CIRCLE
  5
426
100
AcDbEntity
  8
0
100
AcDbCircle
 62
9
  6
CONTINUOUS
 10
5.2791285099
 20
23.3832483094
 40
0.0651002345
  0
CIRCLE
  5
427
100
AcDbEntity
  8
0
100
AcDbCircle
 62
9
  6
CONTINUOUS
 10
5.2791285099
 20
23.3832483094
 40
0.0569463945
  0
CIRCLE
  5
428
100
AcDbEntity
  8
0
100
AcDbCircle
 62
9
  6
CONTINUOUS
 10
5.2791285099
 20
23.3832483094
 40
0.0430269203
  0
ARC
  5
429
100
AcDbEntity
  8
0
100
AcDbCircle
 62
7
  6
CONTINUOUS
 10
5.2791303305
 20
23.3831502686
 40
0.0176203964
100
AcDbArc
 50
277.5357415696
 51
97.4642583931
  0
ARC
  5
42A
100
AcDbEntity
  8
0
100
AcDbCircle
 62
7
  6
CONTINUOUS
 10
5.2791521261
 20
23.383153138
 40
0.0176203964
100
AcDbArc
 50
97.5357461317
 51
277.4642539105
  0
CIRCLE
  5
42B
100
AcDbEntity
  8
0
100
AcDbCircle
 62
9
  6
CONTINUOUS
 10
5.7458225676
 20
22.3657432803
 40
0.1439792321
  0
CIRCLE
  5
42C
100
AcDbEntity
  8
0
100
AcDbCircle
 62
9
  6
CONTINUOUS
 10
5.7458225676
 20
22.3657432803
 40
0.1300605664
  0
CIRCLE
  5
42D
100
AcDbEntity
  8
0
100
AcDbCircle
 62
9
  6
CONTINUOUS
 10
5.7458225676
 20
22.3657432803
 40
0.1219067236
  0
CIRCLE
  5
42E
100
AcDbEntity
  8
0
100
AcDbCircle
 62
9
  6
CONTINUOUS
 10
5.7458225676
 20
22.3657432803
 40
0.1079869821
  0
CIRCLE
  5
42F
100
AcDbEntity
  8
0
100
AcDbCircle
 62
7
  6
CONTINUOUS
 10
5.7458225676
 20
22.3657432803
 40
0.0885826772
  0
CIRCLE
  5
430
100
AcDbEntity
  8
0
100
AcDbCircle
 62
7
  6
CONTINUOUS
 10
5.9630174693
 20
22.2849859148
 40
0.0295275591
  0
ARC
  5
431
100
AcDbEntity
  8
0
100
AcDbCircle
 62
9
  6
CONTINUOUS
 10
6.2576235919
 20
22.4660821184
 40
0.1030015276
100
AcDbArc
 50
211.3140956447
 51
212.1978251142
  0
ARC
  5
432
100
AcDbEntity
  8
0
100
AcDbCircle
 62
9
  6
CONTINUOUS
 10
6.2328302023
 20
22.4505944844
 40
0.0913172598
100
AcDbArc
 50
29.2442384138
 51
30.0592452658
  0
ARC
  5
433
100
AcDbEntity
  8
0
100
AcDbCircle
 62
9
  6
CONTINUOUS
 10
6.2408612105
 20
22.4544371846
 40
0.082444513
100
AcDbArc
 50
30.5435046227
 51
31.4012801122
  0
CIRCLE
  5
434
100
AcDbEntity
  8
0
100
AcDbCircle
 62
7
  6
CONTINUOUS
 10
6.2420291722
 20
22.4551978183
 40
0.0708661417
  0
CIRCLE
  5
435
100
AcDbEntity
  8
0
100
AcDbCircle
 62
9
  6
CONTINUOUS
 10
6.2420291722
 20
22.4551978183
 40
0.0674067293
  0
CIRCLE
  5
436
100
AcDbEntity
  8
0
100
AcDbCircle
 62
9
  6
CONTINUOUS
 10
6.2420291722
 20
22.4551978183
 40
0.0546404342
  0
CIRCLE
  5
437
100
AcDbEntity
  8
0
100
AcDbCircle
 62
9
  6
CONTINUOUS
 10
6.2420291722
 20
22.4551978183
 40
0.0462887627
  0
CIRCLE
  5
438
100
AcDbEntity
  8
0
100
AcDbCircle
 62
7
  6
CONTINUOUS
 10
6.2420291722
 20
22.4551978183
 40
0.0295275591
  0
ARC
  5
439
100
AcDbEntity
  8
0
100
AcDbCircle
 62
9
  6
CONTINUOUS
 10
5.7033200464
 20
22.8665993604
 40
0.0827187367
100
AcDbArc
 50
60.6549297899
 51
73.6103303726
  0
ARC
  5
43A
100
AcDbEntity
  8
0
100
AcDbCircle
 62
9
  6
CONTINUOUS
 10
5.703462254
 20
22.8668609368
 40
0.0824210335
100
AcDbArc
 50
58.8988371713
 51
60.6519891541
  0
ARC
  5
43B
100
AcDbEntity
  8
0
100
AcDbCircle
 62
9
  6
CONTINUOUS
 10
5.7037850392
 20
22.8680319526
 40
0.0812131625
100
AcDbArc
 50
73.6398663934
 51
74.5196167364
  0
CIRCLE
  5
43C
100
AcDbEntity
  8
0
100
AcDbCircle
 62
7
  6
CONTINUOUS
 10
5.7038012966
 20
22.8681945929
 40
0.0708661417
  0
ARC
  5
43D
100
AcDbEntity
  8
0
100
AcDbCircle
 62
7
  6
CONTINUOUS
 10
5.7038012966
 20
22.8681945929
 40
0.0708661417
100
AcDbArc
 50
74.5000000002
 51
254.4999986186
  0
CIRCLE
  5
43E
100
AcDbEntity
  8
0
100
AcDbCircle
 62
9
  6
CONTINUOUS
 10
5.7038012966
 20
22.8681945929
 40
0.0674067293
  0
CIRCLE
  5
43F
100
AcDbEntity
  8
0
100
AcDbCircle
 62
9
  6
CONTINUOUS
 10
5.7038012966
 20
22.8681945929
 40
0.0546404342
  0
CIRCLE
  5
440
100
AcDbEntity
  8
0
100
AcDbCircle
 62
9
  6
CONTINUOUS
 10
5.7038012966
 20
22.8681945929
 40
0.0462887627
  0
CIRCLE
  5
441
100
AcDbEntity
  8
0
100
AcDbCircle
 62
7
  6
CONTINUOUS
 10
5.7038012966
 20
22.8681945929
 40
0.0295275591
  0
CIRCLE
  5
442
100
AcDbEntity
  8
0
100
AcDbCircle
 62
7
  6
CONTINUOUS
 10
5.6116027656
 20
22.5546359009
 40
0.0295275591
  0
ARC
  5
443
100
AcDbEntity
  8
0
100
AcDbCircle
 62
9
  6
CONTINUOUS
 10
6.3237907649
 20
22.2506289963
 40
0.0876562385
100
AcDbArc
 50
16.6980829962
 51
17.4979763303
  0
CIRCLE
  5
444
100
AcDbEntity
  8
0
100
AcDbCircle
 62
7
  6
CONTINUOUS
 10
6.3300363853
 20
22.2527950852
 40
0.0708661417
  0
CIRCLE
  5
445
100
AcDbEntity
  8
0
100
AcDbCircle
 62
9
  6
CONTINUOUS
 10
6.3300363853
 20
22.2527950852
 40
0.0674067293
  0
CIRCLE
  5
446
100
AcDbEntity
  8
0
100
AcDbCircle
 62
9
  6
CONTINUOUS
 10
6.3300363853
 20
22.2527950852
 40
0.0546404342
  0
CIRCLE
  5
447
100
AcDbEntity
  8
0
100
AcDbCircle
 62
9
  6
CONTINUOUS
 10
6.3300363853
 20
22.2527950852
 40
0.0462887627
  0
CIRCLE
  5
448
100
AcDbEntity
  8
0
100
AcDbCircle
 62
7
  6
CONTINUOUS
 10
6.3300363853
 20
22.2527950852
 40
0.0295275591
  0
CIRCLE
  5
449
100
AcDbEntity
  8
0
100
AcDbCircle
 62
7
  6
CONTINUOUS
 10
6.849446264
 20
22.1783011169
 40
0.0708661417
  0
CIRCLE
  5
44A
100
AcDbEntity
  8
0
100
AcDbCircle
 62
9
  6
CONTINUOUS
 10
6.849446264
 20
22.1783011169
 40
0.0651002345
  0
CIRCLE
  5
44B
100
AcDbEntity
  8
0
100
AcDbCircle
 62
9
  6
CONTINUOUS
 10
6.849446264
 20
22.1783011169
 40
0.0569463945
  0
CIRCLE
  5
44C
100
AcDbEntity
  8
0
100
AcDbCircle
 62
9
  6
CONTINUOUS
 10
6.849446264
 20
22.1783011169
 40
0.0430269203
  0
ARC
  5
44D
100
AcDbEntity
  8
0
100
AcDbCircle
 62
7
  6
CONTINUOUS
 10
6.8493510926
 20
22.1782775007
 40
0.0176203964
100
AcDbArc
 50
7.5357462165
 51
187.4642538257
  0
ARC
  5
44E
100
AcDbEntity
  8
0
100
AcDbCircle
 62
7
  6
CONTINUOUS
 10
6.8493482232
 20
22.1782992963
 40
0.0176203964
100
AcDbArc
 50
187.5357414848
 51
7.464258478
  0
CIRCLE
  5
44F
100
AcDbEntity
  8
0
100
AcDbCircle
 62
7
  6
CONTINUOUS
 10
7.0209854001
 20
22.4133946097
 40
0.0826771654
  0
CIRCLE
  5
450
100
AcDbEntity
  8
0
100
AcDbCircle
 62
9
  6
CONTINUOUS
 10
7.0209854001
 20
22.4133946097
 40
0.0769109535
  0
CIRCLE
  5
451
100
AcDbEntity
  8
0
100
AcDbCircle
 62
9
  6
CONTINUOUS
 10
7.0209854001
 20
22.4133946097
 40
0.0687574628
  0
CIRCLE
  5
452
100
AcDbEntity
  8
0
100
AcDbCircle
 62
9
  6
CONTINUOUS
 10
7.0209854001
 20
22.4133946097
 40
0.0548379698
  0
CIRCLE
  5
453
100
AcDbEntity
  8
0
100
AcDbCircle
 62
7
  6
CONTINUOUS
 10
6.5721961233
 20
22.8476421669
 40
0.0708661417
  0
CIRCLE
  5
454
100
AcDbEntity
  8
0
100
AcDbCircle
 62
9
  6
CONTINUOUS
 10
6.5721961233
 20
22.8476421669
 40
0.0651002345
  0
CIRCLE
  5
455
100
AcDbEntity
  8
0
100
AcDbCircle
 62
9
  6
CONTINUOUS
 10
6.5721961233
 20
22.8476421669
 40
0.0569463945
  0
CIRCLE
  5
456
100
AcDbEntity
  8
0
100
AcDbCircle
 62
9
  6
CONTINUOUS
 10
6.5721961233
 20
22.8476421669
 40
0.0430269203
  0
ARC
  5
457
100
AcDbEntity
  8
0
100
AcDbCircle
 62
7
  6
CONTINUOUS
 10
6.5721121278
 20
22.8475915697
 40
0.0176203964
100
AcDbArc
 50
217.5357414987
 51
37.4642584668
  0
ARC
  5
458
100
AcDbEntity
  8
0
100
AcDbCircle
 62
7
  6
CONTINUOUS
 10
6.5721250533
 20
22.8475747088
 40
0.0176194003
100
AcDbArc
 50
37.5333449525
 51
217.4666550527
  0
CIRCLE
  5
459
100
AcDbEntity
  8
0
100
AcDbCircle
 62
7
  6
CONTINUOUS
 10
6.7548814041
 20
22.5312219786
 40
0.0708661417
  0
CIRCLE
  5
45A
100
AcDbEntity
  8
0
100
AcDbCircle
 62
9
  6
CONTINUOUS
 10
6.7548814041
 20
22.5312219786
 40
0.0651002345
  0
CIRCLE
  5
45B
100
AcDbEntity
  8
0
100
AcDbCircle
 62
9
  6
CONTINUOUS
 10
6.7548814041
 20
22.5312219786
 40
0.0569463945
  0
CIRCLE
  5
45C
100
AcDbEntity
  8
0
100
AcDbCircle
 62
9
  6
CONTINUOUS
 10
6.7548814041
 20
22.5312219786
 40
0.0430269203
  0
CIRCLE
  5
45D
100
AcDbEntity
  8
0
100
AcDbCircle
 62
7
  6
CONTINUOUS
 10
6.8597288126
 20
22.8027024503
 40
0.0826771654
  0
CIRCLE
  5
45E
100
AcDbEntity
  8
0
100
AcDbCircle
 62
9
  6
CONTINUOUS
 10
6.8597288126
 20
22.8027024503
 40
0.0769113022
  0
CIRCLE
  5
45F
100
AcDbEntity
  8
0
100
AcDbCircle
 62
9
  6
CONTINUOUS
 10
6.8597288126
 20
22.8027024503
 40
0.0687574886
  0
CIRCLE
  5
460
100
AcDbEntity
  8
0
100
AcDbCircle
 62
9
  6
CONTINUOUS
 10
6.8597288126
 20
22.8027024503
 40
0.0548380036
  0
CIRCLE
  5
461
100
AcDbEntity
  8
0
100
AcDbCircle
 62
7
  6
CONTINUOUS
 10
5.4855173266
 20
22.9008173508
 40
0.0708661417
  0
ARC
  5
462
100
AcDbEntity
  8
0
100
AcDbCircle
 62
7
  6
CONTINUOUS
 10
5.4855173266
 20
22.9008173508
 40
0.0708661417
100
AcDbArc
 50
268.5000005504
 51
88.5
  0
CIRCLE
  5
463
100
AcDbEntity
  8
0
100
AcDbCircle
 62
9
  6
CONTINUOUS
 10
5.4855173266
 20
22.9008173508
 40
0.0674067293
  0
CIRCLE
  5
464
100
AcDbEntity
  8
0
100
AcDbCircle
 62
9
  6
CONTINUOUS
 10
5.4855173266
 20
22.9008173508
 40
0.0546404342
  0
CIRCLE
  5
465
100
AcDbEntity
  8
0
100
AcDbCircle
 62
9
  6
CONTINUOUS
 10
5.4855173266
 20
22.9008173508
 40
0.0462887627
  0
CIRCLE
  5
466
100
AcDbEntity
  8
0
100
AcDbCircle
 62
7
  6
CONTINUOUS
 10
5.4855173266
 20
22.9008173508
 40
0.0295275591
  0
CIRCLE
  5
467
100
AcDbEntity
  8
0
100
AcDbCircle
 62
7
  6
CONTINUOUS
 10
5.6444990716
 20
23.3832483094
 40
0.0708661417
  0
CIRCLE
  5
468
100
AcDbEntity
  8
0
100
AcDbCircle
 62
9
  6
CONTINUOUS
 10
5.6444990716
 20
23.3832483094
 40
0.0651002345
  0
CIRCLE
  5
469
100
AcDbEntity
  8
0
100
AcDbCircle
 62
9
  6
CONTINUOUS
 10
5.6444990716
 20
23.3832483094
 40
0.0569463945
  0
CIRCLE
  5
46A
100
AcDbEntity
  8
0
100
AcDbCircle
 62
9
  6
CONTINUOUS
 10
5.6444990716
 20
23.3832483094
 40
0.0430269203
  0
CIRCLE
  5
46B
100
AcDbEntity
  8
0
100
AcDbCircle
 62
7
  6
CONTINUOUS
 10
5.4618137907
 20
23.6097890644
 40
0.0826771654
  0
CIRCLE
  5
46C
100
AcDbEntity
  8
0
100
AcDbCircle
 62
9
  6
CONTINUOUS
 10
5.4618137907
 20
23.6097890644
 40
0.0769109535
  0
CIRCLE
  5
46D
100
AcDbEntity
  8
0
100
AcDbCircle
 62
9
  6
CONTINUOUS
 10
5.4618137907
 20
23.6097890644
 40
0.0687574628
  0
CIRCLE
  5
46E
100
AcDbEntity
  8
0
100
AcDbCircle
 62
9
  6
CONTINUOUS
 10
5.4618137907
 20
23.6097890644
 40
0.0548379698
  0
CIRCLE
  5
46F
100
AcDbEntity
  8
0
100
AcDbCircle
 62
7
  6
CONTINUOUS
 10
5.9974199333
 20
23.2886834495
 40
0.0708661417
  0
CIRCLE
  5
470
100
AcDbEntity
  8
0
100
AcDbCircle
 62
9
  6
CONTINUOUS
 10
5.9974199333
 20
23.2886834495
 40
0.0651002345
  0
CIRCLE
  5
471
100
AcDbEntity
  8
0
100
AcDbCircle
 62
9
  6
CONTINUOUS
 10
5.9974199333
 20
23.2886834495
 40
0.0569463945
  0
CIRCLE
  5
472
100
AcDbEntity
  8
0
100
AcDbCircle
 62
9
  6
CONTINUOUS
 10
5.9974199333
 20
23.2886834495
 40
0.0430269203
  0
ARC
  5
473
100
AcDbEntity
  8
0
100
AcDbCircle
 62
7
  6
CONTINUOUS
 10
5.9973724896
 20
23.2885976333
 40
0.0176203964
100
AcDbArc
 50
247.5357415817
 51
67.4642583845
  0
ARC
  5
474
100
AcDbEntity
  8
0
100
AcDbCircle
 62
7
  6
CONTINUOUS
 10
5.9973921139
 20
23.2885894941
 40
0.0176194003
100
AcDbArc
 50
67.5333449442
 51
247.4666550617
  0
CIRCLE
  5
475
100
AcDbEntity
  8
0
100
AcDbCircle
 62
7
  6
CONTINUOUS
 10
5.8795925643
 20
23.5547874455
 40
0.0826771654
  0
CIRCLE
  5
476
100
AcDbEntity
  8
0
100
AcDbCircle
 62
9
  6
CONTINUOUS
 10
5.8795925643
 20
23.5547874455
 40
0.0769109535
  0
CIRCLE
  5
477
100
AcDbEntity
  8
0
100
AcDbCircle
 62
9
  6
CONTINUOUS
 10
5.8795925643
 20
23.5547874455
 40
0.0687574628
  0
CIRCLE
  5
478
100
AcDbEntity
  8
0
100
AcDbCircle
 62
9
  6
CONTINUOUS
 10
5.8795925643
 20
23.5547874455
 40
0.0548379698
  0
CIRCLE
  5
479
100
AcDbEntity
  8
0
100
AcDbCircle
 62
7
  6
CONTINUOUS
 10
6.6032066265
 20
23.1370086719
 40
0.0826771654
  0
CIRCLE
  5
47A
100
AcDbEntity
  8
0
100
AcDbCircle
 62
9
  6
CONTINUOUS
 10
6.6032066265
 20
23.1370086719
 40
0.0769109535
  0
CIRCLE
  5
47B
100
AcDbEntity
  8
0
100
AcDbCircle
 62
7
  6
CONTINUOUS
 10
6.3138401215
 20
23.1059981687
 40
0.0708661417
  0
CIRCLE
  5
47C
100
AcDbEntity
  8
0
100
AcDbCircle
 62
9
  6
CONTINUOUS
 10
6.6032066265
 20
23.1370086719
 40
0.0687574628
  0
CIRCLE
  5
47D
100
AcDbEntity
  8
0
100
AcDbCircle
 62
9
  6
CONTINUOUS
 10
6.3138401215
 20
23.1059981687
 40
0.0651002345
  0
CIRCLE
  5
47E
100
AcDbEntity
  8
0
100
AcDbCircle
 62
9
  6
CONTINUOUS
 10
6.3138401215
 20
23.1059981687
 40
0.0569463945
  0
CIRCLE
  5
47F
100
AcDbEntity
  8
0
100
AcDbCircle
 62
9
  6
CONTINUOUS
 10
6.6032066265
 20
23.1370086719
 40
0.0548379698
  0
CIRCLE
  5
480
100
AcDbEntity
  8
0
100
AcDbCircle
 62
9
  6
CONTINUOUS
 10
6.3138401215
 20
23.1059981687
 40
0.0430269203
  0
CIRCLE
  5
481
100
AcDbEntity
  8
0
100
AcDbCircle
 62
7
  6
CONTINUOUS
 10
6.2689004049
 20
23.393530858
 40
0.0826771654
  0
CIRCLE
  5
482
100
AcDbEntity
  8
0
100
AcDbCircle
 62
9
  6
CONTINUOUS
 10
6.2689004049
 20
23.393530858
 40
0.0769109535
  0
CIRCLE
  5
483
100
AcDbEntity
  8
0
100
AcDbCircle
 62
9
  6
CONTINUOUS
 10
6.2689004049
 20
23.393530858
 40
0.0687574628
  0
CIRCLE
  5
484
100
AcDbEntity
  8
0
100
AcDbCircle
 62
9
  6
CONTINUOUS
 10
6.2689004049
 20
23.393530858
 40
0.0548379698
  0
ARC
  5
485
100
AcDbEntity
  8
0
100
AcDbCircle
 62
9
  6
CONTINUOUS
 10
34.9197307627
 20
-32.7616022105
 40
62.1408708811
100
AcDbArc
 50
119.9966189927
 51
120.193532084
  0
ARC
  5
486
100
AcDbEntity
  8
0
100
AcDbCircle
 62
9
  6
CONTINUOUS
 10
34.9195812334
 20
-32.761344564
 40
62.1405729875
100
AcDbArc
 50
119.9966264532
 51
120.1935323914
  0
ARC
  5
487
100
AcDbEntity
  8
0
100
AcDbCircle
 62
9
  6
CONTINUOUS
 10
27.2186457316
 20
-19.4235460658
 40
46.6723066357
100
AcDbArc
 50
119.9913600725
 51
120.2033691435
  0
ARC
  5
488
100
AcDbEntity
  8
0
100
AcDbCircle
 62
9
  6
CONTINUOUS
 10
27.2186286654
 20
-19.4235165195
 40
46.6722725148
100
AcDbArc
 50
119.9913600581
 51
120.2033692842
  0
ARC
  5
489
100
AcDbEntity
  8
0
100
AcDbCircle
 62
9
  6
CONTINUOUS
 10
26.6948254501
 20
-18.6978653611
 40
45.9358348329
100
AcDbArc
 50
119.8779797699
 51
120.0926475921
  0
ARC
  5
48A
100
AcDbEntity
  8
0
100
AcDbCircle
 62
9
  6
CONTINUOUS
 10
26.6894490341
 20
-18.6885470051
 40
45.9250767132
100
AcDbArc
 50
119.87795501
 51
120.0926709128
  0
ARC
  5
48B
100
AcDbEntity
  8
0
100
AcDbCircle
 62
9
  6
CONTINUOUS
 10
8.6927148796
 20
13.6171691558
 40
8.8601835187
100
AcDbArc
 50
120.0157904175
 51
120.1523908627
  0
ARC
  5
48C
100
AcDbEntity
  8
0
100
AcDbCircle
 62
9
  6
CONTINUOUS
 10
8.691778932
 20
13.6187799605
 40
8.8583205369
100
AcDbArc
 50
120.0158226889
 51
120.1523895879
  0
ARC
  5
48D
100
AcDbEntity
  8
0
100
AcDbCircle
 62
9
  6
CONTINUOUS
 10
15.5260245536
 20
-5.2641855921
 40
0.8677331275
100
AcDbArc
 50
345.0421253211
 51
345.7391216212
  0
ARC
  5
48E
100
AcDbEntity
  8
0
100
AcDbCircle
 62
7
  6
CONTINUOUS
 10
11.0915331688
 20
14.0306361026
 40
0.223
100
AcDbArc
 50
122.5461444331
 51
139.9318684547
  0
ARC
  5
48F
100
AcDbEntity
  8
0
100
AcDbCircle
 62
7
  6
CONTINUOUS
 10
11.0915331688
 20
13.8965955696
 40
0.223
100
AcDbArc
 50
220.0681315453
 51
237.4538555669
  0
ARC
  5
490
100
AcDbEntity
  8
0
100
AcDbCircle
 62
7
  6
CONTINUOUS
 10
10.8535395711
 20
14.5021158361
 40
0.1
100
AcDbArc
 50
270.0
 51
360.0
  0
ARC
  5
491
100
AcDbEntity
  8
0
100
AcDbCircle
 62
7
  6
CONTINUOUS
 10
11.9635395711
 20
14.5021158361
 40
0.1
100
AcDbArc
 50
180.0
 51
270.0
  0
ARC
  5
492
100
AcDbEntity
  8
0
100
AcDbCircle
 62
7
  6
CONTINUOUS
 10
11.8260228735
 20
14.120054272
 40
0.0888682923
100
AcDbArc
 50
101.2135806374
 51
102.971755676
  0
ARC
  5
493
100
AcDbEntity
  8
0
100
AcDbCircle
 62
7
  6
CONTINUOUS
 10
25.0168144129
 20
17.0056158361
 40
20.175
100
AcDbArc
 50
174.9244926841
 51
185.0755073159
  0
ARC
  5
494
100
AcDbEntity
  8
0
100
AcDbCircle
 62
7
  6
CONTINUOUS
 10
11.4085395711
 20
15.8021158361
 40
1.0
100
AcDbArc
 50
297.1347694181
 51
242.8707124951
  0
ARC
  5
495
100
AcDbEntity
  8
0
100
AcDbCircle
 62
9
  6
CONTINUOUS
 10
11.4085395711
 20
15.8021158361
 40
0.8699999967
100
AcDbArc
 50
301.6002843921
 51
238.4107242372
  0
ARC
  5
496
100
AcDbEntity
  8
0
100
AcDbCircle
 62
7
  6
CONTINUOUS
 10
11.4085395711
 20
15.8021158361
 40
0.832
100
AcDbArc
 50
303.2521025349
 51
236.7493586343
  0
ARC
  5
497
100
AcDbEntity
  8
0
100
AcDbCircle
 62
7
  6
CONTINUOUS
 10
11.4085395711
 20
15.8021158361
 40
0.8
100
AcDbArc
 50
306.8698976458
 51
233.1301023542
  0
SPLINE
  5
498
100
AcDbEntity
  8
0
100
AcDbSpline
 62
9
  6
CONTINUOUS
 70
0
 71
3
 72
17
 73
13
 74
0
 42
0.0000001
 43
0.0000001
 44
0.0000000001
 40
0.0
 40
0.0
 40
0.0
 40
0.0
 40
0.0886368503
 40
0.186980495
 40
0.2407896237
 40
0.2978339368
 40
0.421491409
 40
0.4883405749
 40
0.5580530707
 40
0.70344779
 40
0.8526880944
 40
1.0
 40
1.0
 40
1.0
 40
1.0
 10
5.7868137907
 20
14.8564612196
 30
0.0
 10
5.7868138235
 20
14.857464733
 30
0.0
 10
5.7870624671
 20
14.8595886304
 30
0.0
 10
5.7880163455
 20
14.862171301
 30
0.0
 10
5.7892127294
 20
14.8642205805
 30
0.0
 10
5.7908019298
 20
14.866353307
 30
0.0
 10
5.7928448538
 20
14.8683088692
 30
0.0
 10
5.7952604343
 20
14.8700012653
 30
0.0
 10
5.7980378614
 20
14.8715828731
 30
0.0
 10
5.8018809522
 20
14.8731430987
 30
0.0
 10
5.8067842184
 20
14.8742310897
 30
0.0
 10
5.8101459803
 20
14.8744796956
 30
0.0
 10
5.8118137907
 20
14.8744796956
 30
0.0
  0
SPLINE
  5
499
100
AcDbEntity
  8
0
100
AcDbSpline
 62
9
  6
CONTINUOUS
 70
0
 71
3
 72
10
 73
6
 74
0
 42
0.0000001
 43
0.0000001
 44
0.0000000001
 40
0.0
 40
0.0
 40
0.0
 40
0.0
 40
0.5318531939
 40
0.7750802999
 40
1.0
 40
1.0
 40
1.0
 40
1.0
 10
5.8118137907
 20
14.874479866
 30
0.0
 10
5.8139692599
 20
14.874479866
 30
0.0
 10
5.817121711
 20
14.8741817027
 30
0.0
 10
5.8210671759
 20
14.8732415037
 30
0.0
 10
5.8228692454
 20
14.8726372248
 30
0.0
 10
5.8237184012
 20
14.8723057936
 30
0.0
  0
SPLINE
  5
49A
100
AcDbEntity
  8
0
100
AcDbSpline
 62
9
  6
CONTINUOUS
 70
0
 71
3
 72
17
 73
13
 74
0
 42
0.0000001
 43
0.0000001
 44
0.0000000001
 40
0.0
 40
0.0
 40
0.0
 40
0.0
 40
0.088636904
 40
0.1869805934
 40
0.2407897378
 40
0.2978340608
 40
0.4214915345
 40
0.4883406938
 40
0.5580531789
 40
0.703447867
 40
0.8526881338
 40
1.0
 40
1.0
 40
1.0
 40
1.0
 10
5.1368137907
 20
13.9247704695
 30
0.0
 10
5.1368137592
 20
13.9237669544
 30
0.0
 10
5.1365651183
 20
13.9216430531
 30
0.0
 10
5.1356112429
 20
13.9190603768
 30
0.0
 10
5.1344148608
 20
13.9170110922
 30
0.0
 10
5.1328256621
 20
13.9148783603
 30
0.0
 10
5.1307827389
 20
13.9129227926
 30
0.0
 10
5.1283671581
 20
13.9112303915
 30
0.0
 10
5.1255897302
 20
13.9096487788
 30
0.0
 10
5.1217466373
 20
13.9080885481
 30
0.0
 10
5.1168433673
 20
13.9070005535
 30
0.0
 10
5.1134816026
 20
13.9067519468
 30
0.0
 10
5.1118137907
 20
13.9067519468
 30
0.0
  0
SPLINE
  5
49B
100
AcDbEntity
  8
0
100
AcDbSpline
 62
9
  6
CONTINUOUS
 70
0
 71
3
 72
10
 73
6
 74
0
 42
0.0000001
 43
0.0000001
 44
0.0000000001
 40
0.0
 40
0.0
 40
0.0
 40
0.0
 40
0.5318532062
 40
0.7750803099
 40
1.0
 40
1.0
 40
1.0
 40
1.0
 10
5.1118137907
 20
13.9067517855
 30
0.0
 10
5.1096583192
 20
13.9067517855
 30
0.0
 10
5.1065058647
 20
13.9070499499
 30
0.0
 10
5.1025603961
 20
13.9079901522
 30
0.0
 10
5.1007583252
 20
13.9085944332
 30
0.0
 10
5.0999091689
 20
13.9089258654
 30
0.0
  0
SPLINE
  5
49C
100
AcDbEntity
  8
0
100
AcDbSpline
 62
9
  6
CONTINUOUS
 70
0
 71
3
 72
16
 73
12
 74
0
 42
0.0000001
 43
0.0000001
 44
0.0000000001
 40
0.0
 40
0.0
 40
0.0
 40
0.0
 40
0.1870410516
 40
0.3557530665
 40
0.5051038896
 40
0.6351617849
 40
0.746765813
 40
0.8419306158
 40
0.9243087689
 40
0.9625720469
 40
1.0
 40
1.0
 40
1.0
 40
1.0
 10
5.0999090289
 20
14.8723059769
 30
0.0
 10
5.1002499888
 20
14.8737054165
 30
0.0
 10
5.1009675321
 20
14.8763512602
 30
0.0
 10
5.1022252891
 20
14.8800354047
 30
0.0
 10
5.1035997971
 20
14.8832057615
 30
0.0
 10
5.1050731062
 20
14.8858393064
 30
0.0
 10
5.1066350349
 20
14.8879229537
 30
0.0
 10
5.1082776806
 20
14.8894487526
 30
0.0
 10
5.1097589513
 20
14.8902566851
 30
0.0
 10
5.1109416181
 20
14.8905654195
 30
0.0
 10
5.1115257244
 20
14.890615873
 30
0.0
 10
5.1118139517
 20
14.8906158361
 30
0.0
  0
SPLINE
  5
49D
100
AcDbEntity
  8
0
100
AcDbSpline
 62
9
  6
CONTINUOUS
 70
0
 71
3
 72
17
 73
13
 74
0
 42
0.0000001
 43
0.0000001
 44
0.0000000001
 40
0.0
 40
0.0
 40
0.0
 40
0.0
 40
0.0886364796
 40
0.1869797829
 40
0.2407887746
 40
0.297832983
 40
0.421490366
 40
0.4883395537
 40
0.5580521135
 40
0.7034470699
 40
0.8526877148
 40
1.0
 40
1.0
 40
1.0
 40
1.0
 10
5.1368137907
 20
14.8564610987
 30
0.0
 10
5.1368137581
 20
14.8574646053
 30
0.0
 10
5.1365651146
 20
14.8595884894
 30
0.0
 10
5.1356112361
 20
14.8621711425
 30
0.0
 10
5.1344148526
 20
14.8642204075
 30
0.0
 10
5.1328256516
 20
14.8663531206
 30
0.0
 10
5.1307827273
 20
14.8683086693
 30
0.0
 10
5.1283671476
 20
14.8700010533
 30
0.0
 10
5.1255897197
 20
14.8715826507
 30
0.0
 10
5.1217466284
 20
14.8731428658
 30
0.0
 10
5.1168433626
 20
14.874230849
 30
0.0
 10
5.1134816012
 20
14.8744794532
 30
0.0
 10
5.1118137907
 20
14.8744794532
 30
0.0
  0
SPLINE
  5
49E
100
AcDbEntity
  8
0
100
AcDbSpline
 62
9
  6
CONTINUOUS
 70
0
 71
3
 72
10
 73
6
 74
0
 42
0.0000001
 43
0.0000001
 44
0.0000000001
 40
0.0
 40
0.0
 40
0.0
 40
0.0
 40
0.5318533403
 40
0.7750804051
 40
1.0
 40
1.0
 40
1.0
 40
1.0
 10
5.1118137907
 20
14.8744794532
 30
0.0
 10
5.1096583221
 20
14.8744794532
 30
0.0
 10
5.1065058725
 20
14.8741812936
 30
0.0
 10
5.1025604073
 20
14.8732411053
 30
0.0
 10
5.1007583373
 20
14.8726368333
 30
0.0
 10
5.0999091811
 20
14.8723054059
 30
0.0
  0
SPLINE
  5
49F
100
AcDbEntity
  8
0
100
AcDbSpline
 62
9
  6
CONTINUOUS
 70
0
 71
3
 72
16
 73
12
 74
0
 42
0.0000001
 43
0.0000001
 44
0.0000000001
 40
0.0
 40
0.0
 40
0.0
 40
0.0
 40
0.1870435062
 40
0.3557609937
 40
0.5051113343
 40
0.6351630241
 40
0.7467588378
 40
0.8419195302
 40
0.9243034444
 40
0.96257046
 40
1.0
 40
1.0
 40
1.0
 40
1.0
 10
5.8237185525
 20
14.8723059769
 30
0.0
 10
5.8233775866
 20
14.8737054368
 30
0.0
 10
5.8226599336
 20
14.8763513217
 30
0.0
 10
5.8214020103
 20
14.8800354732
 30
0.0
 10
5.8200275402
 20
14.8832058374
 30
0.0
 10
5.8185544059
 20
14.8858393487
 30
0.0
 10
5.8169927196
 20
14.8879230024
 30
0.0
 10
5.8153501381
 20
14.8894488242
 30
0.0
 10
5.8138687733
 20
14.8902566865
 30
0.0
 10
5.8126860171
 20
14.8905654131
 30
0.0
 10
5.8121018695
 20
14.8906158728
 30
0.0
 10
5.8118136294
 20
14.8906158361
 30
0.0
  0
SPLINE
  5
4A0
100
AcDbEntity
  8
0
100
AcDbSpline
 62
9
  6
CONTINUOUS
 70
0
 71
3
 72
16
 73
12
 74
0
 42
0.0000001
 43
0.0000001
 44
0.0000000001
 40
0.0
 40
0.0
 40
0.0
 40
0.0
 40
0.1870409159
 40
0.3557520207
 40
0.5051059241
 40
0.635167381
 40
0.7467702898
 40
0.841931172
 40
0.9243069066
 40
0.9625704386
 40
1.0
 40
1.0
 40
1.0
 40
1.0
 10
5.8237185525
 20
13.9089256953
 30
0.0
 10
5.8233775696
 20
13.9075262645
 30
0.0
 10
5.8226600697
 20
13.9048804244
 30
0.0
 10
5.8214023887
 20
13.9011962391
 30
0.0
 10
5.8200277428
 20
13.8980258935
 30
0.0
 10
5.8185543073
 20
13.8953923803
 30
0.0
 10
5.8169924257
 20
13.8933087249
 30
0.0
 10
5.8153498762
 20
13.8917829104
 30
0.0
 10
5.8138686552
 20
13.8909749828
 30
0.0
 10
5.8126859931
 20
13.8906662527
 30
0.0
 10
5.8121018733
 20
13.8906158001
 30
0.0
 10
5.8118136339
 20
13.8906158361
 30
0.0
  0
SPLINE
  5
4A1
100
AcDbEntity
  8
0
100
AcDbSpline
 62
9
  6
CONTINUOUS
 70
0
 71
3
 72
17
 73
13
 74
0
 42
0.0000001
 43
0.0000001
 44
0.0000000001
 40
0.0
 40
0.0
 40
0.0
 40
0.0
 40
0.0886365522
 40
0.1869799175
 40
0.2407889318
 40
0.2978331555
 40
0.4214905444
 40
0.4883397243
 40
0.5580522702
 40
0.7034471833
 40
0.8526877734
 40
1.0
 40
1.0
 40
1.0
 40
1.0
 10
5.7868137907
 20
13.9247705839
 30
0.0
 10
5.786813822
 20
13.9237670752
 30
0.0
 10
5.7870624628
 20
13.9216431866
 30
0.0
 10
5.7880163383
 20
13.9190605268
 30
0.0
 10
5.78921272
 20
13.9170112559
 30
0.0
 10
5.7908019193
 20
13.9148785368
 30
0.0
 10
5.7928448427
 20
13.9129229818
 30
0.0
 10
5.7952604227
 20
13.9112305921
 30
0.0
 10
5.7980378513
 20
13.9096489892
 30
0.0
 10
5.8018809448
 20
13.9080887685
 30
0.0
 10
5.8067842144
 20
13.9070007812
 30
0.0
 10
5.8101459788
 20
13.9067521761
 30
0.0
 10
5.8118137907
 20
13.9067521761
 30
0.0
  0
SPLINE
  5
4A2
100
AcDbEntity
  8
0
100
AcDbSpline
 62
9
  6
CONTINUOUS
 70
0
 71
3
 72
10
 73
6
 74
0
 42
0.0000001
 43
0.0000001
 44
0.0000000001
 40
0.0
 40
0.0
 40
0.0
 40
0.0
 40
0.5318533454
 40
0.77508041
 40
1.0
 40
1.0
 40
1.0
 40
1.0
 10
5.8118137907
 20
13.906752176
 30
0.0
 10
5.8139692617
 20
13.906752176
 30
0.0
 10
5.8171217148
 20
13.907050337
 30
0.0
 10
5.8210671837
 20
13.9079905291
 30
0.0
 10
5.8228692551
 20
13.9085948036
 30
0.0
 10
5.8237184119
 20
13.9089262322
 30
0.0
  0
SPLINE
  5
4A3
100
AcDbEntity
  8
0
100
AcDbSpline
 62
9
  6
CONTINUOUS
 70
0
 71
3
 72
16
 73
12
 74
0
 42
0.0000001
 43
0.0000001
 44
0.0000000001
 40
0.0
 40
0.0
 40
0.0
 40
0.0
 40
0.1870434448
 40
0.3557600734
 40
0.5051134351
 40
0.6351686105
 40
0.7467632714
 40
0.8419200313
 40
0.9243015462
 40
0.962568834
 40
1.0
 40
1.0
 40
1.0
 40
1.0
 10
5.0999090289
 20
13.9089256953
 30
0.0
 10
5.1002500176
 20
13.9075262435
 30
0.0
 10
5.10096763
 20
13.904880362
 30
0.0
 10
5.1022254813
 20
13.9011961709
 30
0.0
 10
5.1036000865
 20
13.8980258176
 30
0.0
 10
5.1050733442
 20
13.895392338
 30
0.0
 10
5.1066349822
 20
13.8933086763
 30
0.0
 10
5.108277467
 20
13.8917828388
 30
0.0
 10
5.1097587823
 20
13.8909749814
 30
0.0
 10
5.1109415343
 20
13.8906662591
 30
0.0
 10
5.1115256957
 20
13.8906158004
 30
0.0
 10
5.1118139478
 20
13.8906158361
 30
0.0
  0
SPLINE
  5
4A4
100
AcDbEntity
  8
0
100
AcDbSpline
 62
7
  6
CONTINUOUS
 70
0
 71
3
 72
11
 73
7
 74
0
 42
0.0000001
 43
0.0000001
 44
0.0000000001
 40
0.0
 40
0.0
 40
0.0
 40
0.0
 40
0.3170093114
 40
0.589697754
 40
0.8175217031
 40
1.0
 40
1.0
 40
1.0
 40
1.0
 10
5.1165281097
 20
14.9306158361
 30
0.0
 10
5.1144456218
 20
14.9304403656
 30
0.0
 10
5.1105734333
 20
14.9300939457
 30
0.0
 10
5.1052125933
 20
14.9295362727
 30
0.0
 10
5.1007440798
 20
14.9289814151
 30
0.0
 10
5.0980695988
 20
14.928571288
 30
0.0
 10
5.0968858725
 20
14.9283569293
 30
0.0
  0
SPLINE
  5
4A5
100
AcDbEntity
  8
0
100
AcDbSpline
 62
7
  6
CONTINUOUS
 70
0
 71
3
 72
23
 73
19
 74
0
 42
0.0000001
 43
0.0000001
 44
0.0000000001
 40
0.0
 40
0.0
 40
0.0
 40
0.0
 40
0.0084450332
 40
0.0188206001
 40
0.0311286246
 40
0.0453387223
 40
0.0614074262
 40
0.0792904115
 40
0.1203194659
 40
0.1680643307
 40
0.2221606768
 40
0.2822429067
 40
0.3479095074
 40
0.4185830646
 40
0.4936312738
 40
0.6543212865
 40
0.8249063153
 40
1.0
 40
1.0
 40
1.0
 40
1.0
 10
5.8267839962
 20
14.9068746157
 30
0.0
 10
5.8257316903
 20
14.9066833296
 30
0.0
 10
5.8233760459
 20
14.9063150572
 30
0.0
 10
5.8194652901
 20
14.9058147541
 30
0.0
 10
5.8148195337
 20
14.9053129684
 30
0.0
 10
5.8094494066
 20
14.9048095336
 30
0.0
 10
5.8033706065
 20
14.9043049132
 30
0.0
 10
5.7939006593
 20
14.903598233
 30
0.0
 10
5.780420293
 20
14.9027307624
 30
0.0
 10
5.762353754
 20
14.9017264745
 30
0.0
 10
5.7418710319
 20
14.9007193422
 30
0.0
 10
5.7191162206
 20
14.8997101654
 30
0.0
 10
5.6942600618
 20
14.898700966
 30
0.0
 10
5.6675070966
 20
14.8976905793
 30
0.0
 10
5.6287250399
 20
14.8963105223
 30
0.0
 10
5.5772928593
 20
14.8946100968
 30
0.0
 10
5.5131932481
 20
14.8926093111
 30
0.0
 10
5.4694338122
 20
14.8912781269
 30
0.0
 10
5.447268794
 20
14.8906014209
 30
0.0
  0
SPLINE
  5
4A6
100
AcDbEntity
  8
0
100
AcDbSpline
 62
7
  6
CONTINUOUS
 70
0
 71
3
 72
25
 73
21
 74
0
 42
0.0000001
 43
0.0000001
 44
0.0000000001
 40
0.0
 40
0.0
 40
0.0
 40
0.0
 40
0.0186087425
 40
0.0395086241
 40
0.0625902354
 40
0.0877408734
 40
0.1437787916
 40
0.2065677931
 40
0.274916821
 40
0.347532057
 40
0.4230370524
 40
0.5000007964
 40
0.6524690812
 40
0.7250839524
 40
0.7934326628
 40
0.8562214632
 40
0.912259207
 40
0.9604915067
 40
0.9813917566
 40
1.0
 40
1.0
 40
1.0
 40
1.0
 10
5.8268137907
 20
14.9258261397
 30
0.0
 10
5.8222916421
 20
14.9255446611
 30
0.0
 10
5.8126874639
 20
14.9249968793
 30
0.0
 10
5.7974671006
 20
14.9242299237
 30
0.0
 10
5.7806522894
 20
14.9234584396
 30
0.0
 10
5.7552870135
 20
14.9223847729
 30
0.0
 10
5.7202556537
 20
14.9210661555
 30
0.0
 10
5.6747074152
 20
14.9195310271
 30
0.0
 10
5.6251209333
 20
14.9179917297
 30
0.0
 10
5.5724370015
 20
14.9164508552
 30
0.0
 10
5.5176547228
 20
14.9149086357
 30
0.0
 10
5.4434362694
 20
14.9128578624
 30
0.0
 10
5.3699211606
 20
14.9108285561
 30
0.0
 10
5.2985061938
 20
14.9087397669
 30
0.0
 10
5.2489199181
 20
14.9072010689
 30
0.0
 10
5.2033718484
 20
14.9056649401
 30
0.0
 10
5.1627246624
 20
14.9041348026
 30
0.0
 10
5.1322762078
 20
14.9028129936
 30
0.0
 10
5.1109405407
 20
14.9017242906
 30
0.0
 10
5.1013362971
 20
14.9011792001
 30
0.0
 10
5.0968137907
 20
14.9009055325
 30
0.0
  0
SPLINE
  5
4A7
100
AcDbEntity
  8
0
100
AcDbSpline
 62
7
  6
CONTINUOUS
 70
0
 71
3
 72
24
 73
20
 74
0
 42
0.0000001
 43
0.0000001
 44
0.0000000001
 40
0.0
 40
0.0
 40
0.0
 40
0.0
 40
0.0175964357
 40
0.0370666885
 40
0.0583359259
 40
0.0813275036
 40
0.1059625099
 40
0.1321609659
 40
0.1888816702
 40
0.250709039
 40
0.3167937357
 40
0.3862285671
 40
0.4580601856
 40
0.6049475356
 40
0.7494121217
 40
0.8182472776
 40
0.8835401432
 40
0.9444122199
 40
1.0
 40
1.0
 40
1.0
 40
1.0
 10
5.0968137907
 20
14.9094048096
 30
0.0
 10
5.1006267412
 20
14.9096461568
 30
0.0
 10
5.1086613093
 20
14.9101130577
 30
0.0
 10
5.1213106497
 20
14.9107641178
 30
0.0
 10
5.1351327596
 20
14.9114160463
 30
0.0
 10
5.1500770341
 20
14.9120761788
 30
0.0
 10
5.1660924164
 20
14.9127390159
 30
0.0
 10
5.1894272545
 20
14.913645646
 30
0.0
 10
5.2208351618
 20
14.9147635439
 30
0.0
 10
5.2609015892
 20
14.9160769708
 30
0.0
 10
5.3037298842
 20
14.917391534
 30
0.0
 10
5.3487312609
 20
14.9187069337
 30
0.0
 10
5.4112709398
 20
14.9204749202
 30
0.0
 10
5.4900965008
 20
14.9226403197
 30
0.0
 10
5.5682708026
 20
14.9248215935
 30
0.0
 10
5.6287332588
 20
14.9266040597
 30
0.0
 10
5.6710517811
 20
14.9279182904
 30
0.0
 10
5.7104925767
 20
14.9292308961
 30
0.0
 10
5.7357619985
 20
14.9301497074
 30
0.0
 10
5.7478223487
 20
14.9306158361
 30
0.0
  0
SPLINE
  5
4A8
100
AcDbEntity
  8
0
100
AcDbSpline
 62
9
  6
CONTINUOUS
 70
0
 71
3
 72
33
 73
29
 74
0
 42
0.0000001
 43
0.0000001
 44
0.0000000001
 40
0.0
 40
0.0
 40
0.0
 40
0.0
 40
0.031384176
 40
0.0627778824
 40
0.0784679514
 40
0.094153204
 40
0.1255121761
 40
0.156862582
 40
0.188180941
 40
0.2194656248
 40
0.2507325923
 40
0.2819812758
 40
0.3132008532
 40
0.375511262
 40
0.4377619178
 40
0.499973912
 40
0.5621929579
 40
0.6244473384
 40
0.6867705557
 40
0.7491858509
 40
0.7804628433
 40
0.8117659335
 40
0.8430968317
 40
0.8744508281
 40
0.9058184508
 40
0.9372055253
 40
0.9686163279
 40
1.0
 40
1.0
 40
1.0
 40
1.0
 10
6.0760472009
 20
21.4500905894
 30
0.0
 10
6.0743242288
 20
21.4480376665
 30
0.0
 10
6.071048719
 20
21.4437838387
 30
0.0
 10
6.0674587001
 20
21.4381124425
 30
0.0
 10
6.0649447329
 20
21.4333756735
 30
0.0
 10
6.0626812381
 20
21.4285177016
 30
0.0
 10
6.0603144689
 20
21.4222427628
 30
0.0
 10
6.0582083975
 20
21.4144822477
 30
0.0
 10
6.0568367207
 20
21.4065648333
 30
0.0
 10
6.0562318916
 20
21.398558466
 30
0.0
 10
6.0564223186
 20
21.390537464
 30
0.0
 10
6.0573975537
 20
21.3825788096
 30
0.0
 10
6.0597301262
 20
21.3721666112
 30
0.0
 10
6.0645260498
 20
21.3596633016
 30
0.0
 10
6.072990536
 20
21.346031266
 30
0.0
 10
6.0839447405
 20
21.3343070872
 30
0.0
 10
6.096950703
 20
21.3249173376
 30
0.0
 10
6.1115221613
 20
21.3181855849
 30
0.0
 10
6.1271287376
 20
21.3143674044
 30
0.0
 10
6.1405309484
 20
21.3137647505
 30
0.0
 10
6.1511644248
 20
21.3148448889
 30
0.0
 10
6.1590396323
 20
21.3164286134
 30
0.0
 10
6.1667319694
 20
21.3187622384
 30
0.0
 10
6.1741699135
 20
21.3218263673
 30
0.0
 10
6.181279357
 20
21.3256020515
 30
0.0
 10
6.1879768048
 20
21.3300779854
 30
0.0
 10
6.1941972326
 20
21.3351950505
 30
0.0
 10
6.1980138312
 20
21.3389739664
 30
0.0
 10
6.1998335917
 20
21.3409415452
 30
0.0
  0
SPLINE
  5
4A9
100
AcDbEntity
  8
0
100
AcDbSpline
 62
9
  6
CONTINUOUS
 70
0
 71
3
 72
33
 73
29
 74
0
 42
0.0000001
 43
0.0000001
 44
0.0000000001
 40
0.0
 40
0.0
 40
0.0
 40
0.0
 40
0.0627042609
 40
0.0940955095
 40
0.1254565994
 40
0.156795259
 40
0.1881171153
 40
0.2194188152
 40
0.2506949403
 40
0.2819464453
 40
0.313173334
 40
0.3754875274
 40
0.4377350068
 40
0.4688808465
 40
0.5000225936
 40
0.5311651559
 40
0.5623126969
 40
0.6245670565
 40
0.6868825478
 40
0.7181076934
 40
0.7493568176
 40
0.7806291592
 40
0.8119259338
 40
0.8432441537
 40
0.8745804591
 40
0.9059370816
 40
0.9373192445
 40
1.0
 40
1.0
 40
1.0
 40
1.0
 10
6.3112308306
 20
22.4973931422
 30
0.0
 10
6.3084227547
 20
22.5019933134
 30
0.0
 10
6.3035170097
 20
22.5085084051
 30
0.0
 10
6.295830892
 20
22.5160882842
 30
0.0
 10
6.2895329827
 20
22.5211840875
 30
0.0
 10
6.2827734881
 20
22.525636232
 30
0.0
 10
6.2756142236
 20
22.5294017144
 30
0.0
 10
6.2681278155
 20
22.5324511635
 30
0.0
 10
6.2603846105
 20
22.5347511194
 30
0.0
 10
6.2524596729
 20
22.5362830696
 30
0.0
 10
6.2417664184
 20
22.5372869938
 30
0.0
 10
6.2283039393
 20
22.536577316
 30
0.0
 10
6.2152428456
 20
22.5332691379
 30
0.0
 10
6.2053450295
 20
22.5291566535
 30
0.0
 10
6.1982533504
 20
22.5253610288
 30
0.0
 10
6.1915628407
 20
22.5208958647
 30
0.0
 10
6.1832689522
 20
22.5141055528
 30
0.0
 10
6.1741945285
 20
22.5041448137
 30
0.0
 10
6.1672212837
 20
22.4926069854
 30
0.0
 10
6.1630624052
 20
22.4827048222
 30
0.0
 10
6.1606769311
 20
22.4749944413
 30
0.0
 10
6.1590522165
 20
22.4670829819
 30
0.0
 10
6.1582102505
 20
22.4590443214
 30
0.0
 10
6.1581539033
 20
22.4509563791
 30
0.0
 10
6.1588898295
 20
22.4428968606
 30
0.0
 10
6.1604114442
 20
22.4349411198
 30
0.0
 10
6.163472452
 20
22.4245921242
 30
0.0
 10
6.1669046822
 20
22.4171987718
 30
0.0
 10
6.1696261944
 20
22.4125492059
 30
0.0
  0
SPLINE
  5
4AA
100
AcDbEntity
  8
0
100
AcDbSpline
 62
9
  6
CONTINUOUS
 70
0
 71
3
 72
32
 73
28
 74
0
 42
0.0000001
 43
0.0000001
 44
0.0000000001
 40
0.0
 40
0.0
 40
0.0
 40
0.0
 40
0.0313954855
 40
0.0627987833
 40
0.0784926832
 40
0.0941815191
 40
0.125550402
 40
0.1569188236
 40
0.1882613153
 40
0.2195681883
 40
0.2508507735
 40
0.313304674
 40
0.3756683574
 40
0.4379783408
 40
0.4691418715
 40
0.5002966407
 40
0.5314507203
 40
0.5626051484
 40
0.6248623748
 40
0.6871649243
 40
0.718371172
 40
0.7495975049
 40
0.8120548791
 40
0.8433451515
 40
0.8746597972
 40
0.9372997038
 40
1.0
 40
1.0
 40
1.0
 40
1.0
 10
6.1704623197
 20
22.4111983564
 30
0.0
 10
6.1717866884
 20
22.4090952608
 30
0.0
 10
6.1745908611
 20
22.4049835919
 30
0.0
 10
6.1785069925
 20
22.4001483936
 30
0.0
 10
6.1818970459
 20
22.3965111876
 30
0.0
 10
6.1854591102
 20
22.3930462827
 30
0.0
 10
6.1902143988
 20
22.3890396089
 30
0.0
 10
6.1963284975
 20
22.3847705566
 30
0.0
 10
6.2027849419
 20
22.3810495502
 30
0.0
 10
6.2095383288
 20
22.3779127588
 30
0.0
 10
6.218866866
 20
22.3745682947
 30
0.0
 10
6.2310339737
 20
22.3720098199
 30
0.0
 10
6.245918983
 20
22.3716383989
 30
0.0
 10
6.2581824649
 20
22.3735193389
 30
0.0
 10
6.2676597607
 20
22.3763003055
 30
0.0
 10
6.2745519953
 20
22.3790217325
 30
0.0
 10
6.2811693265
 20
22.3823542287
 30
0.0
 10
6.2895532407
 20
22.3875665991
 30
0.0
 10
6.2991064291
 20
22.3954677117
 30
0.0
 10
6.3071055117
 20
22.4049430484
 30
0.0
 10
6.3124159295
 20
22.4132820383
 30
0.0
 10
6.3169594365
 20
22.4220748055
 30
0.0
 10
6.3202938661
 20
22.4314574006
 30
0.0
 10
6.3223173941
 20
22.441159602
 30
0.0
 10
6.3234626074
 20
22.4510201324
 30
0.0
 10
6.3232419379
 20
22.4634869324
 30
0.0
 10
6.3212761199
 20
22.4732791256
 30
0.0
 10
6.3198457557
 20
22.478032083
 30
0.0
  0
SPLINE
  5
4AB
100
AcDbEntity
  8
0
100
AcDbSpline
 62
9
  6
CONTINUOUS
 70
0
 71
3
 72
9
 73
5
 74
0
 42
0.0000001
 43
0.0000001
 44
0.0000000001
 40
0.0
 40
0.0
 40
0.0
 40
0.0
 40
0.2502221138
 40
1.0
 40
1.0
 40
1.0
 40
1.0
 10
6.3198457557
 20
22.478032083
 30
0.0
 10
6.3193963597
 20
22.4795253811
 30
0.0
 10
6.3174261845
 20
22.4854400223
 30
0.0
 10
6.3147914365
 20
22.4911287596
 30
0.0
 10
6.3125086333
 20
22.4952060251
 30
0.0
  0
SPLINE
  5
4AC
100
AcDbEntity
  8
0
100
AcDbSpline
 62
9
  6
CONTINUOUS
 70
0
 71
3
 72
36
 73
32
 74
0
 42
0.0000001
 43
0.0000001
 44
0.0000000001
 40
0.0
 40
0.0
 40
0.0
 40
0.0
 40
0.031378278
 40
0.0627650663
 40
0.0784517214
 40
0.0941339185
 40
0.1254870438
 40
0.1568313701
 40
0.1881435892
 40
0.2194225434
 40
0.2506831309
 40
0.281925202
 40
0.3131385068
 40
0.3754349949
 40
0.4376719849
 40
0.4688076455
 40
0.4999436253
 40
0.5310810261
 40
0.5622212508
 40
0.5933702363
 40
0.6245335101
 40
0.6868424488
 40
0.7492434169
 40
0.7805132834
 40
0.8118091443
 40
0.8431327923
 40
0.8744796286
 40
0.9058401112
 40
0.9372198472
 40
0.9686233308
 40
1.0
 40
1.0
 40
1.0
 40
1.0
 10
5.9258162617
 20
21.3176877546
 30
0.0
 10
5.9236500443
 20
21.3161096661
 30
0.0
 10
5.9194451367
 20
21.3127722541
 30
0.0
 10
5.9145887417
 20
21.3081393901
 30
0.0
 10
5.9110016503
 20
21.3041534985
 30
0.0
 10
5.907628608
 20
21.2999888343
 30
0.0
 10
5.9038130176
 20
21.2944736793
 30
0.0
 10
5.8998939561
 20
21.2874522045
 30
0.0
 10
5.89665222
 20
21.2800999291
 30
0.0
 10
5.894132544
 20
21.2724766452
 30
0.0
 10
5.892378285
 20
21.2646478231
 30
0.0
 10
5.8913993828
 20
21.2566899833
 30
0.0
 10
5.8911429977
 20
21.2460230543
 30
0.0
 10
5.8927719895
 20
21.2327331528
 30
0.0
 10
5.8968778127
 20
21.2199954267
 30
0.0
 10
5.9015888351
 20
21.2104449833
 30
0.0
 10
5.9058057129
 20
21.2036568715
 30
0.0
 10
5.9106583189
 20
21.1973079443
 30
0.0
 10
5.9161027242
 20
21.1914572128
 30
0.0
 10
5.9220854386
 20
21.1861539461
 30
0.0
 10
5.9307046978
 20
21.1798850731
 30
0.0
 10
5.9425658854
 20
21.1736449966
 30
0.0
 10
5.9554221388
 20
21.169820851
 30
0.0
 10
5.9660007248
 20
21.1682969095
 30
0.0
 10
5.9740246469
 20
21.1679290607
 30
0.0
 10
5.9820525349
 20
21.1683330241
 30
0.0
 10
5.9900102557
 20
21.1695072434
 30
0.0
 10
5.9978213492
 20
21.1714511731
 30
0.0
 10
6.0054021166
 20
21.1741739937
 30
0.0
 10
6.0126750433
 20
21.1776344627
 30
0.0
 10
6.0172920831
 20
21.1803778351
 30
0.0
 10
6.0195336558
 20
21.1818466703
 30
0.0
  0
SPLINE
  5
4AD
100
AcDbEntity
  8
0
100
AcDbSpline
 62
9
  6
CONTINUOUS
 70
0
 71
3
 72
34
 73
30
 74
0
 42
0.0000001
 43
0.0000001
 44
0.0000000001
 40
0.0
 40
0.0
 40
0.0
 40
0.0
 40
0.0313627234
 40
0.0627668771
 40
0.0941450375
 40
0.1255004392
 40
0.1568487273
 40
0.188174484
 40
0.2194668164
 40
0.2507366205
 40
0.3131319337
 40
0.3754322739
 40
0.4065999428
 40
0.437748289
 40
0.4688840874
 40
0.5000217725
 40
0.5311617595
 40
0.562302456
 40
0.6245494727
 40
0.6868605359
 40
0.7492621823
 40
0.7805393255
 40
0.8118362898
 40
0.8431559208
 40
0.8744982485
 40
0.9058565039
 40
0.9372372084
 40
0.968637975
 40
1.0
 40
1.0
 40
1.0
 40
1.0
 10
6.2825134094
 20
22.0314483542
 30
0.0
 10
6.282390681
 20
22.0341541968
 30
0.0
 10
6.2824090385
 20
22.0395851114
 30
0.0
 10
6.2832368194
 20
22.0476868689
 30
0.0
 10
6.2848920891
 20
22.0556617604
 30
0.0
 10
6.2873488668
 20
22.0634207558
 30
0.0
 10
6.2905390796
 20
22.0709017865
 30
0.0
 10
6.29441106
 20
22.0780472892
 30
0.0
 10
6.2989460445
 20
22.0847854827
 30
0.0
 10
6.3058388202
 20
22.0931086034
 30
0.0
 10
6.3159544473
 20
22.1021500903
 30
0.0
 10
6.3276572852
 20
22.1089847145
 30
0.0
 10
6.3376395781
 20
22.1130422234
 30
0.0
 10
6.3453857304
 20
22.1153555977
 30
0.0
 10
6.3533188545
 20
22.1168970057
 30
0.0
 10
6.3613649925
 20
22.1176428216
 30
0.0
 10
6.3694464409
 20
22.117596859
 30
0.0
 10
6.3801571959
 20
22.1164778603
 30
0.0
 10
6.3932750507
 20
22.1131305928
 30
0.0
 10
6.4079522322
 20
22.1061628688
 30
0.0
 10
6.4188067031
 20
22.0980194805
 30
0.0
 10
6.4264104723
 20
22.0903398914
 30
0.0
 10
6.4315371839
 20
22.084039735
 30
0.0
 10
6.4360339864
 20
22.0772699386
 30
0.0
 10
6.4398561542
 20
22.0700911552
 30
0.0
 10
6.4429573975
 20
22.062566346
 30
0.0
 10
6.4452797275
 20
22.0547597772
 30
0.0
 10
6.4468050731
 20
22.0467608052
 30
0.0
 10
6.4473111894
 20
22.0413547067
 30
0.0
 10
6.4474386997
 20
22.0386491456
 30
0.0
  0
SPLINE
  5
4AE
100
AcDbEntity
  8
0
100
AcDbSpline
 62
9
  6
CONTINUOUS
 70
0
 71
3
 72
40
 73
36
 74
0
 42
0.0000001
 43
0.0000001
 44
0.0000000001
 40
0.0
 40
0.0
 40
0.0
 40
0.0
 40
0.0313578249
 40
0.0627582106
 40
0.0784453565
 40
0.0941164465
 40
0.1254502136
 40
0.1411304394
 40
0.1568117004
 40
0.1881329417
 40
0.2193905762
 40
0.2506367917
 40
0.2818964148
 40
0.3131343833
 40
0.3443308653
 40
0.3755091013
 40
0.4066852512
 40
0.437842999
 40
0.4689696387
 40
0.5000887192
 40
0.5312338683
 40
0.5624034037
 40
0.6246252757
 40
0.6557754797
 40
0.6869836513
 40
0.7182435387
 40
0.7495032032
 40
0.7807361318
 40
0.8119911138
 40
0.8433126336
 40
0.8589911987
 40
0.8746658488
 40
0.905996304
 40
0.9373549427
 40
1.0
 40
1.0
 40
1.0
 40
1.0
 10
6.4077507246
 20
22.2758151295
 30
0.0
 10
6.4085640247
 20
22.2732310299
 30
0.0
 10
6.4099069897
 20
22.2679653569
 30
0.0
 10
6.4108637056
 20
22.2612421878
 30
0.0
 10
6.4111843786
 20
22.2558273823
 30
0.0
 10
6.4112114421
 20
22.2504091987
 30
0.0
 10
6.4108261749
 20
22.2449975696
 30
0.0
 10
6.410078301
 20
22.2396319175
 30
0.0
 10
6.4091084191
 20
22.2343028546
 30
0.0
 10
6.4074738298
 20
22.227732417
 30
0.0
 10
6.404764223
 20
22.2200776057
 30
0.0
 10
6.4012429457
 20
22.2127650803
 30
0.0
 10
6.3969870259
 20
22.205858819
 30
0.0
 10
6.3920748124
 20
22.1994092956
 30
0.0
 10
6.3865701591
 20
22.1934674902
 30
0.0
 10
6.380527479
 20
22.1880820183
 30
0.0
 10
6.3740027224
 20
22.1832974383
 30
0.0
 10
6.3670496648
 20
22.1791673459
 30
0.0
 10
6.3597218523
 20
22.1757546982
 30
0.0
 10
6.3520841
 20
22.173113015
 30
0.0
 10
6.3442219706
 20
22.1712277069
 30
0.0
 10
6.3335621788
 20
22.1696984854
 30
0.0
 10
6.32271683
 20
22.1696793127
 30
0.0
 10
6.3120701661
 20
22.1713611906
 30
0.0
 10
6.3042333137
 20
22.1734119388
 30
0.0
 10
6.2966115587
 20
22.1761778536
 30
0.0
 10
6.2892696766
 20
22.1796263747
 30
0.0
 10
6.2823077202
 20
22.1837952696
 30
0.0
 10
6.2758433918
 20
22.1887090264
 30
0.0
 10
6.2708935935
 20
22.193329973
 30
0.0
 10
6.2671953888
 20
22.1972868913
 30
0.0
 10
6.2636726769
 20
22.2014015312
 30
0.0
 10
6.2596209324
 20
22.2068404706
 30
0.0
 10
6.2540121061
 20
22.2161118859
 30
0.0
 10
6.2508868026
 20
22.2237068581
 30
0.0
 10
6.2494664528
 20
22.228929182
 30
0.0
  0
SPLINE
  5
4AF
100
AcDbEntity
  8
0
100
AcDbSpline
 62
9
  6
CONTINUOUS
 70
0
 71
3
 72
36
 73
32
 74
0
 42
0.0000001
 43
0.0000001
 44
0.0000000001
 40
0.0
 40
0.0
 40
0.0
 40
0.0
 40
0.0313579316
 40
0.0627574775
 40
0.0941314579
 40
0.1254823743
 40
0.1568262831
 40
0.1881482277
 40
0.2194369075
 40
0.2507026229
 40
0.2819509805
 40
0.3131694118
 40
0.3754625086
 40
0.4066266061
 40
0.4377715535
 40
0.4689030662
 40
0.5000358743
 40
0.5311712439
 40
0.5623070048
 40
0.6245424322
 40
0.6868422184
 40
0.7180585351
 40
0.7493048498
 40
0.7805751477
 40
0.8118649172
 40
0.8431769966
 40
0.8745121098
 40
0.9058636949
 40
0.9372357064
 40
0.9686314888
 40
1.0
 40
1.0
 40
1.0
 40
1.0
 10
6.2494664528
 20
22.228929182
 30
0.0
 10
6.2486964131
 20
22.2315127272
 30
0.0
 10
6.2474052897
 20
22.236761539
 30
0.0
 10
6.2462483333
 20
22.2447840395
 30
0.0
 10
6.2459166788
 20
22.2528836936
 30
0.0
 10
6.2464077832
 20
22.2609691302
 30
0.0
 10
6.2476713522
 20
22.2689644365
 30
0.0
 10
6.2496711233
 20
22.2768024399
 30
0.0
 10
6.2524052812
 20
22.2844093753
 30
0.0
 10
6.255873691
 20
22.2917042434
 30
0.0
 10
6.2600476864
 20
22.2986135943
 30
0.0
 10
6.2664850304
 20
22.307210268
 30
0.0
 10
6.2741765264
 20
22.3147913327
 30
0.0
 10
6.2828036113
 20
22.3211605918
 30
0.0
 10
6.2897021371
 20
22.3253025874
 30
0.0
 10
6.296968839
 20
22.328750828
 30
0.0
 10
6.304540261
 20
22.3314630007
 30
0.0
 10
6.3123408171
 20
22.3334240805
 30
0.0
 10
6.3229414511
 20
22.3350080689
 30
0.0
 10
6.3364121841
 20
22.3350511342
 30
0.0
 10
6.3496525127
 20
22.3325135025
 30
0.0
 10
6.3597839195
 20
22.3289463227
 30
0.0
 10
6.3670965134
 20
22.3255290461
 30
0.0
 10
6.3740465859
 20
22.3214135134
 30
0.0
 10
6.3805693441
 20
22.3166400124
 30
0.0
 10
6.3866070539
 20
22.3112579701
 30
0.0
 10
6.3921016985
 20
22.3053150685
 30
0.0
 10
6.3969942731
 20
22.2988602677
 30
0.0
 10
6.401216204
 20
22.2919409313
 30
0.0
 10
6.4047185533
 20
22.2846311872
 30
0.0
 10
6.4065800828
 20
22.2795567643
 30
0.0
 10
6.4073909363
 20
22.2769847829
 30
0.0
  0
SPLINE
  5
4B0
100
AcDbEntity
  8
0
100
AcDbSpline
 62
9
  6
CONTINUOUS
 70
0
 71
3
 72
27
 73
23
 74
0
 42
0.0000001
 43
0.0000001
 44
0.0000000001
 40
0.0
 40
0.0
 40
0.0
 40
0.0
 40
0.0313780793
 40
0.0627931003
 40
0.0941973609
 40
0.1255812209
 40
0.1882329331
 40
0.2508012644
 40
0.3132848168
 40
0.375682104
 40
0.4380106126
 40
0.500293219
 40
0.5625540926
 40
0.6248275109
 40
0.6560086404
 40
0.6872027985
 40
0.7495808554
 40
0.8120423493
 40
0.8433379487
 40
0.8746582021
 40
0.9372911229
 40
1.0
 40
1.0
 40
1.0
 40
1.0
 10
4.9617275274
 20
21.3438907291
 30
0.0
 10
4.9597556843
 20
21.3453850156
 30
0.0
 10
4.955682761
 20
21.3482121964
 30
0.0
 10
4.9492338135
 20
21.3519146197
 30
0.0
 10
4.9424762838
 20
21.3550241817
 30
0.0
 10
4.9331389074
 20
21.3583198806
 30
0.0
 10
4.92097676
 20
21.3608379154
 30
0.0
 10
4.9061037883
 20
21.361211262
 30
0.0
 10
4.8914212019
 20
21.3589222582
 30
0.0
 10
4.8773999016
 20
21.3540621963
 30
0.0
 10
4.8644806235
 20
21.3467932895
 30
0.0
 10
4.8530673551
 20
21.3373500862
 30
0.0
 10
4.8435193561
 20
21.326032482
 30
0.0
 10
4.8373652687
 20
21.3153264021
 30
0.0
 10
4.8336431346
 20
21.3062180636
 30
0.0
 10
4.8307494123
 20
21.2968047849
 30
0.0
 10
4.8287239393
 20
21.2845991273
 30
0.0
 10
4.8289093514
 20
21.2722193494
 30
0.0
 10
4.830379099
 20
21.2624557172
 30
0.0
 10
4.832725025
 20
21.2528506615
 30
0.0
 10
4.8372603772
 20
21.2412870853
 30
0.0
 10
4.8424910507
 20
21.2328292331
 30
0.0
 10
4.8454579291
 20
21.2288738592
 30
0.0
  0
SPLINE
  5
4B1
100
AcDbEntity
  8
0
100
AcDbSpline
 62
9
  6
CONTINUOUS
 70
0
 71
3
 72
10
 73
6
 74
0
 42
0.0000001
 43
0.0000001
 44
0.0000000001
 40
0.0
 40
0.0
 40
0.0
 40
0.0
 40
0.49972449
 40
0.7499641269
 40
1.0
 40
1.0
 40
1.0
 40
1.0
 10
5.6813451711
 20
22.7872204132
 30
0.0
 10
5.677577336
 20
22.7882584621
 30
0.0
 10
5.6720211182
 20
22.7902174131
 30
0.0
 10
5.6649642876
 20
22.793599111
 30
0.0
 10
5.6615675289
 20
22.7955500854
 30
0.0
 10
5.6599091353
 20
22.7965862182
 30
0.0
  0
SPLINE
  5
4B2
100
AcDbEntity
  8
0
100
AcDbSpline
 62
9
  6
CONTINUOUS
 70
0
 71
3
 72
33
 73
29
 74
0
 42
0.0000001
 43
0.0000001
 44
0.0000000001
 40
0.0
 40
0.0
 40
0.0
 40
0.0
 40
0.0626690645
 40
0.0940164264
 40
0.1253346909
 40
0.1566253878
 40
0.1879013763
 40
0.2191573953
 40
0.2503833072
 40
0.3127174914
 40
0.3438978268
 40
0.3750606269
 40
0.4062094532
 40
0.4373575099
 40
0.4995978136
 40
0.5618597733
 40
0.6241830176
 40
0.6553955385
 40
0.6866297242
 40
0.7178914628
 40
0.7491757714
 40
0.8117382809
 40
0.8430814188
 40
0.8744425509
 40
0.9058179304
 40
0.9372173767
 40
0.9686295212
 40
1.0
 40
1.0
 40
1.0
 40
1.0
 10
5.6599091353
 20
22.7965862182
 30
0.0
 10
5.6557342209
 20
22.7991946254
 30
0.0
 10
5.6498184572
 20
22.8037004926
 30
0.0
 10
5.6428073555
 20
22.8106226972
 30
0.0
 10
5.6380138181
 20
22.8162480662
 30
0.0
 10
5.6337411978
 20
22.8222712218
 30
0.0
 10
5.630037699
 20
22.8286547475
 30
0.0
 10
5.6269288143
 20
22.835343072
 30
0.0
 10
5.6236202565
 20
22.8445839188
 30
0.0
 10
5.6215878819
 20
22.8542323034
 30
0.0
 10
5.6208270777
 20
22.8640051905
 30
0.0
 10
5.6208961188
 20
22.8713588439
 30
0.0
 10
5.6216174054
 20
22.8786750435
 30
0.0
 10
5.6234560239
 20
22.8882944755
 30
0.0
 10
5.6273623092
 20
22.8999560128
 30
0.0
 10
5.6344542116
 20
22.9128872832
 30
0.0
 10
5.6421663235
 20
22.9224794124
 30
0.0
 10
5.6492799765
 20
22.9292376123
 30
0.0
 10
5.655064812
 20
22.9338064201
 30
0.0
 10
5.6612420804
 20
22.9378388497
 30
0.0
 10
5.6699252178
 20
22.9424624438
 30
0.0
 10
5.6792000419
 20
22.9459111401
 30
0.0
 10
5.6888032984
 20
22.9480996618
 30
0.0
 10
5.696136195
 20
22.9490982622
 30
0.0
 10
5.7035335075
 20
22.9494320542
 30
0.0
 10
5.7109342306
 20
22.9490749492
 30
0.0
 10
5.7182704515
 20
22.9480509922
 30
0.0
 10
5.7230846644
 20
22.9469491651
 30
0.0
 10
5.7254615174
 20
22.9462988554
 30
0.0
  0
SPLINE
  5
4B3
100
AcDbEntity
  8
0
100
AcDbSpline
 62
9
  6
CONTINUOUS
 70
0
 71
3
 72
36
 73
32
 74
0
 42
0.0000001
 43
0.0000001
 44
0.0000000001
 40
0.0
 40
0.0
 40
0.0
 40
0.0
 40
0.0313579316
 40
0.0627574775
 40
0.094131458
 40
0.1254823744
 40
0.1568262831
 40
0.1881482278
 40
0.2194369076
 40
0.2507026231
 40
0.2819509806
 40
0.313169412
 40
0.3754625088
 40
0.4066266063
 40
0.4377715538
 40
0.4689030665
 40
0.5000358746
 40
0.5311712442
 40
0.5623070051
 40
0.6245424327
 40
0.6868422189
 40
0.7180585355
 40
0.7493048503
 40
0.7805751484
 40
0.8118649179
 40
0.8431769971
 40
0.8745121101
 40
0.9058636953
 40
0.9372357066
 40
0.9686314888
 40
1.0
 40
1.0
 40
1.0
 40
1.0
 10
5.2840126559
 20
22.797624932
 30
0.0
 10
5.2813816888
 20
22.7970369871
 30
0.0
 10
5.2760555986
 20
22.7961151474
 30
0.0
 10
5.2679719353
 20
22.7955206307
 30
0.0
 10
5.2598688765
 20
22.7957547876
 30
0.0
 10
5.2518373933
 20
22.7968087073
 30
0.0
 10
5.2439497053
 20
22.7986269227
 30
0.0
 10
5.2362702919
 20
22.8011685741
 30
0.0
 10
5.2288726118
 20
22.8044267047
 30
0.0
 10
5.2218374577
 20
22.8083955301
 30
0.0
 10
5.2152361009
 20
22.8130413298
 30
0.0
 10
5.2071094148
 20
22.8200626665
 30
0.0
 10
5.2000833488
 20
22.8282642549
 30
0.0
 10
5.1943314001
 20
22.8373146218
 30
0.0
 10
5.1906807111
 20
22.8444852742
 30
0.0
 10
5.1877477698
 20
22.8519748119
 30
0.0
 10
5.1855703596
 20
22.8597169819
 30
0.0
 10
5.1841581962
 20
22.8676353343
 30
0.0
 10
5.1833175294
 20
22.8783206392
 30
0.0
 10
5.1842142401
 20
22.8917615622
 30
0.0
 10
5.1876692887
 20
22.9047926219
 30
0.0
 10
5.1919345106
 20
22.9146505151
 30
0.0
 10
5.195853564
 20
22.9217069186
 30
0.0
 10
5.2004438841
 20
22.928352976
 30
0.0
 10
5.2056607615
 20
22.9345268626
 30
0.0
 10
5.2114508625
 20
22.9401744328
 30
0.0
 10
5.2177625747
 20
22.9452411366
 30
0.0
 10
5.224542941
 20
22.9496715285
 30
0.0
 10
5.2317399296
 20
22.9534005058
 30
0.0
 10
5.2392761792
 20
22.9563844211
 30
0.0
 10
5.2444680946
 20
22.9578874425
 30
0.0
 10
5.247090373
 20
22.9585169088
 30
0.0
  0
SPLINE
  5
4B4
100
AcDbEntity
  8
0
100
AcDbSpline
 62
9
  6
CONTINUOUS
 70
0
 71
3
 72
35
 73
31
 74
0
 42
0.0000001
 43
0.0000001
 44
0.0000000001
 40
0.0
 40
0.0
 40
0.0
 40
0.0
 40
0.0313751085
 40
0.0627764514
 40
0.0941466974
 40
0.1254989424
 40
0.1568433528
 40
0.1881628617
 40
0.2194494664
 40
0.2507157055
 40
0.2819632656
 40
0.3131796219
 40
0.3754757802
 40
0.4066404339
 40
0.4377859242
 40
0.4689196032
 40
0.5000554126
 40
0.5311934298
 40
0.5623321551
 40
0.624576311
 40
0.6868840585
 40
0.7492801131
 40
0.780553911
 40
0.81184713
 40
0.8431626018
 40
0.8745009035
 40
0.9058554382
 40
0.9372305165
 40
0.9686290214
 40
1.0
 40
1.0
 40
1.0
 40
1.0
 10
4.775927155
 20
22.4477365067
 30
0.0
 10
4.7744098733
 20
22.4455262062
 30
0.0
 10
4.7711583357
 20
22.4412474709
 30
0.0
 10
4.7656794755
 20
22.4353391406
 30
0.0
 10
4.7596258094
 20
22.4300223933
 30
0.0
 10
4.7530771957
 20
22.4253398077
 30
0.0
 10
4.7461195026
 20
22.4213006409
 30
0.0
 10
4.7388232394
 20
22.4179243253
 30
0.0
 10
4.7312444657
 20
22.4152584066
 30
0.0
 10
4.7234457381
 20
22.4133532716
 30
0.0
 10
4.7155022222
 20
22.4122274474
 30
0.0
 10
4.7048371401
 20
22.4117812611
 30
0.0
 10
4.6941653775
 20
22.4129236378
 30
0.0
 10
4.6838321243
 20
22.4155373857
 30
0.0
 10
4.6762991458
 20
22.4182243329
 30
0.0
 10
4.669065811
 20
22.4216297646
 30
0.0
 10
4.662202503
 20
22.425728773
 30
0.0
 10
4.6557680064
 20
22.4304741947
 30
0.0
 10
4.6478489035
 20
22.4376012843
 30
0.0
 10
4.6392853542
 20
22.4478974718
 30
0.0
 10
4.6315446286
 20
22.4619821664
 30
0.0
 10
4.6275231034
 20
22.4747882523
 30
0.0
 10
4.6258300002
 20
22.4853445104
 30
0.0
 10
4.6253270133
 20
22.4933639121
 30
0.0
 10
4.6255930474
 20
22.5013992464
 30
0.0
 10
4.6266284303
 20
22.5093777042
 30
0.0
 10
4.6284337142
 20
22.5172236595
 30
0.0
 10
4.6310166624
 20
22.5248554658
 30
0.0
 10
4.634351257
 20
22.5321898241
 30
0.0
 10
4.6370270383
 20
22.536848714
 30
0.0
 10
4.6384673981
 20
22.5391094758
 30
0.0
  0
SPLINE
  5
4B5
100
AcDbEntity
  8
0
100
AcDbSpline
 62
9
  6
CONTINUOUS
 70
0
 71
3
 72
35
 73
31
 74
0
 42
0.0000001
 43
0.0000001
 44
0.0000000001
 40
0.0
 40
0.0
 40
0.0
 40
0.0
 40
0.0313750235
 40
0.0627760437
 40
0.0941456805
 40
0.1254976115
 40
0.1568414933
 40
0.1881599446
 40
0.2194454416
 40
0.2507109662
 40
0.2819572755
 40
0.3131718651
 40
0.3754657528
 40
0.4066291227
 40
0.437773255
 40
0.4689065489
 40
0.5000424249
 40
0.5311802234
 40
0.562319174
 40
0.6245653632
 40
0.6868748133
 40
0.7492762145
 40
0.7805520155
 40
0.811847619
 40
0.8431658221
 40
0.8745064709
 40
0.9058628546
 40
0.9372418106
 40
0.9686403853
 40
1.0
 40
1.0
 40
1.0
 40
1.0
 10
4.6869230295
 20
22.2683755961
 30
0.0
 10
4.6859810729
 20
22.2658519275
 30
0.0
 10
4.6838499841
 20
22.2608905747
 30
0.0
 10
4.6799396618
 20
22.253801388
 30
0.0
 10
4.6753220196
 20
22.2471521414
 30
0.0
 10
4.6700658992
 20
22.2410037554
 30
0.0
 10
4.6642534111
 20
22.2353862323
 30
0.0
 10
4.6579485308
 20
22.2303365662
 30
0.0
 10
4.6511946751
 20
22.2259155529
 30
0.0
 10
4.6440414648
 20
22.2221880102
 30
0.0
 10
4.6365590362
 20
22.2191893317
 30
0.0
 10
4.6262566094
 20
22.2162086648
 30
0.0
 10
4.6155674339
 20
22.214781947
 30
0.0
 10
4.6048586838
 20
22.2148783885
 30
0.0
 10
4.5968666073
 20
22.2157161344
 30
0.0
 10
4.5889977702
 20
22.2173316316
 30
0.0
 10
4.5813271138
 20
22.2197147111
 30
0.0
 10
4.5739239982
 20
22.222833768
 30
0.0
 10
4.5645118021
 20
22.227933552
 30
0.0
 10
4.5537280624
 20
22.2359835253
 30
0.0
 10
4.5428726023
 20
22.2479413293
 30
0.0
 10
4.5359629265
 20
22.2595252872
 30
0.0
 10
4.5318576781
 20
22.2694530008
 30
0.0
 10
4.5295076102
 20
22.2771775898
 30
0.0
 10
4.5279090926
 20
22.285096678
 30
0.0
 10
4.5270806251
 20
22.2931385446
 30
0.0
 10
4.5270412339
 20
22.3012287526
 30
0.0
 10
4.5278201926
 20
22.3092872337
 30
0.0
 10
4.5293997536
 20
22.3172260658
 30
0.0
 10
4.5309477718
 20
22.3223965653
 30
0.0
 10
4.531837727
 20
22.3249376358
 30
0.0
  0
SPLINE
  5
4B6
100
AcDbEntity
  8
0
100
AcDbSpline
 62
9
  6
CONTINUOUS
 70
0
 71
3
 72
31
 73
27
 74
0
 42
0.0000001
 43
0.0000001
 44
0.0000000001
 40
0.0
 40
0.0
 40
0.0
 40
0.0
 40
0.0313984692
 40
0.0628051308
 40
0.078500602
 40
0.0941907259
 40
0.1255621617
 40
0.1569342841
 40
0.1882818551
 40
0.2195934688
 40
0.2508798936
 40
0.3133450276
 40
0.3757195392
 40
0.4380412316
 40
0.4692097792
 40
0.5003680196
 40
0.5315250434
 40
0.5626827053
 40
0.6249447538
 40
0.6872484688
 40
0.7496153128
 40
0.8120688826
 40
0.8433572031
 40
0.8746678885
 40
0.9373006375
 40
1.0
 40
1.0
 40
1.0
 40
1.0
 10
4.8179009245
 20
21.4854516451
 30
0.0
 10
4.8163143485
 20
21.4873294946
 30
0.0
 10
4.8130034988
 20
21.4909725121
 30
0.0
 10
4.8085081326
 20
21.4951759205
 30
0.0
 10
4.8046939633
 20
21.4982806999
 30
0.0
 10
4.8007360506
 20
21.5011952673
 30
0.0
 10
4.7955377904
 20
21.504482696
 30
0.0
 10
4.7889754635
 20
21.5078504141
 30
0.0
 10
4.7821536607
 20
21.5106426857
 30
0.0
 10
4.7751208305
 20
21.5128314574
 30
0.0
 10
4.7655381892
 20
21.514896887
 30
0.0
 10
4.7532765933
 20
21.5158382218
 30
0.0
 10
4.7386283635
 20
21.5143088015
 30
0.0
 10
4.7268327162
 20
21.5109244297
 30
0.0
 10
4.7178759678
 20
21.507022005
 30
0.0
 10
4.7114449498
 20
21.5035056359
 30
0.0
 10
4.7053557803
 20
21.4994277107
 30
0.0
 10
4.6977556239
 20
21.4932973235
 30
0.0
 10
4.6893198947
 20
21.4843981589
 30
0.0
 10
4.6812318962
 20
21.4721104941
 30
0.0
 10
4.6754265968
 20
21.4585753436
 30
0.0
 10
4.6726731003
 20
21.446594113
 30
0.0
 10
4.6717705034
 20
21.4368335809
 30
0.0
 10
4.6717417836
 20
21.4270168951
 30
0.0
 10
4.6733309699
 20
21.4147898333
 30
0.0
 10
4.6763153843
 20
21.4053764157
 30
0.0
 10
4.6782239731
 20
21.4008535415
 30
0.0
  0
SPLINE
  5
4B7
100
AcDbEntity
  8
0
100
AcDbSpline
 62
9
  6
CONTINUOUS
 70
0
 71
3
 72
9
 73
5
 74
0
 42
0.0000001
 43
0.0000001
 44
0.0000000001
 40
0.0
 40
0.0
 40
0.0
 40
0.0
 40
0.250226647
 40
1.0
 40
1.0
 40
1.0
 40
1.0
 10
4.6792711351
 20
21.3984809288
 30
0.0
 10
4.67992399
 20
21.3970646525
 30
0.0
 10
4.6826979228
 20
21.3914815656
 30
0.0
 10
4.6860983044
 20
21.3862144176
 30
0.0
 10
4.6889265691
 20
21.3824946586
 30
0.0
  0
SPLINE
  5
4B8
100
AcDbEntity
  8
0
100
AcDbSpline
 62
9
  6
CONTINUOUS
 70
0
 71
3
 72
36
 73
32
 74
0
 42
0.0000001
 43
0.0000001
 44
0.0000000001
 40
0.0
 40
0.0
 40
0.0
 40
0.0
 40
0.0313650979
 40
0.0627548192
 40
0.0784434873
 40
0.0941260442
 40
0.1254784532
 40
0.1568258854
 40
0.1881431982
 40
0.2194252937
 40
0.2506869568
 40
0.2819315389
 40
0.3131481413
 40
0.3754463809
 40
0.4376855242
 40
0.4688216641
 40
0.4999575135
 40
0.5310946046
 40
0.5622342113
 40
0.5933824316
 40
0.6245446571
 40
0.6868500906
 40
0.7492476968
 40
0.780516575
 40
0.8118113907
 40
0.8431341346
 40
0.8744803737
 40
0.905840506
 40
0.9372199284
 40
0.9686233707
 40
1.0
 40
1.0
 40
1.0
 40
1.0
 10
4.7767920262
 20
22.4490218525
 30
0.0
 10
4.7782533404
 20
22.4512868582
 30
0.0
 10
4.7809952123
 20
22.4559394044
 30
0.0
 10
4.7838895375
 20
22.4620397452
 30
0.0
 10
4.7858308801
 20
22.4670742893
 30
0.0
 10
4.7875034215
 20
22.4722009295
 30
0.0
 10
4.789097889
 20
22.4787582755
 30
0.0
 10
4.7902353587
 20
22.4867695569
 30
0.0
 10
4.790614223
 20
22.494846501
 30
0.0
 10
4.7902157795
 20
22.5029159829
 30
0.0
 10
4.7890209113
 20
22.5109003182
 30
0.0
 10
4.7870449836
 20
22.5187226928
 30
0.0
 10
4.7834010509
 20
22.5288221344
 30
0.0
 10
4.7770180301
 20
22.5406883238
 30
0.0
 10
4.7685026127
 20
22.5511211865
 30
0.0
 10
4.7605839578
 20
22.5583400455
 30
0.0
 10
4.754138662
 20
22.563147585
 30
0.0
 10
4.7472569993
 20
22.5673058481
 30
0.0
 10
4.7400022929
 20
22.5707747337
 30
0.0
 10
4.7324439639
 20
22.5735278563
 30
0.0
 10
4.7220601713
 20
22.5762050003
 30
0.0
 10
4.7086516486
 20
22.5776447828
 30
0.0
 10
4.6952094092
 20
22.5764393746
 30
0.0
 10
4.6847548999
 20
22.5739213699
 30
0.0
 10
4.6771203737
 20
22.5712699093
 30
0.0
 10
4.6697722778
 20
22.5678913705
 30
0.0
 10
4.662779997
 20
22.5638154498
 30
0.0
 10
4.656215437
 20
22.5590718873
 30
0.0
 10
4.6501608639
 20
22.5536840216
 30
0.0
 10
4.6446746475
 20
22.5477193656
 30
0.0
 10
4.6414001009
 20
22.5434206665
 30
0.0
 10
4.6398626151
 20
22.541205453
 30
0.0
  0
SPLINE
  5
4B9
100
AcDbEntity
  8
0
100
AcDbSpline
 62
9
  6
CONTINUOUS
 70
0
 71
3
 72
28
 73
24
 74
0
 42
0.0000001
 43
0.0000001
 44
0.0000000001
 40
0.0
 40
0.0
 40
0.0
 40
0.0
 40
0.0627260014
 40
0.1254628319
 40
0.1568250044
 40
0.1881704748
 40
0.2507470292
 40
0.313233298
 40
0.3756277513
 40
0.4379505734
 40
0.5002258588
 40
0.5624785574
 40
0.6247431283
 40
0.6559204943
 40
0.6871112684
 40
0.7183187725
 40
0.749544214
 40
0.8119982029
 40
0.8432914336
 40
0.8746090903
 40
0.9059461285
 40
0.9372976703
 40
1.0
 40
1.0
 40
1.0
 40
1.0
 10
5.6813451711
 20
22.7872204132
 30
0.0
 10
5.6861119956
 20
22.7858982401
 30
0.0
 10
5.6959082429
 20
22.7841184404
 30
0.0
 10
5.7083445883
 20
22.7841152881
 30
0.0
 10
5.7181603824
 20
22.7854419387
 30
0.0
 10
5.7278039081
 20
22.787644166
 30
0.0
 10
5.7394196394
 20
22.7920042953
 30
0.0
 10
5.7521754555
 20
22.7996297109
 30
0.0
 10
5.763355647
 20
22.80939276
 30
0.0
 10
5.7726093109
 20
22.8209756139
 30
0.0
 10
5.7796517548
 20
22.8340095564
 30
0.0
 10
5.7842611187
 20
22.8480821212
 30
0.0
 10
5.785953665
 20
22.860315494
 30
0.0
 10
5.7859903956
 20
22.8701551956
 30
0.0
 10
5.7853562902
 20
22.8775178379
 30
0.0
 10
5.7840665135
 20
22.8847982842
 30
0.0
 10
5.7814883656
 20
22.8943142397
 30
0.0
 10
5.7776308858
 20
22.9034525158
 30
0.0
 10
5.772608107
 20
22.9119524948
 30
0.0
 10
5.7682748824
 20
22.9179750649
 30
0.0
 10
5.7634176766
 20
22.9235900013
 30
0.0
 10
5.7562959268
 20
22.930463763
 30
0.0
 10
5.7502710337
 20
22.9348802046
 30
0.0
 10
5.7460368971
 20
22.9374344908
 30
0.0
  0
SPLINE
  5
4BA
100
AcDbEntity
  8
0
100
AcDbSpline
 62
9
  6
CONTINUOUS
 70
0
 71
3
 72
36
 73
32
 74
0
 42
0.0000001
 43
0.0000001
 44
0.0000000001
 40
0.0
 40
0.0
 40
0.0
 40
0.0
 40
0.031364195
 40
0.0627549931
 40
0.0784449791
 40
0.0941286157
 40
0.1254815037
 40
0.1568278807
 40
0.1881450146
 40
0.2194279968
 40
0.2506903275
 40
0.2819348452
 40
0.3131509154
 40
0.375447047
 40
0.4376835781
 40
0.4688184384
 40
0.4999534741
 40
0.531090285
 40
0.5622297622
 40
0.5933778269
 40
0.6245403416
 40
0.6868473915
 40
0.7492475432
 40
0.7805182513
 40
0.8118156567
 40
0.8431411139
 40
0.8744890538
 40
0.9058503327
 40
0.9372328641
 40
0.9686360065
 40
1.0
 40
1.0
 40
1.0
 40
1.0
 10
5.2840126559
 20
22.797624932
 30
0.0
 10
5.2866510796
 20
22.798238936
 30
0.0
 10
5.2918819459
 20
22.7996877163
 30
0.0
 10
5.2982306759
 20
22.8020850468
 30
0.0
 10
5.303145665
 20
22.8043772461
 30
0.0
 10
5.307930206
 20
22.8069233942
 30
0.0
 10
5.3136551485
 20
22.8105600208
 30
0.0
 10
5.3200604637
 20
22.8155706063
 30
0.0
 10
5.3259579837
 20
22.8211616016
 30
0.0
 10
5.3312835056
 20
22.827291364
 30
0.0
 10
5.3359693731
 20
22.8339154723
 30
0.0
 10
5.3399728044
 20
22.8409668979
 30
0.0
 10
5.3443435615
 20
22.8508325199
 30
0.0
 10
5.347942532
 20
22.8638874892
 30
0.0
 10
5.3489850668
 20
22.8773820289
 30
0.0
 10
5.3482234692
 20
22.8881238193
 30
0.0
 10
5.346859048
 20
22.8960888185
 30
0.0
 10
5.3447236594
 20
22.9038822861
 30
0.0
 10
5.3418364488
 20
22.9114307037
 30
0.0
 10
5.3382293291
 20
22.9186659781
 30
0.0
 10
5.3325042853
 20
22.9277970679
 30
0.0
 10
5.3237079555
 20
22.9381096493
 30
0.0
 10
5.3130520208
 20
22.946504188
 30
0.0
 10
5.3036699018
 20
22.9518699074
 30
0.0
 10
5.29625706
 20
22.9551916277
 30
0.0
 10
5.288551536
 20
22.9577807089
 30
0.0
 10
5.2806250916
 20
22.959609674
 30
0.0
 10
5.2725512559
 20
22.9606492534
 30
0.0
 10
5.2644081349
 20
22.9608571396
 30
0.0
 10
5.2562866792
 20
22.9602567128
 30
0.0
 10
5.2509316097
 20
22.9593592653
 30
0.0
 10
5.2482822846
 20
22.9587942322
 30
0.0
  0
SPLINE
  5
4BB
100
AcDbEntity
  8
0
100
AcDbSpline
 62
9
  6
CONTINUOUS
 70
0
 71
3
 72
37
 73
33
 74
0
 42
0.0000001
 43
0.0000001
 44
0.0000000001
 40
0.0
 40
0.0
 40
0.0
 40
0.0
 40
0.0313621511
 40
0.0627609985
 40
0.0784585572
 40
0.0941485781
 40
0.1255057552
 40
0.1568498284
 40
0.1881714254
 40
0.2194663903
 40
0.2507376533
 40
0.3131410322
 40
0.3754525875
 40
0.4066199351
 40
0.4377729879
 40
0.4689147444
 40
0.5000513858
 40
0.5311877864
 40
0.5623259747
 40
0.6245596193
 40
0.686853228
 40
0.7180683131
 40
0.7493104195
 40
0.7805729509
 40
0.8118573602
 40
0.8431735395
 40
0.8745205552
 40
0.9058751651
 40
0.9215582984
 40
0.9372460253
 40
0.96863404
 40
1.0
 40
1.0
 40
1.0
 40
1.0
 10
4.4797918354
 20
22.0901737885
 30
0.0
 10
4.4795516681
 20
22.0874756971
 30
0.0
 10
4.47931028
 20
22.0820519343
 30
0.0
 10
4.4796398173
 20
22.0752724815
 30
0.0
 10
4.4803049539
 20
22.0698883871
 30
0.0
 10
4.481245453
 20
22.0645492432
 30
0.0
 10
4.4829263876
 20
22.0579778291
 30
0.0
 10
4.4857086117
 20
22.0503350905
 30
0.0
 10
4.4892157302
 20
22.0430026546
 30
0.0
 10
4.4934142479
 20
22.0360492837
 30
0.0
 10
4.4998825776
 20
22.027390295
 30
0.0
 10
4.5095104613
 20
22.0178328453
 30
0.0
 10
4.5208199645
 20
22.0103591386
 30
0.0
 10
4.5305813429
 20
22.0057881577
 30
0.0
 10
4.5382027428
 20
22.0030877387
 30
0.0
 10
4.546047485
 20
22.0011417263
 30
0.0
 10
4.5540441465
 20
21.9999762468
 30
0.0
 10
4.5621165991
 20
21.9995970098
 30
0.0
 10
4.5728709526
 20
22.0001474669
 30
0.0
 10
4.5861420421
 20
22.0028083143
 30
0.0
 10
4.5986576399
 20
22.0079825804
 30
0.0
 10
4.607911762
 20
22.0135304842
 30
0.0
 10
4.614420683
 20
22.0183655352
 30
0.0
 10
4.6204268412
 20
22.0238204844
 30
0.0
 10
4.6258714695
 20
22.0298446019
 30
0.0
 10
4.6307109453
 20
22.0363735012
 30
0.0
 10
4.6349014613
 20
22.0433436618
 30
0.0
 10
4.637803333
 20
22.0494743257
 30
0.0
 10
4.6397359722
 20
22.0545378244
 30
0.0
 10
4.6413997524
 20
22.0596990393
 30
0.0
 10
4.6429967419
 20
22.0662939412
 30
0.0
 10
4.6438107524
 20
22.0716593108
 30
0.0
 10
4.6441142414
 20
22.0743513462
 30
0.0
  0
SPLINE
  5
4BC
100
AcDbEntity
  8
0
100
AcDbSpline
 62
9
  6
CONTINUOUS
 70
0
 71
3
 72
39
 73
35
 74
0
 42
0.0000001
 43
0.0000001
 44
0.0000000001
 40
0.0
 40
0.0
 40
0.0
 40
0.0
 40
0.031373774
 40
0.0627616865
 40
0.0784402509
 40
0.0941111999
 40
0.1254525315
 40
0.1568117861
 40
0.1881415082
 40
0.219414196
 40
0.2506507624
 40
0.281886558
 40
0.3131195638
 40
0.3754283533
 40
0.4065814703
 40
0.4377295962
 40
0.4688742915
 40
0.5000137388
 40
0.5311515627
 40
0.5622947566
 40
0.5934505179
 40
0.6246156477
 40
0.6557867489
 40
0.6869760424
 40
0.7181996659
 40
0.7494497413
 40
0.7807050763
 40
0.8119814043
 40
0.8433042929
 40
0.8589792192
 40
0.8746514176
 40
0.905983474
 40
0.9373537679
 40
1.0
 40
1.0
 40
1.0
 40
1.0
 10
4.6441142414
 20
22.0743513462
 30
0.0
 10
4.6443085123
 20
22.0770545808
 30
0.0
 10
4.644519275
 20
22.0824773917
 30
0.0
 10
4.6442288581
 20
22.0892572257
 30
0.0
 10
4.6435957043
 20
22.0946420472
 30
0.0
 10
4.6426696614
 20
22.0999802412
 30
0.0
 10
4.6409737412
 20
22.1065482942
 30
0.0
 10
4.6381697825
 20
22.1141842119
 30
0.0
 10
4.6346778105
 20
22.1215243897
 30
0.0
 10
4.6305042738
 20
22.1284893668
 30
0.0
 10
4.6256456636
 20
22.1349857476
 30
0.0
 10
4.6201550411
 20
22.1409528991
 30
0.0
 10
4.612117314
 20
22.1481520809
 30
0.0
 10
4.6030903845
 20
22.1541766465
 30
0.0
 10
4.5933349558
 20
22.1587600053
 30
0.0
 10
4.5857116423
 20
22.1614562811
 30
0.0
 10
4.5778635887
 20
22.1633940994
 30
0.0
 10
4.5698646021
 20
22.1645567469
 30
0.0
 10
4.5617905707
 20
22.1649362152
 30
0.0
 10
4.5537166863
 20
22.1645203871
 30
0.0
 10
4.5457204312
 20
22.1633147106
 30
0.0
 10
4.5378763272
 20
22.1613395467
 30
0.0
 10
4.5302586099
 20
22.1586102279
 30
0.0
 10
4.5229364117
 20
22.1551541804
 30
0.0
 10
4.5159775916
 20
22.1510011702
 30
0.0
 10
4.5094552658
 20
22.1461811928
 30
0.0
 10
4.503450733
 20
22.1407206182
 30
0.0
 10
4.498050589
 20
22.1346544765
 30
0.0
 10
4.49405976
 20
22.1291831941
 30
0.0
 10
4.4911713175
 20
22.1246026061
 30
0.0
 10
4.4884857016
 20
22.1198996718
 30
0.0
 10
4.4855307678
 20
22.1137941691
 30
0.0
 10
4.4817695836
 20
22.1036336467
 30
0.0
 10
4.4801354414
 20
22.0955745297
 30
0.0
 10
4.4797918354
 20
22.0901737885
 30
0.0
  0
SPLINE
  5
4BD
100
AcDbEntity
  8
0
100
AcDbSpline
 62
9
  6
CONTINUOUS
 70
0
 71
3
 72
36
 73
32
 74
0
 42
0.0000001
 43
0.0000001
 44
0.0000000001
 40
0.0
 40
0.0
 40
0.0
 40
0.0
 40
0.0313655695
 40
0.0627548206
 40
0.0784429127
 40
0.0941250723
 40
0.1254774107
 40
0.1568251651
 40
0.188142243
 40
0.2194238252
 40
0.250685093
 40
0.2819293155
 40
0.3131456264
 40
0.3754436119
 40
0.4376824363
 40
0.4688188061
 40
0.4999548118
 40
0.5310918672
 40
0.5622315634
 40
0.5933800611
 40
0.624542605
 40
0.686848398
 40
0.7492464558
 40
0.7805155501
 40
0.8118105777
 40
0.8431334798
 40
0.8744798139
 40
0.9058400675
 40
0.9372197099
 40
0.9686233311
 40
1.0
 40
1.0
 40
1.0
 40
1.0
 10
4.6874512572
 20
22.2698319922
 30
0.0
 10
4.6883193066
 20
22.2723839227
 30
0.0
 10
4.6898527831
 20
22.2775618358
 30
0.0
 10
4.6911869191
 20
22.2841807287
 30
0.0
 10
4.6918541028
 20
22.2895350598
 30
0.0
 10
4.6922376318
 20
22.2949138775
 30
0.0
 10
4.6921985793
 20
22.3016621789
 30
0.0
 10
4.691363802
 20
22.3097106105
 30
0.0
 10
4.6897771355
 20
22.3176391651
 30
0.0
 10
4.6874380885
 20
22.3253723474
 30
0.0
 10
4.6843470225
 20
22.3328302478
 30
0.0
 10
4.6805375168
 20
22.3399421789
 30
0.0
 10
4.6745587582
 20
22.3488600617
 30
0.0
 10
4.6654953738
 20
22.3588300993
 30
0.0
 10
4.654708775
 20
22.3668927282
 30
0.0
 10
4.6452788741
 20
22.3719812311
 30
0.0
 10
4.6378621215
 20
22.375087026
 30
0.0
 10
4.6301789719
 20
22.3774571812
 30
0.0
 10
4.6223005625
 20
22.3790679816
 30
0.0
 10
4.6143006758
 20
22.3799107949
 30
0.0
 10
4.6035776263
 20
22.3799964021
 30
0.0
 10
4.5902189906
 20
22.3781498958
 30
0.0
 10
4.577467568
 20
22.3737284015
 30
0.0
 10
4.5679327133
 20
22.3687560332
 30
0.0
 10
4.5611663466
 20
22.3643364336
 30
0.0
 10
4.5548537974
 20
22.3592806468
 30
0.0
 10
4.5490552423
 20
22.3536342342
 30
0.0
 10
4.543833225
 20
22.3474434735
 30
0.0
 10
4.5392618594
 20
22.3407509573
 30
0.0
 10
4.5353813959
 20
22.3336363354
 30
0.0
 10
4.5332440444
 20
22.3286731419
 30
0.0
 10
4.5322881973
 20
22.3261517616
 30
0.0
  0
SPLINE
  5
4BE
100
AcDbEntity
  8
0
100
AcDbSpline
 62
9
  6
CONTINUOUS
 70
0
 71
3
 72
32
 73
28
 74
0
 42
0.0000001
 43
0.0000001
 44
0.0000000001
 40
0.0
 40
0.0
 40
0.0
 40
0.0
 40
0.0626941646
 40
0.1253795317
 40
0.1879724128
 40
0.2504857564
 40
0.31290169
 40
0.3752291227
 40
0.4064033108
 40
0.4375650028
 40
0.4687173776
 40
0.499864641
 40
0.5310122716
 40
0.5621640345
 40
0.5933256813
 40
0.6244991561
 40
0.6868168526
 40
0.7180419105
 40
0.7492903401
 40
0.7805608215
 40
0.8118543933
 40
0.8431716518
 40
0.8745105291
 40
0.9058677298
 40
0.9372445976
 40
0.9686385675
 40
1.0
 40
1.0
 40
1.0
 40
1.0
 10
5.4876390217
 20
22.9818416649
 30
0.0
 10
5.4822268205
 20
22.9819778094
 30
0.0
 10
5.4713462791
 20
22.981189945
 30
0.0
 10
5.4556012852
 20
22.9768461999
 30
0.0
 10
5.4410218807
 20
22.969506382
 30
0.0
 10
5.4281748647
 20
22.9594775639
 30
0.0
 10
5.4175477521
 20
22.9471544436
 30
0.0
 10
5.4108673446
 20
22.9353562326
 30
0.0
 10
5.4069849169
 20
22.925300305
 30
0.0
 10
5.4048243138
 20
22.9175077188
 30
0.0
 10
5.4034330751
 20
22.9095448057
 30
0.0
 10
5.4028298436
 20
22.9014848024
 30
0.0
 10
5.4030150305
 20
22.8934045473
 30
0.0
 10
5.4039890375
 20
22.8853798955
 30
0.0
 10
5.4057460332
 20
22.8774863917
 30
0.0
 10
5.4090983679
 20
22.8672438208
 30
0.0
 10
5.4139500914
 20
22.8575363831
 30
0.0
 10
5.4201330052
 20
22.8486944535
 30
0.0
 10
5.4254087758
 20
22.8425363509
 30
0.0
 10
5.4312648529
 20
22.8369200478
 30
0.0
 10
5.4376508366
 20
22.8319043812
 30
0.0
 10
5.4445010484
 20
22.8275334701
 30
0.0
 10
5.4517514216
 20
22.8238519602
 30
0.0
 10
5.4593333982
 20
22.8208985173
 30
0.0
 10
5.4671779234
 20
22.8187167333
 30
0.0
 10
5.4751991956
 20
22.8173260719
 30
0.0
 10
5.4806109013
 20
22.8169037806
 30
0.0
 10
5.4833176684
 20
22.816815822
 30
0.0
  0
SPLINE
  5
4BF
100
AcDbEntity
  8
0
100
AcDbSpline
 62
9
  6
CONTINUOUS
 70
0
 71
3
 72
43
 73
39
 74
0
 42
0.0000001
 43
0.0000001
 44
0.0000000001
 40
0.0
 40
0.0
 40
0.0
 40
0.0
 40
0.0626675826
 40
0.094057024
 40
0.1254250994
 40
0.1567524464
 40
0.1880433808
 40
0.2193372132
 40
0.2506406192
 40
0.2819102611
 40
0.313103692
 40
0.3286833532
 40
0.3442613094
 40
0.3754302069
 40
0.3910295513
 40
0.406626899
 40
0.4377804152
 40
0.4688834132
 40
0.4999822994
 40
0.531119716
 40
0.5622898378
 40
0.5934553933
 40
0.6245912686
 40
0.6557185355
 40
0.6869028678
 40
0.702527078
 40
0.7181640356
 40
0.7494154029
 40
0.7806095808
 40
0.8118385752
 40
0.8431754969
 40
0.8588651682
 40
0.8745476234
 40
0.9058763163
 40
0.9215430881
 40
0.9372265215
 40
0.9686278999
 40
1.0
 40
1.0
 40
1.0
 40
1.0
 10
5.7495026716
 20
21.2261569734
 30
0.0
 10
5.7545666733
 20
21.2280023893
 30
0.0
 10
5.7624432283
 20
21.2300984109
 30
0.0
 10
5.7731701479
 20
21.231351402
 30
0.0
 10
5.7812750667
 20
21.2314902934
 30
0.0
 10
5.7893444529
 20
21.2308192391
 30
0.0
 10
5.7972952883
 20
21.2293191083
 30
0.0
 10
5.8050560083
 20
21.2270449155
 30
0.0
 10
5.8125713459
 20
21.2240664998
 30
0.0
 10
5.8197813587
 20
21.220428772
 30
0.0
 10
5.8254583364
 20
21.2168228803
 30
0.0
 10
5.829739426
 20
21.2135894645
 30
0.0
 10
5.8338377228
 20
21.2101309941
 30
0.0
 10
5.8376668779
 20
21.2063629884
 30
0.0
 10
5.841221108
 20
21.2023440938
 30
0.0
 10
5.8445961105
 20
21.1981750023
 30
0.0
 10
5.8484596227
 20
21.1926938692
 30
0.0
 10
5.8524416713
 20
21.1857061493
 30
0.0
 10
5.8556714719
 20
21.1783408744
 30
0.0
 10
5.858146369
 20
21.1706847782
 30
0.0
 10
5.8598832066
 20
21.1628233274
 30
0.0
 10
5.8608750916
 20
21.1548334673
 30
0.0
 10
5.8610772929
 20
21.1467863578
 30
0.0
 10
5.8604354393
 20
21.1387608624
 30
0.0
 10
5.8592459086
 20
21.1321537728
 30
0.0
 10
5.857945457
 20
21.1269415403
 30
0.0
 10
5.8564269981
 20
21.1217827086
 30
0.0
 10
5.8541164186
 20
21.1154662134
 30
0.0
 10
5.8505696609
 20
21.1082122421
 30
0.0
 10
5.8461716656
 20
21.1014323504
 30
0.0
 10
5.841953928
 20
21.0961753554
 30
0.0
 10
5.8383254509
 20
21.092183484
 30
0.0
 10
5.8345387974
 20
21.0883424177
 30
0.0
 10
5.8305028293
 20
21.0847548303
 30
0.0
 10
5.8262180002
 20
21.081480326
 30
0.0
 10
5.8217612825
 20
21.0784323264
 30
0.0
 10
5.8158935507
 20
21.0750740982
 30
0.0
 10
5.8109424913
 20
21.0728926
 30
0.0
 10
5.8084191886
 20
21.0719370214
 30
0.0
  0
SPLINE
  5
4C0
100
AcDbEntity
  8
0
100
AcDbSpline
 62
9
  6
CONTINUOUS
 70
0
 71
3
 72
35
 73
31
 74
0
 42
0.0000001
 43
0.0000001
 44
0.0000000001
 40
0.0
 40
0.0
 40
0.0
 40
0.0
 40
0.0313715215
 40
0.0627741951
 40
0.0941440407
 40
0.1254930531
 40
0.1568342876
 40
0.1881521836
 40
0.2194379883
 40
0.2507046016
 40
0.281952032
 40
0.3131682606
 40
0.3443599048
 40
0.3755398975
 40
0.437778757
 40
0.468912254
 40
0.5000469533
 40
0.5311828793
 40
0.5623207277
 40
0.6245670383
 40
0.6868758641
 40
0.7492743006
 40
0.7805481885
 40
0.8118418583
 40
0.8431583766
 40
0.8744977104
 40
0.9058528807
 40
0.937228938
 40
0.9686285693
 40
1.0
 40
1.0
 40
1.0
 40
1.0
 10
6.0780682277
 20
21.4524099173
 30
0.0
 10
6.0798703122
 20
21.45439499
 30
0.0
 10
6.0836809613
 20
21.4581863958
 30
0.0
 10
6.0899354847
 20
21.4632683457
 30
0.0
 10
6.0966751511
 20
21.4676846421
 30
0.0
 10
6.1038119693
 20
21.4714105125
 30
0.0
 10
6.111261952
 20
21.4744482121
 30
0.0
 10
6.1189551501
 20
21.4767850369
 30
0.0
 10
6.1268307612
 20
21.4783777762
 30
0.0
 10
6.1348197371
 20
21.479182709
 30
0.0
 10
6.1428431515
 20
21.4791954352
 30
0.0
 10
6.1508218337
 20
21.4784135306
 30
0.0
 10
6.1586791017
 20
21.4768481349
 30
0.0
 10
6.1688873193
 20
21.4737743164
 30
0.0
 10
6.1786171108
 20
21.4692695704
 30
0.0
 10
6.1875317658
 20
21.4634357709
 30
0.0
 10
6.1937612714
 20
21.4584233127
 30
0.0
 10
6.1994753687
 20
21.4528303177
 30
0.0
 10
6.2063289169
 20
21.4446713329
 30
0.0
 10
6.2133816208
 20
21.4332843638
 30
0.0
 10
6.2190912821
 20
21.4182580112
 30
0.0
 10
6.2212951933
 20
21.4050152509
 30
0.0
 10
6.2215053684
 20
21.394324311
 30
0.0
 10
6.2208885271
 20
21.3863115383
 30
0.0
 10
6.2195078587
 20
21.378389844
 30
0.0
 10
6.2173734677
 20
21.370631326
 30
0.0
 10
6.2144949098
 20
21.3631110336
 30
0.0
 10
6.2108751791
 20
21.3559112741
 30
0.0
 10
6.206552447
 20
21.349110635
 30
0.0
 10
6.2032541283
 20
21.3448684428
 30
0.0
 10
6.2015129457
 20
21.3428297512
 30
0.0
  0
SPLINE
  5
4C1
100
AcDbEntity
  8
0
100
AcDbSpline
 62
9
  6
CONTINUOUS
 70
0
 71
3
 72
31
 73
27
 74
0
 42
0.0000001
 43
0.0000001
 44
0.0000000001
 40
0.0
 40
0.0
 40
0.0
 40
0.0
 40
0.0313793002
 40
0.0627909244
 40
0.0941799255
 40
0.1255527836
 40
0.1569223972
 40
0.1882744875
 40
0.2195951669
 40
0.2508881519
 40
0.2821658598
 40
0.3134252593
 40
0.3446575593
 40
0.375867799
 40
0.4070654079
 40
0.4382505725
 40
0.5005128467
 40
0.5627570498
 40
0.6250107422
 40
0.6873006348
 40
0.7496566894
 40
0.8120982515
 40
0.8433806193
 40
0.8746854906
 40
0.9373096942
 40
1.0
 40
1.0
 40
1.0
 40
1.0
 10
5.4833176684
 20
22.816815822
 30
0.0
 10
5.4857912871
 20
22.8167755272
 30
0.0
 10
5.4907465877
 20
22.8168850631
 30
0.0
 10
5.4981399898
 20
22.8176614269
 30
0.0
 10
5.5054343297
 20
22.8191051874
 30
0.0
 10
5.5125538846
 20
22.8212382561
 30
0.0
 10
5.519447512
 20
22.8240048506
 30
0.0
 10
5.5260692612
 20
22.8273609364
 30
0.0
 10
5.5323681406
 20
22.8312786587
 30
0.0
 10
5.5382882564
 20
22.8357394139
 30
0.0
 10
5.5437732539
 20
22.8407183941
 30
0.0
 10
5.5487829986
 20
22.846168623
 30
0.0
 10
5.5532743236
 20
22.8520468714
 30
0.0
 10
5.5572140752
 20
22.8583018606
 30
0.0
 10
5.5605831195
 20
22.8648779897
 30
0.0
 10
5.5642840877
 20
22.8739923734
 30
0.0
 10
5.5673786143
 20
22.8859449509
 30
0.0
 10
5.5684407965
 20
22.9007094388
 30
0.0
 10
5.566866809
 20
22.9154298281
 30
0.0
 10
5.5627102084
 20
22.9296481346
 30
0.0
 10
5.5560928902
 20
22.9429170169
 30
0.0
 10
5.5486741887
 20
22.9528251291
 30
0.0
 10
5.5417518266
 20
22.959858767
 30
0.0
 10
5.5342126709
 20
22.9662499645
 30
0.0
 10
5.5237613935
 20
22.972949908
 30
0.0
 10
5.5145706024
 20
22.9767442933
 30
0.0
 10
5.5098465232
 20
22.9781973845
 30
0.0
  0
SPLINE
  5
4C2
100
AcDbEntity
  8
0
100
AcDbSpline
 62
9
  6
CONTINUOUS
 70
0
 71
3
 72
9
 73
5
 74
0
 42
0.0000001
 43
0.0000001
 44
0.0000000001
 40
0.0
 40
0.0
 40
0.0
 40
0.0
 40
0.5001328701
 40
1.0
 40
1.0
 40
1.0
 40
1.0
 10
5.5098465232
 20
22.9781973845
 30
0.0
 10
5.5062527774
 20
22.9793027936
 30
0.0
 10
5.4989003005
 20
22.9809970019
 30
0.0
 10
5.4913947305
 20
22.9817129397
 30
0.0
 10
5.4876390217
 20
22.9818416649
 30
0.0
  0
SPLINE
  5
4C3
100
AcDbEntity
  8
0
100
AcDbSpline
 62
9
  6
CONTINUOUS
 70
0
 71
3
 72
36
 73
32
 74
0
 42
0.0000001
 43
0.0000001
 44
0.0000000001
 40
0.0
 40
0.0
 40
0.0
 40
0.0
 40
0.0313579316
 40
0.0627574775
 40
0.094131458
 40
0.1254823744
 40
0.1568262831
 40
0.1881482278
 40
0.2194369076
 40
0.2507026231
 40
0.2819509806
 40
0.313169412
 40
0.3754625089
 40
0.4066266063
 40
0.4377715538
 40
0.4689030665
 40
0.5000358746
 40
0.5311712442
 40
0.5623070051
 40
0.6245424327
 40
0.6868422189
 40
0.7180585355
 40
0.7493048503
 40
0.7805751484
 40
0.8118649179
 40
0.8431769971
 40
0.8745121101
 40
0.9058636953
 40
0.9372357066
 40
0.9686314888
 40
1.0
 40
1.0
 40
1.0
 40
1.0
 10
5.9271060276
 20
21.3186114286
 30
0.0
 10
5.9293251697
 20
21.3201421392
 30
0.0
 10
5.9339181073
 20
21.3229920426
 30
0.0
 10
5.9411904396
 20
21.3265714624
 30
0.0
 10
5.9487911816
 20
21.3293898153
 30
0.0
 10
5.9566326484
 20
21.3314212844
 30
0.0
 10
5.9646271008
 20
21.3326902444
 30
0.0
 10
5.9726994483
 20
21.3332104252
 30
0.0
 10
5.9807789751
 20
21.3329607588
 30
0.0
 10
5.9887886045
 20
21.3319163431
 30
0.0
 10
5.9966496232
 20
21.3300817444
 30
0.0
 10
6.0068147944
 20
21.3266159846
 30
0.0
 10
6.0164016184
 20
21.3216436149
 30
0.0
 10
6.0251250595
 20
21.3154069788
 30
0.0
 10
6.031196093
 20
21.3101260378
 30
0.0
 10
6.0367210991
 20
21.3042805585
 30
0.0
 10
6.0416402266
 20
21.2979178156
 30
0.0
 10
6.0459158287
 20
21.2911050529
 30
0.0
 10
6.050698067
 20
21.28151273
 30
0.0
 10
6.0549017098
 20
21.2687146095
 30
0.0
 10
6.0565797653
 20
21.2553381373
 30
0.0
 10
6.0563179522
 20
21.2446002777
 30
0.0
 10
6.0553276444
 20
21.2365895911
 30
0.0
 10
6.0535612307
 20
21.2287079098
 30
0.0
 10
6.0510370049
 20
21.2210293051
 30
0.0
 10
6.0477841337
 20
21.2136239592
 30
0.0
 10
6.0438300368
 20
21.2065617842
 30
0.0
 10
6.0392030446
 20
21.1999140264
 30
0.0
 10
6.0339270125
 20
21.1937605396
 30
0.0
 10
6.0280573178
 20
21.1881707726
 30
0.0
 10
6.0238064994
 20
21.1848322698
 30
0.0
 10
6.0216109674
 20
21.183266316
 30
0.0
  0
SPLINE
  5
4C4
100
AcDbEntity
  8
0
100
AcDbSpline
 62
9
  6
CONTINUOUS
 70
0
 71
3
 72
36
 73
32
 74
0
 42
0.0000001
 43
0.0000001
 44
0.0000000001
 40
0.0
 40
0.0
 40
0.0
 40
0.0
 40
0.0313782819
 40
0.0627927265
 40
0.0941901834
 40
0.125560703
 40
0.1569177232
 40
0.1882599559
 40
0.2508140147
 40
0.313283597
 40
0.3445174804
 40
0.3757263275
 40
0.4380343523
 40
0.5002928677
 40
0.5314325008
 40
0.5625718837
 40
0.5937259228
 40
0.624899111
 40
0.6560745672
 40
0.687237066
 40
0.7184003443
 40
0.7496041882
 40
0.7808583667
 40
0.8121298498
 40
0.8433775211
 40
0.8589998599
 40
0.874628676
 40
0.9059250559
 40
0.9372835291
 40
0.9686525698
 40
1.0
 40
1.0
 40
1.0
 40
1.0
 10
4.8622240625
 20
21.2121733855
 30
0.0
 10
4.8641934315
 20
21.2107101721
 30
0.0
 10
4.8682641311
 20
21.2079520911
 30
0.0
 10
4.8747085918
 20
21.2043680881
 30
0.0
 10
4.8814525888
 20
21.2013840817
 30
0.0
 10
4.88843768
 20
21.1990348503
 30
0.0
 10
4.8955999446
 20
21.1973177581
 30
0.0
 10
4.9052965545
 20
21.1958737356
 30
0.0
 10
4.9175889738
 20
21.1956595365
 30
0.0
 10
4.9297150851
 20
21.1976445492
 30
0.0
 10
4.9390684086
 20
21.2004952185
 30
0.0
 10
4.9481178493
 20
21.2041660332
 30
0.0
 10
4.9587572516
 20
21.2102322376
 30
0.0
 10
4.968161055
 20
21.218071333
 30
0.0
 10
4.9747514444
 20
21.2252545406
 30
0.0
 10
4.9791973427
 20
21.2310639526
 30
0.0
 10
4.9831201221
 20
21.2372406711
 30
0.0
 10
4.9864971716
 20
21.2437352346
 30
0.0
 10
4.9892943961
 20
21.2505008633
 30
0.0
 10
4.9914708178
 20
21.2574912611
 30
0.0
 10
4.9929785099
 20
21.2646580445
 30
0.0
 10
4.9938357947
 20
21.2719371768
 30
0.0
 10
4.9940775562
 20
21.2792699362
 30
0.0
 10
4.9937284992
 20
21.2866019049
 30
0.0
 10
4.9928983049
 20
21.2926648593
 30
0.0
 10
4.9918854099
 20
21.2974473195
 30
0.0
 10
4.9906325146
 20
21.3021765187
 30
0.0
 10
4.988642657
 20
21.3079748376
 30
0.0
 10
4.9856627598
 20
21.3147040971
 30
0.0
 10
4.9821599612
 20
21.3211808773
 30
0.0
 10
4.9794580426
 20
21.3252827901
 30
0.0
 10
4.9780148226
 20
21.3272638737
 30
0.0
  0
SPLINE
  5
4C5
100
AcDbEntity
  8
0
100
AcDbSpline
 62
9
  6
CONTINUOUS
 70
0
 71
3
 72
9
 73
5
 74
0
 42
0.0000001
 43
0.0000001
 44
0.0000000001
 40
0.0
 40
0.0
 40
0.0
 40
0.0
 40
0.2500172068
 40
1.0
 40
1.0
 40
1.0
 40
1.0
 10
4.9757260713
 20
21.3302492141
 30
0.0
 10
4.9747824418
 20
21.3314187234
 30
0.0
 10
4.970867385
 20
21.3359823059
 30
0.0
 10
4.9664419336
 20
21.3400979295
 30
0.0
 10
4.9629354263
 20
21.3429306617
 30
0.0
  0
SPLINE
  5
4C6
100
AcDbEntity
  8
0
100
AcDbSpline
 62
9
  6
CONTINUOUS
 70
0
 71
3
 72
10
 73
6
 74
0
 42
0.0000001
 43
0.0000001
 44
0.0000000001
 40
0.0
 40
0.0
 40
0.0
 40
0.0
 40
0.4998248733
 40
0.7500095993
 40
1.0
 40
1.0
 40
1.0
 40
1.0
 10
5.1356737247
 20
21.2416340868
 30
0.0
 10
5.1389967656
 20
21.2401186614
 30
0.0
 10
5.1438430889
 20
21.2375145915
 30
0.0
 10
5.1499024377
 20
21.2334240963
 30
0.0
 10
5.1527854119
 20
21.2311715672
 30
0.0
 10
5.1541851375
 20
21.2299978432
 30
0.0
  0
SPLINE
  5
4C7
100
AcDbEntity
  8
0
100
AcDbSpline
 62
9
  6
CONTINUOUS
 70
0
 71
3
 72
30
 73
26
 74
0
 42
0.0000001
 43
0.0000001
 44
0.0000000001
 40
0.0
 40
0.0
 40
0.0
 40
0.0
 40
0.0626832658
 40
0.0940379981
 40
0.1253646884
 40
0.1566631932
 40
0.1879457759
 40
0.2503810221
 40
0.3127281747
 40
0.3439149414
 40
0.3750851398
 40
0.4062400823
 40
0.4373922556
 40
0.4996456408
 40
0.5619182145
 40
0.6242485304
 40
0.6554670423
 40
0.6867051375
 40
0.749194626
 40
0.8117657361
 40
0.8744136835
 40
0.9057933477
 40
0.9371946187
 40
0.9686123898
 40
1.0
 40
1.0
 40
1.0
 40
1.0
 10
5.1541851375
 20
21.2299978432
 30
0.0
 10
5.1579375595
 20
21.2268512924
 30
0.0
 10
5.1631456618
 20
21.2215982423
 30
0.0
 10
5.1691009427
 20
21.2138136006
 30
0.0
 10
5.173051178
 20
21.2076128243
 30
0.0
 10
5.1764364588
 20
21.2010926809
 30
0.0
 10
5.1801372335
 20
21.1920420995
 30
0.0
 10
5.1832072019
 20
21.1801686428
 30
0.0
 10
5.1840917163
 20
21.1679481057
 30
0.0
 10
5.1835352173
 20
21.158211791
 30
0.0
 10
5.1824868083
 20
21.1509721269
 30
0.0
 10
5.1808044156
 20
21.1438553009
 30
0.0
 10
5.177717262
 20
21.1346153261
 30
0.0
 10
5.1723281664
 20
21.1236338754
 30
0.0
 10
5.1636477612
 20
21.1118075611
 30
0.0
 10
5.1547903262
 20
21.1033564824
 30
0.0
 10
5.1468982922
 20
21.0976138936
 30
0.0
 10
5.1385108801
 20
21.0925981035
 30
0.0
 10
5.1272232758
 20
21.0877595382
 30
0.0
 10
5.1128696558
 20
21.0844214964
 30
0.0
 10
5.1005819341
 20
21.0837764002
 30
0.0
 10
5.0908045741
 20
21.0845790455
 30
0.0
 10
5.0835456661
 20
21.0858549094
 30
0.0
 10
5.0764328724
 20
21.0877803874
 30
0.0
 10
5.0718174657
 20
21.0894657088
 30
0.0
 10
5.0695511115
 20
21.0904019803
 30
0.0
  0
SPLINE
  5
4C8
100
AcDbEntity
  8
0
100
AcDbSpline
 62
9
  6
CONTINUOUS
 70
0
 71
3
 72
31
 73
27
 74
0
 42
0.0000001
 43
0.0000001
 44
0.0000000001
 40
0.0
 40
0.0
 40
0.0
 40
0.0
 40
0.0313815306
 40
0.0627909276
 40
0.0941731282
 40
0.1255431158
 40
0.1569139303
 40
0.1882657998
 40
0.2195829758
 40
0.2508719538
 40
0.2821470002
 40
0.3134039767
 40
0.3446340738
 40
0.375843618
 40
0.4381641044
 40
0.4693326682
 40
0.5004892876
 40
0.5627363103
 40
0.6249915055
 40
0.6872862241
 40
0.749645119
 40
0.8120901973
 40
0.8433741677
 40
0.8746807498
 40
0.9373075006
 40
1.0
 40
1.0
 40
1.0
 40
1.0
 10
6.2825134094
 20
22.0314483542
 30
0.0
 10
6.2826539083
 20
22.0289784843
 30
0.0
 10
6.2831145662
 20
22.0240444725
 30
0.0
 10
6.2843964579
 20
22.0167233377
 30
0.0
 10
6.286336532
 20
22.0095466198
 30
0.0
 10
6.2889607282
 20
22.0025943925
 30
0.0
 10
6.2922031217
 20
21.9959124313
 30
0.0
 10
6.2960122342
 20
21.9895417325
 30
0.0
 10
6.3003574595
 20
21.9835315061
 30
0.0
 10
6.3052186839
 20
21.9779376158
 30
0.0
 10
6.3105670272
 20
21.9728142293
 30
0.0
 10
6.3163520733
 20
21.9681975593
 30
0.0
 10
6.3225289298
 20
21.9641278013
 30
0.0
 10
6.3312034303
 20
21.9594720571
 30
0.0
 10
6.3404601929
 20
21.9559871202
 30
0.0
 10
6.3500426749
 20
21.9537665827
 30
0.0
 10
6.3597812142
 20
21.9524138364
 30
0.0
 10
6.3721239059
 20
21.9523813373
 30
0.0
 10
6.3866963107
 20
21.9549769764
 30
0.0
 10
6.4005905483
 20
21.9601122635
 30
0.0
 10
6.4133673935
 20
21.967634268
 30
0.0
 10
6.422735457
 20
21.9757233665
 30
0.0
 10
6.4292702939
 20
21.9831177552
 30
0.0
 10
6.4351217814
 20
21.9910823388
 30
0.0
 10
6.441079349
 20
22.0019730134
 30
0.0
 10
6.4442254196
 20
22.0114047093
 30
0.0
 10
6.4453468032
 20
22.0162179697
 30
0.0
  0
SPLINE
  5
4C9
100
AcDbEntity
  8
0
100
AcDbSpline
 62
9
  6
CONTINUOUS
 70
0
 71
3
 72
9
 73
5
 74
0
 42
0.0000001
 43
0.0000001
 44
0.0000000001
 40
0.0
 40
0.0
 40
0.0
 40
0.0
 40
0.500143992
 40
1.0
 40
1.0
 40
1.0
 40
1.0
 10
6.4453468032
 20
22.0162179697
 30
0.0
 10
6.4462008681
 20
22.0198838306
 30
0.0
 10
6.4473818732
 20
22.0273441897
 30
0.0
 10
6.4475734345
 20
22.0348896911
 30
0.0
 10
6.4474386997
 20
22.0386491456
 30
0.0
  0
SPLINE
  5
4CA
100
AcDbEntity
  8
0
100
AcDbSpline
 62
9
  6
CONTINUOUS
 70
0
 71
3
 72
36
 73
32
 74
0
 42
0.0000001
 43
0.0000001
 44
0.0000000001
 40
0.0
 40
0.0
 40
0.0
 40
0.0
 40
0.0313697296
 40
0.0627270504
 40
0.0940764722
 40
0.125402044
 40
0.1566965305
 40
0.1879707932
 40
0.2192295693
 40
0.2504619316
 40
0.2816650278
 40
0.3128540443
 40
0.3440327257
 40
0.3751952151
 40
0.4063409856
 40
0.4374811027
 40
0.4686242926
 40
0.4997686403
 40
0.5620077806
 40
0.624306511
 40
0.6555077264
 40
0.6867276429
 40
0.7179751524
 40
0.7492473215
 40
0.8117848241
 40
0.8431160035
 40
0.8744668594
 40
0.9058318077
 40
0.9372187296
 40
0.9686244942
 40
1.0
 40
1.0
 40
1.0
 40
1.0
 10
4.8292744992
 20
21.4674815219
 30
0.0
 10
4.8303150009
 20
21.4652184793
 30
0.0
 10
4.8321804172
 20
21.4605910912
 30
0.0
 10
4.8343310444
 20
21.4534278164
 30
0.0
 10
4.835846381
 20
21.4461073768
 30
0.0
 10
4.8367269474
 20
21.4386888837
 30
0.0
 10
4.8369490546
 20
21.4312267723
 30
0.0
 10
4.8364885468
 20
21.4237804452
 30
0.0
 10
4.8353460561
 20
21.4164130078
 30
0.0
 10
4.8335350193
 20
21.4091864881
 30
0.0
 10
4.8310651236
 20
21.4021638557
 30
0.0
 10
4.827974874
 20
21.3953966601
 30
0.0
 10
4.8243024712
 20
21.3889309007
 30
0.0
 10
4.8200798991
 20
21.382814335
 30
0.0
 10
4.8153319024
 20
21.3770993058
 30
0.0
 10
4.8100838197
 20
21.3718417734
 30
0.0
 10
4.8043797376
 20
21.3670825798
 30
0.0
 10
4.7962387061
 20
21.3614511914
 30
0.0
 10
4.7851528708
 20
21.3558250695
 30
0.0
 10
4.7732434175
 20
21.3522466722
 30
0.0
 10
4.7634514463
 20
21.3506929806
 30
0.0
 10
4.7560192393
 20
21.350205504
 30
0.0
 10
4.7485680363
 20
21.3504006671
 30
0.0
 10
4.738695219
 20
21.3515532452
 30
0.0
 10
4.7290093135
 20
21.3540388101
 30
0.0
 10
4.7197836566
 20
21.3577718935
 30
0.0
 10
4.713129652
 20
21.3611846133
 30
0.0
 10
4.7068090102
 20
21.3651888864
 30
0.0
 10
4.7008872832
 20
21.3697708333
 30
0.0
 10
4.6954145024
 20
21.3748796029
 30
0.0
 10
4.6920777049
 20
21.3785927426
 30
0.0
 10
4.6904931011
 20
21.3805150645
 30
0.0
  0
SPLINE
  5
4CB
100
AcDbEntity
  8
0
100
AcDbSpline
 62
9
  6
CONTINUOUS
 70
0
 71
3
 72
34
 73
30
 74
0
 42
0.0000001
 43
0.0000001
 44
0.0000000001
 40
0.0
 40
0.0
 40
0.0
 40
0.0
 40
0.0313825484
 40
0.0627741313
 40
0.0784633266
 40
0.0941480021
 40
0.1255055696
 40
0.1568536519
 40
0.1881696179
 40
0.2194526907
 40
0.250717546
 40
0.2819632851
 40
0.3131798128
 40
0.3754830597
 40
0.4377260296
 40
0.4999310175
 40
0.5621441967
 40
0.6243939519
 40
0.6867143366
 40
0.7179470997
 40
0.7492027328
 40
0.7804795201
 40
0.8117831319
 40
0.8431146123
 40
0.8744679172
 40
0.905834484
 40
0.9372229872
 40
0.9686314822
 40
1.0
 40
1.0
 40
1.0
 40
1.0
 10
5.7480272566
 20
21.2255731379
 30
0.0
 10
5.7455308461
 20
21.2245616343
 30
0.0
 10
5.7406191135
 20
21.2223285186
 30
0.0
 10
5.7347596479
 20
21.2189861692
 30
0.0
 10
5.7302962885
 20
21.215965584
 30
0.0
 10
5.7259990062
 20
21.2127182057
 30
0.0
 10
5.7209447237
 20
21.2082590486
 30
0.0
 10
5.7154282287
 20
21.2023530792
 30
0.0
 10
5.710496373
 20
21.1959583461
 30
0.0
 10
5.7062076534
 20
21.1891230867
 30
0.0
 10
5.7026202184
 20
21.1819017811
 30
0.0
 10
5.6997621119
 20
21.1743675361
 30
0.0
 10
5.6969672006
 20
21.1640149209
 30
0.0
 10
5.6953966854
 20
21.1506480889
 30
0.0
 10
5.6965815518
 20
21.1345651682
 30
0.0
 10
5.7008868775
 20
21.1190251164
 30
0.0
 10
5.7081193923
 20
21.1046158846
 30
0.0
 10
5.7179902323
 20
21.0918595836
 30
0.0
 10
5.7281296509
 20
21.0829992562
 30
0.0
 10
5.7371539131
 20
21.0772011722
 30
0.0
 10
5.74432753
 20
21.0735237665
 30
0.0
 10
5.7518329467
 20
21.0705672729
 30
0.0
 10
5.7595967155
 20
21.0683541069
 30
0.0
 10
5.7675438704
 20
21.0668978111
 30
0.0
 10
5.7756000519
 20
21.0662153226
 30
0.0
 10
5.7836901239
 20
21.0663253418
 30
0.0
 10
5.7917322264
 20
21.0672582865
 30
0.0
 10
5.7996411935
 20
21.0689785783
 30
0.0
 10
5.8047868513
 20
21.0706050815
 30
0.0
 10
5.8073157515
 20
21.0715288688
 30
0.0
  0
SPLINE
  5
4CC
100
AcDbEntity
  8
0
100
AcDbSpline
 62
9
  6
CONTINUOUS
 70
0
 71
3
 72
31
 73
27
 74
0
 42
0.0000001
 43
0.0000001
 44
0.0000000001
 40
0.0
 40
0.0
 40
0.0
 40
0.0
 40
0.0313784668
 40
0.062790836
 40
0.0941821693
 40
0.1255559881
 40
0.1569251255
 40
0.1882771629
 40
0.2195989435
 40
0.2508932835
 40
0.2821718804
 40
0.3134320629
 40
0.3446651055
 40
0.3758755512
 40
0.4070732718
 40
0.4382587242
 40
0.5005209758
 40
0.5627640396
 40
0.625017229
 40
0.6873055284
 40
0.749660582
 40
0.8121009789
 40
0.8433828181
 40
0.8746871272
 40
0.9373104426
 40
1.0
 40
1.0
 40
1.0
 40
1.0
 10
5.1342488121
 20
21.2422679627
 30
0.0
 10
5.1319714956
 20
21.2432345746
 30
0.0
 10
5.1273363816
 20
21.2449913284
 30
0.0
 10
5.1201892368
 20
21.2470385291
 30
0.0
 10
5.1128841221
 20
21.2484294583
 30
0.0
 10
5.1054835279
 20
21.2491187989
 30
0.0
 10
5.0980551839
 20
21.249136873
 30
0.0
 10
5.0906580651
 20
21.2485057133
 30
0.0
 10
5.0833499015
 20
21.2472322016
 30
0.0
 10
5.0761894305
 20
21.2453135406
 30
0.0
 10
5.0692382277
 20
21.2427516001
 30
0.0
 10
5.0625512373
 20
21.2395746213
 30
0.0
 10
5.0561845142
 20
21.2358067931
 30
0.0
 10
5.0501885244
 20
21.2314824539
 30
0.0
 10
5.0446016666
 20
21.2266463906
 30
0.0
 10
5.0377564263
 20
21.2195810903
 30
0.0
 10
5.0304092668
 20
21.2096579642
 30
0.0
 10
5.0238950241
 20
21.1963652498
 30
0.0
 10
5.0198408357
 20
21.1821267126
 30
0.0
 10
5.0183691677
 20
21.1673862555
 30
0.0
 10
5.0195357315
 20
21.1526045754
 30
0.0
 10
5.022703567
 20
21.1406389147
 30
0.0
 10
5.0264877012
 20
21.1315243801
 30
0.0
 10
5.0310845144
 20
21.1227745612
 30
0.0
 10
5.0382660716
 20
21.1126478731
 30
0.0
 10
5.0453669139
 20
21.1056872548
 30
0.0
 10
5.0492030402
 20
21.1025705853
 30
0.0
  0
SPLINE
  5
4CD
100
AcDbEntity
  8
0
100
AcDbSpline
 62
9
  6
CONTINUOUS
 70
0
 71
3
 72
9
 73
5
 74
0
 42
0.0000001
 43
0.0000001
 44
0.0000000001
 40
0.0
 40
0.0
 40
0.0
 40
0.0
 40
0.2502098675
 40
1.0
 40
1.0
 40
1.0
 40
1.0
 10
5.0512198368
 20
21.1009855372
 30
0.0
 10
5.0524611039
 20
21.1000420711
 30
0.0
 10
5.0575318895
 20
21.0964171956
 30
0.0
 10
5.0630071932
 20
21.0933661216
 30
0.0
 10
5.0672495285
 20
21.0914086902
 30
0.0
  0
LINE
  5
4CE
100
AcDbEntity
  8
0
100
AcDbLine
 62
7
  6
CONTINUOUS
 10
3.7275109666
 20
20.9046593742
 11
3.7305609094
 21
20.9064064428
  0
LINE
  5
4CF
100
AcDbEntity
  8
0
100
AcDbLine
 62
7
  6
CONTINUOUS
 10
3.7401999185
 20
20.9119410355
 11
3.7869145939
 21
20.9388464741
  0
LINE
  5
4D0
100
AcDbEntity
  8
0
100
AcDbLine
 62
7
  6
CONTINUOUS
 10
3.7869145939
 20
20.9388464741
 11
3.8526992631
 21
20.9768607886
  0
LINE
  5
4D1
100
AcDbEntity
  8
0
100
AcDbLine
 62
7
  6
CONTINUOUS
 10
3.8526992631
 20
20.9768607886
 11
3.8893185571
 21
20.9980862998
  0
LINE
  5
4D2
100
AcDbEntity
  8
0
100
AcDbLine
 62
7
  6
CONTINUOUS
 10
3.6512975867
 20
21.0399768577
 11
3.6419613742
 21
21.034532953
  0
LINE
  5
4D3
100
AcDbEntity
  8
0
100
AcDbLine
 62
7
  6
CONTINUOUS
 10
3.8116803629
 20
21.1325595771
 11
3.7742406138
 21
21.1110287654
  0
LINE
  5
4D4
100
AcDbEntity
  8
0
100
AcDbLine
 62
7
  6
CONTINUOUS
 10
3.7742406138
 20
21.1110287654
 11
3.7013895029
 21
21.0689947553
  0
LINE
  5
4D5
100
AcDbEntity
  8
0
100
AcDbLine
 62
7
  6
CONTINUOUS
 10
3.7013895029
 20
21.0689947553
 11
3.662517097
 21
21.0464916873
  0
LINE
  5
4D6
100
AcDbEntity
  8
0
100
AcDbLine
 62
7
  6
CONTINUOUS
 10
4.2605085759
 20
21.2890920206
 11
4.2548863906
 21
21.2987959791
  0
LINE
  5
4D7
100
AcDbEntity
  8
0
100
AcDbLine
 62
9
  6
CONTINUOUS
 10
4.0118853146
 20
21.04545527
 11
4.2269115532
 21
21.1701805101
  0
SPLINE
  5
4D8
100
AcDbEntity
  8
0
100
AcDbSpline
 62
9
  6
CONTINUOUS
 70
0
 71
3
 72
22
 73
18
 74
0
 42
0.0000001
 43
0.0000001
 44
0.0000000001
 40
0.0
 40
0.0
 40
0.0
 40
0.0
 40
0.0618487529
 40
0.1237882713
 40
0.1856632758
 40
0.2475722347
 40
0.309662027
 40
0.3719383507
 40
0.4343066567
 40
0.4967053066
 40
0.5279418329
 40
0.5592208741
 40
0.6219132703
 40
0.6847767086
 40
0.7477228656
 40
0.8737841393
 40
1.0
 40
1.0
 40
1.0
 40
1.0
 10
4.2269115532
 20
21.1701805101
 30
0.0
 10
4.2293185601
 20
21.1716668276
 30
0.0
 10
4.2340528214
 20
21.1747807317
 30
0.0
 10
4.240799738
 20
21.17995178
 30
0.0
 10
4.2470721262
 20
21.1857015833
 30
0.0
 10
4.2527015904
 20
21.1920941453
 30
0.0
 10
4.2576641068
 20
21.1990361974
 30
0.0
 10
4.2619694778
 20
21.2064260463
 30
0.0
 10
4.2656119675
 20
21.214179772
 30
0.0
 10
4.2680179036
 20
21.2209112746
 30
0.0
 10
4.2695197943
 20
21.2264263124
 30
0.0
 10
4.2707254956
 20
21.2320273915
 30
0.0
 10
4.2716776043
 20
21.2391513352
 30
0.0
 10
4.2719590377
 20
21.247782568
 30
0.0
 10
4.2712222341
 20
21.2592950175
 30
0.0
 10
4.2681980295
 20
21.2734883102
 30
0.0
 10
4.2634896154
 20
21.2841479569
 30
0.0
 10
4.2605285326
 20
21.2891037595
 30
0.0
  0
SPLINE
  5
4D9
100
AcDbEntity
  8
0
100
AcDbSpline
 62
9
  6
CONTINUOUS
 70
0
 71
3
 72
14
 73
10
 74
0
 42
0.0000001
 43
0.0000001
 44
0.0000000001
 40
0.0
 40
0.0
 40
0.0
 40
0.0
 40
0.2388185921
 40
0.3680980477
 40
0.5000614001
 40
0.6319167167
 40
0.7609059581
 40
0.884070901
 40
1.0
 40
1.0
 40
1.0
 40
1.0
 10
3.8916633136
 20
21.2036479525
 30
0.0
 10
3.8928084079
 20
21.2013842481
 30
0.0
 10
3.8952880625
 20
21.1981940179
 30
0.0
 10
3.899676943
 20
21.1951537372
 30
0.0
 10
3.9035486638
 20
21.1934999625
 30
0.0
 10
3.9076850968
 20
21.1927465789
 30
0.0
 10
3.9117927582
 20
21.1928428464
 30
0.0
 10
3.9156212599
 20
21.193757781
 30
0.0
 10
3.9179485382
 20
21.1948172681
 30
0.0
 10
3.9190154527
 20
21.1954322288
 30
0.0
  0
SPLINE
  5
4DA
100
AcDbEntity
  8
0
100
AcDbSpline
 62
9
  6
CONTINUOUS
 70
0
 71
3
 72
18
 73
14
 74
0
 42
0.0000001
 43
0.0000001
 44
0.0000000001
 40
0.0
 40
0.0
 40
0.0
 40
0.0
 40
0.1718617942
 40
0.3453268571
 40
0.5117225564
 40
0.6635150646
 40
0.7936970938
 40
0.8486768258
 40
0.8960858084
 40
0.9353490548
 40
0.9659685983
 40
0.9876184716
 40
1.0
 40
1.0
 40
1.0
 40
1.0
 10
3.9676019297
 20
21.0426257006
 30
0.0
 10
3.9693028497
 20
21.0436127583
 30
0.0
 10
3.9727225599
 20
21.0455926325
 30
0.0
 10
3.9777954339
 20
21.0485171992
 30
0.0
 10
3.9826747486
 20
21.0513176935
 30
0.0
 10
3.9871300694
 20
21.0538619289
 30
0.0
 10
3.9904833291
 20
21.055765102
 30
0.0
 10
3.9928019492
 20
21.0570713341
 30
0.0
 10
3.9942162029
 20
21.0578633065
 30
0.0
 10
3.995389748
 20
21.0585144985
 30
0.0
 10
3.9963079951
 20
21.0590185263
 30
0.0
 10
3.9969605755
 20
21.0593666322
 30
0.0
 10
3.9973061954
 20
21.059546651
 30
0.0
 10
3.9974352609
 20
21.0596050891
 30
0.0
  0
SPLINE
  5
4DB
100
AcDbEntity
  8
0
100
AcDbSpline
 62
9
  6
CONTINUOUS
 70
0
 71
3
 72
18
 73
14
 74
0
 42
0.0000001
 43
0.0000001
 44
0.0000000001
 40
0.0
 40
0.0
 40
0.0
 40
0.0
 40
0.1680541974
 40
0.3402395817
 40
0.5076173073
 40
0.6597729006
 40
0.787268274
 40
0.8401990665
 40
0.8853782684
 40
0.9227870032
 40
0.9533209739
 40
0.9784046784
 40
1.0
 40
1.0
 40
1.0
 40
1.0
 10
3.9815143794
 20
21.0282383622
 30
0.0
 10
3.9809273201
 20
21.0292425051
 30
0.0
 10
3.9796939496
 20
21.0312496185
 30
0.0
 10
3.9777195943
 20
21.0341574828
 30
0.0
 10
3.9756543441
 20
21.0368652134
 30
0.0
 10
3.9736230964
 20
21.0392022191
 30
0.0
 10
3.9719566657
 20
21.0407987606
 30
0.0
 10
3.9707198731
 20
21.0417543247
 30
0.0
 10
3.969928321
 20
21.0422607258
 30
0.0
 10
3.9692189856
 20
21.0425985337
 30
0.0
 10
3.9685948519
 20
21.0427733399
 30
0.0
 10
3.9680542101
 20
21.042792983
 30
0.0
 10
3.9677370497
 20
21.0426977707
 30
0.0
 10
3.9676051094
 20
21.0426275382
 30
0.0
  0
LINE
  5
4DC
100
AcDbEntity
  8
0
100
AcDbLine
 62
7
  6
CONTINUOUS
 10
4.2366052098
 20
21.2882413321
 11
4.2548863906
 21
21.2987959791
  0
SPLINE
  5
4DD
100
AcDbEntity
  8
0
100
AcDbSpline
 62
9
  6
CONTINUOUS
 70
0
 71
3
 72
18
 73
14
 74
0
 42
0.0000001
 43
0.0000001
 44
0.0000000001
 40
0.0
 40
0.0
 40
0.0
 40
0.0
 40
0.0183998678
 40
0.0406174416
 40
0.0687599508
 40
0.1042547494
 40
0.1479683416
 40
0.1998638994
 40
0.3266582377
 40
0.4800381602
 40
0.6503509791
 40
0.8268586372
 40
1.0
 40
1.0
 40
1.0
 40
1.0
 10
4.2136573865
 20
21.1849470829
 30
0.0
 10
4.2137684138
 20
21.1850052636
 30
0.0
 10
4.2140453138
 20
21.1850756715
 30
0.0
 10
4.2145169889
 20
21.1850210003
 30
0.0
 10
4.2150690774
 20
21.1848173084
 30
0.0
 10
4.2157068625
 20
21.1844549645
 30
0.0
 10
4.2164293152
 20
21.1839276268
 30
0.0
 10
4.2175791997
 20
21.1829393489
 30
0.0
 10
4.2191518926
 20
21.1813070708
 30
0.0
 10
4.221101743
 20
21.1789350457
 30
0.0
 10
4.2231188444
 20
21.1761866773
 30
0.0
 10
4.2250779611
 20
21.1732343348
 30
0.0
 10
4.2263173259
 20
21.1711994478
 30
0.0
 10
4.2269117871
 20
21.170180691
 30
0.0
  0
SPLINE
  5
4DE
100
AcDbEntity
  8
0
100
AcDbSpline
 62
9
  6
CONTINUOUS
 70
0
 71
3
 72
18
 73
14
 74
0
 42
0.0000001
 43
0.0000001
 44
0.0000000001
 40
0.0
 40
0.0
 40
0.0
 40
0.0
 40
0.1821152424
 40
0.3581218117
 40
0.5208922839
 40
0.6651106194
 40
0.7863656934
 40
0.8374542214
 40
0.8818472736
 40
0.9195421194
 40
0.9509873454
 40
0.9771786578
 40
1.0
 40
1.0
 40
1.0
 40
1.0
 10
4.011886007
 20
21.0454556972
 30
0.0
 10
4.0112509117
 20
21.046542137
 30
0.0
 10
4.0099514371
 20
21.0486494523
 30
0.0
 10
4.0079186836
 20
21.0516216787
 30
0.0
 10
4.0058863075
 20
21.0542717632
 30
0.0
 10
4.0039365757
 20
21.0565006068
 30
0.0
 10
4.0023588814
 20
21.0580229441
 30
0.0
 10
4.001180661
 20
21.0589496569
 30
0.0
 10
4.0004102343
 20
21.0594557069
 30
0.0
 10
3.9997067947
 20
21.0598084266
 30
0.0
 10
3.9990742009
 20
21.0600060151
 30
0.0
 10
3.9985126679
 20
21.0600458731
 30
0.0
 10
3.9981771175
 20
21.0599517693
 30
0.0
 10
3.9980378856
 20
21.0598777174
 30
0.0
  0
LINE
  5
4DF
100
AcDbEntity
  8
0
100
AcDbLine
 62
9
  6
CONTINUOUS
 10
4.2136577704
 20
21.1849473879
 11
3.9980379315
 21
21.0598776738
  0
LINE
  5
4E0
100
AcDbEntity
  8
0
100
AcDbLine
 62
9
  6
CONTINUOUS
 10
3.9676019297
 20
21.0426257006
 11
3.8897333984
 21
20.9974312513
  0
SPLINE
  5
4E1
100
AcDbEntity
  8
0
100
AcDbSpline
 62
9
  6
CONTINUOUS
 70
0
 71
3
 72
52
 73
48
 74
0
 42
0.0000001
 43
0.0000001
 44
0.0000000001
 40
0.0
 40
0.0
 40
0.0
 40
0.0
 40
0.1086786533
 40
0.2116862356
 40
0.3060366789
 40
0.3492427185
 40
0.3894534105
 40
0.4264162055
 40
0.4599179844
 40
0.4897560422
 40
0.515727729
 40
0.527202489
 40
0.5376478381
 40
0.5470518759
 40
0.5554027263
 40
0.5626885519
 40
0.5688975825
 40
0.5740181731
 40
0.5780389456
 40
0.5809514184
 40
0.582758223
 40
0.5832521467
 40
0.5834005867
 40
0.5834906191
 40
0.5835522677
 40
0.5836477153
 40
0.5838027207
 40
0.5840230421
 40
0.5846658208
 40
0.58558192
 40
0.5867728401
 40
0.5882391481
 40
0.5899810662
 40
0.5919986601
 40
0.5968607463
 40
0.6028222793
 40
0.6098701911
 40
0.6179890393
 40
0.6271633027
 40
0.6373774152
 40
0.6486157839
 40
0.6741028258
 40
0.7034858141
 40
0.7365746903
 40
0.8130612199
 40
0.9017412019
 40
1.0
 40
1.0
 40
1.0
 40
1.0
 10
3.7402846166
 20
20.9119928596
 30
0.0
 10
3.737170639
 20
20.9102017618
 30
0.0
 10
3.7311027202
 20
20.9067172992
 30
0.0
 10
3.7223226591
 20
20.9016930685
 30
0.0
 10
3.7154140223
 20
20.8977558843
 30
0.0
 10
3.7103039763
 20
20.894854981
 30
0.0
 10
3.7068411332
 20
20.8928948762
 30
0.0
 10
3.7036548132
 20
20.8910974368
 30
0.0
 10
3.7007643001
 20
20.8894734621
 30
0.0
 10
3.698187449
 20
20.8880329344
 30
0.0
 10
3.6962431873
 20
20.8869529615
 30
0.0
 10
3.6948570529
 20
20.8861883209
 30
0.0
 10
3.6939493031
 20
20.8856902604
 30
0.0
 10
3.6931308541
 20
20.8852441109
 30
0.0
 10
3.692402764
 20
20.8848504244
 30
0.0
 10
3.6917660614
 20
20.8845097408
 30
0.0
 10
3.6912218826
 20
20.8842225901
 30
0.0
 10
3.690771078
 20
20.8839894582
 30
0.0
 10
3.6904152668
 20
20.8838107544
 30
0.0
 10
3.6901537179
 20
20.8836864286
 30
0.0
 10
3.6899965499
 20
20.883618518
 30
0.0
 10
3.6899181491
 20
20.88359314
 30
0.0
 10
3.6898948117
 20
20.8835903377
 30
0.0
 10
3.6898837643
 20
20.8835908598
 30
0.0
 10
3.6898796581
 20
20.8835993627
 30
0.0
 10
3.6898853019
 20
20.8836090723
 30
0.0
 10
3.6898944464
 20
20.883621168
 30
0.0
 10
3.689918409
 20
20.8836452696
 30
0.0
 10
3.6899632429
 20
20.8836830887
 30
0.0
 10
3.6900355308
 20
20.8837383771
 30
0.0
 10
3.6901313611
 20
20.8838073785
 30
0.0
 10
3.6902509135
 20
20.8838901885
 30
0.0
 10
3.6903941668
 20
20.88398671
 30
0.0
 10
3.6906320151
 20
20.8841437037
 30
0.0
 10
3.6909888814
 20
20.8843735363
 30
0.0
 10
3.6914883514
 20
20.8846889818
 30
0.0
 10
3.6920811762
 20
20.8850581845
 30
0.0
 10
3.6927661047
 20
20.8854803605
 30
0.0
 10
3.6935418305
 20
20.8859546747
 30
0.0
 10
3.6944070329
 20
20.8864803111
 30
0.0
 10
3.6957349589
 20
20.8872827994
 30
0.0
 10
3.697608588
 20
20.8884073423
 30
0.0
 10
3.7001057205
 20
20.8898965119
 30
0.0
 10
3.7040558952
 20
20.8922404095
 30
0.0
 10
3.7097008211
 20
20.895569113
 30
0.0
 10
3.7172121984
 20
20.8999735168
 30
0.0
 10
3.7225486264
 20
20.9030888177
 30
0.0
 10
3.7253548681
 20
20.9047240372
 30
0.0
  0
LINE
  5
4E2
100
AcDbEntity
  8
0
100
AcDbLine
 62
9
  6
CONTINUOUS
 10
3.7253548681
 20
20.9047240372
 11
3.7391726157
 21
20.9127719231
  0
SPLINE
  5
4E3
100
AcDbEntity
  8
0
100
AcDbSpline
 62
9
  6
CONTINUOUS
 70
0
 71
3
 72
12
 73
8
 74
0
 42
0.0000001
 43
0.0000001
 44
0.0000000001
 40
0.0
 40
0.0
 40
0.0
 40
0.0
 40
0.295416982
 40
0.5717537221
 40
0.8116327431
 40
0.9131019827
 40
1.0
 40
1.0
 40
1.0
 40
1.0
 10
3.8885877303
 20
20.9993756539
 30
0.0
 10
3.9205099237
 20
21.0178034339
 30
0.0
 10
3.9823305298
 20
21.0534030399
 30
0.0
 10
4.0702032641
 20
21.1037375967
 30
0.0
 10
4.1371814021
 20
21.141863245
 30
0.0
 10
4.1837007563
 20
21.1681498438
 30
0.0
 10
4.2041932568
 20
21.1796579057
 30
0.0
 10
4.2136577704
 20
21.1849473879
 30
0.0
  0
LINE
  5
4E4
100
AcDbEntity
  8
0
100
AcDbLine
 62
9
  6
CONTINUOUS
 10
3.8113203708
 20
21.1332465633
 11
3.889399229
 21
21.1780883661
  0
LINE
  5
4E5
100
AcDbEntity
  8
0
100
AcDbLine
 62
9
  6
CONTINUOUS
 10
3.919552887
 20
21.195817864
 11
4.1356761075
 21
21.3200151221
  0
SPLINE
  5
4E6
100
AcDbEntity
  8
0
100
AcDbSpline
 62
9
  6
CONTINUOUS
 70
0
 71
3
 72
12
 73
8
 74
0
 42
0.0000001
 43
0.0000001
 44
0.0000000001
 40
0.0
 40
0.0
 40
0.0
 40
0.0
 40
0.0868977891
 40
0.1883668997
 40
0.4282459044
 40
0.7045828031
 40
1.0
 40
1.0
 40
1.0
 40
1.0
 10
4.1356761075
 20
21.3200151221
 30
0.0
 10
4.1263630589
 20
21.3144633732
 30
0.0
 10
4.1061505937
 20
21.3024704116
 30
0.0
 10
4.0601261407
 20
21.2753268177
 30
0.0
 10
3.9936193565
 20
21.2363849096
 30
0.0
 10
3.9060920326
 20
21.1854521957
 30
0.0
 10
3.8443515869
 20
21.1497137955
 30
0.0
 10
3.8124315728
 20
21.1312822602
 30
0.0
  0
SPLINE
  5
4E7
100
AcDbEntity
  8
0
100
AcDbSpline
 62
9
  6
CONTINUOUS
 70
0
 71
3
 72
52
 73
48
 74
0
 42
0.0000001
 43
0.0000001
 44
0.0000000001
 40
0.0
 40
0.0
 40
0.0
 40
0.0
 40
0.0982547878
 40
0.1869296776
 40
0.2634103437
 40
0.2964960605
 40
0.3258757223
 40
0.3513592953
 40
0.3625958851
 40
0.3728081852
 40
0.3819805996
 40
0.3900975592
 40
0.3971435401
 40
0.4031030971
 40
0.4079631779
 40
0.4099797652
 40
0.4117206739
 40
0.4131859699
 40
0.4143758759
 40
0.4152909604
 40
0.4159327293
 40
0.4161525549
 40
0.416307085
 40
0.4164021355
 40
0.4164637534
 40
0.4165541653
 40
0.4167030798
 40
0.4171980182
 40
0.4190069181
 40
0.4219215248
 40
0.4259444424
 40
0.4310671661
 40
0.4372783168
 40
0.4445662491
 40
0.4529191922
 40
0.4623253084
 40
0.4727727214
 40
0.4842495306
 40
0.5102251812
 40
0.5400669939
 40
0.5735723573
 40
0.6105386049
 40
0.6507525646
 40
0.6939615043
 40
0.7883160014
 40
0.8913241275
 40
1.0
 40
1.0
 40
1.0
 40
1.0
 10
3.6488435132
 20
21.0372437372
 30
0.0
 10
3.6460241167
 20
21.0356309934
 30
0.0
 10
3.6406577596
 20
21.0325670402
 30
0.0
 10
3.6330875048
 20
21.0282640653
 30
0.0
 10
3.6273821999
 20
21.0250397158
 30
0.0
 10
3.6233772372
 20
21.0227907182
 30
0.0
 10
3.6208390731
 20
21.0213727615
 30
0.0
 10
3.6189284525
 20
21.0203124703
 30
0.0
 10
3.6175695965
 20
21.0195637471
 30
0.0
 10
3.6166818583
 20
21.0190773246
 30
0.0
 10
3.6158833158
 20
21.0186427364
 30
0.0
 10
3.6151753364
 20
21.0182607184
 30
0.0
 10
3.614559297
 20
21.0179319845
 30
0.0
 10
3.6140365017
 20
21.0176572264
 30
0.0
 10
3.6136591375
 20
21.0174631523
 30
0.0
 10
3.6134043455
 20
21.0173357218
 30
0.0
 10
3.6132492023
 20
21.0172599645
 30
0.0
 10
3.6131177861
 20
21.0171978786
 30
0.0
 10
3.6130101932
 20
21.0171494326
 30
0.0
 10
3.6129262464
 20
21.0171145215
 30
0.0
 10
3.6128711506
 20
21.0170946403
 30
0.0
 10
3.6128383461
 20
21.0170859759
 30
0.0
 10
3.6128233488
 20
21.0170841217
 30
0.0
 10
3.6128121288
 20
21.0170841235
 30
0.0
 10
3.6128069017
 20
21.0170919852
 30
0.0
 10
3.6128120188
 20
21.0171018053
 30
0.0
 10
3.6128261688
 20
21.0171206633
 30
0.0
 10
3.6128874635
 20
21.0171759133
 30
0.0
 10
3.6130250169
 20
21.0172781894
 30
0.0
 10
3.6132636673
 20
21.017442642
 30
0.0
 10
3.6135965472
 20
21.0176615626
 30
0.0
 10
3.6140240697
 20
21.0179355321
 30
0.0
 10
3.6145450675
 20
21.0182633634
 30
0.0
 10
3.6151586954
 20
21.018644559
 30
0.0
 10
3.6158639258
 20
21.0190784014
 30
0.0
 10
3.6166597768
 20
21.019564269
 30
0.0
 10
3.6175452412
 20
21.0201015215
 30
0.0
 10
3.618900859
 20
21.0209198324
 30
0.0
 10
3.6208087238
 20
21.0220638858
 30
0.0
 10
3.6233452328
 20
21.0235755575
 30
0.0
 10
3.626197456
 20
21.0252671521
 30
0.0
 10
3.6293478203
 20
21.027128197
 30
0.0
 10
3.6327773238
 20
21.0291473873
 30
0.0
 10
3.6378453477
 20
21.0321227901
 30
0.0
 10
3.6447101944
 20
21.0361377229
 30
0.0
 10
3.6534521659
 20
21.0412298354
 30
0.0
 10
3.6595042308
 20
21.0447428473
 30
0.0
 10
3.662612551
 20
21.0465441952
 30
0.0
  0
LINE
  5
4E8
100
AcDbEntity
  8
0
100
AcDbLine
 62
9
  6
CONTINUOUS
 10
3.9002429001
 20
20.9810684869
 11
3.9815136801
 21
21.0282375017
  0
SPLINE
  5
4E9
100
AcDbEntity
  8
0
100
AcDbSpline
 62
9
  6
CONTINUOUS
 70
0
 71
3
 72
19
 73
15
 74
0
 42
0.0000001
 43
0.0000001
 44
0.0000000001
 40
0.0
 40
0.0
 40
0.0
 40
0.0
 40
0.167693736
 40
0.33050196
 40
0.4829727185
 40
0.6210289802
 40
0.6836737387
 40
0.7416349891
 40
0.7947912405
 40
0.843236445
 40
0.8872527899
 40
0.9274049804
 40
0.9645877355
 40
1.0
 40
1.0
 40
1.0
 40
1.0
 10
3.6676964706
 20
20.948715091
 30
0.0
 10
3.6698745389
 20
20.9449712364
 30
0.0
 10
3.6744686866
 20
20.937763371
 30
0.0
 10
3.6820250827
 20
20.9278187549
 30
0.0
 10
3.6899414238
 20
20.9191677466
 30
0.0
 10
3.6967991997
 20
20.9131144405
 30
0.0
 10
3.7022445699
 20
20.9092341042
 30
0.0
 10
3.7060986641
 20
20.9069235409
 30
0.0
 10
3.709822061
 20
20.9051404229
 30
0.0
 10
3.7133821064
 20
20.9038986493
 30
0.0
 10
3.7167512203
 20
20.9032140575
 30
0.0
 10
3.7199008747
 20
20.9031043857
 30
0.0
 10
3.7227957027
 20
20.9035714068
 30
0.0
 10
3.7245528776
 20
20.9042810717
 30
0.0
 10
3.7253535295
 20
20.9047232865
 30
0.0
  0
SPLINE
  5
4EA
100
AcDbEntity
  8
0
100
AcDbSpline
 62
9
  6
CONTINUOUS
 70
0
 71
3
 72
17
 73
13
 74
0
 42
0.0000001
 43
0.0000001
 44
0.0000000001
 40
0.0
 40
0.0
 40
0.0
 40
0.0
 40
0.1239513696
 40
0.2479728478
 40
0.372171679
 40
0.4344865148
 40
0.4968776066
 40
0.6217802428
 40
0.7472368878
 40
0.8102192217
 40
0.8733539184
 40
1.0
 40
1.0
 40
1.0
 40
1.0
 10
4.2422306724
 20
21.2785034083
 30
0.0
 10
4.2444820074
 20
21.2746197188
 30
0.0
 10
4.2481543829
 20
21.2663364612
 30
0.0
 10
4.2509477024
 20
21.2530541429
 30
0.0
 10
4.2508863654
 20
21.2417181124
 30
0.0
 10
4.2494703059
 20
21.2328031637
 30
0.0
 10
4.2471605097
 20
21.2240487417
 30
0.0
 10
4.2426231565
 20
21.2135860364
 30
0.0
 10
4.236183333
 20
21.2041580124
 30
0.0
 10
4.2300459458
 20
21.1974087647
 30
0.0
 10
4.2232964398
 20
21.191211517
 30
0.0
 10
4.2176274207
 20
21.1872451069
 30
0.0
 10
4.2136578401
 20
21.1849473472
 30
0.0
  0
LINE
  5
4EB
100
AcDbEntity
  8
0
100
AcDbLine
 62
9
  6
CONTINUOUS
 10
4.1295147137
 20
21.3388767921
 11
3.9139867069
 21
21.2150214477
  0
SPLINE
  5
4EC
100
AcDbEntity
  8
0
100
AcDbSpline
 62
9
  6
CONTINUOUS
 70
0
 71
3
 72
18
 73
14
 74
0
 42
0.0000001
 43
0.0000001
 44
0.0000000001
 40
0.0
 40
0.0
 40
0.0
 40
0.0
 40
0.1731413637
 40
0.3496490174
 40
0.5199618328
 40
0.6733417379
 40
0.8001360748
 40
0.852031639
 40
0.8957452323
 40
0.9312400354
 40
0.9593825579
 40
0.9816001409
 40
1.0
 40
1.0
 40
1.0
 40
1.0
 10
4.1295152421
 20
21.3388770508
 30
0.0
 10
4.1301002779
 20
21.3378528516
 30
0.0
 10
4.1312428535
 20
21.3357620823
 30
0.0
 10
4.1328200898
 20
21.3325892601
 30
0.0
 10
4.1341916872
 20
21.3294682094
 30
0.0
 10
4.1352709878
 20
21.3265935726
 30
0.0
 10
4.1358982295
 20
21.3244154389
 30
0.0
 10
4.1361791572
 20
21.3229254693
 30
0.0
 10
4.1362746164
 20
21.3220361373
 30
0.0
 10
4.136269521
 20
21.3213026268
 30
0.0
 10
4.136169878
 20
21.3207226579
 30
0.0
 10
4.1359813866
 20
21.3202868397
 30
0.0
 10
4.1357819614
 20
21.3200822411
 30
0.0
 10
4.1356760618
 20
21.320015179
 30
0.0
  0
SPLINE
  5
4ED
100
AcDbEntity
  8
0
100
AcDbSpline
 62
9
  6
CONTINUOUS
 70
0
 71
3
 72
18
 73
14
 74
0
 42
0.0000001
 43
0.0000001
 44
0.0000000001
 40
0.0
 40
0.0
 40
0.0
 40
0.0
 40
0.0230429502
 40
0.0493562737
 40
0.0808061373
 40
0.1183989449
 40
0.162612401
 40
0.2135190198
 40
0.3346360955
 40
0.4790240435
 40
0.6419353468
 40
0.8179348542
 40
1.0
 40
1.0
 40
1.0
 40
1.0
 10
3.9195529913
 20
21.1958178539
 30
0.0
 10
3.9196880949
 20
21.1959021755
 30
0.0
 10
3.9199399055
 20
21.1961464662
 30
0.0
 10
3.9201895356
 20
21.196653973
 30
0.0
 10
3.9203355114
 20
21.197300912
 30
0.0
 10
3.9203790046
 20
21.198085001
 30
0.0
 10
3.9203194064
 20
21.1990018373
 30
0.0
 10
3.9200954167
 20
21.2004807221
 30
0.0
 10
3.9195593802
 20
21.2026051384
 30
0.0
 10
3.9186246236
 20
21.2054163515
 30
0.0
 10
3.9173647109
 20
21.2085126289
 30
0.0
 10
3.9158032883
 20
21.2117591185
 30
0.0
 10
3.9146169816
 20
21.213932306
 30
0.0
 10
3.9139871809
 20
21.2150216687
 30
0.0
  0
SPLINE
  5
4EE
100
AcDbEntity
  8
0
100
AcDbSpline
 62
9
  6
CONTINUOUS
 70
0
 71
3
 72
17
 73
13
 74
0
 42
0.0000001
 43
0.0000001
 44
0.0000000001
 40
0.0
 40
0.0
 40
0.0
 40
0.0
 40
0.1266459785
 40
0.1897810331
 40
0.2527636795
 40
0.3782203432
 40
0.5031228216
 40
0.5655140395
 40
0.6278290729
 40
0.7520278299
 40
0.876048082
 40
1.0
 40
1.0
 40
1.0
 40
1.0
 10
4.1356761335
 20
21.3200152184
 30
0.0
 10
4.1396508408
 20
21.3223041057
 30
0.0
 10
4.1459203805
 20
21.3252304239
 30
0.0
 10
4.1546621339
 20
21.3279770756
 30
0.0
 10
4.163575879
 20
21.3299176255
 30
0.0
 10
4.1749607227
 20
21.3307807048
 30
0.0
 10
4.1862903875
 20
21.3294787998
 30
0.0
 10
4.1950268491
 20
21.3271018955
 30
0.0
 10
4.2034554639
 20
21.3238707334
 30
0.0
 10
4.2133034097
 20
21.3182558725
 30
0.0
 10
4.2234096392
 20
21.3091957033
 30
0.0
 10
4.2287469327
 20
21.3018736865
 30
0.0
 10
4.2309846401
 20
21.2979820979
 30
0.0
  0
SPLINE
  5
4EF
100
AcDbEntity
  8
0
100
AcDbSpline
 62
7
  6
CONTINUOUS
 70
0
 71
3
 72
25
 73
21
 74
0
 42
0.0000001
 43
0.0000001
 44
0.0000000001
 40
0.0
 40
0.0
 40
0.0
 40
0.0
 40
0.0759612643
 40
0.1520128802
 40
0.2279195079
 40
0.3037688928
 40
0.3795643514
 40
0.4553984209
 40
0.5311680856
 40
0.5690669761
 40
0.6068742355
 40
0.644550308
 40
0.6819980314
 40
0.742862229
 40
0.7736473785
 40
0.8038135495
 40
0.8410540375
 40
0.8864564046
 40
0.9397156228
 40
1.0
 40
1.0
 40
1.0
 40
1.0
 10
3.5984540496
 20
20.9080889539
 30
0.0
 10
3.6001791316
 20
20.9051018553
 30
0.0
 10
3.604104572
 20
20.8993843352
 30
0.0
 10
3.6112252962
 20
20.8918191258
 30
0.0
 10
3.6194312022
 20
20.8854507774
 30
0.0
 10
3.628507665
 20
20.8804271284
 30
0.0
 10
3.6382458619
 20
20.876858425
 30
0.0
 10
3.6484127919
 20
20.8748346887
 30
0.0
 10
3.6570477615
 20
20.8744669023
 30
0.0
 10
3.6639132108
 20
20.8749747962
 30
0.0
 10
3.6690093003
 20
20.875744747
 30
0.0
 10
3.6740112869
 20
20.8768992747
 30
0.0
 10
3.6799085374
 20
20.8787489307
 30
0.0
 10
3.6853173793
 20
20.8810504778
 30
0.0
 10
3.6902138464
 20
20.8836254546
 30
0.0
 10
3.6941278577
 20
20.8857615887
 30
0.0
 10
3.6986046859
 20
20.888251707
 30
0.0
 10
3.7039855149
 20
20.8912737608
 30
0.0
 10
3.7102681317
 20
20.8948270537
 30
0.0
 10
3.7147505224
 20
20.897375261
 30
0.0
 10
3.7171292294
 20
20.8987302228
 30
0.0
  0
LINE
  5
4F0
100
AcDbEntity
  8
0
100
AcDbLine
 62
7
  6
CONTINUOUS
 10
3.7305609104
 20
20.9064064433
 11
3.7401997348
 21
20.9119410144
  0
LINE
  5
4F1
100
AcDbEntity
  8
0
100
AcDbLine
 62
7
  6
CONTINUOUS
 10
3.7401998301
 20
20.9119413516
 11
3.7869145971
 21
20.938846466
  0
LINE
  5
4F2
100
AcDbEntity
  8
0
100
AcDbLine
 62
7
  6
CONTINUOUS
 10
3.7869145971
 20
20.938846466
 11
3.852699282
 21
20.9768607673
  0
LINE
  5
4F3
100
AcDbEntity
  8
0
100
AcDbLine
 62
7
  6
CONTINUOUS
 10
3.852699282
 20
20.9768607673
 11
3.8893184559
 21
20.9980864592
  0
LINE
  5
4F4
100
AcDbEntity
  8
0
100
AcDbLine
 62
7
  6
CONTINUOUS
 10
3.6625169614
 20
21.0464918277
 11
3.6512976698
 21
21.0399769224
  0
LINE
  5
4F5
100
AcDbEntity
  8
0
100
AcDbLine
 62
7
  6
CONTINUOUS
 10
3.6512976698
 20
21.0399769224
 11
3.6419614287
 21
21.0345330107
  0
SPLINE
  5
4F6
100
AcDbEntity
  8
0
100
AcDbSpline
 62
7
  6
CONTINUOUS
 70
0
 71
3
 72
26
 73
22
 74
0
 42
0.0000001
 43
0.0000001
 44
0.0000000001
 40
0.0
 40
0.0
 40
0.0
 40
0.0
 40
0.0622249944
 40
0.1176015646
 40
0.1651668589
 40
0.204413512
 40
0.2359321789
 40
0.2499339228
 40
0.2650716123
 40
0.2867799259
 40
0.3190054911
 40
0.355821122
 40
0.3934063302
 40
0.4690145309
 40
0.5447576128
 40
0.6205487721
 40
0.6963344724
 40
0.7721632006
 40
0.8480381093
 40
0.9240505014
 40
1.0
 40
1.0
 40
1.0
 40
1.0
 10
3.6419614287
 20
21.0345330107
 30
0.0
 10
3.6394717161
 20
21.0330780883
 30
0.0
 10
3.6347685561
 20
21.0303245154
 30
0.0
 10
3.6281713433
 20
21.0264432717
 30
0.0
 10
3.6225010495
 20
21.0230865414
 30
0.0
 10
3.6177935079
 20
21.0202740172
 30
0.0
 10
3.6144334509
 20
21.018238755
 30
0.0
 10
3.6120455903
 20
21.0167554317
 30
0.0
 10
3.6100587525
 20
21.0154882954
 30
0.0
 10
3.607408924
 20
21.0136913074
 30
0.0
 10
3.6040519997
 20
21.011153233
 30
0.0
 10
3.6003246476
 20
21.007901549
 30
0.0
 10
3.5954511913
 20
21.0029359868
 30
0.0
 10
3.5900656596
 20
20.9959827626
 30
0.0
 10
3.584984491
 20
20.9867153433
 30
0.0
 10
3.5814153015
 20
20.9767572546
 30
0.0
 10
3.5794525014
 20
20.9663586056
 30
0.0
 10
3.5791464331
 20
20.9557771749
 30
0.0
 10
3.5805049405
 20
20.9452670052
 30
0.0
 10
3.5835079214
 20
20.9351009089
 30
0.0
 10
3.586548504
 20
20.9287107307
 30
0.0
 10
3.5883080092
 20
20.9256624031
 30
0.0
  0
LINE
  5
4F7
100
AcDbEntity
  8
0
100
AcDbLine
 62
7
  6
CONTINUOUS
 10
3.8116804877
 20
21.1325593386
 11
3.774240603
 21
21.1110287965
  0
LINE
  5
4F8
100
AcDbEntity
  8
0
100
AcDbLine
 62
7
  6
CONTINUOUS
 10
3.774240603
 20
21.1110287965
 11
3.7013894828
 21
21.068994779
  0
LINE
  5
4F9
100
AcDbEntity
  8
0
100
AcDbLine
 62
7
  6
CONTINUOUS
 10
3.7013894828
 20
21.068994779
 11
3.6625174686
 21
21.0464915735
  0
LINE
  5
4FA
100
AcDbEntity
  8
0
100
AcDbLine
 62
9
  6
CONTINUOUS
 10
4.2605239806
 20
21.2891011661
 11
4.2548775289
 21
21.2987908604
  0
SPLINE
  5
4FB
100
AcDbEntity
  8
0
100
AcDbSpline
 62
9
  6
CONTINUOUS
 70
0
 71
3
 72
22
 73
18
 74
0
 42
0.0000001
 43
0.0000001
 44
0.0000000001
 40
0.0
 40
0.0
 40
0.0
 40
0.0
 40
0.061848694
 40
0.1237881668
 40
0.1856631701
 40
0.247572116
 40
0.3096618618
 40
0.371938173
 40
0.4343065301
 40
0.4967051532
 40
0.5279415976
 40
0.5592205056
 40
0.6219126897
 40
0.6847762514
 40
0.747722762
 40
0.8737837908
 40
1.0
 40
1.0
 40
1.0
 40
1.0
 10
4.2269115495
 20
21.1701805089
 30
0.0
 10
4.2293185712
 20
21.171666776
 30
0.0
 10
4.2340528387
 20
21.1747806249
 30
0.0
 10
4.2407997139
 20
21.1799516667
 30
0.0
 10
4.247072035
 20
21.1857014893
 30
0.0
 10
4.2527014567
 20
21.1920940374
 30
0.0
 10
4.2576639729
 20
21.1990360426
 30
0.0
 10
4.2619693691
 20
21.2064258366
 30
0.0
 10
4.2656118924
 20
21.2141795098
 30
0.0
 10
4.2680178427
 20
21.2209109756
 30
0.0
 10
4.2695197205
 20
21.2264259824
 30
0.0
 10
4.2707253847
 20
21.2320270266
 30
0.0
 10
4.2716774478
 20
21.2391509363
 30
0.0
 10
4.2719589595
 20
21.247782136
 30
0.0
 10
4.2712227487
 20
21.2592945709
 30
0.0
 10
4.2681985866
 20
21.2734880126
 30
0.0
 10
4.2634870707
 20
21.2841465715
 30
0.0
 10
4.2605239806
 20
21.2891011661
 30
0.0
  0
SPLINE
  5
4FC
100
AcDbEntity
  8
0
100
AcDbSpline
 62
9
  6
CONTINUOUS
 70
0
 71
3
 72
18
 73
14
 74
0
 42
0.0000001
 43
0.0000001
 44
0.0000000001
 40
0.0
 40
0.0
 40
0.0
 40
0.0
 40
0.012385548
 40
0.0340448275
 40
0.064672637
 40
0.1039379809
 40
0.1513441419
 40
0.2063184385
 40
0.336492252
 40
0.4882804212
 40
0.6546700207
 40
0.8281335907
 40
1.0
 40
1.0
 40
1.0
 40
1.0
 10
3.9190161751
 20
21.1954326252
 30
0.0
 10
3.9189009852
 20
21.1953500937
 30
0.0
 10
3.9185721858
 20
21.1951407501
 30
0.0
 10
3.9179443081
 20
21.1947495711
 30
0.0
 10
3.9170486377
 20
21.1942062912
 30
0.0
 10
3.9158980148
 20
21.1935156097
 30
0.0
 10
3.9145052807
 20
21.1926869712
 30
0.0
 10
3.9122152273
 20
21.1913324014
 30
0.0
 10
3.9088910581
 20
21.1893803619
 30
0.0
 10
3.9044608518
 20
21.1867945282
 30
0.0
 10
3.8995967114
 20
21.183969641
 30
0.0
 10
3.8945282974
 20
21.1810391003
 30
0.0
 10
3.8911042877
 20
21.1790677369
 30
0.0
 10
3.8893992036
 20
21.1780883515
 30
0.0
  0
SPLINE
  5
4FD
100
AcDbEntity
  8
0
100
AcDbSpline
 62
9
  6
CONTINUOUS
 70
0
 71
3
 72
14
 73
10
 74
0
 42
0.0000001
 43
0.0000001
 44
0.0000000001
 40
0.0
 40
0.0
 40
0.0
 40
0.0
 40
0.2388183077
 40
0.3680976551
 40
0.5000609583
 40
0.6319163028
 40
0.7609056435
 40
0.8840707346
 40
1.0
 40
1.0
 40
1.0
 40
1.0
 10
3.8916633136
 20
21.2036479526
 30
0.0
 10
3.8928084031
 20
21.2013842526
 30
0.0
 10
3.895288052
 20
21.1981940285
 30
0.0
 10
3.8996769259
 20
21.1951537578
 30
0.0
 10
3.903548643
 20
21.1934999908
 30
0.0
 10
3.9076850729
 20
21.1927466146
 30
0.0
 10
3.911792732
 20
21.1928428887
 30
0.0
 10
3.9156212321
 20
21.1937578282
 30
0.0
 10
3.9179485096
 20
21.1948173173
 30
0.0
 10
3.919015424
 20
21.1954322787
 30
0.0
  0
SPLINE
  5
4FE
100
AcDbEntity
  8
0
100
AcDbSpline
 62
9
  6
CONTINUOUS
 70
0
 71
3
 72
18
 73
14
 74
0
 42
0.0000001
 43
0.0000001
 44
0.0000000001
 40
0.0
 40
0.0
 40
0.0
 40
0.0
 40
0.1710190871
 40
0.3435976921
 40
0.5096545933
 40
0.6611092953
 40
0.7905161311
 40
0.8453757989
 40
0.892959437
 40
0.9327339789
 40
0.9641703039
 40
0.9867502478
 40
1.0
 40
1.0
 40
1.0
 40
1.0
 10
3.9815142606
 20
21.0282385649
 30
0.0
 10
3.9820414959
 20
21.0284587984
 30
0.0
 10
3.9831026271
 20
21.0288968466
 30
0.0
 10
3.9846811185
 20
21.0295354998
 30
0.0
 10
3.9862032682
 20
21.0301390328
 30
0.0
 10
3.987595638
 20
21.030678413
 30
0.0
 10
3.9886457859
 20
21.0310726376
 30
0.0
 10
3.9893740278
 20
21.031336638
 30
0.0
 10
3.989822201
 20
21.0314946082
 30
0.0
 10
3.9901981019
 20
21.0316217509
 30
0.0
 10
3.990496685
 20
21.031717678
 30
0.0
 10
3.9907126044
 20
21.0317784544
 30
0.0
 10
3.9908296796
 20
21.0318069039
 30
0.0
 10
3.9908738229
 20
21.0318102255
 30
0.0
  0
SPLINE
  5
4FF
100
AcDbEntity
  8
0
100
AcDbSpline
 62
9
  6
CONTINUOUS
 70
0
 71
3
 72
18
 73
14
 74
0
 42
0.0000001
 43
0.0000001
 44
0.0000000001
 40
0.0
 40
0.0
 40
0.0
 40
0.0
 40
0.013249784
 40
0.0358297591
 40
0.0672661141
 40
0.1070406842
 40
0.1546243483
 40
0.2094840395
 40
0.3388909117
 40
0.4903456335
 40
0.6564025224
 40
0.8289810594
 40
1.0
 40
1.0
 40
1.0
 40
1.0
 10
3.8916636664
 20
21.2036472557
 30
0.0
 10
3.8916387179
 20
21.2036106872
 30
0.0
 10
3.8915555422
 20
21.2035235218
 30
0.0
 10
3.8913949484
 20
21.203366918
 30
0.0
 10
3.8911625813
 20
21.2031563008
 30
0.0
 10
3.8908645218
 20
21.2028943324
 30
0.0
 10
3.8905036288
 20
21.202585188
 30
0.0
 10
3.8899108766
 20
21.202086512
 30
0.0
 10
3.8890443939
 20
21.2013741694
 30
0.0
 10
3.887881092
 20
21.2004380319
 30
0.0
 10
3.8865973423
 20
21.1994215783
 30
0.0
 10
3.8852550074
 20
21.1983738917
 30
0.0
 10
3.8843450815
 20
21.1976739497
 30
0.0
 10
3.8838907365
 20
21.1973274676
 30
0.0
  0
SPLINE
  5
500
100
AcDbEntity
  8
0
100
AcDbSpline
 62
9
  6
CONTINUOUS
 70
0
 71
3
 72
14
 73
10
 74
0
 42
0.0000001
 43
0.0000001
 44
0.0000000001
 40
0.0
 40
0.0
 40
0.0
 40
0.0
 40
0.1159300682
 40
0.2390957174
 40
0.36808525
 40
0.4999405828
 40
0.6319035807
 40
0.7611825166
 40
1.0
 40
1.0
 40
1.0
 40
1.0
 10
3.9974349301
 20
21.0596048092
 30
0.0
 10
3.9963689197
 20
21.058988294
 30
0.0
 10
3.9942877839
 20
21.0575025175
 30
0.0
 10
3.991581253
 20
21.0546443747
 30
0.0
 10
3.9894441381
 20
21.0511351673
 30
0.0
 10
3.9880284517
 20
21.0471762501
 30
0.0
 10
3.9875248617
 20
21.0429964119
 30
0.0
 10
3.9879634327
 20
21.0376754851
 30
0.0
 10
3.9894864228
 20
21.0339330045
 30
0.0
 10
3.9908742864
 20
21.0318095152
 30
0.0
  0
SPLINE
  5
501
100
AcDbEntity
  8
0
100
AcDbSpline
 62
9
  6
CONTINUOUS
 70
0
 71
3
 72
18
 73
14
 74
0
 42
0.0000001
 43
0.0000001
 44
0.0000000001
 40
0.0
 40
0.0
 40
0.0
 40
0.0
 40
0.1680542537
 40
0.3402396943
 40
0.5076174674
 40
0.6597730899
 40
0.7872684643
 40
0.8401992454
 40
0.8853784272
 40
0.9227871327
 40
0.9533210653
 40
0.978404725
 40
1.0
 40
1.0
 40
1.0
 40
1.0
 10
3.9815143808
 20
21.0282383631
 30
0.0
 10
3.9809273204
 20
21.0292425076
 30
0.0
 10
3.9796939477
 20
21.0312496243
 30
0.0
 10
3.9777195891
 20
21.0341574935
 30
0.0
 10
3.9756543359
 20
21.0368652287
 30
0.0
 10
3.9736230857
 20
21.0392022385
 30
0.0
 10
3.9719566534
 20
21.0407987829
 30
0.0
 10
3.9707198599
 20
21.0417543489
 30
0.0
 10
3.9699283073
 20
21.042260751
 30
0.0
 10
3.9692189718
 20
21.0425985596
 30
0.0
 10
3.9685948381
 20
21.0427733663
 30
0.0
 10
3.9680541965
 20
21.0427930096
 30
0.0
 10
3.9677370363
 20
21.0426977972
 30
0.0
 10
3.9676050961
 20
21.0426275647
 30
0.0
  0
LINE
  5
502
100
AcDbEntity
  8
0
100
AcDbLine
 62
9
  6
CONTINUOUS
 10
4.2422293847
 20
21.2785026824
 11
4.236606441
 21
21.2882420429
  0
SPLINE
  5
503
100
AcDbEntity
  8
0
100
AcDbSpline
 62
9
  6
CONTINUOUS
 70
0
 71
3
 72
18
 73
14
 74
0
 42
0.0000001
 43
0.0000001
 44
0.0000000001
 40
0.0
 40
0.0
 40
0.0
 40
0.0
 40
0.0183989396
 40
0.0406158199
 40
0.0687578675
 40
0.1042523864
 40
0.1479658356
 40
0.1998613546
 40
0.3266558528
 40
0.4800361664
 40
0.650349545
 40
0.8268578877
 40
1.0
 40
1.0
 40
1.0
 40
1.0
 10
4.2136575166
 20
21.1849471583
 30
0.0
 10
4.2137685387
 20
21.1850053338
 30
0.0
 10
4.2140454293
 20
21.1850757297
 30
0.0
 10
4.2145170853
 20
21.1850210416
 30
0.0
 10
4.2150691545
 20
21.1848173352
 30
0.0
 10
4.2157069206
 20
21.1844549783
 30
0.0
 10
4.2164293551
 20
21.1839276291
 30
0.0
 10
4.2175792156
 20
21.1829393357
 30
0.0
 10
4.2191518818
 20
21.1813070443
 30
0.0
 10
4.2211017086
 20
21.1789350109
 30
0.0
 10
4.2231187944
 20
21.1761866394
 30
0.0
 10
4.2250779045
 20
21.1732342985
 30
0.0
 10
4.2263172701
 20
21.1711994152
 30
0.0
 10
4.2269117332
 20
21.1701806606
 30
0.0
  0
SPLINE
  5
504
100
AcDbEntity
  8
0
100
AcDbSpline
 62
9
  6
CONTINUOUS
 70
0
 71
3
 72
18
 73
14
 74
0
 42
0.0000001
 43
0.0000001
 44
0.0000000001
 40
0.0
 40
0.0
 40
0.0
 40
0.0
 40
0.1821152431
 40
0.3581218124
 40
0.5208922842
 40
0.6651106192
 40
0.7863656927
 40
0.8374542206
 40
0.8818472728
 40
0.9195421188
 40
0.950987345
 40
0.9771786576
 40
1.0
 40
1.0
 40
1.0
 40
1.0
 10
4.0118860071
 20
21.0454556969
 30
0.0
 10
4.0112509118
 20
21.0465421366
 30
0.0
 10
4.0099514373
 20
21.0486494519
 30
0.0
 10
4.0079186837
 20
21.0516216782
 30
0.0
 10
4.0058863077
 20
21.0542717626
 30
0.0
 10
4.0039365759
 20
21.0565006061
 30
0.0
 10
4.0023588817
 20
21.0580229433
 30
0.0
 10
4.0011806613
 20
21.0589496561
 30
0.0
 10
4.0004102347
 20
21.0594557061
 30
0.0
 10
3.9997067951
 20
21.0598084257
 30
0.0
 10
3.9990742012
 20
21.0600060142
 30
0.0
 10
3.9985126683
 20
21.0600458723
 30
0.0
 10
3.9981771179
 20
21.0599517685
 30
0.0
 10
3.9980378859
 20
21.0598777166
 30
0.0
  0
LINE
  5
505
100
AcDbEntity
  8
0
100
AcDbLine
 62
9
  6
CONTINUOUS
 10
3.9676019384
 20
21.0426257057
 11
3.8897333969
 21
20.9974312504
  0
LINE
  5
506
100
AcDbEntity
  8
0
100
AcDbLine
 62
9
  6
CONTINUOUS
 10
3.7253548698
 20
20.9047240381
 11
3.7391726158
 21
20.9127719229
  0
SPLINE
  5
507
100
AcDbEntity
  8
0
100
AcDbSpline
 62
9
  6
CONTINUOUS
 70
0
 71
3
 72
11
 73
7
 74
0
 42
0.0000001
 43
0.0000001
 44
0.0000000001
 40
0.0
 40
0.0
 40
0.0
 40
0.0
 40
0.2495284333
 40
0.4992516916
 40
0.7495684194
 40
1.0
 40
1.0
 40
1.0
 40
1.0
 10
3.998038229
 20
21.0598778549
 30
0.0
 10
3.9957527099
 20
21.0585561222
 30
0.0
 10
3.9916760191
 20
21.0549280995
 30
0.0
 10
3.9882572899
 20
21.047535457
 30
0.0
 10
3.9880087283
 20
21.0393854812
 30
0.0
 10
3.9900269089
 20
21.0342998069
 30
0.0
 10
3.9914777502
 20
21.0320825598
 30
0.0
  0
SPLINE
  5
508
100
AcDbEntity
  8
0
100
AcDbSpline
 62
9
  6
CONTINUOUS
 70
0
 71
3
 72
11
 73
7
 74
0
 42
0.0000001
 43
0.0000001
 44
0.0000000001
 40
0.0
 40
0.0
 40
0.0
 40
0.0
 40
0.2504079772
 40
0.5006299758
 40
0.7504785761
 40
1.0
 40
1.0
 40
1.0
 40
1.0
 10
3.8922015042
 20
21.2040340427
 30
0.0
 10
3.8933974098
 20
21.2016697919
 30
0.0
 10
3.8967925115
 20
21.1973819724
 30
0.0
 10
3.9039718435
 20
21.193515859
 30
0.0
 10
3.9120848568
 20
21.1927842484
 30
0.0
 10
3.9172662448
 20
21.1944998799
 30
0.0
 10
3.9195536145
 20
21.1958182853
 30
0.0
  0
LINE
  5
509
100
AcDbEntity
  8
0
100
AcDbLine
 62
9
  6
CONTINUOUS
 10
3.811320374
 20
21.1332465651
 11
3.8893992036
 21
21.1780883515
  0
LINE
  5
50A
100
AcDbEntity
  8
0
100
AcDbLine
 62
9
  6
CONTINUOUS
 10
3.6627229891
 20
21.0451868456
 11
3.6488434903
 21
21.0372437241
  0
SPLINE
  5
50B
100
AcDbEntity
  8
0
100
AcDbSpline
 62
9
  6
CONTINUOUS
 70
0
 71
3
 72
52
 73
48
 74
0
 42
0.0000001
 43
0.0000001
 44
0.0000000001
 40
0.0
 40
0.0
 40
0.0
 40
0.0
 40
0.0982555675
 40
0.1869312575
 40
0.2634128016
 40
0.2964989921
 40
0.325879154
 40
0.3513632527
 40
0.3626001144
 40
0.3728126928
 40
0.3819853919
 40
0.3901026432
 40
0.3971489227
 40
0.4031087855
 40
0.4079691779
 40
0.4099859225
 40
0.4117269894
 40
0.4131924444
 40
0.4143825102
 40
0.415297755
 40
0.4159396838
 40
0.4161595881
 40
0.4163141936
 40
0.4164093072
 40
0.4164709298
 40
0.4165612813
 40
0.4167101203
 40
0.4172048972
 40
0.4190134629
 40
0.421927729
 40
0.425950303
 40
0.431072683
 40
0.4372834904
 40
0.4445710803
 40
0.4529236824
 40
0.4623294594
 40
0.4727765352
 40
0.4842530098
 40
0.5102280108
 40
0.5400692043
 40
0.5735739752
 40
0.6105396538
 40
0.6507530774
 40
0.6939615446
 40
0.7883154021
 40
0.8913235072
 40
1.0
 40
1.0
 40
1.0
 40
1.0
 10
3.6488434903
 20
21.0372437241
 30
0.0
 10
3.6460241222
 20
21.0356309983
 30
0.0
 10
3.6406578177
 20
21.0325670757
 30
0.0
 10
3.6330876319
 20
21.0282641373
 30
0.0
 10
3.6273823697
 20
21.0250398112
 30
0.0
 10
3.623377427
 20
21.0227908245
 30
0.0
 10
3.6208392661
 20
21.0213728693
 30
0.0
 10
3.6189286433
 20
21.0203125763
 30
0.0
 10
3.6175697812
 20
21.0195638491
 30
0.0
 10
3.6166820353
 20
21.0190774217
 30
0.0
 10
3.6158834829
 20
21.0186428274
 30
0.0
 10
3.6151754914
 20
21.018260802
 30
0.0
 10
3.6145594374
 20
21.0179320594
 30
0.0
 10
3.6140366254
 20
21.0176572914
 30
0.0
 10
3.6136592459
 20
21.0174632081
 30
0.0
 10
3.6134044406
 20
21.0173357695
 30
0.0
 10
3.6132492865
 20
21.0172600058
 30
0.0
 10
3.613117859
 20
21.0171979132
 30
0.0
 10
3.6130102541
 20
21.0171494604
 30
0.0
 10
3.6129262953
 20
21.0171145419
 30
0.0
 10
3.6128711881
 20
21.0170946551
 30
0.0
 10
3.6128383759
 20
21.0170859849
 30
0.0
 10
3.6128233707
 20
21.017084128
 30
0.0
 10
3.612812149
 20
21.0170841242
 30
0.0
 10
3.6128069086
 20
21.0170919773
 30
0.0
 10
3.6128120185
 20
21.0171017987
 30
0.0
 10
3.6128261597
 20
21.0171206489
 30
0.0
 10
3.6128874357
 20
21.017175892
 30
0.0
 10
3.6130249634
 20
21.0172781486
 30
0.0
 10
3.6132635797
 20
21.0174425834
 30
0.0
 10
3.6135964242
 20
21.0176614821
 30
0.0
 10
3.6140239092
 20
21.01793543
 30
0.0
 10
3.6145448679
 20
21.0182632384
 30
0.0
 10
3.615158455
 20
21.0186444103
 30
0.0
 10
3.6158636432
 20
21.0190782281
 30
0.0
 10
3.6166594503
 20
21.0195640702
 30
0.0
 10
3.6175448694
 20
21.0201012965
 30
0.0
 10
3.6189004243
 20
21.020919571
 30
0.0
 10
3.6208082079
 20
21.0220635775
 30
0.0
 10
3.6233446169
 20
21.0235751915
 30
0.0
 10
3.6261967365
 20
21.0252667264
 30
0.0
 10
3.6293469941
 20
21.02712771
 30
0.0
 10
3.6327763894
 20
21.029146838
 30
0.0
 10
3.6378442727
 20
21.0321221602
 30
0.0
 10
3.6447089604
 20
21.0361370027
 30
0.0
 10
3.6534507688
 20
21.0412290251
 30
0.0
 10
3.6595027401
 20
21.0447419826
 30
0.0
 10
3.662611022
 20
21.0465433064
 30
0.0
  0
SPLINE
  5
50C
100
AcDbEntity
  8
0
100
AcDbSpline
 62
9
  6
CONTINUOUS
 70
0
 71
3
 72
18
 73
14
 74
0
 42
0.0000001
 43
0.0000001
 44
0.0000000001
 40
0.0
 40
0.0
 40
0.0
 40
0.0
 40
0.1680541921
 40
0.3402395392
 40
0.5076172058
 40
0.6597728627
 40
0.7872681677
 40
0.8401989284
 40
0.8853782267
 40
0.9227870482
 40
0.9533209921
 40
0.9784046636
 40
1.0
 40
1.0
 40
1.0
 40
1.0
 10
3.883890617
 20
21.1973276772
 30
0.0
 10
3.8844667012
 20
21.1963171961
 30
0.0
 10
3.8855882281
 20
21.1942455067
 30
0.0
 10
3.8871193369
 20
21.1910817293
 30
0.0
 10
3.8884316761
 20
21.1879393007
 30
0.0
 10
3.8894399608
 20
21.1850116828
 30
0.0
 10
3.8899893929
 20
21.1827702383
 30
0.0
 10
3.8901985389
 20
21.1812213604
 30
0.0
 10
3.8902413205
 20
21.1802826534
 30
0.0
 10
3.8901792055
 20
21.1794994447
 30
0.0
 10
3.8900185257
 20
21.1788715247
 30
0.0
 10
3.8897652158
 20
21.1783934933
 30
0.0
 10
3.8895241799
 20
21.17816643
 30
0.0
 10
3.889397387
 20
21.1780872813
 30
0.0
  0
LINE
  5
50D
100
AcDbEntity
  8
0
100
AcDbLine
 62
9
  6
CONTINUOUS
 10
3.8838894312
 20
21.1973274496
 11
3.8024045906
 21
21.1505294108
  0
LINE
  5
50E
100
AcDbEntity
  8
0
100
AcDbLine
 62
9
  6
CONTINUOUS
 10
3.9002429007
 20
20.9810684872
 11
3.98151368
 21
21.0282375018
  0
SPLINE
  5
50F
100
AcDbEntity
  8
0
100
AcDbSpline
 62
9
  6
CONTINUOUS
 70
0
 71
3
 72
33
 73
29
 74
0
 42
0.0000001
 43
0.0000001
 44
0.0000000001
 40
0.0
 40
0.0
 40
0.0
 40
0.0
 40
0.2141699829
 40
0.3145749499
 40
0.4096984086
 40
0.4990605872
 40
0.5822430005
 40
0.6588301565
 40
0.7284469212
 40
0.7907492398
 40
0.8453953399
 40
0.8697539228
 40
0.8921001225
 40
0.9124081243
 40
0.930652124
 40
0.9468063343
 40
0.9608451756
 40
0.9727501235
 40
0.9825118456
 40
0.9865863253
 40
0.9901218254
 40
0.9931173562
 40
0.995572013
 40
0.9974850722
 40
0.9988562797
 40
0.999687079
 40
0.999903235
 40
1.0
 40
1.0
 40
1.0
 40
1.0
 10
3.6581122054
 20
20.9653148592
 30
0.0
 10
3.6531425385
 20
20.9624592703
 30
0.0
 10
3.6458414946
 20
20.9582676479
 30
0.0
 10
3.636328989
 20
20.9528150181
 30
0.0
 10
3.6297124144
 20
20.9490267499
 30
0.0
 10
3.6234938455
 20
20.9454709681
 30
0.0
 10
3.6177038185
 20
20.9421651043
 30
0.0
 10
3.6123704337
 20
20.9391252101
 30
0.0
 10
3.6075200896
 20
20.9363663015
 30
0.0
 10
3.6031774918
 20
20.9339023835
 30
0.0
 10
3.5998858161
 20
20.9320406483
 30
0.0
 10
3.5975230018
 20
20.9307086995
 30
0.0
 10
3.5959597615
 20
20.9298297207
 30
0.0
 10
3.5945381242
 20
20.929032787
 30
0.0
 10
3.593259903
 20
20.928318908
 30
0.0
 10
3.5921269079
 20
20.9276890862
 30
0.0
 10
3.5911407892
 20
20.9271442191
 30
0.0
 10
3.590302806
 20
20.9266849954
 30
0.0
 10
3.5896971014
 20
20.9263568358
 30
0.0
 10
3.5892869965
 20
20.9261378297
 30
0.0
 10
3.5890359886
 20
20.926005401
 30
0.0
 10
3.5888224571
 20
20.925894607
 30
0.0
 10
3.5886469174
 20
20.9258055767
 30
0.0
 10
3.5885083279
 20
20.9257379697
 30
0.0
 10
3.588409567
 20
20.9256924095
 30
0.0
 10
3.5883471399
 20
20.9256676327
 30
0.0
 10
3.5883198684
 20
20.9256601252
 30
0.0
 10
3.5883093597
 20
20.9256600687
 30
0.0
 10
3.588308065
 20
20.9256623114
 30
0.0
  0
SPLINE
  5
510
100
AcDbEntity
  8
0
100
AcDbSpline
 62
9
  6
CONTINUOUS
 70
0
 71
3
 72
33
 73
29
 74
0
 42
0.0000001
 43
0.0000001
 44
0.0000000001
 40
0.0
 40
0.0
 40
0.0
 40
0.0
 40
0.2141695371
 40
0.3145742699
 40
0.4096975344
 40
0.4990595697
 40
0.5822418824
 40
0.6588289727
 40
0.7284457076
 40
0.7907480339
 40
0.8453941817
 40
0.8697528053
 40
0.892099057
 40
0.9124071218
 40
0.930651195
 40
0.9468054891
 40
0.9608444238
 40
0.9727494752
 40
0.9825113106
 40
0.9865858507
 40
0.9901214135
 40
0.9931170095
 40
0.9955717339
 40
0.9974848631
 40
0.9988561427
 40
0.9996870158
 40
0.999903208
 40
1.0
 40
1.0
 40
1.0
 40
1.0
 10
3.6676961823
 20
20.9487149243
 30
0.0
 10
3.6627383471
 20
20.9458388665
 30
0.0
 10
3.655457788
 20
20.9416118003
 30
0.0
 10
3.6459794377
 20
20.9361000589
 30
0.0
 10
3.6393904274
 20
20.932264079
 30
0.0
 10
3.6332017573
 20
20.9286565347
 30
0.0
 10
3.6274437915
 20
20.9252951564
 30
0.0
 10
3.622144481
 20
20.9221962547
 30
0.0
 10
3.6173300292
 20
20.9193751838
 30
0.0
 10
3.6130249175
 20
20.9168463371
 30
0.0
 10
3.6097667705
 20
20.9149265235
 30
0.0
 10
3.6074318612
 20
20.9135462347
 30
0.0
 10
3.6058890209
 20
20.9126319137
 30
0.0
 10
3.6044880343
 20
20.9117992021
 30
0.0
 10
3.6032306819
 20
20.9110491656
 30
0.0
 10
3.6021187369
 20
20.9103828707
 30
0.0
 10
3.6011538014
 20
20.9098012981
 30
0.0
 10
3.6003371015
 20
20.909305194
 30
0.0
 10
3.5997500463
 20
20.9089447178
 30
0.0
 10
3.5993553217
 20
20.9086990591
 30
0.0
 10
3.5991151256
 20
20.9085478937
 30
0.0
 10
3.5989124037
 20
20.9084183662
 30
0.0
 10
3.5987475257
 20
20.9083108583
 30
0.0
 10
3.5986196755
 20
20.908224639
 30
0.0
 10
3.5985308335
 20
20.9081618864
 30
0.0
 10
3.5984781569
 20
20.9081202118
 30
0.0
 10
3.598458017
 20
20.908100344
 30
0.0
 10
3.5984527108
 20
20.9080912722
 30
0.0
 10
3.5984540048
 20
20.9080890282
 30
0.0
  0
SPLINE
  5
511
100
AcDbEntity
  8
0
100
AcDbSpline
 62
9
  6
CONTINUOUS
 70
0
 71
3
 72
19
 73
15
 74
0
 42
0.0000001
 43
0.0000001
 44
0.0000000001
 40
0.0
 40
0.0
 40
0.0
 40
0.0
 40
0.1676937914
 40
0.3305020506
 40
0.4829728226
 40
0.6210290756
 40
0.6836738223
 40
0.7416350568
 40
0.7947912894
 40
0.8432364741
 40
0.8872528009
 40
0.9274049783
 40
0.9645877287
 40
1.0
 40
1.0
 40
1.0
 40
1.0
 10
3.6676964393
 20
20.9487150729
 30
0.0
 10
3.6698745097
 20
20.9449712165
 30
0.0
 10
3.6744686616
 20
20.9377633483
 30
0.0
 10
3.682025064
 20
20.9278187294
 30
0.0
 10
3.689941411
 20
20.9191677207
 30
0.0
 10
3.6967991914
 20
20.9131144162
 30
0.0
 10
3.7022445645
 20
20.9092340826
 30
0.0
 10
3.7060986605
 20
20.9069235221
 30
0.0
 10
3.7098220587
 20
20.9051404074
 30
0.0
 10
3.7133821049
 20
20.9038986378
 30
0.0
 10
3.7167512195
 20
20.9032140506
 30
0.0
 10
3.719900874
 20
20.903104384
 30
0.0
 10
3.7227957016
 20
20.903571411
 30
0.0
 10
3.7245528755
 20
20.90428108
 30
0.0
 10
3.7253535267
 20
20.9047232968
 30
0.0
  0
SPLINE
  5
512
100
AcDbEntity
  8
0
100
AcDbSpline
 62
9
  6
CONTINUOUS
 70
0
 71
3
 72
17
 73
13
 74
0
 42
0.0000001
 43
0.0000001
 44
0.0000000001
 40
0.0
 40
0.0
 40
0.0
 40
0.0
 40
0.1239513694
 40
0.2479728474
 40
0.3721716785
 40
0.4344865142
 40
0.496877606
 40
0.6217802423
 40
0.7472368874
 40
0.8102192213
 40
0.8733539181
 40
1.0
 40
1.0
 40
1.0
 40
1.0
 10
4.2422306723
 20
21.2785034084
 30
0.0
 10
4.2444820076
 20
21.2746197186
 30
0.0
 10
4.2481543833
 20
21.2663364601
 30
0.0
 10
4.2509477027
 20
21.2530541404
 30
0.0
 10
4.2508863652
 20
21.2417181088
 30
0.0
 10
4.249470305
 20
21.2328031593
 30
0.0
 10
4.2471605079
 20
21.2240487366
 30
0.0
 10
4.2426231534
 20
21.2135860306
 30
0.0
 10
4.2361833283
 20
21.2041580062
 30
0.0
 10
4.2300459397
 20
21.1974087585
 30
0.0
 10
4.2232964323
 20
21.191211511
 30
0.0
 10
4.2176274121
 20
21.1872451013
 30
0.0
 10
4.2136578308
 20
21.1849473419
 30
0.0
  0
SPLINE
  5
513
100
AcDbEntity
  8
0
100
AcDbSpline
 62
9
  6
CONTINUOUS
 70
0
 71
3
 72
13
 73
9
 74
0
 42
0.0000001
 43
0.0000001
 44
0.0000000001
 40
0.0
 40
0.0
 40
0.0
 40
0.0
 40
0.0819626972
 40
0.1803327953
 40
0.2933021214
 40
0.4188909615
 40
0.6987351342
 40
1.0
 40
1.0
 40
1.0
 40
1.0
 10
4.2422293847
 20
21.2785026824
 30
0.0
 10
4.2315241635
 20
21.2725179955
 30
0.0
 10
4.2080012727
 20
21.2592959855
 30
0.0
 10
4.1698013588
 20
21.2376868214
 30
0.0
 10
4.1259703097
 20
21.21277395
 30
0.0
 10
4.0585932869
 20
21.1743338129
 30
0.0
 10
3.9668513577
 20
21.1217424029
 30
0.0
 10
3.8915036877
 20
21.0783395243
 30
0.0
 10
3.8524634123
 20
21.0557995585
 30
0.0
  0
SPLINE
  5
514
100
AcDbEntity
  8
0
100
AcDbSpline
 62
9
  6
CONTINUOUS
 70
0
 71
3
 72
14
 73
10
 74
0
 42
0.0000001
 43
0.0000001
 44
0.0000000001
 40
0.0
 40
0.0
 40
0.0
 40
0.0
 40
0.2795637387
 40
0.4241096672
 40
0.5650932029
 40
0.6975723339
 40
0.8169034187
 40
0.9189040872
 40
1.0
 40
1.0
 40
1.0
 40
1.0
 10
3.6581122076
 20
20.9653148554
 30
0.0
 10
3.7116821337
 20
20.9959951238
 30
0.0
 10
3.7928691169
 20
21.0426795228
 30
0.0
 10
3.9009180969
 20
21.1051016387
 30
0.0
 10
3.9807774025
 20
21.1513908699
 30
0.0
 10
4.055752097
 20
21.1950039215
 30
0.0
 10
4.1232148934
 20
21.234410505
 30
0.0
 10
4.1808017445
 20
21.268228093
 30
0.0
 10
4.215600407
 20
21.2888138346
 30
0.0
 10
4.230983492
 20
21.2979814126
 30
0.0
  0
LINE
  5
515
100
AcDbEntity
  8
0
100
AcDbLine
 62
7
  6
CONTINUOUS
 10
4.2492935308
 20
21.3085169743
 11
4.254886359
 21
21.2987959585
  0
SPLINE
  5
516
100
AcDbEntity
  8
0
100
AcDbSpline
 62
9
  6
CONTINUOUS
 70
0
 71
3
 72
18
 73
14
 74
0
 42
0.0000001
 43
0.0000001
 44
0.0000000001
 40
0.0
 40
0.0
 40
0.0
 40
0.0
 40
0.1731421154
 40
0.3496504559
 40
0.5199638329
 40
0.6733441305
 40
0.8001386276
 40
0.8520341527
 40
0.8957476025
 40
0.9312421248
 40
0.9593841842
 40
0.9816010715
 40
1.0
 40
1.0
 40
1.0
 40
1.0
 10
4.1295151886
 20
21.3388770191
 30
0.0
 10
4.1301002216
 20
21.3378528195
 30
0.0
 10
4.1312427935
 20
21.3357620513
 30
0.0
 10
4.1328200318
 20
21.3325892356
 30
0.0
 10
4.1341916397
 20
21.329468197
 30
0.0
 10
4.1352709593
 20
21.3265935764
 30
0.0
 10
4.135898226
 20
21.3244154591
 30
0.0
 10
4.1361791791
 20
21.3229255027
 30
0.0
 10
4.1362746575
 20
21.3220361807
 30
0.0
 10
4.1362695829
 20
21.3213026802
 30
0.0
 10
4.1361699622
 20
21.3207227209
 30
0.0
 10
4.135981495
 20
21.3202869107
 30
0.0
 10
4.135782085
 20
21.3200823143
 30
0.0
 10
4.1356761925
 20
21.3200152541
 30
0.0
  0
SPLINE
  5
517
100
AcDbEntity
  8
0
100
AcDbSpline
 62
9
  6
CONTINUOUS
 70
0
 71
3
 72
18
 73
14
 74
0
 42
0.0000001
 43
0.0000001
 44
0.0000000001
 40
0.0
 40
0.0
 40
0.0
 40
0.0
 40
0.0230429505
 40
0.0493562744
 40
0.0808061382
 40
0.1183989459
 40
0.1626124019
 40
0.2135190205
 40
0.3346360963
 40
0.4790240444
 40
0.6419353472
 40
0.8179348539
 40
1.0
 40
1.0
 40
1.0
 40
1.0
 10
3.9195529908
 20
21.1958178546
 30
0.0
 10
3.9196880944
 20
21.1959021762
 30
0.0
 10
3.919939905
 20
21.196146467
 30
0.0
 10
3.920189535
 20
21.1966539737
 30
0.0
 10
3.9203355108
 20
21.1973009127
 30
0.0
 10
3.920379004
 20
21.1980850017
 30
0.0
 10
3.9203194058
 20
21.1990018379
 30
0.0
 10
3.9200954162
 20
21.2004807227
 30
0.0
 10
3.9195593797
 20
21.202605139
 30
0.0
 10
3.9186246232
 20
21.205416352
 30
0.0
 10
3.9173647105
 20
21.2085126293
 30
0.0
 10
3.9158032877
 20
21.2117591187
 30
0.0
 10
3.9146169807
 20
21.2139323059
 30
0.0
 10
3.9139871799
 20
21.2150216685
 30
0.0
  0
SPLINE
  5
518
100
AcDbEntity
  8
0
100
AcDbSpline
 62
9
  6
CONTINUOUS
 70
0
 71
3
 72
21
 73
17
 74
0
 42
0.0000001
 43
0.0000001
 44
0.0000000001
 40
0.0
 40
0.0
 40
0.0
 40
0.0
 40
0.0618014329
 40
0.1236846576
 40
0.1855641455
 40
0.2475132131
 40
0.3095861662
 40
0.3717911583
 40
0.4963939371
 40
0.6215285467
 40
0.6843452597
 40
0.7472573979
 40
0.8103242048
 40
0.8735845966
 40
0.9368805299
 40
1.0
 40
1.0
 40
1.0
 40
1.0
 10
4.1295147108
 20
21.3388767895
 30
0.0
 10
4.1319937021
 20
21.3402355322
 30
0.0
 10
4.1370481336
 20
21.342789993
 30
0.0
 10
4.1449059279
 20
21.3460247697
 30
0.0
 10
4.1530328153
 20
21.3485439041
 30
0.0
 10
4.1613809889
 20
21.3502343725
 30
0.0
 10
4.1698681396
 20
21.3511089075
 30
0.0
 10
4.1812659924
 20
21.3511921662
 30
0.0
 10
4.1955003781
 20
21.3492500773
 30
0.0
 10
4.2090919938
 20
21.3444901042
 30
0.0
 10
4.2192465631
 20
21.3391113813
 30
0.0
 10
4.2264437073
 20
21.3343108511
 30
0.0
 10
4.233144093
 20
21.3288091569
 30
0.0
 10
4.2392948865
 20
21.3226736239
 30
0.0
 10
4.2447978579
 20
21.3159456888
 30
0.0
 10
4.2479204737
 20
21.3110570556
 30
0.0
 10
4.2493088985
 20
21.308525581
 30
0.0
  0
SPLINE
  5
519
100
AcDbEntity
  8
0
100
AcDbSpline
 62
9
  6
CONTINUOUS
 70
0
 71
3
 72
17
 73
13
 74
0
 42
0.0000001
 43
0.0000001
 44
0.0000000001
 40
0.0
 40
0.0
 40
0.0
 40
0.0
 40
0.1266459788
 40
0.1897810335
 40
0.25276368
 40
0.3782203438
 40
0.5031228222
 40
0.5655140402
 40
0.6278290735
 40
0.7520278303
 40
0.8760480822
 40
1.0
 40
1.0
 40
1.0
 40
1.0
 10
4.1356761232
 20
21.3200152125
 30
0.0
 10
4.1396508307
 20
21.3223041006
 30
0.0
 10
4.1459203707
 20
21.3252304201
 30
0.0
 10
4.1546621247
 20
21.3279770731
 30
0.0
 10
4.1635758706
 20
21.3299176244
 30
0.0
 10
4.1749607154
 20
21.3307807051
 30
0.0
 10
4.1862903817
 20
21.3294788009
 30
0.0
 10
4.1950268445
 20
21.327101897
 30
0.0
 10
4.2034554604
 20
21.3238707352
 30
0.0
 10
4.2133034075
 20
21.3182558741
 30
0.0
 10
4.2234096385
 20
21.3091957042
 30
0.0
 10
4.2287469326
 20
21.3018736867
 30
0.0
 10
4.2309846402
 20
21.2979820976
 30
0.0
  0
SPLINE
  5
51A
100
AcDbEntity
  8
0
100
AcDbSpline
 62
9
  6
CONTINUOUS
 70
0
 71
3
 72
19
 73
15
 74
0
 42
0.0000001
 43
0.0000001
 44
0.0000000001
 40
0.0
 40
0.0
 40
0.0
 40
0.0
 40
0.1676930349
 40
0.3305006624
 40
0.4829710362
 40
0.6210271997
 40
0.6836720259
 40
0.7416334199
 40
0.7947898884
 40
0.843235377
 40
0.8872520615
 40
0.9274046105
 40
0.9645876477
 40
1.0
 40
1.0
 40
1.0
 40
1.0
 10
3.6581126585
 20
20.9653151154
 30
0.0
 10
3.655959432
 20
20.9690732809
 30
0.0
 10
3.6520143344
 20
20.9766558158
 30
0.0
 10
3.6471802673
 20
20.9881720893
 30
0.0
 10
3.6436464543
 20
20.9993532933
 30
0.0
 10
3.6418330217
 20
21.0083189224
 30
0.0
 10
3.641195223
 20
21.0149749066
 30
0.0
 10
3.6411212482
 20
21.0194679328
 30
0.0
 10
3.6414387008
 20
21.0235840573
 30
0.0
 10
3.6421432923
 20
21.027288052
 30
0.0
 10
3.6432349494
 20
21.0305481134
 30
0.0
 10
3.6447147684
 20
21.033330666
 30
0.0
 10
3.6465665976
 20
21.0356041949
 30
0.0
 10
3.6480597474
 20
21.036771161
 30
0.0
 10
3.6488430306
 20
21.037243459
 30
0.0
  0
SPLINE
  5
51B
100
AcDbEntity
  8
0
100
AcDbSpline
 62
7
  6
CONTINUOUS
 70
0
 71
3
 72
11
 73
7
 74
0
 42
0.0000001
 43
0.0000001
 44
0.0000000001
 40
0.0
 40
0.0
 40
0.0
 40
0.0
 40
0.2281293468
 40
0.4706263858
 40
0.7278160252
 40
1.0
 40
1.0
 40
1.0
 40
1.0
 10
16.9057112362
 20
-5.0509688707
 30
0.0
 10
16.8671910353
 20
-5.0509715117
 30
0.0
 10
16.7877183696
 20
-5.0493464366
 30
0.0
 10
16.6649989946
 20
-5.0423872094
 30
0.0
 10
16.5351700111
 20
-5.0307024891
 30
0.0
 10
16.4464143031
 20
-5.0199814941
 30
0.0
 10
16.4008666978
 20
-5.0138464152
 30
0.0
  0
SPLINE
  5
51C
100
AcDbEntity
  8
0
100
AcDbSpline
 62
7
  6
CONTINUOUS
 70
0
 71
3
 72
69
 73
65
 74
0
 42
0.0000001
 43
0.0000001
 44
0.0000000001
 40
0.0
 40
0.0
 40
0.0
 40
0.0
 40
0.0158305104
 40
0.0320595764
 40
0.0486905302
 40
0.0657221193
 40
0.0831490811
 40
0.1009624973
 40
0.1191506396
 40
0.1376994921
 40
0.1565929479
 40
0.1758121169
 40
0.2151418278
 40
0.2555096178
 40
0.2967205562
 40
0.3385682894
 40
0.3808331452
 40
0.4232867183
 40
0.465696267
 40
0.5078258803
 40
0.5494352371
 40
0.5902812127
 40
0.6301197773
 40
0.6687072171
 40
0.7057990654
 40
0.7237079098
 40
0.7411518948
 40
0.758100838
 40
0.7745248975
 40
0.7903950877
 40
0.8056832628
 40
0.8203598891
 40
0.8343951919
 40
0.8477612514
 40
0.8604324695
 40
0.8723839288
 40
0.8835922187
 40
0.8940356687
 40
0.9036950533
 40
0.9082273115
 40
0.9125597767
 40
0.9206238851
 40
0.9243609567
 40
0.9279064196
 40
0.9312654849
 40
0.9344444246
 40
0.9403190896
 40
0.9430583637
 40
0.9456922194
 40
0.9482477448
 40
0.9507614585
 40
0.9532715175
 40
0.9558160345
 40
0.9584305418
 40
0.9611480925
 40
0.9640027967
 40
0.9670293365
 40
0.9702583139
 40
0.9737094196
 40
0.9813471382
 40
0.9855715672
 40
0.9900823227
 40
0.9948888257
 40
1.0
 40
1.0
 40
1.0
 40
1.0
 10
11.1403588744
 20
12.7086158361
 30
0.0
 10
11.149739297
 20
12.6038385198
 30
0.0
 10
11.1733237729
 20
12.3920357959
 30
0.0
 10
11.2215660819
 20
12.0720267899
 30
0.0
 10
11.2824664069
 20
11.7460662752
 30
0.0
 10
11.3553836797
 20
11.4144389117
 30
0.0
 10
11.4396731814
 20
11.0774205802
 30
0.0
 10
11.5347572656
 20
10.7353106468
 30
0.0
 10
11.6400658415
 20
10.3884157133
 30
0.0
 10
11.7550276805
 20
10.0370451586
 30
0.0
 10
11.8790644538
 20
9.6815138248
 30
0.0
 10
12.0571789529
 20
9.1986795018
 30
0.0
 10
12.2996598578
 20
8.5876066052
 30
0.0
 10
12.6157890778
 20
7.8488764306
 30
0.0
 10
12.9549050098
 20
7.1020166275
 30
0.0
 10
13.3125975283
 20
6.3499117856
 30
0.0
 10
13.6845140604
 20
5.5955345488
 30
0.0
 10
14.0663012566
 20
4.8419276595
 30
0.0
 10
14.4535893484
 20
4.0921516016
 30
0.0
 10
14.841997584
 20
3.349284489
 30
0.0
 10
15.2271452572
 20
2.6164412642
 30
0.0
 10
15.6046439204
 20
1.8967767016
 30
0.0
 10
15.9700972802
 20
1.1934724378
 30
0.0
 10
16.319083347
 20
0.5097424184
 30
0.0
 10
16.595664916
 20
-0.0473030474
 30
0.0
 10
16.8046300332
 20
-0.4809982247
 30
0.0
 10
16.9526156457
 20
-0.7954787275
 30
0.0
 10
17.0931473994
 20
-1.1025430614
 30
0.0
 10
17.2256644254
 20
-1.4017493007
 30
0.0
 10
17.3496086816
 20
-1.6926506895
 30
0.0
 10
17.4644054713
 20
-1.9747868589
 30
0.0
 10
17.5695236602
 20
-2.2476462947
 30
0.0
 10
17.6644466749
 20
-2.5106822925
 30
0.0
 10
17.7486527896
 20
-2.7633395634
 30
0.0
 10
17.8216035759
 20
-3.0050521028
 30
0.0
 10
17.8828172717
 20
-3.2352037609
 30
0.0
 10
17.9318181641
 20
-3.4531278949
 30
0.0
 10
17.9682348613
 20
-3.6580637372
 30
0.0
 10
17.9882828586
 20
-3.8206392083
 30
0.0
 10
17.9974344791
 20
-3.9434178596
 30
0.0
 10
18.0019583505
 20
-4.0558342895
 30
0.0
 10
18.0004420626
 20
-4.163177823
 30
0.0
 10
17.9920797098
 20
-4.2648475729
 30
0.0
 10
17.9829344273
 20
-4.334997363
 30
0.0
 10
17.9708589246
 20
-4.4009436248
 30
0.0
 10
17.9514811171
 20
-4.4811468631
 30
0.0
 10
17.9263068287
 20
-4.5556378651
 30
0.0
 10
17.8950340424
 20
-4.6235824191
 30
0.0
 10
17.8696346729
 20
-4.669797776
 30
0.0
 10
17.841659639
 20
-4.7127264873
 30
0.0
 10
17.8108358837
 20
-4.7526294039
 30
0.0
 10
17.7769019771
 20
-4.7898234394
 30
0.0
 10
17.7396205086
 20
-4.8246445614
 30
0.0
 10
17.6986890089
 20
-4.8573508922
 30
0.0
 10
17.6536129161
 20
-4.8879082981
 30
0.0
 10
17.6039626697
 20
-4.9162973463
 30
0.0
 10
17.5493260369
 20
-4.9424835797
 30
0.0
 10
17.4893732915
 20
-4.9664052191
 30
0.0
 10
17.3988973721
 20
-4.9960114025
 30
0.0
 10
17.299442981
 20
-5.0187133667
 30
0.0
 10
17.1918338217
 20
-5.0349276314
 30
0.0
 10
17.1022807643
 20
-5.0441107793
 30
0.0
 10
17.0065411962
 20
-5.0497356178
 30
0.0
 10
16.9406282053
 20
-5.050954807
 30
0.0
 10
16.9066636033
 20
-5.0509686441
 30
0.0
  0
SPLINE
  5
51D
100
AcDbEntity
  8
0
100
AcDbSpline
 62
7
  6
CONTINUOUS
 70
0
 71
3
 72
9
 73
5
 74
0
 42
0.0000001
 43
0.0000001
 44
0.0000000001
 40
0.0
 40
0.0
 40
0.0
 40
0.0
 40
0.4797892881
 40
1.0
 40
1.0
 40
1.0
 40
1.0
 10
16.906123402
 20
-5.6109944463
 30
0.0
 10
16.8132759303
 20
-5.6109928065
 30
0.0
 10
16.6197205365
 20
-5.6030879509
 30
0.0
 10
16.4271908062
 20
-5.5823603582
 30
0.0
 10
16.3274220784
 20
-5.5689219126
 30
0.0
  0
SPLINE
  5
51E
100
AcDbEntity
  8
0
100
AcDbSpline
 62
7
  6
CONTINUOUS
 70
0
 71
3
 72
27
 73
23
 74
0
 42
0.0000001
 43
0.0000001
 44
0.0000000001
 40
0.0
 40
0.0
 40
0.0
 40
0.0
 40
0.0627592637
 40
0.1255577765
 40
0.1883207817
 40
0.251053601
 40
0.2824187682
 40
0.313774727
 40
0.345119404
 40
0.3764516221
 40
0.4390585608
 40
0.5016083484
 40
0.5640972757
 40
0.6265236525
 40
0.6577227297
 40
0.6889070757
 40
0.7200769612
 40
0.7512320331
 40
0.8134798682
 40
0.8756867932
 40
0.9378778856
 40
1.0
 40
1.0
 40
1.0
 40
1.0
 10
5.0087005404
 20
-0.4052102937
 30
0.0
 10
5.0007587921
 20
-0.5066375188
 30
0.0
 10
4.9944286163
 20
-0.7104309024
 30
0.0
 10
5.0135648338
 20
-1.0155440885
 30
0.0
 10
5.0612845482
 20
-1.3174820261
 30
0.0
 10
5.1244801305
 20
-1.5642087039
 30
0.0
 10
5.1887317091
 20
-1.7572280977
 30
0.0
 10
5.2436522152
 20
-1.8995448571
 30
0.0
 10
5.305195453
 20
-2.0390677742
 30
0.0
 10
5.3958653389
 20
-2.2208685432
 30
0.0
 10
5.5250239565
 20
-2.4396845611
 30
0.0
 10
5.7039675014
 20
-2.6862224874
 30
0.0
 10
5.9051745461
 20
-2.9145637894
 30
0.0
 10
6.0900363289
 20
-3.0880057291
 30
0.0
 10
6.2470984895
 20
-3.2156487746
 30
0.0
 10
6.3692564524
 20
-3.3056230721
 30
0.0
 10
6.4954967344
 20
-3.3896443463
 30
0.0
 10
6.6687833255
 20
-3.4934602497
 30
0.0
 10
6.8942511364
 20
-3.6075079724
 30
0.0
 10
7.1764498488
 20
-3.7179038696
 30
0.0
 10
7.4676939032
 20
-3.8007738142
 30
0.0
 10
7.6662485076
 20
-3.8372840343
 30
0.0
 10
7.7660520101
 20
-3.850727164
 30
0.0
  0
SPLINE
  5
51F
100
AcDbEntity
  8
0
100
AcDbSpline
 62
7
  6
CONTINUOUS
 70
0
 71
3
 72
28
 73
24
 74
0
 42
0.0000001
 43
0.0000001
 44
0.0000000001
 40
0.0
 40
0.0
 40
0.0
 40
0.0
 40
0.0626804351
 40
0.1254006255
 40
0.1880890981
 40
0.250754064
 40
0.282088718
 40
0.313416879
 40
0.3447367969
 40
0.3760475649
 40
0.4386224
 40
0.5011558387
 40
0.5636451656
 40
0.6260891972
 40
0.6573034978
 40
0.6885072723
 40
0.7197006801
 40
0.7508832031
 40
0.782054299
 40
0.8132147408
 40
0.8755004011
 40
0.9377803588
 40
1.0
 40
1.0
 40
1.0
 40
1.0
 10
4.4504093347
 20
-0.3614961115
 30
0.0
 10
4.4410940637
 20
-0.4804651431
 30
0.0
 10
4.4336755996
 20
-0.7195062941
 30
0.0
 10
4.4561528165
 20
-1.0773966337
 30
0.0
 10
4.5121808767
 20
-1.4315770189
 30
0.0
 10
4.5863740722
 20
-1.721005584
 30
0.0
 10
4.6618084927
 20
-1.9474472458
 30
0.0
 10
4.7262932728
 20
-2.1144239264
 30
0.0
 10
4.7985579002
 20
-2.2781349476
 30
0.0
 10
4.9050369894
 20
-2.4914826195
 30
0.0
 10
5.0567362527
 20
-2.7483038795
 30
0.0
 10
5.2669330742
 20
-3.0377012367
 30
0.0
 10
5.5033272847
 20
-3.305794441
 30
0.0
 10
5.7205465423
 20
-3.5094611889
 30
0.0
 10
5.9051273374
 20
-3.659374331
 30
0.0
 10
6.0487135725
 20
-3.7650662807
 30
0.0
 10
6.1971093687
 20
-3.8637751468
 30
0.0
 10
6.3499703419
 20
-3.9552959199
 30
0.0
 10
6.5069598399
 20
-4.0394155811
 30
0.0
 10
6.7212538544
 20
-4.141397145
 30
0.0
 10
6.9978342838
 20
-4.2495515462
 30
0.0
 10
7.3403601871
 20
-4.3469672926
 30
0.0
 10
7.5739016321
 20
-4.3899024884
 30
0.0
 10
7.6912973554
 20
-4.4057152193
 30
0.0
  0
SPLINE
  5
520
100
AcDbEntity
  8
0
100
AcDbSpline
 62
7
  6
CONTINUOUS
 70
0
 71
3
 72
65
 73
61
 74
0
 42
0.0000001
 43
0.0000001
 44
0.0000000001
 40
0.0
 40
0.0
 40
0.0
 40
0.0
 40
0.0141062261
 40
0.0286960622
 40
0.0437617873
 40
0.0592921787
 40
0.0752731544
 40
0.0916884618
 40
0.1085197088
 40
0.1257465716
 40
0.1433472064
 40
0.1612994002
 40
0.1981648317
 40
0.236148935
 40
0.275043606
 40
0.3146317418
 40
0.3546939585
 40
0.3950080689
 40
0.4353479367
 40
0.4754848418
 40
0.5151908068
 40
0.5542391048
 40
0.5924045445
 40
0.6294646106
 40
0.6652032806
 40
0.6825121981
 40
0.6994137009
 40
0.7158839368
 40
0.7319000804
 40
0.7474401474
 40
0.7624833979
 40
0.7770129619
 40
0.7910153864
 40
0.8044794333
 40
0.8173966947
 40
0.829764574
 40
0.8415873727
 40
0.8528784726
 40
0.8583326175
 40
0.8636641553
 40
0.8739787839
 40
0.8789766273
 40
0.8838783738
 40
0.8934250599
 40
0.9027053935
 40
0.9072778314
 40
0.9118148212
 40
0.9163269704
 40
0.9208282876
 40
0.9253303841
 40
0.929838974
 40
0.9343606425
 40
0.9389036692
 40
0.9480959135
 40
0.9575245068
 40
0.9672884722
 40
0.9775334737
 40
0.9828786344
 40
0.9883937881
 40
1.0
 40
1.0
 40
1.0
 40
1.0
 10
11.6978636545
 20
12.7086158361
 30
0.0
 10
11.7073359362
 20
12.611222347
 30
0.0
 10
11.7308293961
 20
12.4134891906
 30
0.0
 10
11.778017506
 20
12.113548001
 30
0.0
 10
11.8372959057
 20
11.8056978069
 30
0.0
 10
11.9082064841
 20
11.4904281715
 30
0.0
 10
11.9902984548
 20
11.1682203136
 30
0.0
 10
12.083054462
 20
10.8395392564
 30
0.0
 10
12.1859503635
 20
10.5048429135
 30
0.0
 10
12.2984640683
 20
10.164589234
 30
0.0
 10
12.4200780232
 20
9.8192293864
 30
0.0
 10
12.5951972639
 20
9.3483622401
 30
0.0
 10
12.8340112924
 20
8.7504359511
 30
0.0
 10
13.1456758387
 20
8.0254950205
 30
0.0
 10
13.4806169458
 20
7.2902228859
 30
0.0
 10
13.8345434407
 20
6.5479164983
 30
0.0
 10
14.2031125567
 20
5.8017859224
 30
0.0
 10
14.5819708751
 20
5.0549851282
 30
0.0
 10
14.9667772932
 20
4.3106554309
 30
0.0
 10
15.3531984824
 20
3.5719247276
 30
0.0
 10
15.7369017027
 20
2.8418869843
 30
0.0
 10
16.1135639998
 20
2.1235979844
 30
0.0
 10
16.4788782896
 20
1.4200858837
 30
0.0
 10
16.8285624744
 20
0.7343447464
 30
0.0
 10
17.1062621967
 20
0.1743299838
 30
0.0
 10
17.3165917079
 20
-0.2629489209
 30
0.0
 10
17.4660362063
 20
-0.5811759634
 30
0.0
 10
17.6083320552
 20
-0.8928326946
 30
0.0
 10
17.7429484784
 20
-1.1975881915
 30
0.0
 10
17.8693551202
 20
-1.4951158343
 30
0.0
 10
17.9870387104
 20
-1.7851041148
 30
0.0
 10
18.0954435781
 20
-2.0672943004
 30
0.0
 10
18.1940004831
 20
-2.3414653091
 30
0.0
 10
18.2821472235
 20
-2.6074079487
 30
0.0
 10
18.3593392541
 20
-2.8649282239
 30
0.0
 10
18.4249770293
 20
-3.1138902586
 30
0.0
 10
18.4784486244
 20
-3.3542142519
 30
0.0
 10
18.5126662905
 20
-3.5495018965
 30
0.0
 10
18.5329335765
 20
-3.7013192926
 30
0.0
 10
18.5480819713
 20
-3.8469164944
 30
0.0
 10
18.5562060518
 20
-3.9900274316
 30
0.0
 10
18.556173381
 20
-4.1302843358
 30
0.0
 10
18.5506698785
 20
-4.2650988561
 30
0.0
 10
18.5331321577
 20
-4.4290251079
 30
0.0
 10
18.4989465523
 20
-4.5880937758
 30
0.0
 10
18.460901763
 20
-4.709933511
 30
0.0
 10
18.4269452021
 20
-4.7981893163
 30
0.0
 10
18.3872025334
 20
-4.8834588707
 30
0.0
 10
18.3414460335
 20
-4.9653912844
 30
0.0
 10
18.2896214954
 20
-5.0436017141
 30
0.0
 10
18.2318654361
 20
-5.1177206036
 30
0.0
 10
18.1683040337
 20
-5.1873224386
 30
0.0
 10
18.0756436876
 20
-5.2738277716
 30
0.0
 10
17.9452554323
 20
-5.3689383311
 30
0.0
 10
17.7701801926
 20
-5.4604549052
 30
0.0
 10
17.5774669598
 20
-5.5296781314
 30
0.0
 10
17.4056552858
 20
-5.5689998874
 30
0.0
 10
17.2608459343
 20
-5.5908469776
 30
0.0
 10
17.1057652354
 20
-5.6067667819
 30
0.0
 10
16.9868996562
 20
-5.6109895567
 30
0.0
 10
16.9063888939
 20
-5.6109944406
 30
0.0
  0
SPLINE
  5
521
100
AcDbEntity
  8
0
100
AcDbSpline
 62
9
  6
CONTINUOUS
 70
0
 71
3
 72
40
 73
36
 74
0
 42
0.0000001
 43
0.0000001
 44
0.0000000001
 40
0.0
 40
0.0
 40
0.0
 40
0.0
 40
0.0084550859
 40
0.0212368835
 40
0.0382180827
 40
0.0592648351
 40
0.1127372239
 40
0.1797786193
 40
0.2580217826
 40
0.3447247004
 40
0.4368116165
 40
0.5310531011
 40
0.6241147455
 40
0.6691793208
 40
0.7127309188
 40
0.7543762631
 40
0.7937595533
 40
0.8305358737
 40
0.8643637582
 40
0.8949513944
 40
0.9220443664
 40
0.9453896017
 40
0.9555854146
 40
0.9647706995
 40
0.9729278331
 40
0.9800392346
 40
0.9860873967
 40
0.9910549528
 40
0.9949266525
 40
0.9964503021
 40
0.9976995388
 40
0.9986749856
 40
0.9993779963
 40
0.9998124826
 40
1.0
 40
1.0
 40
1.0
 40
1.0
 10
4.4529030482
 20
-0.3613015122
 30
0.0
 10
4.4544746178
 20
-0.3613015122
 30
0.0
 10
4.4584213009
 20
-0.3614133029
 30
0.0
 10
4.4655183642
 20
-0.361713957
 30
0.0
 10
4.474950036
 20
-0.3622041836
 30
0.0
 10
4.4919292613
 20
-0.3631824441
 30
0.0
 10
4.5181882404
 20
-0.3648597938
 30
0.0
 10
4.5550461133
 20
-0.3673737653
 30
0.0
 10
4.5980568354
 20
-0.3704446831
 30
0.0
 10
4.6457023811
 20
-0.3739654123
 30
0.0
 10
4.6963054299
 20
-0.377812872
 30
0.0
 10
4.7480791261
 20
-0.3818519643
 30
0.0
 10
4.7911325084
 20
-0.3852951027
 30
0.0
 10
4.8247897011
 20
-0.3880401719
 30
0.0
 10
4.8489194472
 20
-0.3900350194
 30
0.0
 10
4.8719944698
 20
-0.3919707046
 30
0.0
 10
4.8938121253
 20
-0.3938299375
 30
0.0
 10
4.9141793756
 20
-0.3955960612
 30
0.0
 10
4.9329150074
 20
-0.3972536098
 30
0.0
 10
4.9498546213
 20
-0.3987877915
 30
0.0
 10
4.9648502089
 20
-0.4001846802
 30
0.0
 10
4.9760683512
 20
-0.4012671105
 30
0.0
 10
4.9839704547
 20
-0.4020588587
 30
0.0
 10
4.9890620698
 20
-0.4025838548
 30
0.0
 10
4.9935817295
 20
-0.4030661741
 30
0.0
 10
4.997519561
 20
-0.4035046688
 30
0.0
 10
5.0008660012
 20
-0.4038980287
 30
0.0
 10
5.0036110653
 20
-0.4042449153
 30
0.0
 10
5.0055195488
 20
-0.4045113671
 30
0.0
 10
5.0067383757
 20
-0.4047045317
 30
0.0
 10
5.0074266362
 20
-0.4048264626
 30
0.0
 10
5.0079545913
 20
-0.4049324059
 30
0.0
 10
5.0083484055
 20
-0.4050325425
 30
0.0
 10
5.0085589386
 20
-0.4051018584
 30
0.0
 10
5.0086874948
 20
-0.405174323
 30
0.0
 10
5.0086856761
 20
-0.4052091299
 30
0.0
  0
SPLINE
  5
522
100
AcDbEntity
  8
0
100
AcDbSpline
 62
9
  6
CONTINUOUS
 70
0
 71
3
 72
39
 73
35
 74
0
 42
0.0000001
 43
0.0000001
 44
0.0000000001
 40
0.0
 40
0.0
 40
0.0
 40
0.0
 40
0.0155663611
 40
0.0215968753
 40
0.0286078064
 40
0.0366264688
 40
0.0456571344
 40
0.0556925818
 40
0.0667203514
 40
0.0916855736
 40
0.1203975604
 40
0.1526098711
 40
0.1880287725
 40
0.2263518168
 40
0.2672310002
 40
0.3102765722
 40
0.4012740954
 40
0.4959659779
 40
0.590820355
 40
0.6822936737
 40
0.7669911795
 40
0.8058007939
 40
0.841771444
 40
0.8745898873
 40
0.9039509018
 40
0.929608439
 40
0.9513912339
 40
0.9691656641
 40
0.9765380732
 40
0.9829209506
 40
0.9883535791
 40
0.9929073139
 40
0.9967123687
 40
1.0
 40
1.0
 40
1.0
 40
1.0
 10
7.7660519225
 20
-3.8507278143
 30
0.0
 10
7.7689986059
 20
-3.8511303973
 30
0.0
 10
7.7718654421
 20
-3.855365935
 30
0.0
 10
7.7738817742
 20
-3.8602828377
 30
0.0
 10
7.7751212647
 20
-3.8641497922
 30
0.0
 10
7.7762281433
 20
-3.8686027524
 30
0.0
 10
7.7772307634
 20
-3.873684581
 30
0.0
 10
7.7781176242
 20
-3.8793655933
 30
0.0
 10
7.779190981
 20
-3.8880955315
 30
0.0
 10
7.7801843904
 20
-3.9004228563
 30
0.0
 10
7.7808567391
 20
-3.9168217712
 30
0.0
 10
7.7810443807
 20
-3.9352302315
 30
0.0
 10
7.7807452747
 20
-3.9554730257
 30
0.0
 10
7.7799549189
 20
-3.9773593276
 30
0.0
 10
7.7786806693
 20
-4.0006819878
 30
0.0
 10
7.7763114902
 20
-4.0340191983
 30
0.0
 10
7.7722177238
 20
-4.0775348291
 30
0.0
 10
7.7657999213
 20
-4.1307545422
 30
0.0
 10
7.7580177823
 20
-4.1838843954
 30
0.0
 10
7.7491751247
 20
-4.2349109491
 30
0.0
 10
7.740988492
 20
-4.2751685811
 30
0.0
 10
7.7340967729
 20
-4.3048500435
 30
0.0
 10
7.7290321707
 20
-4.3247756071
 30
0.0
 10
7.7239750255
 20
-4.3428353981
 30
0.0
 10
7.7189722372
 20
-4.3588571672
 30
0.0
 10
7.714072618
 20
-4.3726938674
 30
0.0
 10
7.7093284435
 20
-4.3842204078
 30
0.0
 10
7.7053364691
 20
-4.3922659683
 30
0.0
 10
7.7021802875
 20
-4.3974019692
 30
0.0
 10
7.70002638
 20
-4.40037412
 30
0.0
 10
7.6979394904
 20
-4.4027130696
 30
0.0
 10
7.6959147296
 20
-4.404418732
 30
0.0
 10
7.6939401186
 20
-4.4054886838
 30
0.0
 10
7.692580497
 20
-4.4057589403
 30
0.0
 10
7.6919523731
 20
-4.4057589403
 30
0.0
  0
SPLINE
  5
523
100
AcDbEntity
  8
0
100
AcDbSpline
 62
9
  6
CONTINUOUS
 70
0
 71
3
 72
40
 73
36
 74
0
 42
0.0000001
 43
0.0000001
 44
0.0000000001
 40
0.0
 40
0.0
 40
0.0
 40
0.0
 40
0.0001875174
 40
0.0006220037
 40
0.0013250144
 40
0.0023004612
 40
0.0035496979
 40
0.0050733475
 40
0.0089450472
 40
0.0139126033
 40
0.0199607654
 40
0.0270721669
 40
0.0352293005
 40
0.0444145854
 40
0.0546103983
 40
0.0779556336
 40
0.1050486056
 40
0.1356362418
 40
0.1694641263
 40
0.2062404467
 40
0.2456237369
 40
0.2872690812
 40
0.3308206792
 40
0.3758852545
 40
0.4689468989
 40
0.5631883835
 40
0.6552752996
 40
0.7419782174
 40
0.8202213807
 40
0.8872627761
 40
0.9407351649
 40
0.9617819173
 40
0.9787631165
 40
0.9915449141
 40
1.0
 40
1.0
 40
1.0
 40
1.0
 10
5.736326777
 20
8.8877847571
 30
0.0
 10
5.7363285956
 20
8.887819564
 30
0.0
 10
5.7362000394
 20
8.8878920285
 30
0.0
 10
5.7359895063
 20
8.8879613444
 30
0.0
 10
5.7355956921
 20
8.888061481
 30
0.0
 10
5.735067737
 20
8.8881674244
 30
0.0
 10
5.7343794765
 20
8.8882893552
 30
0.0
 10
5.7331606496
 20
8.8884825198
 30
0.0
 10
5.7312521661
 20
8.8887489717
 30
0.0
 10
5.728507102
 20
8.8890958583
 30
0.0
 10
5.7251606618
 20
8.8894892181
 30
0.0
 10
5.7212228303
 20
8.8899277129
 30
0.0
 10
5.7167031706
 20
8.8904100321
 30
0.0
 10
5.7116115555
 20
8.8909350282
 30
0.0
 10
5.703709452
 20
8.8917267764
 30
0.0
 10
5.6924913097
 20
8.8928092067
 30
0.0
 10
5.6774957221
 20
8.8942060955
 30
0.0
 10
5.6605561082
 20
8.8957402771
 30
0.0
 10
5.6418204764
 20
8.8973978258
 30
0.0
 10
5.6214532261
 20
8.8991639494
 30
0.0
 10
5.5996355707
 20
8.9010231824
 30
0.0
 10
5.576560548
 20
8.9029588675
 30
0.0
 10
5.5524308019
 20
8.9049537151
 30
0.0
 10
5.5187736092
 20
8.9076987842
 30
0.0
 10
5.4757202269
 20
8.9111419226
 30
0.0
 10
5.4239465307
 20
8.915181015
 30
0.0
 10
5.3733434819
 20
8.9190284746
 30
0.0
 10
5.3256979362
 20
8.9225492039
 30
0.0
 10
5.2826872141
 20
8.9256201216
 30
0.0
 10
5.2458293412
 20
8.9281340931
 30
0.0
 10
5.2195703621
 20
8.9298114428
 30
0.0
 10
5.2025911368
 20
8.9307897033
 30
0.0
 10
5.193159465
 20
8.9312799299
 30
0.0
 10
5.1860624017
 20
8.931580584
 30
0.0
 10
5.1821157186
 20
8.9316923748
 30
0.0
 10
5.180544149
 20
8.9316923748
 30
0.0
  0
SPLINE
  5
524
100
AcDbEntity
  8
0
100
AcDbSpline
 62
7
  6
CONTINUOUS
 70
0
 71
3
 72
19
 73
15
 74
0
 42
0.0000001
 43
0.0000001
 44
0.0000000001
 40
0.0
 40
0.0
 40
0.0
 40
0.0
 40
0.1250240792
 40
0.1876738497
 40
0.2502064318
 40
0.3126726135
 40
0.3751299952
 40
0.4999999651
 40
0.6248700848
 40
0.6873274745
 40
0.7497935547
 40
0.8123260193
 40
0.874975767
 40
1.0
 40
1.0
 40
1.0
 40
1.0
 10
11.6682974158
 20
14.166291056
 30
0.0
 10
11.6531592337
 20
14.1744229581
 30
0.0
 10
11.629194659
 20
14.1844085742
 30
0.0
 10
11.5961770142
 20
14.1940554405
 30
0.0
 10
11.5709965737
 20
14.1997226487
 30
0.0
 10
11.5455643823
 20
14.2039281066
 30
0.0
 10
11.5114345867
 20
14.2077655576
 30
0.0
 10
11.4685059987
 20
14.2096533521
 30
0.0
 10
11.4255775117
 20
14.2077644259
 30
0.0
 10
11.3914476632
 20
14.2039274829
 30
0.0
 10
11.3660154025
 20
14.199722626
 30
0.0
 10
11.3408348811
 20
14.1940558991
 30
0.0
 10
11.3078172335
 20
14.1844089661
 30
0.0
 10
11.2838528127
 20
14.1744229682
 30
0.0
 10
11.2687146121
 20
14.166291056
 30
0.0
  0
SPLINE
  5
525
100
AcDbEntity
  8
0
100
AcDbSpline
 62
7
  6
CONTINUOUS
 70
0
 71
3
 72
14
 73
10
 74
0
 42
0.0000001
 43
0.0000001
 44
0.0000000001
 40
0.0
 40
0.0
 40
0.0
 40
0.0
 40
0.1368344199
 40
0.2676777999
 40
0.5171166476
 40
0.6386676229
 40
0.7592621139
 40
0.8795093516
 40
1.0
 40
1.0
 40
1.0
 40
1.0
 10
11.1745209851
 20
14.166291056
 30
0.0
 10
11.1690118134
 20
14.171093876
 30
0.0
 10
11.1575639898
 20
14.1797544217
 30
0.0
 10
11.1334483449
 20
14.1933405863
 30
0.0
 10
11.1078995342
 20
14.2022654722
 30
0.0
 10
11.0820579367
 20
14.2070494365
 30
0.0
 10
11.0627615736
 20
14.2088868094
 30
0.0
 10
11.0434393984
 20
14.2090357558
 30
0.0
 10
11.0306024943
 20
14.2080071137
 30
0.0
 10
11.0242155416
 20
14.2072157506
 30
0.0
  0
SPLINE
  5
526
100
AcDbEntity
  8
0
100
AcDbSpline
 62
7
  6
CONTINUOUS
 70
0
 71
3
 72
11
 73
7
 74
0
 42
0.0000001
 43
0.0000001
 44
0.0000000001
 40
0.0
 40
0.0
 40
0.0
 40
0.0
 40
0.2381979795
 40
0.4813727325
 40
0.7337470745
 40
1.0
 40
1.0
 40
1.0
 40
1.0
 10
11.0242155416
 20
14.2072157506
 30
0.0
 10
11.0158833859
 20
14.2061833708
 30
0.0
 10
10.9991412932
 20
14.2031394108
 30
0.0
 10
10.9744520298
 20
14.1951703021
 30
0.0
 10
10.9502709086
 20
14.1832594335
 30
0.0
 10
10.9353795763
 20
14.1724580608
 30
0.0
 10
10.9283055888
 20
14.166291056
 30
0.0
  0
SPLINE
  5
527
100
AcDbEntity
  8
0
100
AcDbSpline
 62
7
  6
CONTINUOUS
 70
0
 71
3
 72
11
 73
7
 74
0
 42
0.0000001
 43
0.0000001
 44
0.0000000001
 40
0.0
 40
0.0
 40
0.0
 40
0.0
 40
0.2662706746
 40
0.5186501618
 40
0.7618199363
 40
1.0
 40
1.0
 40
1.0
 40
1.0
 10
10.9283055888
 20
13.7609406162
 30
0.0
 10
10.9354107411
 20
13.7547464423
 30
0.0
 10
10.9503723914
 20
13.7439026966
 30
0.0
 10
10.9746739977
 20
13.7319689572
 30
0.0
 10
10.9994807907
 20
13.7239992605
 30
0.0
 10
11.016300398
 20
13.7209709697
 30
0.0
 10
11.0246702093
 20
13.7199515683
 30
0.0
  0
SPLINE
  5
528
100
AcDbEntity
  8
0
100
AcDbSpline
 62
7
  6
CONTINUOUS
 70
0
 71
3
 72
14
 73
10
 74
0
 42
0.0000001
 43
0.0000001
 44
0.0000000001
 40
0.0
 40
0.0
 40
0.0
 40
0.0
 40
0.1204585531
 40
0.2406898212
 40
0.3612736301
 40
0.4828164634
 40
0.7323068631
 40
0.8631686886
 40
1.0
 40
1.0
 40
1.0
 40
1.0
 10
11.0246702093
 20
13.7199515683
 30
0.0
 10
11.0310389512
 20
13.7191758872
 30
0.0
 10
11.0438388335
 20
13.7181761657
 30
0.0
 10
11.0631024623
 20
13.7183594089
 30
0.0
 10
11.082339612
 20
13.7202169871
 30
0.0
 10
11.1081028381
 20
13.7250236673
 30
0.0
 10
11.1335725105
 20
13.733948198
 30
0.0
 10
11.1576144279
 20
13.7475120087
 30
0.0
 10
11.1690275842
 20
13.756151545
 30
0.0
 10
11.1745209851
 20
13.7609406162
 30
0.0
  0
SPLINE
  5
529
100
AcDbEntity
  8
0
100
AcDbSpline
 62
7
  6
CONTINUOUS
 70
0
 71
3
 72
19
 73
15
 74
0
 42
0.0000001
 43
0.0000001
 44
0.0000000001
 40
0.0
 40
0.0
 40
0.0
 40
0.0
 40
0.1250235251
 40
0.1877059236
 40
0.2502743141
 40
0.3127324193
 40
0.3751621781
 40
0.4999996601
 40
0.6248378729
 40
0.6872682322
 40
0.7497266294
 40
0.8122946524
 40
0.8749766635
 40
1.0
 40
1.0
 40
1.0
 40
1.0
 10
11.2687146121
 20
13.7609406162
 30
0.0
 10
11.2838528503
 20
13.7528086839
 30
0.0
 10
11.3078179587
 20
13.7428122302
 30
0.0
 10
11.3408470301
 20
13.7331686663
 30
0.0
 10
11.366037157
 20
13.7275066175
 30
0.0
 10
11.391468505
 20
13.7232954759
 30
0.0
 10
11.4255894401
 20
13.7194578307
 30
0.0
 10
11.4685060122
 20
13.7175865326
 30
0.0
 10
11.5114226745
 20
13.7194576045
 30
0.0
 10
11.545543858
 20
13.7232950541
 30
0.0
 10
11.5709752727
 20
13.7275062693
 30
0.0
 10
11.5961652772
 20
13.733168576
 30
0.0
 10
11.629194159
 20
13.7428123068
 30
0.0
 10
11.6531592004
 20
13.7528086961
 30
0.0
 10
11.6682974158
 20
13.7609406162
 30
0.0
  0
SPLINE
  5
52A
100
AcDbEntity
  8
0
100
AcDbSpline
 62
7
  6
CONTINUOUS
 70
0
 71
3
 72
11
 73
7
 74
0
 42
0.0000001
 43
0.0000001
 44
0.0000000001
 40
0.0
 40
0.0
 40
0.0
 40
0.0
 40
0.2946085194
 40
0.5514288193
 40
0.7829873497
 40
1.0
 40
1.0
 40
1.0
 40
1.0
 10
11.7489485944
 20
13.7609406162
 30
0.0
 10
11.7532536365
 20
13.7549154429
 30
0.0
 10
11.7622733428
 20
13.7442621681
 30
0.0
 10
11.7777925868
 20
13.7319578868
 30
0.0
 10
11.7936721945
 20
13.7238197519
 30
0.0
 10
11.8046050426
 20
13.7207484215
 30
0.0
 10
11.8099705969
 20
13.7197661407
 30
0.0
  0
SPLINE
  5
52B
100
AcDbEntity
  8
0
100
AcDbSpline
 62
7
  6
CONTINUOUS
 70
0
 71
3
 72
15
 73
11
 74
0
 42
0.0000001
 43
0.0000001
 44
0.0000000001
 40
0.0
 40
0.0
 40
0.0
 40
0.0
 40
0.1140008748
 40
0.2273312625
 40
0.341563965
 40
0.4583400627
 40
0.5797920118
 40
0.7085634883
 40
0.8475532122
 40
1.0
 40
1.0
 40
1.0
 40
1.0
 10
11.8099705969
 20
13.7197661407
 30
0.0
 10
11.8135951776
 20
13.7191025828
 30
0.0
 10
11.820914323
 20
13.7182274957
 30
0.0
 10
11.8319832595
 20
13.7183340175
 30
0.0
 10
11.8430377364
 20
13.7198617838
 30
0.0
 10
11.8540675016
 20
13.7228407593
 30
0.0
 10
11.865027293
 20
13.7274770554
 30
0.0
 10
11.8758678184
 20
13.7339371572
 30
0.0
 10
11.8865194478
 20
13.7424296178
 30
0.0
 10
11.8930359498
 20
13.749278259
 30
0.0
 10
11.8962063239
 20
13.7530503869
 30
0.0
  0
SPLINE
  5
52C
100
AcDbEntity
  8
0
100
AcDbSpline
 62
9
  6
CONTINUOUS
 70
0
 71
3
 72
15
 73
11
 74
0
 42
0.0000001
 43
0.0000001
 44
0.0000000001
 40
0.0
 40
0.0
 40
0.0
 40
0.0
 40
0.0433417405
 40
0.0987412354
 40
0.1729775115
 40
0.2716084283
 40
0.3993717233
 40
0.5605924079
 40
0.7594396828
 40
1.0
 40
1.0
 40
1.0
 40
1.0
 10
16.3274220784
 20
-5.5689219126
 30
0.0
 10
16.3281822247
 20
-5.5689219126
 30
0.0
 10
16.3299195643
 20
-5.5685173083
 30
0.0
 10
16.3324872103
 20
-5.5668305576
 30
0.0
 10
16.3352739789
 20
-5.5639276279
 30
0.0
 10
16.3383319543
 20
-5.5596171366
 30
0.0
 10
16.3416999523
 20
-5.5537031554
 30
0.0
 10
16.345385119
 20
-5.5459753174
 30
0.0
 10
16.3493815083
 20
-5.5362242934
 30
0.0
 10
16.351987144
 20
-5.5289691376
 30
0.0
 10
16.3533484315
 20
-5.5249757315
 30
0.0
  0
SPLINE
  5
52D
100
AcDbEntity
  8
0
100
AcDbSpline
 62
9
  6
CONTINUOUS
 70
0
 71
3
 72
9
 73
5
 74
0
 42
0.0000001
 43
0.0000001
 44
0.0000000001
 40
0.0
 40
0.0
 40
0.0
 40
0.0
 40
0.4562919736
 40
1.0
 40
1.0
 40
1.0
 40
1.0
 10
16.3533484315
 20
-5.5249757315
 30
0.0
 10
16.355234653
 20
-5.5194424049
 30
0.0
 10
16.3590950296
 20
-5.507222254
 30
0.0
 10
16.362556862
 20
-5.4948849476
 30
0.0
 10
16.3643552865
 20
-5.48815515
 30
0.0
  0
SPLINE
  5
52E
100
AcDbEntity
  8
0
100
AcDbSpline
 62
9
  6
CONTINUOUS
 70
0
 71
3
 72
15
 73
11
 74
0
 42
0.0000001
 43
0.0000001
 44
0.0000000001
 40
0.0
 40
0.0
 40
0.0
 40
0.0
 40
0.0989095085
 40
0.2124164203
 40
0.3385849624
 40
0.4729916849
 40
0.6109593916
 40
0.7478424561
 40
0.8790514063
 40
1.0
 40
1.0
 40
1.0
 40
1.0
 10
16.367017753
 20
-5.4779406367
 30
0.0
 10
16.3696309294
 20
-5.4676676632
 30
0.0
 10
16.3748753996
 20
-5.4455113283
 30
0.0
 10
16.3822626214
 20
-5.4099812984
 30
0.0
 10
16.3894757838
 20
-5.3705417175
 30
0.0
 10
16.3962875521
 20
-5.3283736327
 30
0.0
 10
16.4023800955
 20
-5.2849352522
 30
0.0
 10
16.4074751418
 20
-5.2417136816
 30
0.0
 10
16.4114974499
 20
-5.2002119685
 30
0.0
 10
16.4135151665
 20
-5.1732605108
 30
0.0
 10
16.4143030582
 20
-5.1603224251
 30
0.0
  0
SPLINE
  5
52F
100
AcDbEntity
  8
0
100
AcDbSpline
 62
9
  6
CONTINUOUS
 70
0
 71
3
 72
9
 73
5
 74
0
 42
0.0000001
 43
0.0000001
 44
0.0000000001
 40
0.0
 40
0.0
 40
0.0
 40
0.0
 40
0.5501042844
 40
1.0
 40
1.0
 40
1.0
 40
1.0
 10
16.4143030582
 20
-5.1603224251
 30
0.0
 10
16.4151602699
 20
-5.1462460244
 30
0.0
 10
16.4163283967
 20
-5.1206313377
 30
0.0
 10
16.4165287749
 20
-5.0949866244
 30
0.0
 10
16.4163083461
 20
-5.0834552012
 30
0.0
  0
SPLINE
  5
530
100
AcDbEntity
  8
0
100
AcDbSpline
 62
9
  6
CONTINUOUS
 70
0
 71
3
 72
17
 73
13
 74
0
 42
0.0000001
 43
0.0000001
 44
0.0000000001
 40
0.0
 40
0.0
 40
0.0
 40
0.0
 40
0.2534284465
 40
0.4601330204
 40
0.6245990746
 40
0.7517884638
 40
0.8468294023
 40
0.9151736042
 40
0.9413592436
 40
0.9634560034
 40
0.9825945955
 40
1.0
 40
1.0
 40
1.0
 40
1.0
 10
16.4163083461
 20
-5.0834552012
 30
0.0
 10
16.4161896923
 20
-5.0772479941
 30
0.0
 10
16.4158088009
 20
-5.0659795758
 30
0.0
 10
16.4146622062
 20
-5.0507157931
 30
0.0
 10
16.4130994963
 20
-5.0386011808
 30
0.0
 10
16.4112150618
 20
-5.0293035068
 30
0.0
 10
16.4091085444
 20
-5.0224939688
 30
0.0
 10
16.4070743274
 20
-5.0182745586
 30
0.0
 10
16.4053148449
 20
-5.0160095798
 30
0.0
 10
16.4040818009
 20
-5.0148946402
 30
0.0
 10
16.4028212873
 20
-5.0141787851
 30
0.0
 10
16.4019452554
 20
-5.013944349
 30
0.0
 10
16.4015224846
 20
-5.0138889322
 30
0.0
  0
SPLINE
  5
531
100
AcDbEntity
  8
0
100
AcDbSpline
 62
7
  6
CONTINUOUS
 70
0
 71
3
 72
15
 73
11
 74
0
 42
0.0000001
 43
0.0000001
 44
0.0000000001
 40
0.0
 40
0.0
 40
0.0
 40
0.0
 40
0.1524769048
 40
0.2913238059
 40
0.4198820172
 40
0.54119272
 40
0.6579359238
 40
0.7722047866
 40
0.8856745677
 40
1.0
 40
1.0
 40
1.0
 40
1.0
 10
11.8962037498
 20
14.1741824608
 30
0.0
 10
11.8929911188
 20
14.178002973
 30
0.0
 10
11.8863842558
 20
14.1849293144
 30
0.0
 10
11.8755809515
 20
14.1934956258
 30
0.0
 10
11.8645875372
 20
14.1999865322
 30
0.0
 10
11.8534634463
 20
14.2045962317
 30
0.0
 10
11.8422724729
 20
14.2075219447
 30
0.0
 10
11.831057176
 20
14.2089707223
 30
0.0
 10
11.8198279347
 20
14.2089455509
 30
0.0
 10
11.812412191
 20
14.2079539786
 30
0.0
 10
11.8087409359
 20
14.2072259876
 30
0.0
  0
SPLINE
  5
532
100
AcDbEntity
  8
0
100
AcDbSpline
 62
7
  6
CONTINUOUS
 70
0
 71
3
 72
9
 73
5
 74
0
 42
0.0000001
 43
0.0000001
 44
0.0000000001
 40
0.0
 40
0.0
 40
0.0
 40
0.0
 40
0.4829697763
 40
1.0
 40
1.0
 40
1.0
 40
1.0
 10
11.8060745453
 20
14.2066547199
 30
0.0
 10
11.8009796511
 20
14.2054808834
 30
0.0
 10
11.7906264164
 20
14.2020918675
 30
0.0
 10
11.7810982996
 20
14.1968009915
 30
0.0
 10
11.7764630673
 20
14.193663792
 30
0.0
  0
SPLINE
  5
533
100
AcDbEntity
  8
0
100
AcDbSpline
 62
7
  6
CONTINUOUS
 70
0
 71
3
 72
9
 73
5
 74
0
 42
0.0000001
 43
0.0000001
 44
0.0000000001
 40
0.0
 40
0.0
 40
0.0
 40
0.0
 40
0.4675868006
 40
1.0
 40
1.0
 40
1.0
 40
1.0
 10
11.7764630673
 20
14.193663792
 30
0.0
 10
11.7714333061
 20
14.190259569
 30
0.0
 10
11.7613584051
 20
14.1819316875
 30
0.0
 10
11.7529689894
 20
14.171917848
 30
0.0
 10
11.7489485944
 20
14.166291056
 30
0.0
  0
ELLIPSE
  5
534
100
AcDbEntity
  8
0
100
AcDbEllipse
 62
7
  6
CONTINUOUS
 10
6.8593947227
 20
22.8025095634
 30
0.0
 11
0.0150088799
 21
0.0086653808
 31
0.0
 40
0.9900227071
 41
0.0
 42
6.2831853072
  0
ELLIPSE
  5
535
100
AcDbEntity
  8
0
100
AcDbEllipse
 62
7
  6
CONTINUOUS
 10
3.9030148102
 20
21.5779369081
 30
0.0
 11
0.0167402303
 21
0.0044855312
 31
0.0
 40
0.9900227071
 41
0.0
 42
6.2831853072
  0
ELLIPSE
  5
536
100
AcDbEntity
  8
0
100
AcDbEllipse
 62
7
  6
CONTINUOUS
 10
3.8480263361
 20
21.9956158361
 30
0.0
 11
0.0173307617
 21
0.0
 31
0.0
 40
0.9900227071
 41
0.0
 42
6.2831853072
  0
ELLIPSE
  5
537
100
AcDbEntity
  8
0
100
AcDbEllipse
 62
7
  6
CONTINUOUS
 10
3.9030148102
 20
22.4132947641
 30
0.0
 11
0.0167402303
 21
-0.0044855312
 31
0.0
 40
0.9900227071
 41
0.0
 42
6.2831853072
  0
ELLIPSE
  5
538
100
AcDbEntity
  8
0
100
AcDbEllipse
 62
7
  6
CONTINUOUS
 10
6.754657696
 20
22.5311293157
 30
0.0
 11
0.0161442363
 21
0.0066871616
 31
0.0
 40
0.9960990528
 41
0.0
 42
6.2831853072
  0
ELLIPSE
  5
539
100
AcDbEntity
  8
0
100
AcDbEllipse
 62
7
  6
CONTINUOUS
 10
4.0642328587
 20
22.8025095634
 30
0.0
 11
0.0150088799
 21
-0.0086653808
 31
0.0
 40
0.9900227071
 41
0.0
 42
6.2831853072
  0
ELLIPSE
  5
53A
100
AcDbEntity
  8
0
100
AcDbEllipse
 62
7
  6
CONTINUOUS
 10
4.6099348654
 20
20.8854256061
 30
0.0
 11
0.010637738
 21
0.01386337
 31
0.0
 40
0.9960990528
 41
0.0
 42
6.2831853072
  0
ELLIPSE
  5
53B
100
AcDbEntity
  8
0
100
AcDbEllipse
 62
7
  6
CONTINUOUS
 10
5.2791601155
 20
20.6082234312
 30
0.0
 11
0.0022808663
 21
0.0173248996
 31
0.0
 40
0.9960990528
 41
0.0
 42
6.2831853072
  0
ELLIPSE
  5
53C
100
AcDbEntity
  8
0
100
AcDbEllipse
 62
7
  6
CONTINUOUS
 10
5.9973272703
 20
20.7027719308
 30
0.0
 11
-0.0066871616
 21
0.0161442363
 31
0.0
 40
0.9960990528
 41
0.0
 42
6.2831853072
  0
ELLIPSE
  5
53D
100
AcDbEntity
  8
0
100
AcDbEllipse
 62
7
  6
CONTINUOUS
 10
6.5720040207
 20
21.1437369108
 30
0.0
 11
0.01386337
 21
-0.010637738
 31
0.0
 40
0.9960990528
 41
0.0
 42
6.2831853072
  0
ELLIPSE
  5
53E
100
AcDbEntity
  8
0
100
AcDbEllipse
 62
7
  6
CONTINUOUS
 10
6.8492061956
 20
21.8129621609
 30
0.0
 11
0.0173248996
 21
-0.0022808663
 31
0.0
 40
0.9960990528
 41
0.0
 42
6.2831853072
  0
ELLIPSE
  5
53F
100
AcDbEntity
  8
0
100
AcDbEllipse
 62
7
  6
CONTINUOUS
 10
4.3206937382
 20
23.1367358886
 30
0.0
 11
-0.0122546991
 21
0.0122546991
 31
0.0
 40
0.9900227071
 41
0.0
 42
6.2831853072
  0
ELLIPSE
  5
540
100
AcDbEntity
  8
0
100
AcDbEllipse
 62
7
  6
CONTINUOUS
 10
7.0206127712
 20
22.4132947641
 30
0.0
 11
0.0167402303
 21
0.0044855312
 31
0.0
 40
0.9900227071
 41
0.0
 42
6.2831853072
  0
ELLIPSE
  5
541
100
AcDbEntity
  8
0
100
AcDbEllipse
 62
7
  6
CONTINUOUS
 10
7.0756012453
 20
21.9956158361
 30
0.0
 11
0.0173307617
 21
0.0
 31
0.0
 40
0.9900227071
 41
0.0
 42
6.2831853072
  0
ELLIPSE
  5
542
100
AcDbEntity
  8
0
100
AcDbEllipse
 62
7
  6
CONTINUOUS
 10
7.0206127712
 20
21.5779369081
 30
0.0
 11
0.0167402303
 21
-0.0044855312
 31
0.0
 40
0.9900227071
 41
0.0
 42
6.2831853072
  0
ELLIPSE
  5
543
100
AcDbEntity
  8
0
100
AcDbEllipse
 62
7
  6
CONTINUOUS
 10
6.8593947227
 20
21.1887221088
 30
0.0
 11
0.0150088799
 21
-0.0086653808
 31
0.0
 40
0.9900227071
 41
0.0
 42
6.2831853072
  0
ELLIPSE
  5
544
100
AcDbEntity
  8
0
100
AcDbEllipse
 62
7
  6
CONTINUOUS
 10
6.6029338432
 20
20.8544957836
 30
0.0
 11
-0.0122546991
 21
0.0122546991
 31
0.0
 40
0.9900227071
 41
0.0
 42
6.2831853072
  0
ELLIPSE
  5
545
100
AcDbEntity
  8
0
100
AcDbEllipse
 62
7
  6
CONTINUOUS
 10
4.6549200634
 20
23.3931967681
 30
0.0
 11
-0.0086653808
 21
0.0150088799
 31
0.0
 40
0.9900227071
 41
0.0
 42
6.2831853072
  0
ELLIPSE
  5
546
100
AcDbEntity
  8
0
100
AcDbEllipse
 62
7
  6
CONTINUOUS
 10
6.268707518
 20
20.5980349041
 30
0.0
 11
-0.0086653808
 21
0.0150088799
 31
0.0
 40
0.9900227071
 41
0.0
 42
6.2831853072
  0
ELLIPSE
  5
547
100
AcDbEntity
  8
0
100
AcDbEllipse
 62
7
  6
CONTINUOUS
 10
5.8794927187
 20
20.4368168556
 30
0.0
 11
-0.0044855312
 21
0.0167402303
 31
0.0
 40
0.9900227071
 41
0.0
 42
6.2831853072
  0
ELLIPSE
  5
548
100
AcDbEntity
  8
0
100
AcDbEllipse
 62
7
  6
CONTINUOUS
 10
5.4618137907
 20
20.3818283815
 30
0.0
 11
-0.0
 21
0.0173307617
 31
0.0
 40
0.9900227071
 41
0.0
 42
6.2831853072
  0
ELLIPSE
  5
549
100
AcDbEntity
  8
0
100
AcDbEllipse
 62
7
  6
CONTINUOUS
 10
5.0441348627
 20
20.4368168556
 30
0.0
 11
0.0044855312
 21
0.0167402303
 31
0.0
 40
0.9900227071
 41
0.0
 42
6.2831853072
  0
ELLIPSE
  5
54A
100
AcDbEntity
  8
0
100
AcDbEllipse
 62
7
  6
CONTINUOUS
 10
4.6549200634
 20
20.5980349041
 30
0.0
 11
0.0086653808
 21
0.0150088799
 31
0.0
 40
0.9900227071
 41
0.0
 42
6.2831853072
  0
ELLIPSE
  5
54B
100
AcDbEntity
  8
0
100
AcDbEllipse
 62
7
  6
CONTINUOUS
 10
5.0441348627
 20
23.5544148166
 30
0.0
 11
-0.0044855312
 21
0.0167402303
 31
0.0
 40
0.9900227071
 41
0.0
 42
6.2831853072
  0
ELLIPSE
  5
54C
100
AcDbEntity
  8
0
100
AcDbEllipse
 62
7
  6
CONTINUOUS
 10
4.3206937382
 20
20.8544957836
 30
0.0
 11
0.0122546991
 21
0.0122546991
 31
0.0
 40
0.9900227071
 41
0.0
 42
6.2831853072
  0
ELLIPSE
  5
54D
100
AcDbEntity
  8
0
100
AcDbEllipse
 62
7
  6
CONTINUOUS
 10
5.4618137907
 20
23.6094032907
 30
0.0
 11
-0.0
 21
0.0173307617
 31
0.0
 40
0.9900227071
 41
0.0
 42
6.2831853072
  0
ELLIPSE
  5
54E
100
AcDbEntity
  8
0
100
AcDbEllipse
 62
7
  6
CONTINUOUS
 10
6.313692716
 20
23.1058060661
 30
0.0
 11
0.010637738
 21
0.01386337
 31
0.0
 40
0.9960990528
 41
0.0
 42
6.2831853072
  0
ELLIPSE
  5
54F
100
AcDbEntity
  8
0
100
AcDbEllipse
 62
7
  6
CONTINUOUS
 10
5.644467466
 20
23.383008241
 30
0.0
 11
0.0022808663
 21
0.0173248996
 31
0.0
 40
0.9960990528
 41
0.0
 42
6.2831853072
  0
ELLIPSE
  5
550
100
AcDbEntity
  8
0
100
AcDbEllipse
 62
7
  6
CONTINUOUS
 10
4.9263003111
 20
23.2884597414
 30
0.0
 11
-0.0066871616
 21
0.0161442363
 31
0.0
 40
0.9960990528
 41
0.0
 42
6.2831853072
  0
ELLIPSE
  5
551
100
AcDbEntity
  8
0
100
AcDbEllipse
 62
7
  6
CONTINUOUS
 10
4.3516235607
 20
22.8474947614
 30
0.0
 11
0.01386337
 21
-0.010637738
 31
0.0
 40
0.9960990528
 41
0.0
 42
6.2831853072
  0
ELLIPSE
  5
552
100
AcDbEntity
  8
0
100
AcDbEllipse
 62
7
  6
CONTINUOUS
 10
5.8794927187
 20
23.5544148166
 30
0.0
 11
0.0044855312
 21
0.0167402303
 31
0.0
 40
0.9900227071
 41
0.0
 42
6.2831853072
  0
ELLIPSE
  5
553
100
AcDbEntity
  8
0
100
AcDbEllipse
 62
7
  6
CONTINUOUS
 10
4.0744213858
 20
22.1782695113
 30
0.0
 11
0.0173248996
 21
-0.0022808663
 31
0.0
 40
0.9960990528
 41
0.0
 42
6.2831853072
  0
ELLIPSE
  5
554
100
AcDbEntity
  8
0
100
AcDbEllipse
 62
7
  6
CONTINUOUS
 10
4.1689698854
 20
21.4601023565
 30
0.0
 11
0.0161442363
 21
0.0066871616
 31
0.0
 40
0.9960990528
 41
0.0
 42
6.2831853072
  0
ELLIPSE
  5
555
100
AcDbEntity
  8
0
100
AcDbEllipse
 62
7
  6
CONTINUOUS
 10
6.6029338432
 20
23.1367358886
 30
0.0
 11
0.0122546991
 21
0.0122546991
 31
0.0
 40
0.9900227071
 41
0.0
 42
6.2831853072
  0
ELLIPSE
  5
556
100
AcDbEntity
  8
0
100
AcDbEllipse
 62
7
  6
CONTINUOUS
 10
6.268707518
 20
23.3931967681
 30
0.0
 11
0.0086653808
 21
0.0150088799
 31
0.0
 40
0.9900227071
 41
0.0
 42
6.2831853072
  0
ENDSEC
  0
SECTION
  2
OBJECTS
  0
DICTIONARY
  5
C
100
AcDbDictionary
280
0
281
1
  3
ACAD_GROUP
350
D
  3
ACAD_MLINESTYLE
350
17
  3
ACAD_LAYOUT
350
1A
  3
ACAD_PLOTSETTINGS
350
19
  3
ACAD_PLOTSTYLENAME
350
E
  0
DICTIONARY
  5
D
102
{ACAD_REACTORS
330
C
102
}
100
AcDbDictionary
280
0
281
1
  0
ACDBDICTIONARYWDFLT
  5
E
102
{ACAD_REACTORS
330
C
102
}
100
AcDbDictionary
281
1
  3
Normal
350
F
100
AcDbDictionaryWithDefault
340
F
  0
DICTIONARY
  5
17
102
{ACAD_REACTORS
330
C
102
}
100
AcDbDictionary
280
0
281
1
  3
Standard
350
18
  0
DICTIONARY
  5
19
102
{ACAD_REACTORS
330
C
102
}
100
AcDbDictionary
281
1
  0
DICTIONARY
  5
1A
102
{ACAD_REACTORS
330
C
102
}
100
AcDbDictionary
281
1
  3
Model
350
557
  3
Layout1
350
558
  0
ACDBPLACEHOLDER
  5
F
102
{ACAD_REACTORS
330
E
102
}
  0
MLINESTYLE
  5
18
102
{ACAD_REACTORS
330
17
102
}
100
AcDbMlineStyle
  2
STANDARD
 70
0
  3

 62
256
 51
90.0
 52
90.0
 71
2
 49
0.5
 62
256
  6
BYLAYER
 49
-0.5
 62
256
  6
BYLAYER
  0
LAYOUT
  5
557
102
{ACAD_REACTORS
330
1A
102
}
100
AcDbPlotSettings
  1

  2
none_device
  4
ANSI_C_(22.00_x_17.00_Inches)
  6

 40
0.0
 41
0.0
 42
0.0
 43
0.0
 44
558.8
 45
431.8
 46
0.0
 47
0.0
 48
0.0
 49
0.0
140
0.0
141
0.0
142
1.0
143
1.0
 70
1024
 72
0
 73
0
 74
0
  7

 75
0
147
1.0
148
0.0
149
0.0
100
AcDbLayout
  1
Model
 70
0
 71
0
 10
0.0
 20
0.0
 11
22.0
 21
17.0
 12
0.0
 22
0.0
 32
0.0
 14
0.0
 24
0.0
 34
0.0
 15
0.0
 25
0.0
 35
0.0
146
0.0
 13
0.0
 23
0.0
 33
0.0
 16
1.0
 26
0.0
 36
0.0
 17
0.0
 27
1.0
 37
0.0
 76
0
330
202
345
0
346
0
  0
LAYOUT
  5
558
102
{ACAD_REACTORS
330
1A
102
}
100
AcDbPlotSettings
  1

  2
none_device
  4
ANSI_C_(22.00_x_17.00_Inches)
  6

 40
0.0
 41
0.0
 42
0.0
 43
0.0
 44
558.8
 45
431.8
 46
0.0
 47
0.0
 48
0.0
 49
0.0
140
0.0
141
0.0
142
1.0
143
1.0
 70
0
 72
0
 73
0
 74
0
  7

 75
0
147
1.0
148
0.0
149
0.0
100
AcDbLayout
  1
Layout1
 70
0
 71
1
 10
0.0
 20
0.0
 11
22.0
 21
17.0
 12
0.0
 22
0.0
 32
0.0
 14
0.0
 24
0.0
 34
0.0
 15
0.0
 25
0.0
 35
0.0
146
0.0
 13
0.0
 23
0.0
 33
0.0
 16
1.0
 26
0.0
 36
0.0
 17
0.0
 27
1.0
 37
0.0
 76
0
330
203
345
0
346
0
  0
ENDSEC
  0
EOF
