999
DXF file: E:\BT Custom\CADOUTPUT\_FRONT.dxf
999
Pro/ENGINEER 2018400 by Parametric Technology Corporation
  0
SECTION
  2
HEADER
  9
$ACADVER
  1
AC1018
  9
$DWGCODEPAGE
  3
ANSI_1252
  9
$EXTMAX
 10
22.0
 20
17.0
 30
0.0
  9
$EXTMIN
 10
0.0
 20
0.0
 30
0.0
  9
$LIMMIN
 10
0.0
 20
0.0
  9
$LIMMAX
 10
22.0
 20
17.0
  9
$VIEWCTR
 10
11.0
 20
8.5
  9
$VIEWSIZE
 40
17.0
  9
$CLAYER
  8
0
  9
$LTSCALE
 40
1.21
  9
$CELTYPE
  6
BYLAYER
  9
$DIMSCALE
 40
1.0
  9
$DIMASZ
 40
0.1
  9
$DIMEXO
 40
0.0625
  9
$DIMDLI
 40
0.836
  9
$DIMEXE
 40
0.125
  9
$DIMCEN
 40
0.198
  9
$DIMLFAC
 40
1.0
  9
$DIMBLK
  1
_FILLED
  9
$DIMALT
 70
1
  9
$DIMALTD
 70
2
  9
$DIMALTTD
 70
2
  9
$DIMALTF
 40
25.4
  9
$DIMTXT
 40
0.08
  9
$DIMTOL
 70
1
  9
$DIMLIM
 70
0
  9
$DIMTFAC
 40
1.0
  9
$DIMTP
 40
0.001
  9
$DIMTM
 40
0.001
  9
$DIMGAP
 40
0.09
  9
$DIMDSEP
 70
46
  9
$AUNITS
 70
0
  9
$PDMODE
 70
3
  9
$PDSIZE
 40
0.06
  9
$HANDSEED
  5
551
  9
$TILEMODE
 70
1
  9
$MEASUREMENT
 70
0
  9
$INSUNITS
 70
1
  0
ENDSEC
  0
SECTION
  2
CLASSES
  0
CLASS
  1
ACDBDICTIONARYWDFLT
  2
AcDbDictionaryWithDefault
  3
AutoCAD 2000
 90
0
 91
1
280
0
281
0
  0
CLASS
  1
ACDBPLACEHOLDER
  2
AcDbPlaceHolder
  3
AutoCAD 2000
 90
0
 91
1
280
0
281
0
  0
CLASS
  1
LAYOUT
  2
AcDbLayout
  3
AutoCAD 2000
 90
0
 91
0
280
0
281
0
  0
ENDSEC
  0
SECTION
  2
TABLES
  0
TABLE
  2
VPORT
  5
8
100
AcDbSymbolTable
 70
2
  0
VPORT
  5
1F4
100
AcDbSymbolTableRecord
100
AcDbViewportTableRecord
  2
*ACTIVE
 70
0
 10
0.0
 20
0.0
 11
1.0
 21
1.0
 12
11.0
 22
8.5
 13
0.0
 23
0.0
 14
1.0
 24
1.0
 15
0.0
 25
0.0
 16
0.0
 26
0.0
 36
1.0
 17
0.0
 27
0.0
 37
0.0
 40
17.0
 41
1.2941176471
 42
50.0
 43
0.0
 44
0.0
 50
0.0
 51
0.0
 71
0
 72
100
 73
1
 74
1
 75
0
 76
0
 77
0
 78
0
  0
ENDTAB
  0
TABLE
  2
LTYPE
  5
5
100
AcDbSymbolTable
 70
6
  0
LTYPE
  5
14
100
AcDbSymbolTableRecord
100
AcDbLinetypeTableRecord
  2
BYBLOCK
 70
0
  3

 72
65
 73
0
 40
0.0
  0
LTYPE
  5
15
100
AcDbSymbolTableRecord
100
AcDbLinetypeTableRecord
  2
BYLAYER
 70
0
  3

 72
65
 73
0
 40
0.0
  0
LTYPE
  5
16
100
AcDbSymbolTableRecord
100
AcDbLinetypeTableRecord
  2
CONTINUOUS
 70
64
  3
Solid line
 72
65
 73
0
 40
0.0
  0
LTYPE
  5
1F5
100
AcDbSymbolTableRecord
100
AcDbLinetypeTableRecord
  2
CENTER
 70
64
  3
____ _ ____ _ ____ _ ____ _ ____ _ ____ _ ____
 72
65
 73
4
 40
0.6
 49
0.375
 74
0
 49
-0.075
 74
0
 49
0.075
 74
0
 49
-0.075
 74
0
  0
LTYPE
  5
1F6
100
AcDbSymbolTableRecord
100
AcDbLinetypeTableRecord
  2
HIDDEN
 70
64
  3
- - - - - - - - - - - - - - - - - - - -
 72
65
 73
2
 40
0.2
 49
0.1
 74
0
 49
-0.1
 74
0
  0
LTYPE
  5
1F7
100
AcDbSymbolTableRecord
100
AcDbLinetypeTableRecord
  2
PHANTOM
 70
64
  3
_____ _ _ _____ _ _ _____ _ _ _____
 72
65
 73
6
 40
0.8
 49
0.45
 74
0
 49
-0.05
 74
0
 49
0.1
 74
0
 49
-0.05
 74
0
 49
0.1
 74
0
 49
-0.05
 74
0
  0
LTYPE
  5
1F8
100
AcDbSymbolTableRecord
100
AcDbLinetypeTableRecord
  2
DOT
 70
64
  3
. . . . . . . . . . . . . . . . . . . .
 72
65
 73
2
 40
0.2
 49
0.1
 74
0
 49
-0.1
 74
0
  0
LTYPE
  5
1F9
100
AcDbSymbolTableRecord
100
AcDbLinetypeTableRecord
  2
DASHED
 70
64
  3
- - - - - - - - - - - - - - - - - - - -
 72
65
 73
2
 40
0.2
 49
0.1
 74
0
 49
-0.1
 74
0
  0
ENDTAB
  0
TABLE
  2
LAYER
  5
2
100
AcDbSymbolTable
 70
36
  0
LAYER
  5
10
100
AcDbSymbolTableRecord
100
AcDbLayerTableRecord
  2
0
 70
0
 62
7
  6
CONTINUOUS
370
-3
390
F
  0
LAYER
  5
1FA
100
AcDbSymbolTableRecord
100
AcDbLayerTableRecord
  2
DEFAULT_1
 70
0
 62
7
  6
CENTER
370
-3
390
F
  0
LAYER
  5
1FB
100
AcDbSymbolTableRecord
100
AcDbLayerTableRecord
  2
DEFAULT_2
 70
0
 62
8
  6
HIDDEN
370
-3
390
F
  0
LAYER
  5
1FC
100
AcDbSymbolTableRecord
100
AcDbLayerTableRecord
  2
DEFAULT_3
 70
0
 62
7
  6
PHANTOM
370
-3
390
F
  0
LAYER
  5
1FD
100
AcDbSymbolTableRecord
100
AcDbLayerTableRecord
  2
ALL_FEATURES
 70
0
 62
7
  6
CONTINUOUS
370
-3
390
F
  0
LAYER
  5
1FE
100
AcDbSymbolTableRecord
100
AcDbLayerTableRecord
  2
AXES_FEATURES
 70
0
 62
7
  6
CONTINUOUS
370
-3
390
F
  0
LAYER
  5
1FF
100
AcDbSymbolTableRecord
100
AcDbLayerTableRecord
  2
DIMENSIONS
 70
0
 62
7
  6
CONTINUOUS
370
-3
390
F
  0
ENDTAB
  0
TABLE
  2
STYLE
  5
3
100
AcDbSymbolTable
 70
1
  0
STYLE
  5
11
100
AcDbSymbolTableRecord
100
AcDbTextStyleTableRecord
  2
STANDARD
 70
0
 40
0.0
 41
0.8
 50
0.0
 71
0
 42
0.2
  3
txt
  4

  0
STYLE
  5
200
100
AcDbSymbolTableRecord
100
AcDbTextStyleTableRecord
  2
TEXTSTYLE_1
 70
0
 40
0.0
 41
0.8
 50
0.0
 71
0
 42
0.2
  3
gdt
  4

  0
ENDTAB
  0
TABLE
  2
VIEW
  5
6
100
AcDbSymbolTable
 70
0
  0
ENDTAB
  0
TABLE
  2
UCS
  5
7
100
AcDbSymbolTable
 70
0
  0
ENDTAB
  0
TABLE
  2
APPID
  5
9
100
AcDbSymbolTable
 70
1
  0
APPID
  5
201
100
AcDbSymbolTableRecord
100
AcDbRegAppTableRecord
  2
ACAD
 70
0
  0
ENDTAB
  0
TABLE
  2
BLOCK_RECORD
  5
1
100
AcDbSymbolTable
 70
0
  0
BLOCK_RECORD
  5
202
100
AcDbSymbolTableRecord
100
AcDbBlockTableRecord
  2
*Model_Space
  0
BLOCK_RECORD
  5
203
100
AcDbSymbolTableRecord
100
AcDbBlockTableRecord
  2
*Paper_Space
  0
BLOCK_RECORD
  5
204
100
AcDbSymbolTableRecord
100
AcDbBlockTableRecord
  2
_FILLED
  0
ENDTAB
  0
TABLE
  2
DIMSTYLE
  5
A
100
AcDbSymbolTable
 70
1
100
AcDbDimStyleTable
 71
0
  0
DIMSTYLE
105
205
100
AcDbSymbolTableRecord
100
AcDbDimStyleTableRecord
  2
STANDARD
 70
0
  3

  4

 40
1.0
 41
0.1
 42
0.0625
 43
0.38
 44
0.125
 45
0.0
 46
0.0
 47
0.001
 48
0.001
140
0.08
141
0.09
142
0.0
143
25.4
144
1.0
145
0.0
146
1.0
147
0.09
 71
1.0
 72
0.0
 73
1
 74
1
 75
0
 76
0
 77
0
 78
4
 79
1
170
1
171
2
172
0
173
0
174
0
175
0
176
0
177
0
178
0
270
2
179
3
271
3
272
3
273
2
274
2
275
0
280
0
281
0
282
0
283
1
284
4
285
0
286
0
287
3
288
0
340
11
278
46
341
204
342
204
343
204
344
204
  0
ENDTAB
  0
ENDSEC
  0
SECTION
  2
BLOCKS
  0
BLOCK
  5
20
100
AcDbEntity
  8
0
100
AcDbBlockBegin
  2
*Model_Space
 70
0
 10
0.0
 20
0.0
 30
0.0
  3
*Model_Space
  1

  0
ENDBLK
  5
21
100
AcDbEntity
  8
0
100
AcDbBlockEnd
  0
BLOCK
  5
1C
100
AcDbEntity
  8
0
100
AcDbBlockBegin
  2
*Paper_Space
 70
0
 10
0.0
 20
0.0
 30
0.0
  3
*Paper_Space
  1

  0
ENDBLK
  5
1D
100
AcDbEntity
  8
0
100
AcDbBlockEnd
  0
BLOCK
  5
206
100
AcDbEntity
  8
0
100
AcDbBlockBegin
  2
_FILLED
 70
64
 10
0.0
 20
0.0
  3
_FILLED
  1

  0
SOLID
  5
207
100
AcDbEntity
  8
0
  6
BYBLOCK
 62
0
100
AcDbTrace
 10
0.0
 20
0.0
 11
-1.0
 21
0.2
 12
-1.0
 22
-0.2
 13
-1.0
 23
-0.2
  0
ENDBLK
  5
208
100
AcDbEntity
  8
0
  6
BYBLOCK
 62
0
100
AcDbBlockEnd
  0
ENDSEC
  0
SECTION
  2
ENTITIES
  0
LWPOLYLINE
  5
209
100
AcDbEntity
  8
0
100
AcDbPolyline
 62
7
  6
CONTINUOUS
 90
36
 70
0
 10
16.7586424469
 20
-5.5338464451
 10
16.8528016306
 20
-5.532447122
 10
17.1957369067
 20
-5.4999272553
 10
17.5072109423
 20
-5.4202500769
 10
17.7855869805
 20
-5.2862921083
 10
18.0218575026
 20
-5.0926029487
 10
18.2042897658
 20
-4.8401619072
 10
18.3243657937
 20
-4.5385660168
 10
18.3822375563
 20
-4.2022668847
 10
18.3860688852
 20
-3.8438277418
 10
18.3461630499
 20
-3.4709830331
 10
18.270975217
 20
-3.0855881264
 10
18.1667342071
 20
-2.6888342211
 10
18.0376764532
 20
-2.2806117162
 10
17.886992968
 20
-1.8608132775
 10
17.7169778458
 20
-1.428760615
 10
17.528826056
 20
-0.9828180381
 10
17.3237531617
 20
-0.5223511456
 10
17.1027251568
 20
-0.0466464286
 10
16.8661453233
 20
0.4458452727
 10
16.6143192969
 20
0.9566485259
 10
16.3476289252
 20
1.4870371752
 10
16.0661921194
 20
2.0388182016
 10
15.7700107128
 20
2.6141623917
 10
15.4592672996
 20
3.2151582373
 10
15.1341521306
 20
3.8443169567
 10
14.7948644184
 20
4.5047715199
 10
14.4412774583
 20
5.2012583071
 10
14.0735839504
 20
5.9394351403
 10
13.6932706581
 20
6.7247643086
 10
13.3038444529
 20
7.5621134901
 10
12.9100264091
 20
8.4593625198
 10
12.5126618968
 20
9.4463087278
 10
12.1267212238
 20
10.5491965007
 10
11.8088744856
 20
11.7173128785
 10
11.6345708669
 20
12.785763248
  0
LINE
  5
20A
100
AcDbEntity
  8
0
100
AcDbLine
 62
7
  6
CONTINUOUS
 10
16.7589081726
 20
-4.9738218481
 11
16.7581727415
 21
-4.9738219794
  0
LINE
  5
20B
100
AcDbEntity
  8
0
100
AcDbLine
 62
7
  6
CONTINUOUS
 10
16.7586424469
 20
-5.5338464451
 11
16.7584781791
 21
-5.5338464533
  0
LINE
  5
20C
100
AcDbEntity
  8
0
100
AcDbLine
 62
9
  6
CONTINUOUS
 10
16.1866720827
 20
-5.4916553186
 11
16.188431231
 21
-5.4917745007
  0
LINE
  5
20D
100
AcDbEntity
  8
0
100
AcDbLine
 62
9
  6
CONTINUOUS
 10
4.842102737
 20
21.5613790691
 11
4.8318003994
 21
21.553184228
  0
LINE
  5
20E
100
AcDbEntity
  8
0
100
AcDbLine
 62
9
  6
CONTINUOUS
 10
4.7208787246
 20
21.4649531577
 11
4.7129079629
 21
21.4586129192
  0
LINE
  5
20F
100
AcDbEntity
  8
0
100
AcDbLine
 62
7
  6
CONTINUOUS
 10
4.7823994915
 20
21.5377434527
 11
4.747066805
 21
21.5099511454
  0
LINE
  5
210
100
AcDbEntity
  8
0
100
AcDbLine
 62
7
  6
CONTINUOUS
 10
4.8053097681
 20
21.5056909782
 11
4.7727843954
 21
21.4801126672
  0
LINE
  5
211
100
AcDbEntity
  8
0
100
AcDbLine
 62
9
  6
CONTINUOUS
 10
3.9422031499
 20
21.2725800371
 11
3.9427398618
 21
21.2729652759
  0
LINE
  5
212
100
AcDbEntity
  8
0
100
AcDbLine
 62
9
  6
CONTINUOUS
 10
3.9148503249
 20
21.2807953827
 11
3.9153884789
 21
21.2811814546
  0
LINE
  5
213
100
AcDbEntity
  8
0
100
AcDbLine
 62
9
  6
CONTINUOUS
 10
4.0350729742
 20
21.1226031307
 11
4.0146650328
 21
21.1092294909
  0
LINE
  5
214
100
AcDbEntity
  8
0
100
AcDbLine
 62
9
  6
CONTINUOUS
 10
3.7633870657
 20
20.9890885466
 11
3.7634803698
 21
20.9891452694
  0
LINE
  5
215
100
AcDbEntity
  8
0
100
AcDbLine
 62
9
  6
CONTINUOUS
 10
6.1928130765
 20
22.4896965641
 11
6.204155713
 21
22.4963778783
  0
LINE
  5
216
100
AcDbEntity
  8
0
100
AcDbLine
 62
9
  6
CONTINUOUS
 10
6.3262772395
 20
22.568312956
 11
6.3350528103
 21
22.5734821731
  0
LINE
  5
217
100
AcDbEntity
  8
0
100
AcDbLine
 62
9
  6
CONTINUOUS
 10
3.6857040071
 20
21.1236392763
 11
3.6857995397
 21
21.1236915865
  0
LINE
  5
218
100
AcDbEntity
  8
0
100
AcDbLine
 62
9
  6
CONTINUOUS
 10
3.9153881881
 20
21.2811820299
 11
3.937174169
 21
21.2921690563
  0
LINE
  5
219
100
AcDbEntity
  8
0
100
AcDbLine
 62
9
  6
CONTINUOUS
 10
4.0140612956
 20
21.1089569497
 11
4.0146647205
 21
21.1092299687
  0
LINE
  5
21A
100
AcDbEntity
  8
0
100
AcDbLine
 62
9
  6
CONTINUOUS
 10
4.0212249063
 20
21.1370250856
 11
4.0206222357
 21
21.136752501
  0
LINE
  5
21B
100
AcDbEntity
  8
0
100
AcDbLine
 62
9
  6
CONTINUOUS
 10
6.272653308
 20
22.306076556
 11
6.2852750565
 21
22.3098152883
  0
LINE
  5
21C
100
AcDbEntity
  8
0
100
AcDbLine
 62
9
  6
CONTINUOUS
 10
6.4211716631
 20
22.3500697015
 11
6.4309375325
 21
22.3529624825
  0
LWPOLYLINE
  5
21D
100
AcDbEntity
  8
0
100
AcDbPolyline
 62
7
  6
CONTINUOUS
 90
3
 70
0
 10
16.7589081726
 20
-4.9738218481
 10
16.5263314122
 20
-4.9649050531
 10
16.2625417173
 20
-4.9368185875
  0
LINE
  5
21E
100
AcDbEntity
  8
0
100
AcDbLine
 62
9
  6
CONTINUOUS
 10
7.6818527606
 20
-4.3286115285
 11
7.6800936123
 21
-4.3284923464
  0
LWPOLYLINE
  5
21F
100
AcDbEntity
  8
0
100
AcDbPolyline
 62
7
  6
CONTINUOUS
 90
3
 70
0
 10
16.1866700184
 20
-5.4916550362
 10
16.522368268
 20
-5.5259690514
 10
16.7584781791
 20
-5.5338464533
  0
LINE
  5
220
100
AcDbEntity
  8
0
100
AcDbLine
 62
7
  6
CONTINUOUS
 10
7.6800936123
 20
-4.3284923464
 11
16.1866720827
 21
-5.4916553186
  0
LINE
  5
221
100
AcDbEntity
  8
0
100
AcDbLine
 62
7
  6
CONTINUOUS
 10
7.755960309
 20
-3.7736552132
 11
16.2625387793
 21
-4.9368181854
  0
LINE
  5
222
100
AcDbEntity
  8
0
100
AcDbLine
 62
7
  6
CONTINUOUS
 10
5.6380174111
 20
22.3206827428
 11
5.6283801253
 21
22.3081193353
  0
LINE
  5
223
100
AcDbEntity
  8
0
100
AcDbLine
 62
7
  6
CONTINUOUS
 10
5.2948981985
 20
21.8735225997
 11
5.2851325447
 21
21.8607942312
  0
LINE
  5
224
100
AcDbEntity
  8
0
100
AcDbLine
 62
9
  6
CONTINUOUS
 10
4.890620004
 20
21.2981511618
 11
4.8844187599
 21
21.2900695796
  0
LINE
  5
225
100
AcDbEntity
  8
0
100
AcDbLine
 62
9
  6
CONTINUOUS
 10
4.9849145788
 20
21.4210382406
 11
4.9769009765
 21
21.4105947114
  0
LINE
  5
226
100
AcDbEntity
  8
0
100
AcDbLine
 62
7
  6
CONTINUOUS
 10
5.3319841199
 20
21.8248437531
 11
5.3416233797
 21
21.837405909
  0
LINE
  5
227
100
AcDbEntity
  8
0
100
AcDbLine
 62
7
  6
CONTINUOUS
 10
5.6752283612
 20
22.2721713612
 11
5.6848689863
 21
22.2847322647
  0
LINE
  5
228
100
AcDbEntity
  8
0
100
AcDbLine
 62
9
  6
CONTINUOUS
 10
5.1574358288
 20
21.319415473
 11
5.1521866214
 21
21.3073431416
  0
LINE
  5
229
100
AcDbEntity
  8
0
100
AcDbLine
 62
9
  6
CONTINUOUS
 10
5.0956705977
 20
21.1773652139
 11
5.0916093993
 21
21.1680250798
  0
LINE
  5
22A
100
AcDbEntity
  8
0
100
AcDbLine
 62
7
  6
CONTINUOUS
 10
5.0949576488
 20
19.2827633427
 11
4.9510109912
 21
19.1050040245
  0
LINE
  5
22B
100
AcDbEntity
  8
0
100
AcDbLine
 62
9
  6
CONTINUOUS
 10
4.4845006513
 20
-0.2846729902
 11
4.4911488161
 21
-0.2841541003
  0
LINE
  5
22C
100
AcDbEntity
  8
0
100
AcDbLine
 62
9
  6
CONTINUOUS
 10
5.7459265481
 20
23.0136312241
 11
5.7486484532
 21
23.0234460931
  0
LINE
  5
22D
100
AcDbEntity
  8
0
100
AcDbLine
 62
9
  6
CONTINUOUS
 10
5.7045321146
 20
22.8643677036
 11
5.7080499976
 21
22.8770527802
  0
LINE
  5
22E
100
AcDbEntity
  8
0
100
AcDbLine
 62
7
  6
CONTINUOUS
 10
5.0750007655
 20
13.785763248
 11
5.068841713
 21
13.967763248
  0
LINE
  5
22F
100
AcDbEntity
  8
0
100
AcDbLine
 62
7
  6
CONTINUOUS
 10
4.8500007655
 20
15.122763248
 11
4.8500007655
 21
15.192763248
  0
LINE
  5
230
100
AcDbEntity
  8
0
100
AcDbLine
 62
7
  6
CONTINUOUS
 10
4.8500007655
 20
18.972763248
 11
4.8500007655
 21
19.042763248
  0
LINE
  5
231
100
AcDbEntity
  8
0
100
AcDbLine
 62
7
  6
CONTINUOUS
 10
5.1100007655
 20
19.3224984486
 11
5.1100007655
 21
20.1102088656
  0
LINE
  5
232
100
AcDbEntity
  8
0
100
AcDbLine
 62
7
  6
CONTINUOUS
 10
5.1200007655
 20
14.967763248
 11
5.1200007655
 21
15.082763248
  0
LINE
  5
233
100
AcDbEntity
  8
0
100
AcDbLine
 62
9
  6
CONTINUOUS
 10
5.1230959926
 20
14.9494533898
 11
5.1230959937
 21
13.9860731065
  0
LINE
  5
234
100
AcDbEntity
  8
0
100
AcDbLine
 62
7
  6
CONTINUOUS
 10
5.1600007655
 20
13.992763248
 11
5.1600007655
 21
14.942763248
  0
LINE
  5
235
100
AcDbEntity
  8
0
100
AcDbLine
 62
7
  6
CONTINUOUS
 10
5.2050007655
 20
13.785763248
 11
5.2050007655
 21
9.1049221521
  0
LINE
  5
236
100
AcDbEntity
  8
0
100
AcDbLine
 62
9
  6
CONTINUOUS
 10
5.5065046395
 20
22.8939631269
 11
5.5068492453
 21
22.9071227853
  0
LINE
  5
237
100
AcDbEntity
  8
0
100
AcDbLine
 62
9
  6
CONTINUOUS
 10
5.5105593891
 20
23.0488074968
 11
5.5108259884
 21
23.0589888706
  0
LINE
  5
238
100
AcDbEntity
  8
0
100
AcDbLine
 62
7
  6
CONTINUOUS
 10
5.2012811315
 20
9.0083208967
 11
4.4845006513
 21
-0.2846729902
  0
LINE
  5
239
100
AcDbEntity
  8
0
100
AcDbLine
 62
7
  6
CONTINUOUS
 10
5.7650007655
 20
13.785763248
 11
5.7650007655
 21
9.1049221521
  0
LINE
  5
23A
100
AcDbEntity
  8
0
100
AcDbLine
 62
7
  6
CONTINUOUS
 10
5.8100007655
 20
14.942763248
 11
5.8100007655
 21
13.992763248
  0
LINE
  5
23B
100
AcDbEntity
  8
0
100
AcDbLine
 62
9
  6
CONTINUOUS
 10
5.8469055388
 20
13.986073106
 11
5.8469055371
 21
14.9494533897
  0
LINE
  5
23C
100
AcDbEntity
  8
0
100
AcDbLine
 62
7
  6
CONTINUOUS
 10
5.8500007655
 20
15.082763248
 11
5.8500007655
 21
14.967763248
  0
LINE
  5
23D
100
AcDbEntity
  8
0
100
AcDbLine
 62
7
  6
CONTINUOUS
 10
5.8600007655
 20
19.3224984488
 11
5.8600007655
 21
20.1102088656
  0
LINE
  5
23E
100
AcDbEntity
  8
0
100
AcDbLine
 62
7
  6
CONTINUOUS
 10
6.1200007655
 20
15.122763248
 11
6.1200007655
 21
15.192763248
  0
LINE
  5
23F
100
AcDbEntity
  8
0
100
AcDbLine
 62
7
  6
CONTINUOUS
 10
6.1200007655
 20
18.972763248
 11
6.1200007655
 21
19.042763248
  0
LINE
  5
240
100
AcDbEntity
  8
0
100
AcDbLine
 62
7
  6
CONTINUOUS
 10
5.8950007655
 20
13.785763248
 11
5.9011598179
 21
13.967763248
  0
LINE
  5
241
100
AcDbEntity
  8
0
100
AcDbLine
 62
7
  6
CONTINUOUS
 10
5.759622742
 20
8.9652552956
 11
5.0428422618
 21
-0.3277385913
  0
LINE
  5
242
100
AcDbEntity
  8
0
100
AcDbLine
 62
7
  6
CONTINUOUS
 10
10.9739669467
 20
14.299263248
 11
10.9704669467
 21
14.295763248
  0
LINE
  5
243
100
AcDbEntity
  8
0
100
AcDbLine
 62
7
  6
CONTINUOUS
 10
5.4914907622
 20
21.7972491292
 11
5.4935573203
 21
21.7815503445
  0
LINE
  5
244
100
AcDbEntity
  8
0
100
AcDbLine
 62
7
  6
CONTINUOUS
 10
5.4178943172
 20
22.3562679117
 11
5.4199617363
 21
22.3405692788
  0
LINE
  5
245
100
AcDbEntity
  8
0
100
AcDbLine
 62
7
  6
CONTINUOUS
 10
5.5521072137
 20
21.7892585842
 11
5.5500400554
 21
21.8049572755
  0
LINE
  5
246
100
AcDbEntity
  8
0
100
AcDbLine
 62
7
  6
CONTINUOUS
 10
5.478558063
 20
22.3479292902
 11
5.4764442106
 21
22.3639761514
  0
LINE
  5
247
100
AcDbEntity
  8
0
100
AcDbLine
 62
7
  6
CONTINUOUS
 10
10.8522156619
 20
14.2434384678
 11
10.8700626674
 21
14.2671842569
  0
LINE
  5
248
100
AcDbEntity
  8
0
100
AcDbLine
 62
9
  6
CONTINUOUS
 10
5.3071996551
 20
22.8747722397
 11
5.3043504146
 21
22.8876243676
  0
LINE
  5
249
100
AcDbEntity
  8
0
100
AcDbLine
 62
9
  6
CONTINUOUS
 10
5.2736737284
 20
23.0259980052
 11
5.2714693138
 21
23.0359414449
  0
LINE
  5
24A
100
AcDbEntity
  8
0
100
AcDbLine
 62
7
  6
CONTINUOUS
 10
11.8158477944
 20
13.8145917111
 11
11.8337182315
 21
13.8380880281
  0
LINE
  5
24B
100
AcDbEntity
  8
0
100
AcDbLine
 62
7
  6
CONTINUOUS
 10
10.7879669467
 20
14.479263248
 11
10.7879669467
 21
14.379263248
  0
LINE
  5
24C
100
AcDbEntity
  8
0
100
AcDbLine
 62
7
  6
CONTINUOUS
 10
10.8522156619
 20
13.8380880281
 11
10.8522156619
 21
14.2434384678
  0
LINE
  5
24D
100
AcDbEntity
  8
0
100
AcDbLine
 62
7
  6
CONTINUOUS
 10
10.8742456965
 20
14.2434384678
 11
10.8742456965
 21
13.8380880281
  0
LINE
  5
24E
100
AcDbEntity
  8
0
100
AcDbLine
 62
7
  6
CONTINUOUS
 10
10.8879669467
 20
14.579263248
 11
10.8879669467
 21
15.2704883674
  0
LINE
  5
24F
100
AcDbEntity
  8
0
100
AcDbLine
 62
7
  6
CONTINUOUS
 10
10.9779669467
 20
14.299263248
 11
10.9779669467
 21
14.379263248
  0
LINE
  5
250
100
AcDbEntity
  8
0
100
AcDbLine
 62
7
  6
CONTINUOUS
 10
11.0369669467
 20
13.785763248
 11
11.0369669467
 21
12.785763248
  0
LINE
  5
251
100
AcDbEntity
  8
0
100
AcDbLine
 62
9
  6
CONTINUOUS
 10
5.2050007655
 20
9.1049221521
 11
5.7650007655
 21
9.1049221521
  0
LINE
  5
252
100
AcDbEntity
  8
0
100
AcDbLine
 62
7
  6
CONTINUOUS
 10
3.6216410161
 20
20.9852363768
 11
3.611494994
 21
21.0028098025
  0
LINE
  5
253
100
AcDbEntity
  8
0
100
AcDbLine
 62
9
  6
CONTINUOUS
 10
3.6908831501
 20
21.0258623481
 11
3.6812991823
 21
21.0424622673
  0
LINE
  5
254
100
AcDbEntity
  8
0
100
AcDbLine
 62
7
  6
CONTINUOUS
 10
3.8345073488
 20
21.210393977
 11
3.834868103
 21
21.2097054447
  0
LINE
  5
255
100
AcDbEntity
  8
0
100
AcDbLine
 62
7
  6
CONTINUOUS
 10
3.8345073456
 20
21.2103939752
 11
3.8348681014
 21
21.2097054478
  0
LINE
  5
256
100
AcDbEntity
  8
0
100
AcDbLine
 62
9
  6
CONTINUOUS
 10
5.7726896096
 20
21.3033044855
 11
5.777299793
 21
21.2909739667
  0
LINE
  5
257
100
AcDbEntity
  8
0
100
AcDbLine
 62
9
  6
CONTINUOUS
 10
5.826935838
 20
21.1582163383
 11
5.8305026564
 21
21.1486764747
  0
LINE
  5
258
100
AcDbEntity
  8
0
100
AcDbLine
 62
7
  6
CONTINUOUS
 10
11.1465747947
 20
13.8380880281
 11
11.1465747947
 21
14.2434384678
  0
LINE
  5
259
100
AcDbEntity
  8
0
100
AcDbLine
 62
7
  6
CONTINUOUS
 10
11.2437073661
 20
14.2434384678
 11
11.2437073661
 21
13.8380880281
  0
LINE
  5
25A
100
AcDbEntity
  8
0
100
AcDbLine
 62
7
  6
CONTINUOUS
 10
11.6373260795
 20
13.8380880281
 11
11.6373260795
 21
14.2434384678
  0
LINE
  5
25B
100
AcDbEntity
  8
0
100
AcDbLine
 62
7
  6
CONTINUOUS
 10
11.6489669467
 20
13.785763248
 11
11.6489669467
 21
12.785763248
  0
LINE
  5
25C
100
AcDbEntity
  8
0
100
AcDbLine
 62
7
  6
CONTINUOUS
 10
11.7079669467
 20
14.299263248
 11
11.7079669467
 21
14.379263248
  0
LINE
  5
25D
100
AcDbEntity
  8
0
100
AcDbLine
 62
7
  6
CONTINUOUS
 10
11.7124286163
 20
14.2434384678
 11
11.7124286163
 21
13.8380880281
  0
LINE
  5
25E
100
AcDbEntity
  8
0
100
AcDbLine
 62
7
  6
CONTINUOUS
 10
11.7979669467
 20
14.579263248
 11
11.7979669467
 21
15.270376485
  0
LINE
  5
25F
100
AcDbEntity
  8
0
100
AcDbLine
 62
7
  6
CONTINUOUS
 10
11.8337182315
 20
13.8380880281
 11
11.8337182315
 21
14.2434384678
  0
LINE
  5
260
100
AcDbEntity
  8
0
100
AcDbLine
 62
7
  6
CONTINUOUS
 10
11.8979669467
 20
14.479263248
 11
11.8979669467
 21
14.379263248
  0
LINE
  5
261
100
AcDbEntity
  8
0
100
AcDbLine
 62
9
  6
CONTINUOUS
 10
5.2079292963
 20
9.0088397866
 11
5.2012811315
 21
9.0083208967
  0
LINE
  5
262
100
AcDbEntity
  8
0
100
AcDbLine
 62
7
  6
CONTINUOUS
 10
3.9125005638
 20
21.0752415433
 11
3.9125042996
 21
21.0752356542
  0
LINE
  5
263
100
AcDbEntity
  8
0
100
AcDbLine
 62
7
  6
CONTINUOUS
 10
3.9125091642
 20
21.0752381132
 11
3.9129203716
 21
21.0745786622
  0
LINE
  5
264
100
AcDbEntity
  8
0
100
AcDbLine
 62
9
  6
CONTINUOUS
 10
4.2541704665
 20
21.3751288248
 11
4.2654175503
 21
21.3556507508
  0
LINE
  5
265
100
AcDbEntity
  8
0
100
AcDbLine
 62
7
  6
CONTINUOUS
 10
4.2724805919
 20
21.3856643348
 11
4.2780733138
 21
21.3759433569
  0
LWPOLYLINE
  5
266
100
AcDbEntity
  8
0
100
AcDbPolyline
 62
7
  6
CONTINUOUS
 90
50
 70
0
 10
11.0721865068
 20
12.785763248
 10
11.1917235517
 20
11.9378880541
 10
11.3751610572
 20
11.1301646755
 10
11.5916654414
 20
10.3839171633
 10
11.8259065181
 20
9.6897676421
 10
12.0696103372
 20
9.0384001298
 10
12.3177612384
 20
8.4232196639
 10
12.5667897426
 20
7.8400870499
 10
12.8145937841
 20
7.2849719208
 10
13.0597551627
 20
6.754662007
 10
13.3011553319
 20
6.246845891
 10
13.5381330158
 20
5.7593448929
 10
13.7703484629
 20
5.2901113084
 10
13.9974946305
 20
4.8375895883
 10
14.2193014742
 20
4.4005532161
 10
14.4356124707
 20
3.9778535068
 10
14.6463548018
 20
3.5684142197
 10
14.8514689953
 20
3.1713165235
 10
15.0509065269
 20
2.7857653099
 10
15.2446388523
 20
2.4110407752
 10
15.4326381386
 20
2.0465065887
 10
15.61486985
 20
1.6916042695
 10
15.7912819743
 20
1.3458592182
 10
15.9618997182
 20
1.0086803367
 10
16.1267200738
 20
0.6795495621
 10
16.2856838001
 20
0.3580672122
 10
16.4386787726
 20
0.0439463314
 10
16.5855244299
 20
-0.2629584806
 10
16.7261813641
 20
-0.5631110972
 10
16.8606041611
 20
-0.8570222009
 10
16.9886063417
 20
-1.144971941
 10
17.1098725485
 20
-1.4270155835
 10
17.2239390181
 20
-1.7029320566
 10
17.3304691504
 20
-1.9729151098
 10
17.4293904719
 20
-2.2381085065
 10
17.5202674579
 20
-2.4990813781
 10
17.6022980018
 20
-2.7557568206
 10
17.6742531048
 20
-3.0072753519
 10
17.734724583
 20
-3.2528046212
 10
17.7825946715
 20
-3.4942553532
 10
17.8154666224
 20
-3.7310452293
 10
17.8299535657
 20
-3.9596518366
 10
17.8220512632
 20
-4.1785414626
 10
17.7853251447
 20
-4.3865015851
 10
17.7105217592
 20
-4.5761957376
 10
17.5895969423
 20
-4.7334239557
 10
17.4231538158
 20
-4.8485111573
 10
17.2219943274
 20
-4.9224545369
 10
17.0035304733
 20
-4.9613406811
 10
16.7581727415
 20
-4.9738219794
  0
LINE
  5
267
100
AcDbEntity
  8
0
100
AcDbLine
 62
7
  6
CONTINUOUS
 10
5.8750438803
 20
19.2827633449
 11
6.0189905397
 21
19.1050040245
  0
LINE
  5
268
100
AcDbEntity
  8
0
100
AcDbLine
 62
7
  6
CONTINUOUS
 10
10.870086099
 20
13.8145917111
 11
10.8522156619
 21
13.8380880281
  0
LINE
  5
269
100
AcDbEntity
  8
0
100
AcDbLine
 62
9
  6
CONTINUOUS
 10
5.9502929406
 20
21.3957589278
 11
5.9577492023
 21
21.3849099866
  0
LINE
  5
26A
100
AcDbEntity
  8
0
100
AcDbLine
 62
9
  6
CONTINUOUS
 10
6.0380278074
 20
21.2681038729
 11
6.0437965831
 21
21.2597102644
  0
LINE
  5
26B
100
AcDbEntity
  8
0
100
AcDbLine
 62
7
  6
CONTINUOUS
 10
11.0370122566
 20
12.785763248
 11
11.6489216368
 21
12.785763248
  0
LINE
  5
26C
100
AcDbEntity
  8
0
100
AcDbLine
 62
7
  6
CONTINUOUS
 10
5.0750151715
 20
13.785763248
 11
5.8949863594
 21
13.785763248
  0
LINE
  5
26D
100
AcDbEntity
  8
0
100
AcDbLine
 62
7
  6
CONTINUOUS
 10
10.9060066531
 20
13.785763248
 11
11.7799272403
 21
13.785763248
  0
LINE
  5
26E
100
AcDbEntity
  8
0
100
AcDbLine
 62
7
  6
CONTINUOUS
 10
11.7119669467
 20
14.299263248
 11
11.7140060498
 21
14.2972241448
  0
LINE
  5
26F
100
AcDbEntity
  8
0
100
AcDbLine
 62
7
  6
CONTINUOUS
 10
11.8337182315
 20
14.2434384678
 11
11.815871226
 21
14.2671842569
  0
LINE
  5
270
100
AcDbEntity
  8
0
100
AcDbLine
 62
7
  6
CONTINUOUS
 10
10.8522156619
 20
13.8380880281
 11
10.8742456965
 21
13.8380880281
  0
LINE
  5
271
100
AcDbEntity
  8
0
100
AcDbLine
 62
7
  6
CONTINUOUS
 10
11.1465747947
 20
13.8380880281
 11
11.2437073661
 21
13.8380880281
  0
LINE
  5
272
100
AcDbEntity
  8
0
100
AcDbLine
 62
7
  6
CONTINUOUS
 10
11.6373260795
 20
13.8380880281
 11
11.7124286163
 21
13.8380880281
  0
LINE
  5
273
100
AcDbEntity
  8
0
100
AcDbLine
 62
7
  6
CONTINUOUS
 10
4.9358198725
 20
13.967763248
 11
5.1350009226
 21
13.967763248
  0
LINE
  5
274
100
AcDbEntity
  8
0
100
AcDbLine
 62
7
  6
CONTINUOUS
 10
5.8350006087
 20
13.967763248
 11
6.034172604
 21
13.967763248
  0
LINE
  5
275
100
AcDbEntity
  8
0
100
AcDbLine
 62
9
  6
CONTINUOUS
 10
5.1230959937
 20
13.9860731065
 11
4.8971379352
 21
13.9860815173
  0
LINE
  5
276
100
AcDbEntity
  8
0
100
AcDbLine
 62
9
  6
CONTINUOUS
 10
6.0728590052
 20
13.9860759116
 11
5.8469055388
 21
13.986073106
  0
LINE
  5
277
100
AcDbEntity
  8
0
100
AcDbLine
 62
7
  6
CONTINUOUS
 10
11.7124286163
 20
14.2434384678
 11
11.6373260795
 21
14.2434384678
  0
LINE
  5
278
100
AcDbEntity
  8
0
100
AcDbLine
 62
7
  6
CONTINUOUS
 10
11.2437073661
 20
14.2434384678
 11
11.1465747947
 21
14.2434384678
  0
LINE
  5
279
100
AcDbEntity
  8
0
100
AcDbLine
 62
7
  6
CONTINUOUS
 10
10.8742456965
 20
14.2434384678
 11
10.8522156619
 21
14.2434384678
  0
LINE
  5
27A
100
AcDbEntity
  8
0
100
AcDbLine
 62
7
  6
CONTINUOUS
 10
5.8100007655
 20
14.265763248
 11
5.1600007655
 21
14.265763248
  0
LINE
  5
27B
100
AcDbEntity
  8
0
100
AcDbLine
 62
7
  6
CONTINUOUS
 10
5.1600007655
 20
14.268263248
 11
5.8100007655
 21
14.268263248
  0
LINE
  5
27C
100
AcDbEntity
  8
0
100
AcDbLine
 62
7
  6
CONTINUOUS
 10
11.7799050613
 20
14.295763248
 11
10.9060288321
 21
14.295763248
  0
LINE
  5
27D
100
AcDbEntity
  8
0
100
AcDbLine
 62
7
  6
CONTINUOUS
 10
11.7119606869
 20
14.299263248
 11
10.9739732065
 21
14.299263248
  0
LINE
  5
27E
100
AcDbEntity
  8
0
100
AcDbLine
 62
7
  6
CONTINUOUS
 10
5.1600007655
 20
14.300763248
 11
5.8100007655
 21
14.300763248
  0
LINE
  5
27F
100
AcDbEntity
  8
0
100
AcDbLine
 62
7
  6
CONTINUOUS
 10
5.8100007655
 20
14.305763248
 11
5.1600007655
 21
14.305763248
  0
LINE
  5
280
100
AcDbEntity
  8
0
100
AcDbLine
 62
7
  6
CONTINUOUS
 10
5.1600007655
 20
14.335763248
 11
5.8100007655
 21
14.335763248
  0
LINE
  5
281
100
AcDbEntity
  8
0
100
AcDbLine
 62
7
  6
CONTINUOUS
 10
10.7879740536
 20
14.379263248
 11
11.8979598398
 21
14.379263248
  0
LINE
  5
282
100
AcDbEntity
  8
0
100
AcDbLine
 62
7
  6
CONTINUOUS
 10
11.8979669467
 20
14.479263248
 11
10.7879669467
 21
14.479263248
  0
LINE
  5
283
100
AcDbEntity
  8
0
100
AcDbLine
 62
9
  6
CONTINUOUS
 10
10.8879669467
 20
14.579263248
 11
11.7979669467
 21
14.579263248
  0
LINE
  5
284
100
AcDbEntity
  8
0
100
AcDbLine
 62
9
  6
CONTINUOUS
 10
5.1200006682
 20
14.9494534933
 11
5.1230959926
 21
14.9494533898
  0
LINE
  5
285
100
AcDbEntity
  8
0
100
AcDbLine
 62
9
  6
CONTINUOUS
 10
5.8469055371
 20
14.9494533897
 11
6.0728574545
 21
14.9494524768
  0
LINE
  5
286
100
AcDbEntity
  8
0
100
AcDbLine
 62
9
  6
CONTINUOUS
 10
4.8971440028
 20
14.949452387
 11
5.1200006682
 21
14.9494534933
  0
LINE
  5
287
100
AcDbEntity
  8
0
100
AcDbLine
 62
7
  6
CONTINUOUS
 10
6.0341816584
 20
14.967763248
 11
4.935828927
 21
14.967763248
  0
LINE
  5
288
100
AcDbEntity
  8
0
100
AcDbLine
 62
7
  6
CONTINUOUS
 10
5.1200007655
 20
15.007763248
 11
5.8500007655
 21
15.007763248
  0
LINE
  5
289
100
AcDbEntity
  8
0
100
AcDbLine
 62
7
  6
CONTINUOUS
 10
4.8900007655
 20
15.082763248
 11
6.0799996369
 21
15.082763248
  0
LINE
  5
28A
100
AcDbEntity
  8
0
100
AcDbLine
 62
9
  6
CONTINUOUS
 10
4.8500007655
 20
15.122763248
 11
6.1200007655
 21
15.122763248
  0
LINE
  5
28B
100
AcDbEntity
  8
0
100
AcDbLine
 62
9
  6
CONTINUOUS
 10
6.1200007655
 20
15.192763248
 11
4.8500007655
 21
15.192763248
  0
LINE
  5
28C
100
AcDbEntity
  8
0
100
AcDbLine
 62
9
  6
CONTINUOUS
 10
4.8877377927
 20
15.2326991836
 11
6.0822637383
 21
15.2326991836
  0
LINE
  5
28D
100
AcDbEntity
  8
0
100
AcDbLine
 62
9
  6
CONTINUOUS
 10
6.025893459
 20
15.2979111972
 11
4.9441080719
 21
15.2979111972
  0
LINE
  5
28E
100
AcDbEntity
  8
0
100
AcDbLine
 62
7
  6
CONTINUOUS
 10
6.1918018567
 20
21.479686713
 11
6.1696152875
 21
21.498303455
  0
LINE
  5
28F
100
AcDbEntity
  8
0
100
AcDbLine
 62
9
  6
CONTINUOUS
 10
6.1002539383
 20
21.5284332169
 11
6.1101132253
 21
21.5197104495
  0
LINE
  5
290
100
AcDbEntity
  8
0
100
AcDbLine
 62
9
  6
CONTINUOUS
 10
6.2162652557
 20
21.4257950511
 11
6.2238932786
 21
21.4190463554
  0
LINE
  5
291
100
AcDbEntity
  8
0
100
AcDbLine
 62
9
  6
CONTINUOUS
 10
4.7999790918
 20
22.5261692059
 11
4.7890017014
 21
22.5334349906
  0
LINE
  5
292
100
AcDbEntity
  8
0
100
AcDbLine
 62
9
  6
CONTINUOUS
 10
4.6708123149
 20
22.6116628519
 11
4.6623192967
 21
22.6172842497
  0
LINE
  5
293
100
AcDbEntity
  8
0
100
AcDbLine
 62
7
  6
CONTINUOUS
 10
5.684407889
 20
21.8825345769
 11
5.6969697822
 21
21.8728950271
  0
LINE
  5
294
100
AcDbEntity
  8
0
100
AcDbLine
 62
7
  6
CONTINUOUS
 10
5.2370812706
 20
22.2257798936
 11
5.2496434877
 21
22.2161407302
  0
LINE
  5
295
100
AcDbEntity
  8
0
100
AcDbLine
 62
7
  6
CONTINUOUS
 10
5.2855936558
 20
22.262991934
 11
5.2730317487
 21
22.2726314688
  0
LINE
  5
296
100
AcDbEntity
  8
0
100
AcDbLine
 62
7
  6
CONTINUOUS
 10
5.7329202603
 20
21.9197466024
 11
5.7203575056
 21
21.9293849177
  0
LINE
  5
297
100
AcDbEntity
  8
0
100
AcDbLine
 62
9
  6
CONTINUOUS
 10
4.9441080719
 20
18.8676152987
 11
6.025893459
 21
18.8676152987
  0
LINE
  5
298
100
AcDbEntity
  8
0
100
AcDbLine
 62
9
  6
CONTINUOUS
 10
4.8877377927
 20
18.9328273123
 11
6.0822637383
 21
18.9328273123
  0
LINE
  5
299
100
AcDbEntity
  8
0
100
AcDbLine
 62
9
  6
CONTINUOUS
 10
4.8500007655
 20
18.972763248
 11
6.1200007655
 21
18.972763248
  0
LINE
  5
29A
100
AcDbEntity
  8
0
100
AcDbLine
 62
9
  6
CONTINUOUS
 10
6.1200007655
 20
19.042763248
 11
4.8500007655
 21
19.042763248
  0
LINE
  5
29B
100
AcDbEntity
  8
0
100
AcDbLine
 62
7
  6
CONTINUOUS
 10
6.0799996369
 20
19.082763248
 11
4.890001894
 21
19.082763248
  0
LINE
  5
29C
100
AcDbEntity
  8
0
100
AcDbLine
 62
9
  6
CONTINUOUS
 10
4.9510109912
 20
19.1050040245
 11
6.0189905397
 21
19.1050040245
  0
LINE
  5
29D
100
AcDbEntity
  8
0
100
AcDbLine
 62
7
  6
CONTINUOUS
 10
5.8750438803
 20
19.2827633449
 11
5.0949576488
 21
19.2827633427
  0
LINE
  5
29E
100
AcDbEntity
  8
0
100
AcDbLine
 62
9
  6
CONTINUOUS
 10
5.1100007655
 20
19.3224984486
 11
5.8600007655
 21
19.3224984488
  0
LINE
  5
29F
100
AcDbEntity
  8
0
100
AcDbLine
 62
9
  6
CONTINUOUS
 10
4.7106383333
 20
22.3469793696
 11
4.6982292433
 21
22.3513736668
  0
LINE
  5
2A0
100
AcDbEntity
  8
0
100
AcDbLine
 62
9
  6
CONTINUOUS
 10
4.5646255764
 20
22.3986852177
 11
4.5550248995
 21
22.4020849884
  0
LINE
  5
2A1
100
AcDbEntity
  8
0
100
AcDbLine
 62
9
  6
CONTINUOUS
 10
4.6673013492
 20
22.1514987437
 11
4.6541980095
 21
22.1527604537
  0
LINE
  5
2A2
100
AcDbEntity
  8
0
100
AcDbLine
 62
9
  6
CONTINUOUS
 10
4.5131173958
 20
22.1663449728
 11
4.5029789882
 21
22.1673211913
  0
LINE
  5
2A3
100
AcDbEntity
  8
0
100
AcDbLine
 62
7
  6
CONTINUOUS
 10
5.7599419368
 20
22.0791753324
 11
5.7762136689
 21
22.0813198028
  0
LINE
  5
2A4
100
AcDbEntity
  8
0
100
AcDbLine
 62
7
  6
CONTINUOUS
 10
5.2014961017
 20
22.0056567997
 11
5.217401866
 21
22.0077507516
  0
LINE
  5
2A5
100
AcDbEntity
  8
0
100
AcDbLine
 62
9
  6
CONTINUOUS
 10
6.3057002773
 20
22.1085957601
 11
6.318851918
 21
22.1091699656
  0
LINE
  5
2A6
100
AcDbEntity
  8
0
100
AcDbLine
 62
9
  6
CONTINUOUS
 10
6.4604502997
 20
22.115352274
 11
6.4706254688
 21
22.1157965384
  0
LINE
  5
2A7
100
AcDbEntity
  8
0
100
AcDbLine
 62
7
  6
CONTINUOUS
 10
4.5586287976
 20
22.1440436861
 11
4.6059956653
 21
22.1403990043
  0
LINE
  5
2A8
100
AcDbEntity
  8
0
100
AcDbLine
 62
7
  6
CONTINUOUS
 10
5.2094866391
 20
22.0662734347
 11
5.193787862
 21
22.0642066931
  0
LINE
  5
2A9
100
AcDbEntity
  8
0
100
AcDbLine
 62
7
  6
CONTINUOUS
 10
5.7685054292
 20
22.1398696962
 11
5.7528069936
 21
22.1378013963
  0
ARC
  5
2AA
100
AcDbEntity
  8
0
100
AcDbCircle
 62
7
  6
CONTINUOUS
 10
3.9481821623
 20
9.1049437475
 40
1.8168186033
100
AcDbArc
 50
355.5903878996
 51
359.9993189598
  0
ARC
  5
2AB
100
AcDbEntity
  8
0
100
AcDbCircle
 62
7
  6
CONTINUOUS
 10
3.948389461
 20
9.1049357647
 40
1.2566113046
100
AcDbArc
 50
355.5904482637
 51
359.9993793239
  0
ARC
  5
2AC
100
AcDbEntity
  8
0
100
AcDbCircle
 62
7
  6
CONTINUOUS
 10
4.9358195568
 20
14.017763248
 40
0.05
100
AcDbArc
 50
219.3312480846
 51
270.0
  0
ARC
  5
2AD
100
AcDbEntity
  8
0
100
AcDbCircle
 62
7
  6
CONTINUOUS
 10
4.9358195568
 20
14.917763248
 40
0.05
100
AcDbArc
 50
90.0
 51
140.6687519154
  0
ARC
  5
2AE
100
AcDbEntity
  8
0
100
AcDbCircle
 62
7
  6
CONTINUOUS
 10
4.8900007655
 20
15.192763248
 40
0.04
100
AcDbArc
 50
93.2432014018
 51
180.0
  0
ARC
  5
2AF
100
AcDbEntity
  8
0
100
AcDbCircle
 62
7
  6
CONTINUOUS
 10
4.8900007655
 20
15.122763248
 40
0.04
100
AcDbArc
 50
180.0
 51
270.0
  0
ARC
  5
2B0
100
AcDbEntity
  8
0
100
AcDbCircle
 62
7
  6
CONTINUOUS
 10
5.1350007655
 20
13.992763248
 40
0.025
100
AcDbArc
 50
270.0
 51
0.0000000575
  0
ARC
  5
2B1
100
AcDbEntity
  8
0
100
AcDbCircle
 62
7
  6
CONTINUOUS
 10
5.4850007655
 20
14.467763248
 40
1.0
100
AcDbArc
 50
122.8478584921
 51
253.7022560614
  0
ARC
  5
2B2
100
AcDbEntity
  8
0
100
AcDbCircle
 62
7
  6
CONTINUOUS
 10
5.4850007655
 20
14.467763248
 40
1.0
100
AcDbArc
 50
286.2958650695
 51
57.1458846679
  0
ARC
  5
2B3
100
AcDbEntity
  8
0
100
AcDbCircle
 62
9
  6
CONTINUOUS
 10
5.4850007655
 20
14.467763248
 40
0.9749999817
100
AcDbArc
 50
123.9133451231
 51
128.2852699946
  0
ARC
  5
2B4
100
AcDbEntity
  8
0
100
AcDbCircle
 62
9
  6
CONTINUOUS
 10
5.4850007655
 20
14.467763248
 40
0.9749999817
100
AcDbArc
 50
51.7040065113
 51
56.0632359723
  0
ARC
  5
2B5
100
AcDbEntity
  8
0
100
AcDbCircle
 62
9
  6
CONTINUOUS
 10
5.4850007655
 20
14.467763248
 40
0.9749999817
100
AcDbArc
 50
286.7257143501
 51
49.4786898562
  0
ARC
  5
2B6
100
AcDbEntity
  8
0
100
AcDbCircle
 62
9
  6
CONTINUOUS
 10
5.4850007655
 20
14.467763248
 40
0.9749999817
100
AcDbArc
 50
130.5052511432
 51
253.2722924195
  0
ARC
  5
2B7
100
AcDbEntity
  8
0
100
AcDbCircle
 62
9
  6
CONTINUOUS
 10
5.4850007655
 20
14.467763248
 40
0.949999987
100
AcDbArc
 50
287.1628183756
 51
48.0001568633
  0
ARC
  5
2B8
100
AcDbEntity
  8
0
100
AcDbCircle
 62
9
  6
CONTINUOUS
 10
5.4850007655
 20
14.467763248
 40
0.949999987
100
AcDbArc
 50
132.0239998952
 51
252.846013884
  0
ARC
  5
2B9
100
AcDbEntity
  8
0
100
AcDbCircle
 62
7
  6
CONTINUOUS
 10
5.4850007655
 20
14.467763248
 40
0.76
100
AcDbArc
 50
320.6687917471
 51
39.3312480846
  0
ARC
  5
2BA
100
AcDbEntity
  8
0
100
AcDbCircle
 62
7
  6
CONTINUOUS
 10
5.4850007655
 20
14.467763248
 40
0.76
100
AcDbArc
 50
140.6687519154
 51
219.3310431831
  0
ARC
  5
2BB
100
AcDbEntity
  8
0
100
AcDbCircle
 62
7
  6
CONTINUOUS
 10
5.4850007655
 20
14.467763248
 40
0.65
100
AcDbArc
 50
124.1667177527
 51
129.6714952981
  0
ARC
  5
2BC
100
AcDbEntity
  8
0
100
AcDbCircle
 62
7
  6
CONTINUOUS
 10
5.4850007655
 20
14.467763248
 40
0.65
100
AcDbArc
 50
50.646628569
 51
55.7540231196
  0
ARC
  5
2BD
100
AcDbEntity
  8
0
100
AcDbCircle
 62
9
  6
CONTINUOUS
 10
5.4850007655
 20
14.467763248
 40
0.6287362801
100
AcDbArc
 50
52.7137858371
 51
54.4977518082
  0
ARC
  5
2BE
100
AcDbEntity
  8
0
100
AcDbCircle
 62
9
  6
CONTINUOUS
 10
5.4850007655
 20
14.467763248
 40
0.6287362801
100
AcDbArc
 50
125.4973872769
 51
127.2810349972
  0
ARC
  5
2BF
100
AcDbEntity
  8
0
100
AcDbCircle
 62
7
  6
CONTINUOUS
 10
5.1350007655
 20
14.942763248
 40
0.025
100
AcDbArc
 50
359.9999999355
 51
90.0
  0
ARC
  5
2C0
100
AcDbEntity
  8
0
100
AcDbCircle
 62
7
  6
CONTINUOUS
 10
6.0341819742
 20
14.017763248
 40
0.05
100
AcDbArc
 50
270.0
 51
320.6687519154
  0
ARC
  5
2C1
100
AcDbEntity
  8
0
100
AcDbCircle
 62
7
  6
CONTINUOUS
 10
5.8350007655
 20
13.992763248
 40
0.025
100
AcDbArc
 50
179.9999999355
 51
270.0
  0
ARC
  5
2C2
100
AcDbEntity
  8
0
100
AcDbCircle
 62
7
  6
CONTINUOUS
 10
6.0341819742
 20
14.917763248
 40
0.05
100
AcDbArc
 50
39.3312480846
 51
90.0
  0
ARC
  5
2C3
100
AcDbEntity
  8
0
100
AcDbCircle
 62
7
  6
CONTINUOUS
 10
6.0800007655
 20
15.192763248
 40
0.04
100
AcDbArc
 50
0.0
 51
86.7567985982
  0
ARC
  5
2C4
100
AcDbEntity
  8
0
100
AcDbCircle
 62
7
  6
CONTINUOUS
 10
6.0800007655
 20
15.122763248
 40
0.04
100
AcDbArc
 50
270.0
 51
360.0
  0
ARC
  5
2C5
100
AcDbEntity
  8
0
100
AcDbCircle
 62
7
  6
CONTINUOUS
 10
5.8350007655
 20
14.942763248
 40
0.025
100
AcDbArc
 50
90.0
 51
180.0000000575
  0
ARC
  5
2C6
100
AcDbEntity
  8
0
100
AcDbCircle
 62
7
  6
CONTINUOUS
 10
-14.0699998568
 20
17.082763248
 40
20.175
100
AcDbArc
 50
354.9244926841
 51
5.0755073159
  0
ARC
  5
2C7
100
AcDbEntity
  8
0
100
AcDbCircle
 62
9
  6
CONTINUOUS
 10
-20.4286466462
 20
63.2275807184
 40
48.5217850047
100
AcDbArc
 50
299.8006707521
 51
300.0045987721
  0
ARC
  5
2C8
100
AcDbEntity
  8
0
100
AcDbCircle
 62
9
  6
CONTINUOUS
 10
-20.4286176709
 20
63.2275304446
 40
48.5217269788
100
AcDbArc
 50
299.8006705644
 51
300.0045988291
  0
ARC
  5
2C9
100
AcDbEntity
  8
0
100
AcDbCircle
 62
9
  6
CONTINUOUS
 10
-19.1309277689
 20
60.7919768682
 40
45.9175274054
100
AcDbArc
 50
299.9073029667
 51
300.1220751206
  0
ARC
  5
2CA
100
AcDbEntity
  8
0
100
AcDbCircle
 62
9
  6
CONTINUOUS
 10
-19.1264660407
 20
60.7842537694
 40
45.9086081591
100
AcDbArc
 50
299.9072839804
 51
300.1220958168
  0
ARC
  5
2CB
100
AcDbEntity
  8
0
100
AcDbCircle
 62
9
  6
CONTINUOUS
 10
-0.1557612998
 20
29.0604820261
 40
8.8607082825
100
AcDbArc
 50
299.8476389377
 51
299.9842293647
  0
ARC
  5
2CC
100
AcDbEntity
  8
0
100
AcDbCircle
 62
9
  6
CONTINUOUS
 10
-0.1554035159
 20
29.0598636353
 40
8.8599938572
100
AcDbArc
 50
299.8476224193
 51
299.9842240026
  0
ARC
  5
2CD
100
AcDbEntity
  8
0
100
AcDbCircle
 62
7
  6
CONTINUOUS
 10
1.0390242616
 20
25.7178146095
 40
5.4573752161
100
AcDbArc
 50
299.6684351533
 51
299.7939545148
  0
ARC
  5
2CE
100
AcDbEntity
  8
0
100
AcDbCircle
 62
7
  6
CONTINUOUS
 10
1.0390500337
 20
25.7177576653
 40
5.4573129971
100
AcDbArc
 50
299.6684965671
 51
299.7940172056
  0
ARC
  5
2CF
100
AcDbEntity
  8
0
100
AcDbCircle
 62
7
  6
CONTINUOUS
 10
4.8843433335
 20
15.292603087
 40
0.06
100
AcDbArc
 50
273.2432014018
 51
5.0755073159
  0
CIRCLE
  5
2D0
100
AcDbEntity
  8
0
100
AcDbCircle
 62
7
  6
CONTINUOUS
 10
4.191933152
 20
21.5371571054
 40
0.0708661417
  0
CIRCLE
  5
2D1
100
AcDbEntity
  8
0
100
AcDbCircle
 62
9
  6
CONTINUOUS
 10
4.191933152
 20
21.5371571054
 40
0.0651002345
  0
CIRCLE
  5
2D2
100
AcDbEntity
  8
0
100
AcDbCircle
 62
9
  6
CONTINUOUS
 10
4.191933152
 20
21.5371571054
 40
0.0569463945
  0
CIRCLE
  5
2D3
100
AcDbEntity
  8
0
100
AcDbCircle
 62
9
  6
CONTINUOUS
 10
4.191933152
 20
21.5371571054
 40
0.0430269203
  0
CIRCLE
  5
2D4
100
AcDbEntity
  8
0
100
AcDbCircle
 62
7
  6
CONTINUOUS
 10
3.9258291561
 20
21.6549844744
 40
0.0826771654
  0
CIRCLE
  5
2D5
100
AcDbEntity
  8
0
100
AcDbCircle
 62
9
  6
CONTINUOUS
 10
3.9258291561
 20
21.6549844744
 40
0.0769109535
  0
CIRCLE
  5
2D6
100
AcDbEntity
  8
0
100
AcDbCircle
 62
9
  6
CONTINUOUS
 10
3.9258291561
 20
21.6549844744
 40
0.0687574628
  0
CIRCLE
  5
2D7
100
AcDbEntity
  8
0
100
AcDbCircle
 62
9
  6
CONTINUOUS
 10
3.9258291561
 20
21.6549844744
 40
0.0548379698
  0
CIRCLE
  5
2D8
100
AcDbEntity
  8
0
100
AcDbCircle
 62
7
  6
CONTINUOUS
 10
3.8708275371
 20
22.072763248
 40
0.0826771654
  0
CIRCLE
  5
2D9
100
AcDbEntity
  8
0
100
AcDbCircle
 62
9
  6
CONTINUOUS
 10
3.8708275371
 20
22.072763248
 40
0.0769109535
  0
CIRCLE
  5
2DA
100
AcDbEntity
  8
0
100
AcDbCircle
 62
9
  6
CONTINUOUS
 10
3.8708275371
 20
22.072763248
 40
0.0687574628
  0
CIRCLE
  5
2DB
100
AcDbEntity
  8
0
100
AcDbCircle
 62
9
  6
CONTINUOUS
 10
3.8708275371
 20
22.072763248
 40
0.0548379698
  0
CIRCLE
  5
2DC
100
AcDbEntity
  8
0
100
AcDbCircle
 62
7
  6
CONTINUOUS
 10
4.0973682922
 20
21.8900779671
 40
0.0708661417
  0
CIRCLE
  5
2DD
100
AcDbEntity
  8
0
100
AcDbCircle
 62
9
  6
CONTINUOUS
 10
4.0973682922
 20
21.8900779671
 40
0.0651002345
  0
CIRCLE
  5
2DE
100
AcDbEntity
  8
0
100
AcDbCircle
 62
9
  6
CONTINUOUS
 10
4.0973682922
 20
21.8900779671
 40
0.0569463945
  0
CIRCLE
  5
2DF
100
AcDbEntity
  8
0
100
AcDbCircle
 62
9
  6
CONTINUOUS
 10
4.0973682922
 20
21.8900779671
 40
0.0430269203
  0
ARC
  5
2E0
100
AcDbEntity
  8
0
100
AcDbCircle
 62
7
  6
CONTINUOUS
 10
4.097466333
 20
21.8900797878
 40
0.0176203964
100
AcDbArc
 50
7.5357461483
 51
187.4642538128
  0
ARC
  5
2E1
100
AcDbEntity
  8
0
100
AcDbCircle
 62
7
  6
CONTINUOUS
 10
4.0974634636
 20
21.8901015833
 40
0.0176203964
100
AcDbArc
 50
187.5357415515
 51
7.464258489
  0
CIRCLE
  5
2E2
100
AcDbEntity
  8
0
100
AcDbCircle
 62
7
  6
CONTINUOUS
 10
4.3436079297
 20
20.9313704122
 40
0.0826771654
  0
CIRCLE
  5
2E3
100
AcDbEntity
  8
0
100
AcDbCircle
 62
9
  6
CONTINUOUS
 10
4.3436079297
 20
20.9313704122
 40
0.0769109535
  0
CIRCLE
  5
2E4
100
AcDbEntity
  8
0
100
AcDbCircle
 62
7
  6
CONTINUOUS
 10
4.3746184329
 20
21.2207369172
 40
0.0708661417
  0
CIRCLE
  5
2E5
100
AcDbEntity
  8
0
100
AcDbCircle
 62
9
  6
CONTINUOUS
 10
4.3436079297
 20
20.9313704122
 40
0.0687574628
  0
CIRCLE
  5
2E6
100
AcDbEntity
  8
0
100
AcDbCircle
 62
9
  6
CONTINUOUS
 10
4.3746184329
 20
21.2207369172
 40
0.0651002345
  0
CIRCLE
  5
2E7
100
AcDbEntity
  8
0
100
AcDbCircle
 62
9
  6
CONTINUOUS
 10
4.3746184329
 20
21.2207369172
 40
0.0569463945
  0
CIRCLE
  5
2E8
100
AcDbEntity
  8
0
100
AcDbCircle
 62
9
  6
CONTINUOUS
 10
4.3436079297
 20
20.9313704122
 40
0.0548379698
  0
CIRCLE
  5
2E9
100
AcDbEntity
  8
0
100
AcDbCircle
 62
9
  6
CONTINUOUS
 10
4.3746184329
 20
21.2207369172
 40
0.0430269203
  0
ARC
  5
2EA
100
AcDbEntity
  8
0
100
AcDbCircle
 62
7
  6
CONTINUOUS
 10
4.3747024284
 20
21.2207875143
 40
0.0176203964
100
AcDbArc
 50
37.5357461391
 51
217.4642538203
  0
ARC
  5
2EB
100
AcDbEntity
  8
0
100
AcDbCircle
 62
7
  6
CONTINUOUS
 10
4.3746890456
 20
21.2208049551
 40
0.0176203964
100
AcDbArc
 50
217.5357415616
 51
37.4642584772
  0
CIRCLE
  5
2EC
100
AcDbEntity
  8
0
100
AcDbCircle
 62
7
  6
CONTINUOUS
 10
4.5836577512
 20
22.1595527089
 40
0.0708661417
  0
ARC
  5
2ED
100
AcDbEntity
  8
0
100
AcDbCircle
 62
7
  6
CONTINUOUS
 10
4.5836577512
 20
22.1595527089
 40
0.0708661417
100
AcDbArc
 50
174.5
 51
354.5000009079
  0
CIRCLE
  5
2EE
100
AcDbEntity
  8
0
100
AcDbCircle
 62
9
  6
CONTINUOUS
 10
4.5836577512
 20
22.1595527089
 40
0.0674067293
  0
CIRCLE
  5
2EF
100
AcDbEntity
  8
0
100
AcDbCircle
 62
9
  6
CONTINUOUS
 10
4.5836577512
 20
22.1595527089
 40
0.0546404342
  0
CIRCLE
  5
2F0
100
AcDbEntity
  8
0
100
AcDbCircle
 62
9
  6
CONTINUOUS
 10
4.5836577512
 20
22.1595527089
 40
0.0462887627
  0
CIRCLE
  5
2F1
100
AcDbEntity
  8
0
100
AcDbCircle
 62
7
  6
CONTINUOUS
 10
4.5836577512
 20
22.1595527089
 40
0.0295275591
  0
CIRCLE
  5
2F2
100
AcDbEntity
  8
0
100
AcDbCircle
 62
7
  6
CONTINUOUS
 10
5.0672219919
 20
20.5135916386
 40
0.0826771654
  0
CIRCLE
  5
2F3
100
AcDbEntity
  8
0
100
AcDbCircle
 62
9
  6
CONTINUOUS
 10
5.0672219919
 20
20.5135916386
 40
0.0769109535
  0
CIRCLE
  5
2F4
100
AcDbEntity
  8
0
100
AcDbCircle
 62
9
  6
CONTINUOUS
 10
5.0672219919
 20
20.5135916386
 40
0.0687574628
  0
ARC
  5
2F5
100
AcDbEntity
  8
0
100
AcDbCircle
 62
7
  6
CONTINUOUS
 10
5.0500007655
 20
19.3224984486
 40
0.06
100
AcDbArc
 50
318.5281678499
 51
360.0
  0
ARC
  5
2F6
100
AcDbEntity
  8
0
100
AcDbCircle
 62
7
  6
CONTINUOUS
 10
4.9043822335
 20
19.142763248
 40
0.06
100
AcDbArc
 50
270.0
 51
321.0
  0
ARC
  5
2F7
100
AcDbEntity
  8
0
100
AcDbCircle
 62
7
  6
CONTINUOUS
 10
4.8843433335
 20
18.8729234089
 40
0.06
100
AcDbArc
 50
354.9244926841
 51
86.7567985982
  0
CIRCLE
  5
2F8
100
AcDbEntity
  8
0
100
AcDbCircle
 62
9
  6
CONTINUOUS
 10
5.0672219919
 20
20.5135916386
 40
0.0548379698
  0
ARC
  5
2F9
100
AcDbEntity
  8
0
100
AcDbCircle
 62
7
  6
CONTINUOUS
 10
4.8900007655
 20
19.042763248
 40
0.04
100
AcDbArc
 50
90.0
 51
180.0
  0
ARC
  5
2FA
100
AcDbEntity
  8
0
100
AcDbCircle
 62
7
  6
CONTINUOUS
 10
4.8900007655
 20
18.972763248
 40
0.04
100
AcDbArc
 50
180.0
 51
266.7567985982
  0
CIRCLE
  5
2FB
100
AcDbEntity
  8
0
100
AcDbCircle
 62
7
  6
CONTINUOUS
 10
4.6779141513
 20
20.6748482261
 40
0.0826771654
  0
CIRCLE
  5
2FC
100
AcDbEntity
  8
0
100
AcDbCircle
 62
9
  6
CONTINUOUS
 10
4.6779141513
 20
20.6748482261
 40
0.0769109535
  0
CIRCLE
  5
2FD
100
AcDbEntity
  8
0
100
AcDbCircle
 62
9
  6
CONTINUOUS
 10
4.6779141513
 20
20.6748482261
 40
0.0687574628
  0
CIRCLE
  5
2FE
100
AcDbEntity
  8
0
100
AcDbCircle
 62
9
  6
CONTINUOUS
 10
4.6779141513
 20
20.6748482261
 40
0.0548379698
  0
CIRCLE
  5
2FF
100
AcDbEntity
  8
0
100
AcDbCircle
 62
7
  6
CONTINUOUS
 10
4.6329744347
 20
20.9623809154
 40
0.0708661417
  0
CIRCLE
  5
300
100
AcDbEntity
  8
0
100
AcDbCircle
 62
9
  6
CONTINUOUS
 10
4.6329744347
 20
20.9623809154
 40
0.0651002345
  0
CIRCLE
  5
301
100
AcDbEntity
  8
0
100
AcDbCircle
 62
9
  6
CONTINUOUS
 10
4.6329744347
 20
20.9623809154
 40
0.0569463945
  0
CIRCLE
  5
302
100
AcDbEntity
  8
0
100
AcDbCircle
 62
9
  6
CONTINUOUS
 10
4.6329744347
 20
20.9623809154
 40
0.0430269203
  0
CIRCLE
  5
303
100
AcDbEntity
  8
0
100
AcDbCircle
 62
7
  6
CONTINUOUS
 10
4.9493946229
 20
20.7796956345
 40
0.0708661417
  0
CIRCLE
  5
304
100
AcDbEntity
  8
0
100
AcDbCircle
 62
9
  6
CONTINUOUS
 10
4.9493946229
 20
20.7796956345
 40
0.0651002345
  0
CIRCLE
  5
305
100
AcDbEntity
  8
0
100
AcDbCircle
 62
9
  6
CONTINUOUS
 10
4.9493946229
 20
20.7796956345
 40
0.0569463945
  0
CIRCLE
  5
306
100
AcDbEntity
  8
0
100
AcDbCircle
 62
9
  6
CONTINUOUS
 10
4.9493946229
 20
20.7796956345
 40
0.0430269203
  0
ARC
  5
307
100
AcDbEntity
  8
0
100
AcDbCircle
 62
7
  6
CONTINUOUS
 10
4.9494217564
 20
20.7797898635
 40
0.0176203964
100
AcDbArc
 50
247.5357416306
 51
67.4642584058
  0
ARC
  5
308
100
AcDbEntity
  8
0
100
AcDbCircle
 62
7
  6
CONTINUOUS
 10
4.9494420666
 20
20.7797814507
 40
0.0176203964
100
AcDbArc
 50
67.5357460631
 51
247.4642538938
  0
ARC
  5
309
100
AcDbEntity
  8
0
100
AcDbCircle
 62
9
  6
CONTINUOUS
 10
4.7623754514
 20
21.4960998742
 40
0.1030426648
100
AcDbArc
 50
39.3099687354
 51
40.1923584252
  0
ARC
  5
30A
100
AcDbEntity
  8
0
100
AcDbCircle
 62
9
  6
CONTINUOUS
 10
4.7846530605
 20
21.5147971897
 40
0.0911266627
100
AcDbArc
 50
217.2473919176
 51
218.0648420492
  0
ARC
  5
30B
100
AcDbEntity
  8
0
100
AcDbCircle
 62
9
  6
CONTINUOUS
 10
4.7813364333
 20
21.5134323691
 40
0.0876793227
100
AcDbArc
 50
218.6989391182
 51
219.4991405655
  0
ARC
  5
30C
100
AcDbEntity
  8
0
100
AcDbCircle
 62
9
  6
CONTINUOUS
 10
4.7777262101
 20
21.5098932418
 40
0.0824324545
100
AcDbArc
 50
37.5789761615
 51
38.6514521006
  0
ARC
  5
30D
100
AcDbEntity
  8
0
100
AcDbCircle
 62
9
  6
CONTINUOUS
 10
4.779178872
 20
21.5108751589
 40
0.0806824458
100
AcDbArc
 50
24.7306737913
 51
37.6554792412
  0
ARC
  5
30E
100
AcDbEntity
  8
0
100
AcDbCircle
 62
9
  6
CONTINUOUS
 10
4.7746662354
 20
21.5089150735
 40
0.0795111312
100
AcDbArc
 50
202.8800029393
 51
204.7489077796
  0
CIRCLE
  5
30F
100
AcDbEntity
  8
0
100
AcDbCircle
 62
7
  6
CONTINUOUS
 10
4.776339836
 20
21.5090688919
 40
0.0708661417
  0
CIRCLE
  5
310
100
AcDbEntity
  8
0
100
AcDbCircle
 62
7
  6
CONTINUOUS
 10
4.776339836
 20
21.5090688919
 40
0.0708661417
  0
CIRCLE
  5
311
100
AcDbEntity
  8
0
100
AcDbCircle
 62
9
  6
CONTINUOUS
 10
4.776339836
 20
21.5090688919
 40
0.0674067293
  0
CIRCLE
  5
312
100
AcDbEntity
  8
0
100
AcDbCircle
 62
9
  6
CONTINUOUS
 10
4.776339836
 20
21.5090688919
 40
0.0546404342
  0
CIRCLE
  5
313
100
AcDbEntity
  8
0
100
AcDbCircle
 62
9
  6
CONTINUOUS
 10
4.776339836
 20
21.5090688919
 40
0.0462887627
  0
CIRCLE
  5
314
100
AcDbEntity
  8
0
100
AcDbCircle
 62
7
  6
CONTINUOUS
 10
4.776339836
 20
21.5090688919
 40
0.0295275591
  0
ARC
  5
315
100
AcDbEntity
  8
0
100
AcDbCircle
 62
9
  6
CONTINUOUS
 10
4.9248056167
 20
21.344172878
 40
0.0975773886
100
AcDbArc
 50
51.0684632129
 51
51.9744769332
  0
ARC
  5
316
100
AcDbEntity
  8
0
100
AcDbCircle
 62
9
  6
CONTINUOUS
 10
4.935846249
 20
21.3572025101
 40
0.0845673549
100
AcDbArc
 50
232.5459276926
 51
233.3881410281
  0
ARC
  5
317
100
AcDbEntity
  8
0
100
AcDbCircle
 62
9
  6
CONTINUOUS
 10
4.9348459091
 20
21.3557083785
 40
0.0827735886
100
AcDbArc
 50
218.6477721504
 51
231.596321902
  0
ARC
  5
318
100
AcDbEntity
  8
0
100
AcDbCircle
 62
9
  6
CONTINUOUS
 10
4.9344452059
 20
21.3553768139
 40
0.0822535674
100
AcDbArc
 50
216.8728602157
 51
218.6417116848
  0
ARC
  5
319
100
AcDbEntity
  8
0
100
AcDbCircle
 62
9
  6
CONTINUOUS
 10
4.9340590321
 20
21.3547622241
 40
0.08154333
100
AcDbArc
 50
231.6166210289
 51
232.5000919096
  0
ARC
  5
31A
100
AcDbEntity
  8
0
100
AcDbCircle
 62
9
  6
CONTINUOUS
 10
4.939519197
 20
21.359491512
 40
0.0763054995
100
AcDbArc
 50
36.0636271027
 51
38.888499423
  0
CIRCLE
  5
31B
100
AcDbEntity
  8
0
100
AcDbCircle
 62
7
  6
CONTINUOUS
 10
4.9337601014
 20
21.354372428
 40
0.0708661417
  0
ARC
  5
31C
100
AcDbEntity
  8
0
100
AcDbCircle
 62
7
  6
CONTINUOUS
 10
4.9337601014
 20
21.354372428
 40
0.0708661417
100
AcDbArc
 50
37.585184388
 51
232.5
  0
CIRCLE
  5
31D
100
AcDbEntity
  8
0
100
AcDbCircle
 62
9
  6
CONTINUOUS
 10
4.9337601014
 20
21.354372428
 40
0.0674067293
  0
CIRCLE
  5
31E
100
AcDbEntity
  8
0
100
AcDbCircle
 62
9
  6
CONTINUOUS
 10
4.9337601014
 20
21.354372428
 40
0.0546404342
  0
CIRCLE
  5
31F
100
AcDbEntity
  8
0
100
AcDbCircle
 62
9
  6
CONTINUOUS
 10
4.9337601014
 20
21.354372428
 40
0.0462887628
  0
CIRCLE
  5
320
100
AcDbEntity
  8
0
100
AcDbCircle
 62
7
  6
CONTINUOUS
 10
4.9337601014
 20
21.354372428
 40
0.0295275591
  0
CIRCLE
  5
321
100
AcDbEntity
  8
0
100
AcDbCircle
 62
7
  6
CONTINUOUS
 10
4.9837970869
 20
21.7833931692
 40
0.0295275591
  0
ARC
  5
322
100
AcDbEntity
  8
0
100
AcDbCircle
 62
9
  6
CONTINUOUS
 10
5.1289905967
 20
21.2521159412
 40
0.0920253488
100
AcDbArc
 50
245.2316351992
 51
246.0332620348
  0
ARC
  5
323
100
AcDbEntity
  8
0
100
AcDbCircle
 62
9
  6
CONTINUOUS
 10
5.1265015934
 20
21.2492769336
 40
0.0884271759
100
AcDbArc
 50
246.7597439309
 51
247.553366427
  0
ARC
  5
324
100
AcDbEntity
  8
0
100
AcDbCircle
 62
9
  6
CONTINUOUS
 10
5.124051352
 20
21.2424508095
 40
0.0838931748
100
AcDbArc
 50
65.4854276174
 51
66.5505503116
  0
ARC
  5
325
100
AcDbEntity
  8
0
100
AcDbCircle
 62
9
  6
CONTINUOUS
 10
5.1223719433
 20
21.2412388159
 40
0.0792654042
100
AcDbArc
 50
230.9082375106
 51
232.7624767321
  0
CIRCLE
  5
326
100
AcDbEntity
  8
0
100
AcDbCircle
 62
7
  6
CONTINUOUS
 10
5.1239287739
 20
21.2423545192
 40
0.0708661417
  0
ARC
  5
327
100
AcDbEntity
  8
0
100
AcDbCircle
 62
7
  6
CONTINUOUS
 10
5.1239287739
 20
21.2423545192
 40
0.0708661417
100
AcDbArc
 50
246.5
 51
66.4999995299
  0
CIRCLE
  5
328
100
AcDbEntity
  8
0
100
AcDbCircle
 62
9
  6
CONTINUOUS
 10
5.1239287739
 20
21.2423545192
 40
0.0674067293
  0
CIRCLE
  5
329
100
AcDbEntity
  8
0
100
AcDbCircle
 62
9
  6
CONTINUOUS
 10
5.1239287739
 20
21.2423545192
 40
0.0546404342
  0
CIRCLE
  5
32A
100
AcDbEntity
  8
0
100
AcDbCircle
 62
9
  6
CONTINUOUS
 10
5.1239287739
 20
21.2423545192
 40
0.0462887626
  0
CIRCLE
  5
32B
100
AcDbEntity
  8
0
100
AcDbCircle
 62
7
  6
CONTINUOUS
 10
5.1239287739
 20
21.2423545192
 40
0.0295275591
  0
CIRCLE
  5
32C
100
AcDbEntity
  8
0
100
AcDbCircle
 62
7
  6
CONTINUOUS
 10
5.3023154846
 20
20.6851307747
 40
0.0708661417
  0
CIRCLE
  5
32D
100
AcDbEntity
  8
0
100
AcDbCircle
 62
9
  6
CONTINUOUS
 10
5.3023154846
 20
20.6851307747
 40
0.0651002345
  0
CIRCLE
  5
32E
100
AcDbEntity
  8
0
100
AcDbCircle
 62
9
  6
CONTINUOUS
 10
5.3023154846
 20
20.6851307747
 40
0.0569463945
  0
CIRCLE
  5
32F
100
AcDbEntity
  8
0
100
AcDbCircle
 62
9
  6
CONTINUOUS
 10
5.3023154846
 20
20.6851307747
 40
0.0430269203
  0
CIRCLE
  5
330
100
AcDbEntity
  8
0
100
AcDbCircle
 62
9
  6
CONTINUOUS
 10
5.0224566077
 20
22.0118681543
 40
0.1439792358
  0
CIRCLE
  5
331
100
AcDbEntity
  8
0
100
AcDbCircle
 62
9
  6
CONTINUOUS
 10
5.2009919885
 20
21.7026358038
 40
0.1439792321
  0
CIRCLE
  5
332
100
AcDbEntity
  8
0
100
AcDbCircle
 62
9
  6
CONTINUOUS
 10
5.0224566077
 20
22.0118681543
 40
0.130060568
  0
CIRCLE
  5
333
100
AcDbEntity
  8
0
100
AcDbCircle
 62
9
  6
CONTINUOUS
 10
5.2009919885
 20
21.7026358038
 40
0.1300605664
  0
CIRCLE
  5
334
100
AcDbEntity
  8
0
100
AcDbCircle
 62
9
  6
CONTINUOUS
 10
5.0224566077
 20
22.0118681543
 40
0.1219067236
  0
CIRCLE
  5
335
100
AcDbEntity
  8
0
100
AcDbCircle
 62
9
  6
CONTINUOUS
 10
5.2009919885
 20
21.7026358038
 40
0.1219067236
  0
CIRCLE
  5
336
100
AcDbEntity
  8
0
100
AcDbCircle
 62
9
  6
CONTINUOUS
 10
5.0224566077
 20
22.0118681543
 40
0.1079869821
  0
CIRCLE
  5
337
100
AcDbEntity
  8
0
100
AcDbCircle
 62
9
  6
CONTINUOUS
 10
5.2009919885
 20
21.7026358038
 40
0.1079869821
  0
CIRCLE
  5
338
100
AcDbEntity
  8
0
100
AcDbCircle
 62
7
  6
CONTINUOUS
 10
5.0224566077
 20
22.0118681543
 40
0.0885826772
  0
CIRCLE
  5
339
100
AcDbEntity
  8
0
100
AcDbCircle
 62
7
  6
CONTINUOUS
 10
5.2009919885
 20
21.7026358038
 40
0.0885826772
  0
CIRCLE
  5
33A
100
AcDbEntity
  8
0
100
AcDbCircle
 62
7
  6
CONTINUOUS
 10
5.3352117905
 20
21.5137431831
 40
0.0295275591
  0
ARC
  5
33B
100
AcDbEntity
  8
0
100
AcDbCircle
 62
7
  6
CONTINUOUS
 10
6.0856581975
 20
15.292603087
 40
0.06
100
AcDbArc
 50
174.9244926841
 51
266.7567985982
  0
CIRCLE
  5
33C
100
AcDbEntity
  8
0
100
AcDbCircle
 62
7
  6
CONTINUOUS
 10
5.4850007655
 20
20.4585900196
 40
0.0826771654
  0
CIRCLE
  5
33D
100
AcDbEntity
  8
0
100
AcDbCircle
 62
9
  6
CONTINUOUS
 10
5.4850007655
 20
20.4585900196
 40
0.0769109535
  0
CIRCLE
  5
33E
100
AcDbEntity
  8
0
100
AcDbCircle
 62
9
  6
CONTINUOUS
 10
5.4850007655
 20
20.4585900196
 40
0.0687574628
  0
ARC
  5
33F
100
AcDbEntity
  8
0
100
AcDbCircle
 62
7
  6
CONTINUOUS
 10
6.0656192974
 20
19.142763248
 40
0.06
100
AcDbArc
 50
219.0
 51
270.0
  0
ARC
  5
340
100
AcDbEntity
  8
0
100
AcDbCircle
 62
7
  6
CONTINUOUS
 10
5.9200007655
 20
19.3224984488
 40
0.06
100
AcDbArc
 50
180.0
 51
221.4718295498
  0
ARC
  5
341
100
AcDbEntity
  8
0
100
AcDbCircle
 62
7
  6
CONTINUOUS
 10
6.0856581975
 20
18.8729234089
 40
0.06
100
AcDbArc
 50
93.2432014018
 51
185.0755073159
  0
CIRCLE
  5
342
100
AcDbEntity
  8
0
100
AcDbCircle
 62
9
  6
CONTINUOUS
 10
5.4850007655
 20
20.4585900196
 40
0.0548379698
  0
ARC
  5
343
100
AcDbEntity
  8
0
100
AcDbCircle
 62
7
  6
CONTINUOUS
 10
6.0800007655
 20
19.042763248
 40
0.04
100
AcDbArc
 50
0.0
 51
90.0
  0
ARC
  5
344
100
AcDbEntity
  8
0
100
AcDbCircle
 62
7
  6
CONTINUOUS
 10
6.0800007655
 20
18.972763248
 40
0.04
100
AcDbArc
 50
273.2432014018
 51
360.0
  0
CIRCLE
  5
345
100
AcDbEntity
  8
0
100
AcDbCircle
 62
7
  6
CONTINUOUS
 10
5.6676860463
 20
20.6851307747
 40
0.0708661417
  0
CIRCLE
  5
346
100
AcDbEntity
  8
0
100
AcDbCircle
 62
9
  6
CONTINUOUS
 10
5.6676860463
 20
20.6851307747
 40
0.0651002345
  0
CIRCLE
  5
347
100
AcDbEntity
  8
0
100
AcDbCircle
 62
9
  6
CONTINUOUS
 10
5.6676860463
 20
20.6851307747
 40
0.0569463945
  0
CIRCLE
  5
348
100
AcDbEntity
  8
0
100
AcDbCircle
 62
9
  6
CONTINUOUS
 10
5.6676860463
 20
20.6851307747
 40
0.0430269203
  0
ARC
  5
349
100
AcDbEntity
  8
0
100
AcDbCircle
 62
7
  6
CONTINUOUS
 10
5.6676624301
 20
20.6852259461
 40
0.0176203964
100
AcDbArc
 50
277.5357416358
 51
97.4642584047
  0
ARC
  5
34A
100
AcDbEntity
  8
0
100
AcDbCircle
 62
7
  6
CONTINUOUS
 10
5.6676842256
 20
20.6852288155
 40
0.0176203964
100
AcDbArc
 50
97.535746062
 51
277.464253899
  0
ARC
  5
34B
100
AcDbEntity
  8
0
100
AcDbCircle
 62
9
  6
CONTINUOUS
 10
5.8078050035
 20
21.2124079147
 40
0.0974436076
100
AcDbArc
 50
111.1226712881
 51
112.0556617787
  0
ARC
  5
34C
100
AcDbEntity
  8
0
100
AcDbCircle
 62
9
  6
CONTINUOUS
 10
5.8046604533
 20
21.2202362994
 40
0.0760832396
100
AcDbArc
 50
289.8560325185
 51
290.7420277765
  0
CIRCLE
  5
34D
100
AcDbEntity
  8
0
100
AcDbCircle
 62
7
  6
CONTINUOUS
 10
5.8021176855
 20
21.2245955175
 40
0.0708661417
  0
CIRCLE
  5
34E
100
AcDbEntity
  8
0
100
AcDbCircle
 62
9
  6
CONTINUOUS
 10
5.8021176855
 20
21.2245955175
 40
0.0674067293
  0
CIRCLE
  5
34F
100
AcDbEntity
  8
0
100
AcDbCircle
 62
9
  6
CONTINUOUS
 10
5.8021176855
 20
21.2245955175
 40
0.0546404342
  0
CIRCLE
  5
350
100
AcDbEntity
  8
0
100
AcDbCircle
 62
9
  6
CONTINUOUS
 10
5.8021176855
 20
21.2245955175
 40
0.0462887627
  0
CIRCLE
  5
351
100
AcDbEntity
  8
0
100
AcDbCircle
 62
7
  6
CONTINUOUS
 10
5.8021176855
 20
21.2245955175
 40
0.0295275591
  0
CIRCLE
  5
352
100
AcDbEntity
  8
0
100
AcDbCircle
 62
9
  6
CONTINUOUS
 10
5.5458958591
 20
21.6102190902
 40
0.1439792358
  0
CIRCLE
  5
353
100
AcDbEntity
  8
0
100
AcDbCircle
 62
9
  6
CONTINUOUS
 10
5.5458958591
 20
21.6102190902
 40
0.130060568
  0
CIRCLE
  5
354
100
AcDbEntity
  8
0
100
AcDbCircle
 62
9
  6
CONTINUOUS
 10
5.5458958591
 20
21.6102190902
 40
0.1219067236
  0
CIRCLE
  5
355
100
AcDbEntity
  8
0
100
AcDbCircle
 62
9
  6
CONTINUOUS
 10
5.5458958591
 20
21.6102190902
 40
0.1079869821
  0
CIRCLE
  5
356
100
AcDbEntity
  8
0
100
AcDbCircle
 62
7
  6
CONTINUOUS
 10
5.5458958591
 20
21.6102190902
 40
0.0885826772
  0
ARC
  5
357
100
AcDbEntity
  8
0
100
AcDbCircle
 62
7
  6
CONTINUOUS
 10
5.4850007655
 20
22.072763248
 40
2.0
100
AcDbArc
 50
212.2304345371
 51
207.7674200372
  0
ARC
  5
358
100
AcDbEntity
  8
0
100
AcDbCircle
 62
9
  6
CONTINUOUS
 10
5.4850007655
 20
22.072763248
 40
1.9241868794
100
AcDbArc
 50
212.3188542527
 51
207.679425868
  0
ARC
  5
359
100
AcDbEntity
  8
0
100
AcDbCircle
 62
7
  6
CONTINUOUS
 10
5.4850007655
 20
22.072763248
 40
1.8790963112
100
AcDbArc
 50
212.3733421297
 51
207.6087674111
  0
ARC
  5
35A
100
AcDbEntity
  8
0
100
AcDbCircle
 62
7
  6
CONTINUOUS
 10
5.4850007655
 20
22.072763248
 40
1.877
100
AcDbArc
 50
212.37590035
 51
207.6090102828
  0
ARC
  5
35B
100
AcDbEntity
  8
0
100
AcDbCircle
 62
7
  6
CONTINUOUS
 10
5.4850007655
 20
22.072763248
 40
1.8622047244
100
AcDbArc
 50
212.4133019933
 51
207.5866972358
  0
ARC
  5
35C
100
AcDbEntity
  8
0
100
AcDbCircle
 62
9
  6
CONTINUOUS
 10
5.4850007655
 20
22.072763248
 40
1.7683598047
100
AcDbArc
 50
213.1646759673
 51
206.8353242141
  0
ARC
  5
35D
100
AcDbEntity
  8
0
100
AcDbCircle
 62
9
  6
CONTINUOUS
 10
5.4850007655
 20
22.072763248
 40
1.75857485
100
AcDbArc
 50
213.2340769713
 51
206.7659278357
  0
ARC
  5
35E
100
AcDbEntity
  8
0
100
AcDbCircle
 62
9
  6
CONTINUOUS
 10
5.4850007655
 20
22.072763248
 40
1.7579204953
100
AcDbArc
 50
213.2374412786
 51
206.7625587217
  0
ARC
  5
35F
100
AcDbEntity
  8
0
100
AcDbCircle
 62
9
  6
CONTINUOUS
 10
5.4850007655
 20
22.072763248
 40
1.7335217585
100
AcDbArc
 50
213.2374456713
 51
206.7625528486
  0
CIRCLE
  5
360
100
AcDbEntity
  8
0
100
AcDbCircle
 62
9
  6
CONTINUOUS
 10
5.4850007655
 20
22.072763248
 40
1.2864016238
  0
ARC
  5
361
100
AcDbEntity
  8
0
100
AcDbCircle
 62
9
  6
CONTINUOUS
 10
5.4850007655
 20
22.072763248
 40
1.2864016238
100
AcDbArc
 50
210.0
 51
210.7172245659
  0
ARC
  5
362
100
AcDbEntity
  8
0
100
AcDbCircle
 62
9
  6
CONTINUOUS
 10
5.4850007655
 20
22.072763248
 40
1.2864016238
100
AcDbArc
 50
30.0
 51
30.7172245658
  0
CIRCLE
  5
363
100
AcDbEntity
  8
0
100
AcDbCircle
 62
9
  6
CONTINUOUS
 10
5.4850007655
 20
22.072763248
 40
1.270345173
  0
CIRCLE
  5
364
100
AcDbEntity
  8
0
100
AcDbCircle
 62
9
  6
CONTINUOUS
 10
5.4850007655
 20
22.072763248
 40
1.270345173
  0
CIRCLE
  5
365
100
AcDbEntity
  8
0
100
AcDbCircle
 62
9
  6
CONTINUOUS
 10
5.4850007655
 20
22.072763248
 40
1.2686221422
  0
ARC
  5
366
100
AcDbEntity
  8
0
100
AcDbCircle
 62
9
  6
CONTINUOUS
 10
5.4850007655
 20
22.072763248
 40
1.2686221422
100
AcDbArc
 50
30.0
 51
210.0
  0
CIRCLE
  5
367
100
AcDbEntity
  8
0
100
AcDbCircle
 62
9
  6
CONTINUOUS
 10
5.4850007655
 20
22.072763248
 40
1.2621655827
  0
ARC
  5
368
100
AcDbEntity
  8
0
100
AcDbCircle
 62
9
  6
CONTINUOUS
 10
5.4850007655
 20
22.072763248
 40
1.2621655774
100
AcDbArc
 50
209.0671034207
 51
210.0
  0
CIRCLE
  5
369
100
AcDbEntity
  8
0
100
AcDbCircle
 62
7
  6
CONTINUOUS
 10
5.4850007655
 20
22.072763248
 40
1.1732283464
  0
ARC
  5
36A
100
AcDbEntity
  8
0
100
AcDbCircle
 62
7
  6
CONTINUOUS
 10
5.4850007653
 20
22.0727632482
 40
1.1732283462
100
AcDbArc
 50
29.9996511208
 51
210.0003488792
  0
CIRCLE
  5
36B
100
AcDbEntity
  8
0
100
AcDbCircle
 62
7
  6
CONTINUOUS
 10
5.4850007655
 20
22.072763248
 40
1.1653404974
  0
CIRCLE
  5
36C
100
AcDbEntity
  8
0
100
AcDbCircle
 62
7
  6
CONTINUOUS
 10
5.4850007655
 20
22.072763248
 40
1.1653404974
  0
CIRCLE
  5
36D
100
AcDbEntity
  8
0
100
AcDbCircle
 62
7
  6
CONTINUOUS
 10
5.4850007655
 20
22.072763248
 40
1.1614173228
  0
ARC
  5
36E
100
AcDbEntity
  8
0
100
AcDbCircle
 62
7
  6
CONTINUOUS
 10
5.4850007655
 20
22.072763248
 40
0.8937007874
100
AcDbArc
 50
316.802340994
 51
320.0
  0
ARC
  5
36F
100
AcDbEntity
  8
0
100
AcDbCircle
 62
7
  6
CONTINUOUS
 10
5.4850007655
 20
22.072763248
 40
0.8937007874
100
AcDbArc
 50
14.8055325994
 51
18.1914279563
  0
ARC
  5
370
100
AcDbEntity
  8
0
100
AcDbCircle
 62
7
  6
CONTINUOUS
 10
5.4850007655
 20
22.072763248
 40
0.8937007874
100
AcDbArc
 50
72.8085922347
 51
76.1926660052
  0
CIRCLE
  5
371
100
AcDbEntity
  8
0
100
AcDbCircle
 62
9
  6
CONTINUOUS
 10
5.4850007655
 20
22.072763248
 40
0.7233776624
  0
CIRCLE
  5
372
100
AcDbEntity
  8
0
100
AcDbCircle
 62
9
  6
CONTINUOUS
 10
5.4850007655
 20
22.072763248
 40
0.6903545
  0
CIRCLE
  5
373
100
AcDbEntity
  8
0
100
AcDbCircle
 62
9
  6
CONTINUOUS
 10
5.4850007655
 20
22.072763248
 40
0.6619775031
  0
CIRCLE
  5
374
100
AcDbEntity
  8
0
100
AcDbCircle
 62
9
  6
CONTINUOUS
 10
5.4850007655
 20
22.072763248
 40
0.6434795449
  0
CIRCLE
  5
375
100
AcDbEntity
  8
0
100
AcDbCircle
 62
7
  6
CONTINUOUS
 10
5.4850007655
 20
22.072763248
 40
0.2913385827
  0
CIRCLE
  5
376
100
AcDbEntity
  8
0
100
AcDbCircle
 62
7
  6
CONTINUOUS
 10
5.4850007655
 20
22.072763248
 40
0.2755905512
  0
CIRCLE
  5
377
100
AcDbEntity
  8
0
100
AcDbCircle
 62
9
  6
CONTINUOUS
 10
5.4850007655
 20
22.072763248
 40
0.2650026166
  0
CIRCLE
  5
378
100
AcDbEntity
  8
0
100
AcDbCircle
 62
7
  6
CONTINUOUS
 10
5.7743708442
 20
21.5715595694
 40
0.0295275591
  0
ARC
  5
379
100
AcDbEntity
  8
0
100
AcDbCircle
 62
9
  6
CONTINUOUS
 10
6.0067516075
 20
21.3155609351
 40
0.0980779186
100
AcDbArc
 50
125.1452014576
 51
126.0719655968
  0
CIRCLE
  5
37A
100
AcDbEntity
  8
0
100
AcDbCircle
 62
7
  6
CONTINUOUS
 10
5.9027795391
 20
20.5135916386
 40
0.0826771654
  0
CIRCLE
  5
37B
100
AcDbEntity
  8
0
100
AcDbCircle
 62
9
  6
CONTINUOUS
 10
5.9027795391
 20
20.5135916386
 40
0.0769109535
  0
CIRCLE
  5
37C
100
AcDbEntity
  8
0
100
AcDbCircle
 62
7
  6
CONTINUOUS
 10
6.020606908
 20
20.7796956345
 40
0.0708661417
  0
CIRCLE
  5
37D
100
AcDbEntity
  8
0
100
AcDbCircle
 62
9
  6
CONTINUOUS
 10
5.9027795391
 20
20.5135916386
 40
0.0687574628
  0
CIRCLE
  5
37E
100
AcDbEntity
  8
0
100
AcDbCircle
 62
9
  6
CONTINUOUS
 10
6.020606908
 20
20.7796956345
 40
0.0651002345
  0
CIRCLE
  5
37F
100
AcDbEntity
  8
0
100
AcDbCircle
 62
9
  6
CONTINUOUS
 10
6.020606908
 20
20.7796956345
 40
0.0569463945
  0
CIRCLE
  5
380
100
AcDbEntity
  8
0
100
AcDbCircle
 62
9
  6
CONTINUOUS
 10
5.9027795391
 20
20.5135916386
 40
0.0548379698
  0
CIRCLE
  5
381
100
AcDbEntity
  8
0
100
AcDbCircle
 62
9
  6
CONTINUOUS
 10
6.020606908
 20
20.7796956345
 40
0.0430269203
  0
ARC
  5
382
100
AcDbEntity
  8
0
100
AcDbCircle
 62
9
  6
CONTINUOUS
 10
5.9924361685
 20
21.3357314085
 40
0.0917449965
100
AcDbArc
 50
303.2360377698
 51
304.0432417898
  0
ARC
  5
383
100
AcDbEntity
  8
0
100
AcDbCircle
 62
9
  6
CONTINUOUS
 10
5.9938980804
 20
21.3317780077
 40
0.0876564679
100
AcDbArc
 50
304.698088382
 51
305.4979861828
  0
CIRCLE
  5
384
100
AcDbEntity
  8
0
100
AcDbCircle
 62
7
  6
CONTINUOUS
 10
5.9978883028
 20
21.3265072504
 40
0.0708661417
  0
CIRCLE
  5
385
100
AcDbEntity
  8
0
100
AcDbCircle
 62
9
  6
CONTINUOUS
 10
5.9978883028
 20
21.3265072504
 40
0.0674067293
  0
CIRCLE
  5
386
100
AcDbEntity
  8
0
100
AcDbCircle
 62
9
  6
CONTINUOUS
 10
5.9978883028
 20
21.3265072504
 40
0.0546404342
  0
CIRCLE
  5
387
100
AcDbEntity
  8
0
100
AcDbCircle
 62
9
  6
CONTINUOUS
 10
5.9978883028
 20
21.3265072504
 40
0.0462887627
  0
CIRCLE
  5
388
100
AcDbEntity
  8
0
100
AcDbCircle
 62
7
  6
CONTINUOUS
 10
5.9978883028
 20
21.3265072504
 40
0.0295275591
  0
CIRCLE
  5
389
100
AcDbEntity
  8
0
100
AcDbCircle
 62
9
  6
CONTINUOUS
 10
5.9475449232
 20
22.1336583416
 40
0.1439792358
  0
CIRCLE
  5
38A
100
AcDbEntity
  8
0
100
AcDbCircle
 62
9
  6
CONTINUOUS
 10
5.8551282097
 20
21.788754471
 40
0.1439792321
  0
CIRCLE
  5
38B
100
AcDbEntity
  8
0
100
AcDbCircle
 62
9
  6
CONTINUOUS
 10
5.9475449232
 20
22.1336583416
 40
0.130060568
  0
CIRCLE
  5
38C
100
AcDbEntity
  8
0
100
AcDbCircle
 62
9
  6
CONTINUOUS
 10
5.8551282097
 20
21.788754471
 40
0.1300605664
  0
CIRCLE
  5
38D
100
AcDbEntity
  8
0
100
AcDbCircle
 62
9
  6
CONTINUOUS
 10
5.9475449232
 20
22.1336583416
 40
0.1219067236
  0
CIRCLE
  5
38E
100
AcDbEntity
  8
0
100
AcDbCircle
 62
9
  6
CONTINUOUS
 10
5.8551282097
 20
21.788754471
 40
0.1219067236
  0
CIRCLE
  5
38F
100
AcDbEntity
  8
0
100
AcDbCircle
 62
9
  6
CONTINUOUS
 10
5.9475449232
 20
22.1336583416
 40
0.1079869821
  0
CIRCLE
  5
390
100
AcDbEntity
  8
0
100
AcDbCircle
 62
9
  6
CONTINUOUS
 10
5.8551282097
 20
21.788754471
 40
0.1079869821
  0
CIRCLE
  5
391
100
AcDbEntity
  8
0
100
AcDbCircle
 62
7
  6
CONTINUOUS
 10
5.8551282097
 20
21.788754471
 40
0.0885826772
  0
CIRCLE
  5
392
100
AcDbEntity
  8
0
100
AcDbCircle
 62
7
  6
CONTINUOUS
 10
5.9475449232
 20
22.1336583416
 40
0.0885826772
  0
ARC
  5
393
100
AcDbEntity
  8
0
100
AcDbCircle
 62
9
  6
CONTINUOUS
 10
6.1729280793
 20
21.4653856986
 40
0.0962106998
100
AcDbArc
 50
139.0571460343
 51
139.9928033558
  0
ARC
  5
394
100
AcDbEntity
  8
0
100
AcDbCircle
 62
9
  6
CONTINUOUS
 10
6.1557147733
 20
21.4803373679
 40
0.0916784296
100
AcDbArc
 50
317.235509117
 51
318.0451461567
  0
ARC
  5
395
100
AcDbEntity
  8
0
100
AcDbCircle
 62
9
  6
CONTINUOUS
 10
6.1581156459
 20
21.4768451286
 40
0.0875638688
100
AcDbArc
 50
318.6942495319
 51
319.50018774
  0
ARC
  5
396
100
AcDbEntity
  8
0
100
AcDbCircle
 62
9
  6
CONTINUOUS
 10
6.1596943543
 20
21.4765045656
 40
0.0789286398
100
AcDbArc
 50
137.7659184157
 51
138.8587142261
  0
CIRCLE
  5
397
100
AcDbEntity
  8
0
100
AcDbCircle
 62
7
  6
CONTINUOUS
 10
6.1631890166
 20
21.4727529681
 40
0.0708661417
  0
ARC
  5
398
100
AcDbEntity
  8
0
100
AcDbCircle
 62
7
  6
CONTINUOUS
 10
6.1631890166
 20
21.4727529681
 40
0.0708661417
100
AcDbArc
 50
138.499998711
 51
318.5
  0
CIRCLE
  5
399
100
AcDbEntity
  8
0
100
AcDbCircle
 62
9
  6
CONTINUOUS
 10
6.1631890166
 20
21.4727529681
 40
0.0674067292
  0
CIRCLE
  5
39A
100
AcDbEntity
  8
0
100
AcDbCircle
 62
9
  6
CONTINUOUS
 10
6.1631890166
 20
21.4727529681
 40
0.0546404346
  0
CIRCLE
  5
39B
100
AcDbEntity
  8
0
100
AcDbCircle
 62
9
  6
CONTINUOUS
 10
6.1631890166
 20
21.4727529681
 40
0.0462887633
  0
CIRCLE
  5
39C
100
AcDbEntity
  8
0
100
AcDbCircle
 62
7
  6
CONTINUOUS
 10
6.1631890166
 20
21.4727529681
 40
0.0295275591
  0
CIRCLE
  5
39D
100
AcDbEntity
  8
0
100
AcDbCircle
 62
7
  6
CONTINUOUS
 10
6.0440208303
 20
21.922974273
 40
0.0295275591
  0
CIRCLE
  5
39E
100
AcDbEntity
  8
0
100
AcDbCircle
 62
7
  6
CONTINUOUS
 10
6.2920873796
 20
20.6748482261
 40
0.0826771654
  0
CIRCLE
  5
39F
100
AcDbEntity
  8
0
100
AcDbCircle
 62
9
  6
CONTINUOUS
 10
6.2920873796
 20
20.6748482261
 40
0.0769109536
  0
CIRCLE
  5
3A0
100
AcDbEntity
  8
0
100
AcDbCircle
 62
9
  6
CONTINUOUS
 10
6.2920873796
 20
20.6748482261
 40
0.0687574628
  0
CIRCLE
  5
3A1
100
AcDbEntity
  8
0
100
AcDbCircle
 62
9
  6
CONTINUOUS
 10
6.2920873796
 20
20.6748482261
 40
0.0548379698
  0
CIRCLE
  5
3A2
100
AcDbEntity
  8
0
100
AcDbCircle
 62
7
  6
CONTINUOUS
 10
6.3370270962
 20
20.9623809154
 40
0.0708661417
  0
CIRCLE
  5
3A3
100
AcDbEntity
  8
0
100
AcDbCircle
 62
9
  6
CONTINUOUS
 10
6.3370270962
 20
20.9623809154
 40
0.0651002345
  0
CIRCLE
  5
3A4
100
AcDbEntity
  8
0
100
AcDbCircle
 62
9
  6
CONTINUOUS
 10
6.3370270962
 20
20.9623809154
 40
0.0569463945
  0
CIRCLE
  5
3A5
100
AcDbEntity
  8
0
100
AcDbCircle
 62
9
  6
CONTINUOUS
 10
6.3370270962
 20
20.9623809154
 40
0.0430269203
  0
ARC
  5
3A6
100
AcDbEntity
  8
0
100
AcDbCircle
 62
7
  6
CONTINUOUS
 10
6.3369590583
 20
20.9624515281
 40
0.0176203964
100
AcDbArc
 50
307.5357416369
 51
127.4642584019
  0
ARC
  5
3A7
100
AcDbEntity
  8
0
100
AcDbCircle
 62
7
  6
CONTINUOUS
 10
6.3369764991
 20
20.9624649109
 40
0.0176203964
100
AcDbArc
 50
127.5357460611
 51
307.4642538982
  0
CIRCLE
  5
3A8
100
AcDbEntity
  8
0
100
AcDbCircle
 62
7
  6
CONTINUOUS
 10
6.6263936012
 20
20.9313704122
 40
0.0826771654
  0
CIRCLE
  5
3A9
100
AcDbEntity
  8
0
100
AcDbCircle
 62
9
  6
CONTINUOUS
 10
6.6263936012
 20
20.9313704122
 40
0.0769109535
  0
CIRCLE
  5
3AA
100
AcDbEntity
  8
0
100
AcDbCircle
 62
9
  6
CONTINUOUS
 10
6.6263936012
 20
20.9313704122
 40
0.0687574628
  0
CIRCLE
  5
3AB
100
AcDbEntity
  8
0
100
AcDbCircle
 62
9
  6
CONTINUOUS
 10
6.6263936012
 20
20.9313704122
 40
0.0548379698
  0
CIRCLE
  5
3AC
100
AcDbEntity
  8
0
100
AcDbCircle
 62
7
  6
CONTINUOUS
 10
6.595383098
 20
21.2207369172
 40
0.0708661417
  0
CIRCLE
  5
3AD
100
AcDbEntity
  8
0
100
AcDbCircle
 62
9
  6
CONTINUOUS
 10
6.595383098
 20
21.2207369172
 40
0.0651002345
  0
CIRCLE
  5
3AE
100
AcDbEntity
  8
0
100
AcDbCircle
 62
9
  6
CONTINUOUS
 10
6.595383098
 20
21.2207369172
 40
0.0569463945
  0
CIRCLE
  5
3AF
100
AcDbEntity
  8
0
100
AcDbCircle
 62
9
  6
CONTINUOUS
 10
6.595383098
 20
21.2207369172
 40
0.0430269203
  0
CIRCLE
  5
3B0
100
AcDbEntity
  8
0
100
AcDbCircle
 62
7
  6
CONTINUOUS
 10
6.3896507299
 20
22.1122611184
 40
0.0708661417
  0
CIRCLE
  5
3B1
100
AcDbEntity
  8
0
100
AcDbCircle
 62
9
  6
CONTINUOUS
 10
6.3896507299
 20
22.1122611184
 40
0.0674067293
  0
CIRCLE
  5
3B2
100
AcDbEntity
  8
0
100
AcDbCircle
 62
9
  6
CONTINUOUS
 10
6.3896507299
 20
22.1122611184
 40
0.0546404342
  0
CIRCLE
  5
3B3
100
AcDbEntity
  8
0
100
AcDbCircle
 62
9
  6
CONTINUOUS
 10
6.3896507299
 20
22.1122611184
 40
0.0462887627
  0
CIRCLE
  5
3B4
100
AcDbEntity
  8
0
100
AcDbCircle
 62
7
  6
CONTINUOUS
 10
6.3896507299
 20
22.1122611184
 40
0.0295275591
  0
CIRCLE
  5
3B5
100
AcDbEntity
  8
0
100
AcDbCircle
 62
7
  6
CONTINUOUS
 10
6.8829157873
 20
21.2656766338
 40
0.0826771654
  0
CIRCLE
  5
3B6
100
AcDbEntity
  8
0
100
AcDbCircle
 62
9
  6
CONTINUOUS
 10
6.8829157873
 20
21.2656766338
 40
0.0769109535
  0
CIRCLE
  5
3B7
100
AcDbEntity
  8
0
100
AcDbCircle
 62
9
  6
CONTINUOUS
 10
6.8829157873
 20
21.2656766338
 40
0.0687574628
  0
CIRCLE
  5
3B8
100
AcDbEntity
  8
0
100
AcDbCircle
 62
9
  6
CONTINUOUS
 10
6.8829157873
 20
21.2656766338
 40
0.0548379698
  0
CIRCLE
  5
3B9
100
AcDbEntity
  8
0
100
AcDbCircle
 62
7
  6
CONTINUOUS
 10
6.7780683789
 20
21.5371571054
 40
0.0708661417
  0
CIRCLE
  5
3BA
100
AcDbEntity
  8
0
100
AcDbCircle
 62
9
  6
CONTINUOUS
 10
6.7780683789
 20
21.5371571054
 40
0.0651002345
  0
CIRCLE
  5
3BB
100
AcDbEntity
  8
0
100
AcDbCircle
 62
9
  6
CONTINUOUS
 10
6.7780683789
 20
21.5371571054
 40
0.0569463945
  0
CIRCLE
  5
3BC
100
AcDbEntity
  8
0
100
AcDbCircle
 62
9
  6
CONTINUOUS
 10
6.7780683789
 20
21.5371571054
 40
0.0430269203
  0
ARC
  5
3BD
100
AcDbEntity
  8
0
100
AcDbCircle
 62
7
  6
CONTINUOUS
 10
6.7779741499
 20
21.5371842388
 40
0.0176203964
100
AcDbArc
 50
337.5357416343
 51
157.4642584021
  0
ARC
  5
3BE
100
AcDbEntity
  8
0
100
AcDbCircle
 62
7
  6
CONTINUOUS
 10
6.7779825627
 20
21.5372045491
 40
0.0176203964
100
AcDbArc
 50
157.5357460624
 51
337.4642538945
  0
CIRCLE
  5
3BF
100
AcDbEntity
  8
0
100
AcDbCircle
 62
7
  6
CONTINUOUS
 10
6.8726332388
 20
21.8900779671
 40
0.0708661417
  0
CIRCLE
  5
3C0
100
AcDbEntity
  8
0
100
AcDbCircle
 62
9
  6
CONTINUOUS
 10
6.8726332388
 20
21.8900779671
 40
0.0651002345
  0
CIRCLE
  5
3C1
100
AcDbEntity
  8
0
100
AcDbCircle
 62
9
  6
CONTINUOUS
 10
6.8726332388
 20
21.8900779671
 40
0.0569463945
  0
CIRCLE
  5
3C2
100
AcDbEntity
  8
0
100
AcDbCircle
 62
9
  6
CONTINUOUS
 10
6.8726332388
 20
21.8900779671
 40
0.0430269203
  0
CIRCLE
  5
3C3
100
AcDbEntity
  8
0
100
AcDbCircle
 62
7
  6
CONTINUOUS
 10
7.0441723748
 20
21.6549844744
 40
0.0826771654
  0
CIRCLE
  5
3C4
100
AcDbEntity
  8
0
100
AcDbCircle
 62
9
  6
CONTINUOUS
 10
7.0441723748
 20
21.6549844744
 40
0.0769109535
  0
CIRCLE
  5
3C5
100
AcDbEntity
  8
0
100
AcDbCircle
 62
9
  6
CONTINUOUS
 10
7.0441723748
 20
21.6549844744
 40
0.0687574628
  0
CIRCLE
  5
3C6
100
AcDbEntity
  8
0
100
AcDbCircle
 62
9
  6
CONTINUOUS
 10
7.0441723748
 20
21.6549844744
 40
0.0548379698
  0
CIRCLE
  5
3C7
100
AcDbEntity
  8
0
100
AcDbCircle
 62
7
  6
CONTINUOUS
 10
7.0991739938
 20
22.072763248
 40
0.0826771654
  0
CIRCLE
  5
3C8
100
AcDbEntity
  8
0
100
AcDbCircle
 62
9
  6
CONTINUOUS
 10
7.0991739938
 20
22.072763248
 40
0.0769109535
  0
CIRCLE
  5
3C9
100
AcDbEntity
  8
0
100
AcDbCircle
 62
9
  6
CONTINUOUS
 10
7.0991739938
 20
22.072763248
 40
0.0687574628
  0
CIRCLE
  5
3CA
100
AcDbEntity
  8
0
100
AcDbCircle
 62
9
  6
CONTINUOUS
 10
7.0991739938
 20
22.072763248
 40
0.0548379698
  0
CIRCLE
  5
3CB
100
AcDbEntity
  8
0
100
AcDbCircle
 62
7
  6
CONTINUOUS
 10
4.0973682922
 20
22.2554485288
 40
0.0708661417
  0
CIRCLE
  5
3CC
100
AcDbEntity
  8
0
100
AcDbCircle
 62
9
  6
CONTINUOUS
 10
4.0973682922
 20
22.2554485288
 40
0.0651002345
  0
CIRCLE
  5
3CD
100
AcDbEntity
  8
0
100
AcDbCircle
 62
9
  6
CONTINUOUS
 10
4.0973682922
 20
22.2554485288
 40
0.0569463945
  0
CIRCLE
  5
3CE
100
AcDbEntity
  8
0
100
AcDbCircle
 62
9
  6
CONTINUOUS
 10
4.0973682922
 20
22.2554485288
 40
0.0430269203
  0
CIRCLE
  5
3CF
100
AcDbEntity
  8
0
100
AcDbCircle
 62
7
  6
CONTINUOUS
 10
3.9258291561
 20
22.4905420215
 40
0.0826771654
  0
CIRCLE
  5
3D0
100
AcDbEntity
  8
0
100
AcDbCircle
 62
9
  6
CONTINUOUS
 10
3.9258291561
 20
22.4905420215
 40
0.0769109535
  0
CIRCLE
  5
3D1
100
AcDbEntity
  8
0
100
AcDbCircle
 62
9
  6
CONTINUOUS
 10
3.9258291561
 20
22.4905420215
 40
0.0687574628
  0
CIRCLE
  5
3D2
100
AcDbEntity
  8
0
100
AcDbCircle
 62
9
  6
CONTINUOUS
 10
3.9258291561
 20
22.4905420215
 40
0.0548379698
  0
ARC
  5
3D3
100
AcDbEntity
  8
0
100
AcDbCircle
 62
9
  6
CONTINUOUS
 10
4.6411171212
 20
22.3708332856
 40
0.0915891769
100
AcDbArc
 50
159.2388524226
 51
160.0489770544
  0
ARC
  5
3D4
100
AcDbEntity
  8
0
100
AcDbCircle
 62
9
  6
CONTINUOUS
 10
4.632022867
 20
22.3746688215
 40
0.0833491419
100
AcDbArc
 50
339.5320466511
 51
340.5970322004
  0
CIRCLE
  5
3D5
100
AcDbEntity
  8
0
100
AcDbCircle
 62
7
  6
CONTINUOUS
 10
4.6314277617
 20
22.3750293016
 40
0.0708661417
  0
ARC
  5
3D6
100
AcDbEntity
  8
0
100
AcDbCircle
 62
7
  6
CONTINUOUS
 10
4.6314277617
 20
22.3750293016
 40
0.0708661417
100
AcDbArc
 50
340.4999991536
 51
160.5000000001
  0
CIRCLE
  5
3D7
100
AcDbEntity
  8
0
100
AcDbCircle
 62
9
  6
CONTINUOUS
 10
4.6314277617
 20
22.3750293016
 40
0.0674067293
  0
CIRCLE
  5
3D8
100
AcDbEntity
  8
0
100
AcDbCircle
 62
9
  6
CONTINUOUS
 10
4.6314277617
 20
22.3750293016
 40
0.0546404342
  0
CIRCLE
  5
3D9
100
AcDbEntity
  8
0
100
AcDbCircle
 62
9
  6
CONTINUOUS
 10
4.6314277617
 20
22.3750293016
 40
0.0462887627
  0
CIRCLE
  5
3DA
100
AcDbEntity
  8
0
100
AcDbCircle
 62
7
  6
CONTINUOUS
 10
4.6314277617
 20
22.3750293016
 40
0.0295275591
  0
CIRCLE
  5
3DB
100
AcDbEntity
  8
0
100
AcDbCircle
 62
7
  6
CONTINUOUS
 10
4.191933152
 20
22.6083693905
 40
0.0708661417
  0
CIRCLE
  5
3DC
100
AcDbEntity
  8
0
100
AcDbCircle
 62
9
  6
CONTINUOUS
 10
4.191933152
 20
22.6083693905
 40
0.0651002345
  0
CIRCLE
  5
3DD
100
AcDbEntity
  8
0
100
AcDbCircle
 62
9
  6
CONTINUOUS
 10
4.191933152
 20
22.6083693905
 40
0.0569463945
  0
CIRCLE
  5
3DE
100
AcDbEntity
  8
0
100
AcDbCircle
 62
9
  6
CONTINUOUS
 10
4.191933152
 20
22.6083693905
 40
0.0430269203
  0
ARC
  5
3DF
100
AcDbEntity
  8
0
100
AcDbCircle
 62
7
  6
CONTINUOUS
 10
4.1920189682
 20
22.6083219468
 40
0.0176203964
100
AcDbArc
 50
337.5357415749
 51
157.4642583837
  0
ARC
  5
3E0
100
AcDbEntity
  8
0
100
AcDbCircle
 62
7
  6
CONTINUOUS
 10
4.192027381
 20
22.608342257
 40
0.0176203964
100
AcDbArc
 50
157.5357461215
 51
337.4642539166
  0
CIRCLE
  5
3E1
100
AcDbEntity
  8
0
100
AcDbCircle
 62
7
  6
CONTINUOUS
 10
4.0870857436
 20
22.8798498621
 40
0.0826771654
  0
CIRCLE
  5
3E2
100
AcDbEntity
  8
0
100
AcDbCircle
 62
9
  6
CONTINUOUS
 10
4.0870857436
 20
22.8798498621
 40
0.0769109535
  0
CIRCLE
  5
3E3
100
AcDbEntity
  8
0
100
AcDbCircle
 62
9
  6
CONTINUOUS
 10
4.0870857436
 20
22.8798498621
 40
0.0687574628
  0
CIRCLE
  5
3E4
100
AcDbEntity
  8
0
100
AcDbCircle
 62
9
  6
CONTINUOUS
 10
4.0870857436
 20
22.8798498621
 40
0.0548379698
  0
CIRCLE
  5
3E5
100
AcDbEntity
  8
0
100
AcDbCircle
 62
7
  6
CONTINUOUS
 10
4.3746184329
 20
22.9247895787
 40
0.0708661417
  0
CIRCLE
  5
3E6
100
AcDbEntity
  8
0
100
AcDbCircle
 62
9
  6
CONTINUOUS
 10
4.3746184329
 20
22.9247895787
 40
0.0651002345
  0
CIRCLE
  5
3E7
100
AcDbEntity
  8
0
100
AcDbCircle
 62
9
  6
CONTINUOUS
 10
4.3746184329
 20
22.9247895787
 40
0.0569463945
  0
CIRCLE
  5
3E8
100
AcDbEntity
  8
0
100
AcDbCircle
 62
9
  6
CONTINUOUS
 10
4.3746184329
 20
22.9247895787
 40
0.0430269203
  0
CIRCLE
  5
3E9
100
AcDbEntity
  8
0
100
AcDbCircle
 62
7
  6
CONTINUOUS
 10
4.9259807006
 20
22.2225522229
 40
0.0295275591
  0
ARC
  5
3EA
100
AcDbEntity
  8
0
100
AcDbCircle
 62
9
  6
CONTINUOUS
 10
4.738340661
 20
22.5660973263
 40
0.091648168
100
AcDbArc
 50
145.2375363393
 51
146.0467231491
  0
ARC
  5
3EB
100
AcDbEntity
  8
0
100
AcDbCircle
 62
9
  6
CONTINUOUS
 10
4.7355824174
 20
22.5691560062
 40
0.0876575656
100
AcDbArc
 50
146.6981659873
 51
147.4980579691
  0
ARC
  5
3EC
100
AcDbEntity
  8
0
100
AcDbCircle
 62
9
  6
CONTINUOUS
 10
4.73039785
 20
22.5720547188
 40
0.0833487343
100
AcDbArc
 50
325.5320597727
 51
326.5970508609
  0
CIRCLE
  5
3ED
100
AcDbEntity
  8
0
100
AcDbCircle
 62
7
  6
CONTINUOUS
 10
4.7299073045
 20
22.5725487071
 40
0.0708661417
  0
CIRCLE
  5
3EE
100
AcDbEntity
  8
0
100
AcDbCircle
 62
9
  6
CONTINUOUS
 10
4.7299073045
 20
22.5725487071
 40
0.0674067293
  0
CIRCLE
  5
3EF
100
AcDbEntity
  8
0
100
AcDbCircle
 62
9
  6
CONTINUOUS
 10
4.7299073045
 20
22.5725487071
 40
0.0546404338
  0
CIRCLE
  5
3F0
100
AcDbEntity
  8
0
100
AcDbCircle
 62
9
  6
CONTINUOUS
 10
4.7299073045
 20
22.5725487071
 40
0.0462887621
  0
CIRCLE
  5
3F1
100
AcDbEntity
  8
0
100
AcDbCircle
 62
7
  6
CONTINUOUS
 10
4.7299073045
 20
22.5725487071
 40
0.0295275591
  0
CIRCLE
  5
3F2
100
AcDbEntity
  8
0
100
AcDbCircle
 62
9
  6
CONTINUOUS
 10
5.1148733213
 20
22.3567720249
 40
0.1439792321
  0
CIRCLE
  5
3F3
100
AcDbEntity
  8
0
100
AcDbCircle
 62
9
  6
CONTINUOUS
 10
5.1148733213
 20
22.3567720249
 40
0.1300605664
  0
CIRCLE
  5
3F4
100
AcDbEntity
  8
0
100
AcDbCircle
 62
9
  6
CONTINUOUS
 10
5.1148733213
 20
22.3567720249
 40
0.1219067236
  0
CIRCLE
  5
3F5
100
AcDbEntity
  8
0
100
AcDbCircle
 62
9
  6
CONTINUOUS
 10
5.1148733213
 20
22.3567720249
 40
0.1079869821
  0
CIRCLE
  5
3F6
100
AcDbEntity
  8
0
100
AcDbCircle
 62
7
  6
CONTINUOUS
 10
5.1148733213
 20
22.3567720249
 40
0.0885826772
  0
CIRCLE
  5
3F7
100
AcDbEntity
  8
0
100
AcDbCircle
 62
9
  6
CONTINUOUS
 10
5.4241056719
 20
22.5353074057
 40
0.1439792358
  0
CIRCLE
  5
3F8
100
AcDbEntity
  8
0
100
AcDbCircle
 62
9
  6
CONTINUOUS
 10
5.4241056719
 20
22.5353074057
 40
0.130060568
  0
CIRCLE
  5
3F9
100
AcDbEntity
  8
0
100
AcDbCircle
 62
9
  6
CONTINUOUS
 10
5.4241056719
 20
22.5353074057
 40
0.1219067236
  0
CIRCLE
  5
3FA
100
AcDbEntity
  8
0
100
AcDbCircle
 62
9
  6
CONTINUOUS
 10
5.4241056719
 20
22.5353074057
 40
0.1079869821
  0
CIRCLE
  5
3FB
100
AcDbEntity
  8
0
100
AcDbCircle
 62
7
  6
CONTINUOUS
 10
5.4241056719
 20
22.5353074057
 40
0.0885826772
  0
CIRCLE
  5
3FC
100
AcDbEntity
  8
0
100
AcDbCircle
 62
7
  6
CONTINUOUS
 10
5.1956306867
 20
22.5739669265
 40
0.0295275591
  0
ARC
  5
3FD
100
AcDbEntity
  8
0
100
AcDbCircle
 62
9
  6
CONTINUOUS
 10
5.2907373481
 20
22.9504290886
 40
0.0876564681
100
AcDbArc
 50
102.6980883849
 51
103.4979861841
  0
CIRCLE
  5
3FE
100
AcDbEntity
  8
0
100
AcDbCircle
 62
7
  6
CONTINUOUS
 10
4.3436079297
 20
23.2141560837
 40
0.0826771654
  0
CIRCLE
  5
3FF
100
AcDbEntity
  8
0
100
AcDbCircle
 62
9
  6
CONTINUOUS
 10
4.3436079297
 20
23.2141560837
 40
0.0769109535
  0
CIRCLE
  5
400
100
AcDbEntity
  8
0
100
AcDbCircle
 62
7
  6
CONTINUOUS
 10
4.6329744347
 20
23.1831455805
 40
0.0708661417
  0
CIRCLE
  5
401
100
AcDbEntity
  8
0
100
AcDbCircle
 62
9
  6
CONTINUOUS
 10
4.3436079297
 20
23.2141560837
 40
0.0687574628
  0
CIRCLE
  5
402
100
AcDbEntity
  8
0
100
AcDbCircle
 62
9
  6
CONTINUOUS
 10
4.6329744347
 20
23.1831455805
 40
0.0651002345
  0
CIRCLE
  5
403
100
AcDbEntity
  8
0
100
AcDbCircle
 62
9
  6
CONTINUOUS
 10
4.6329744347
 20
23.1831455805
 40
0.0569463945
  0
CIRCLE
  5
404
100
AcDbEntity
  8
0
100
AcDbCircle
 62
9
  6
CONTINUOUS
 10
4.3436079297
 20
23.2141560837
 40
0.0548379698
  0
CIRCLE
  5
405
100
AcDbEntity
  8
0
100
AcDbCircle
 62
9
  6
CONTINUOUS
 10
4.6329744347
 20
23.1831455805
 40
0.0430269203
  0
ARC
  5
406
100
AcDbEntity
  8
0
100
AcDbCircle
 62
7
  6
CONTINUOUS
 10
4.6330250318
 20
23.183061585
 40
0.0176203964
100
AcDbArc
 50
307.5357415656
 51
127.4642583955
  0
ARC
  5
407
100
AcDbEntity
  8
0
100
AcDbCircle
 62
7
  6
CONTINUOUS
 10
4.6330424727
 20
23.1830749678
 40
0.0176203964
100
AcDbArc
 50
127.5357461325
 51
307.464253908
  0
CIRCLE
  5
408
100
AcDbEntity
  8
0
100
AcDbCircle
 62
7
  6
CONTINUOUS
 10
4.6779141513
 20
23.4706782698
 40
0.0826771654
  0
CIRCLE
  5
409
100
AcDbEntity
  8
0
100
AcDbCircle
 62
9
  6
CONTINUOUS
 10
4.6779141513
 20
23.4706782698
 40
0.0769109536
  0
CIRCLE
  5
40A
100
AcDbEntity
  8
0
100
AcDbCircle
 62
9
  6
CONTINUOUS
 10
4.6779141513
 20
23.4706782698
 40
0.0687574628
  0
CIRCLE
  5
40B
100
AcDbEntity
  8
0
100
AcDbCircle
 62
9
  6
CONTINUOUS
 10
4.6779141513
 20
23.4706782698
 40
0.0548379698
  0
CIRCLE
  5
40C
100
AcDbEntity
  8
0
100
AcDbCircle
 62
7
  6
CONTINUOUS
 10
5.2890121387
 20
22.9568108135
 40
0.0708661417
  0
CIRCLE
  5
40D
100
AcDbEntity
  8
0
100
AcDbCircle
 62
7
  6
CONTINUOUS
 10
5.2890121387
 20
22.9568108135
 40
0.0708661417
  0
CIRCLE
  5
40E
100
AcDbEntity
  8
0
100
AcDbCircle
 62
9
  6
CONTINUOUS
 10
5.2890121387
 20
22.9568108135
 40
0.0674067293
  0
CIRCLE
  5
40F
100
AcDbEntity
  8
0
100
AcDbCircle
 62
9
  6
CONTINUOUS
 10
5.2890121387
 20
22.9568108135
 40
0.0546404342
  0
CIRCLE
  5
410
100
AcDbEntity
  8
0
100
AcDbCircle
 62
9
  6
CONTINUOUS
 10
5.2890121387
 20
22.9568108135
 40
0.0462887627
  0
CIRCLE
  5
411
100
AcDbEntity
  8
0
100
AcDbCircle
 62
7
  6
CONTINUOUS
 10
5.2890121387
 20
22.9568108135
 40
0.0295275591
  0
CIRCLE
  5
412
100
AcDbEntity
  8
0
100
AcDbCircle
 62
7
  6
CONTINUOUS
 10
4.9493946229
 20
23.3658308614
 40
0.0708661417
  0
CIRCLE
  5
413
100
AcDbEntity
  8
0
100
AcDbCircle
 62
9
  6
CONTINUOUS
 10
4.9493946229
 20
23.3658308614
 40
0.0651002345
  0
CIRCLE
  5
414
100
AcDbEntity
  8
0
100
AcDbCircle
 62
9
  6
CONTINUOUS
 10
4.9493946229
 20
23.3658308614
 40
0.0569463945
  0
CIRCLE
  5
415
100
AcDbEntity
  8
0
100
AcDbCircle
 62
9
  6
CONTINUOUS
 10
4.9493946229
 20
23.3658308614
 40
0.0430269203
  0
CIRCLE
  5
416
100
AcDbEntity
  8
0
100
AcDbCircle
 62
7
  6
CONTINUOUS
 10
5.0672219919
 20
23.6319348573
 40
0.0826771654
  0
CIRCLE
  5
417
100
AcDbEntity
  8
0
100
AcDbCircle
 62
9
  6
CONTINUOUS
 10
5.0672219919
 20
23.6319348573
 40
0.0769109535
  0
CIRCLE
  5
418
100
AcDbEntity
  8
0
100
AcDbCircle
 62
9
  6
CONTINUOUS
 10
5.0672219919
 20
23.6319348573
 40
0.0687574628
  0
CIRCLE
  5
419
100
AcDbEntity
  8
0
100
AcDbCircle
 62
9
  6
CONTINUOUS
 10
5.0672219919
 20
23.6319348573
 40
0.0548379698
  0
CIRCLE
  5
41A
100
AcDbEntity
  8
0
100
AcDbCircle
 62
7
  6
CONTINUOUS
 10
5.3023154846
 20
23.4603957213
 40
0.0708661417
  0
CIRCLE
  5
41B
100
AcDbEntity
  8
0
100
AcDbCircle
 62
9
  6
CONTINUOUS
 10
5.3023154846
 20
23.4603957213
 40
0.0651002345
  0
CIRCLE
  5
41C
100
AcDbEntity
  8
0
100
AcDbCircle
 62
9
  6
CONTINUOUS
 10
5.3023154846
 20
23.4603957213
 40
0.0569463945
  0
CIRCLE
  5
41D
100
AcDbEntity
  8
0
100
AcDbCircle
 62
9
  6
CONTINUOUS
 10
5.3023154846
 20
23.4603957213
 40
0.0430269203
  0
ARC
  5
41E
100
AcDbEntity
  8
0
100
AcDbCircle
 62
7
  6
CONTINUOUS
 10
5.3023173053
 20
23.4602976804
 40
0.0176203964
100
AcDbArc
 50
277.5357415696
 51
97.4642583931
  0
ARC
  5
41F
100
AcDbEntity
  8
0
100
AcDbCircle
 62
7
  6
CONTINUOUS
 10
5.3023391008
 20
23.4603005499
 40
0.0176203964
100
AcDbArc
 50
97.5357461317
 51
277.4642539105
  0
CIRCLE
  5
420
100
AcDbEntity
  8
0
100
AcDbCircle
 62
9
  6
CONTINUOUS
 10
5.7690095424
 20
22.4428906921
 40
0.1439792321
  0
CIRCLE
  5
421
100
AcDbEntity
  8
0
100
AcDbCircle
 62
9
  6
CONTINUOUS
 10
5.7690095424
 20
22.4428906921
 40
0.1300605664
  0
CIRCLE
  5
422
100
AcDbEntity
  8
0
100
AcDbCircle
 62
9
  6
CONTINUOUS
 10
5.7690095424
 20
22.4428906921
 40
0.1219067236
  0
CIRCLE
  5
423
100
AcDbEntity
  8
0
100
AcDbCircle
 62
9
  6
CONTINUOUS
 10
5.7690095424
 20
22.4428906921
 40
0.1079869821
  0
CIRCLE
  5
424
100
AcDbEntity
  8
0
100
AcDbCircle
 62
7
  6
CONTINUOUS
 10
5.7690095424
 20
22.4428906921
 40
0.0885826772
  0
CIRCLE
  5
425
100
AcDbEntity
  8
0
100
AcDbCircle
 62
7
  6
CONTINUOUS
 10
5.986204444
 20
22.3621333267
 40
0.0295275591
  0
ARC
  5
426
100
AcDbEntity
  8
0
100
AcDbCircle
 62
9
  6
CONTINUOUS
 10
6.2808105667
 20
22.5432295302
 40
0.1030015277
100
AcDbArc
 50
211.314095645
 51
212.1978251138
  0
ARC
  5
427
100
AcDbEntity
  8
0
100
AcDbCircle
 62
9
  6
CONTINUOUS
 10
6.2560171771
 20
22.5277418962
 40
0.0913172597
100
AcDbArc
 50
29.2442384137
 51
30.0592452661
  0
ARC
  5
428
100
AcDbEntity
  8
0
100
AcDbCircle
 62
9
  6
CONTINUOUS
 10
6.2640481853
 20
22.5315845965
 40
0.0824445129
100
AcDbArc
 50
30.5435046224
 51
31.4012801124
  0
CIRCLE
  5
429
100
AcDbEntity
  8
0
100
AcDbCircle
 62
7
  6
CONTINUOUS
 10
6.265216147
 20
22.5323452302
 40
0.0708661417
  0
CIRCLE
  5
42A
100
AcDbEntity
  8
0
100
AcDbCircle
 62
9
  6
CONTINUOUS
 10
6.265216147
 20
22.5323452302
 40
0.0674067293
  0
CIRCLE
  5
42B
100
AcDbEntity
  8
0
100
AcDbCircle
 62
9
  6
CONTINUOUS
 10
6.265216147
 20
22.5323452302
 40
0.0546404342
  0
CIRCLE
  5
42C
100
AcDbEntity
  8
0
100
AcDbCircle
 62
9
  6
CONTINUOUS
 10
6.265216147
 20
22.5323452302
 40
0.0462887627
  0
CIRCLE
  5
42D
100
AcDbEntity
  8
0
100
AcDbCircle
 62
7
  6
CONTINUOUS
 10
6.265216147
 20
22.5323452302
 40
0.0295275591
  0
ARC
  5
42E
100
AcDbEntity
  8
0
100
AcDbCircle
 62
9
  6
CONTINUOUS
 10
5.7265070211
 20
22.9437467723
 40
0.0827187367
100
AcDbArc
 50
60.6549297899
 51
73.6103303726
  0
ARC
  5
42F
100
AcDbEntity
  8
0
100
AcDbCircle
 62
9
  6
CONTINUOUS
 10
5.7266492287
 20
22.9440083486
 40
0.0824210335
100
AcDbArc
 50
58.8988371712
 51
60.6519891541
  0
ARC
  5
430
100
AcDbEntity
  8
0
100
AcDbCircle
 62
9
  6
CONTINUOUS
 10
5.726972014
 20
22.9451793647
 40
0.0812131624
100
AcDbArc
 50
73.6398663924
 51
74.5196167374
  0
CIRCLE
  5
431
100
AcDbEntity
  8
0
100
AcDbCircle
 62
7
  6
CONTINUOUS
 10
5.7269882714
 20
22.9453420048
 40
0.0708661417
  0
ARC
  5
432
100
AcDbEntity
  8
0
100
AcDbCircle
 62
7
  6
CONTINUOUS
 10
5.7269882714
 20
22.9453420048
 40
0.0708661417
100
AcDbArc
 50
74.5000000002
 51
254.4999986186
  0
CIRCLE
  5
433
100
AcDbEntity
  8
0
100
AcDbCircle
 62
9
  6
CONTINUOUS
 10
5.7269882714
 20
22.9453420048
 40
0.0674067293
  0
CIRCLE
  5
434
100
AcDbEntity
  8
0
100
AcDbCircle
 62
9
  6
CONTINUOUS
 10
5.7269882714
 20
22.9453420048
 40
0.0546404342
  0
CIRCLE
  5
435
100
AcDbEntity
  8
0
100
AcDbCircle
 62
9
  6
CONTINUOUS
 10
5.7269882714
 20
22.9453420048
 40
0.0462887627
  0
CIRCLE
  5
436
100
AcDbEntity
  8
0
100
AcDbCircle
 62
7
  6
CONTINUOUS
 10
5.7269882714
 20
22.9453420048
 40
0.0295275591
  0
CIRCLE
  5
437
100
AcDbEntity
  8
0
100
AcDbCircle
 62
7
  6
CONTINUOUS
 10
5.6347897404
 20
22.6317833128
 40
0.0295275591
  0
ARC
  5
438
100
AcDbEntity
  8
0
100
AcDbCircle
 62
9
  6
CONTINUOUS
 10
6.3469777397
 20
22.3277764082
 40
0.0876562384
100
AcDbArc
 50
16.6980829959
 51
17.4979763307
  0
CIRCLE
  5
439
100
AcDbEntity
  8
0
100
AcDbCircle
 62
7
  6
CONTINUOUS
 10
6.35322336
 20
22.3299424971
 40
0.0708661417
  0
CIRCLE
  5
43A
100
AcDbEntity
  8
0
100
AcDbCircle
 62
9
  6
CONTINUOUS
 10
6.35322336
 20
22.3299424971
 40
0.0674067293
  0
CIRCLE
  5
43B
100
AcDbEntity
  8
0
100
AcDbCircle
 62
9
  6
CONTINUOUS
 10
6.35322336
 20
22.3299424971
 40
0.0546404342
  0
CIRCLE
  5
43C
100
AcDbEntity
  8
0
100
AcDbCircle
 62
9
  6
CONTINUOUS
 10
6.35322336
 20
22.3299424971
 40
0.0462887627
  0
CIRCLE
  5
43D
100
AcDbEntity
  8
0
100
AcDbCircle
 62
7
  6
CONTINUOUS
 10
6.35322336
 20
22.3299424971
 40
0.0295275591
  0
CIRCLE
  5
43E
100
AcDbEntity
  8
0
100
AcDbCircle
 62
7
  6
CONTINUOUS
 10
6.8726332388
 20
22.2554485288
 40
0.0708661417
  0
CIRCLE
  5
43F
100
AcDbEntity
  8
0
100
AcDbCircle
 62
9
  6
CONTINUOUS
 10
6.8726332388
 20
22.2554485288
 40
0.0651002345
  0
CIRCLE
  5
440
100
AcDbEntity
  8
0
100
AcDbCircle
 62
9
  6
CONTINUOUS
 10
6.8726332388
 20
22.2554485288
 40
0.0569463945
  0
CIRCLE
  5
441
100
AcDbEntity
  8
0
100
AcDbCircle
 62
9
  6
CONTINUOUS
 10
6.8726332388
 20
22.2554485288
 40
0.0430269203
  0
ARC
  5
442
100
AcDbEntity
  8
0
100
AcDbCircle
 62
7
  6
CONTINUOUS
 10
6.8725380674
 20
22.2554249126
 40
0.0176203964
100
AcDbArc
 50
7.5357462165
 51
187.4642538257
  0
ARC
  5
443
100
AcDbEntity
  8
0
100
AcDbCircle
 62
7
  6
CONTINUOUS
 10
6.8725351979
 20
22.2554467081
 40
0.0176203964
100
AcDbArc
 50
187.5357414848
 51
7.464258478
  0
CIRCLE
  5
444
100
AcDbEntity
  8
0
100
AcDbCircle
 62
7
  6
CONTINUOUS
 10
7.0441723748
 20
22.4905420215
 40
0.0826771654
  0
CIRCLE
  5
445
100
AcDbEntity
  8
0
100
AcDbCircle
 62
9
  6
CONTINUOUS
 10
7.0441723748
 20
22.4905420215
 40
0.0769109535
  0
CIRCLE
  5
446
100
AcDbEntity
  8
0
100
AcDbCircle
 62
9
  6
CONTINUOUS
 10
7.0441723748
 20
22.4905420215
 40
0.0687574628
  0
CIRCLE
  5
447
100
AcDbEntity
  8
0
100
AcDbCircle
 62
9
  6
CONTINUOUS
 10
7.0441723748
 20
22.4905420215
 40
0.0548379698
  0
CIRCLE
  5
448
100
AcDbEntity
  8
0
100
AcDbCircle
 62
7
  6
CONTINUOUS
 10
6.595383098
 20
22.9247895787
 40
0.0708661417
  0
CIRCLE
  5
449
100
AcDbEntity
  8
0
100
AcDbCircle
 62
9
  6
CONTINUOUS
 10
6.595383098
 20
22.9247895787
 40
0.0651002345
  0
CIRCLE
  5
44A
100
AcDbEntity
  8
0
100
AcDbCircle
 62
9
  6
CONTINUOUS
 10
6.595383098
 20
22.9247895787
 40
0.0569463945
  0
CIRCLE
  5
44B
100
AcDbEntity
  8
0
100
AcDbCircle
 62
9
  6
CONTINUOUS
 10
6.595383098
 20
22.9247895787
 40
0.0430269203
  0
ARC
  5
44C
100
AcDbEntity
  8
0
100
AcDbCircle
 62
7
  6
CONTINUOUS
 10
6.5952991025
 20
22.9247389816
 40
0.0176203964
100
AcDbArc
 50
217.5357414987
 51
37.4642584668
  0
ARC
  5
44D
100
AcDbEntity
  8
0
100
AcDbCircle
 62
7
  6
CONTINUOUS
 10
6.595312028
 20
22.9247221206
 40
0.0176194003
100
AcDbArc
 50
37.5333449525
 51
217.4666550527
  0
CIRCLE
  5
44E
100
AcDbEntity
  8
0
100
AcDbCircle
 62
7
  6
CONTINUOUS
 10
6.7780683789
 20
22.6083693905
 40
0.0708661417
  0
CIRCLE
  5
44F
100
AcDbEntity
  8
0
100
AcDbCircle
 62
9
  6
CONTINUOUS
 10
6.7780683789
 20
22.6083693905
 40
0.0651002345
  0
CIRCLE
  5
450
100
AcDbEntity
  8
0
100
AcDbCircle
 62
9
  6
CONTINUOUS
 10
6.7780683789
 20
22.6083693905
 40
0.0569463945
  0
CIRCLE
  5
451
100
AcDbEntity
  8
0
100
AcDbCircle
 62
9
  6
CONTINUOUS
 10
6.7780683789
 20
22.6083693905
 40
0.0430269203
  0
CIRCLE
  5
452
100
AcDbEntity
  8
0
100
AcDbCircle
 62
7
  6
CONTINUOUS
 10
6.8829157873
 20
22.8798498621
 40
0.0826771654
  0
CIRCLE
  5
453
100
AcDbEntity
  8
0
100
AcDbCircle
 62
9
  6
CONTINUOUS
 10
6.8829157873
 20
22.8798498621
 40
0.0769113022
  0
CIRCLE
  5
454
100
AcDbEntity
  8
0
100
AcDbCircle
 62
9
  6
CONTINUOUS
 10
6.8829157873
 20
22.8798498621
 40
0.0687574886
  0
CIRCLE
  5
455
100
AcDbEntity
  8
0
100
AcDbCircle
 62
9
  6
CONTINUOUS
 10
6.8829157873
 20
22.8798498621
 40
0.0548380036
  0
CIRCLE
  5
456
100
AcDbEntity
  8
0
100
AcDbCircle
 62
7
  6
CONTINUOUS
 10
5.5087043013
 20
22.9779647627
 40
0.0708661417
  0
ARC
  5
457
100
AcDbEntity
  8
0
100
AcDbCircle
 62
7
  6
CONTINUOUS
 10
5.5087043013
 20
22.9779647627
 40
0.0708661417
100
AcDbArc
 50
268.5000005504
 51
88.5
  0
CIRCLE
  5
458
100
AcDbEntity
  8
0
100
AcDbCircle
 62
9
  6
CONTINUOUS
 10
5.5087043013
 20
22.9779647627
 40
0.0674067293
  0
CIRCLE
  5
459
100
AcDbEntity
  8
0
100
AcDbCircle
 62
9
  6
CONTINUOUS
 10
5.5087043013
 20
22.9779647627
 40
0.0546404342
  0
CIRCLE
  5
45A
100
AcDbEntity
  8
0
100
AcDbCircle
 62
9
  6
CONTINUOUS
 10
5.5087043013
 20
22.9779647627
 40
0.0462887627
  0
CIRCLE
  5
45B
100
AcDbEntity
  8
0
100
AcDbCircle
 62
7
  6
CONTINUOUS
 10
5.5087043013
 20
22.9779647627
 40
0.0295275591
  0
CIRCLE
  5
45C
100
AcDbEntity
  8
0
100
AcDbCircle
 62
7
  6
CONTINUOUS
 10
5.6676860463
 20
23.4603957213
 40
0.0708661417
  0
CIRCLE
  5
45D
100
AcDbEntity
  8
0
100
AcDbCircle
 62
9
  6
CONTINUOUS
 10
5.6676860463
 20
23.4603957213
 40
0.0651002345
  0
CIRCLE
  5
45E
100
AcDbEntity
  8
0
100
AcDbCircle
 62
9
  6
CONTINUOUS
 10
5.6676860463
 20
23.4603957213
 40
0.0569463945
  0
CIRCLE
  5
45F
100
AcDbEntity
  8
0
100
AcDbCircle
 62
9
  6
CONTINUOUS
 10
5.6676860463
 20
23.4603957213
 40
0.0430269203
  0
CIRCLE
  5
460
100
AcDbEntity
  8
0
100
AcDbCircle
 62
7
  6
CONTINUOUS
 10
5.4850007655
 20
23.6869364763
 40
0.0826771654
  0
CIRCLE
  5
461
100
AcDbEntity
  8
0
100
AcDbCircle
 62
9
  6
CONTINUOUS
 10
5.4850007655
 20
23.6869364763
 40
0.0769109535
  0
CIRCLE
  5
462
100
AcDbEntity
  8
0
100
AcDbCircle
 62
9
  6
CONTINUOUS
 10
5.4850007655
 20
23.6869364763
 40
0.0687574628
  0
CIRCLE
  5
463
100
AcDbEntity
  8
0
100
AcDbCircle
 62
9
  6
CONTINUOUS
 10
5.4850007655
 20
23.6869364763
 40
0.0548379698
  0
CIRCLE
  5
464
100
AcDbEntity
  8
0
100
AcDbCircle
 62
7
  6
CONTINUOUS
 10
6.020606908
 20
23.3658308614
 40
0.0708661417
  0
CIRCLE
  5
465
100
AcDbEntity
  8
0
100
AcDbCircle
 62
9
  6
CONTINUOUS
 10
6.020606908
 20
23.3658308614
 40
0.0651002345
  0
CIRCLE
  5
466
100
AcDbEntity
  8
0
100
AcDbCircle
 62
9
  6
CONTINUOUS
 10
6.020606908
 20
23.3658308614
 40
0.0569463945
  0
CIRCLE
  5
467
100
AcDbEntity
  8
0
100
AcDbCircle
 62
9
  6
CONTINUOUS
 10
6.020606908
 20
23.3658308614
 40
0.0430269203
  0
ARC
  5
468
100
AcDbEntity
  8
0
100
AcDbCircle
 62
7
  6
CONTINUOUS
 10
6.0205594643
 20
23.3657450452
 40
0.0176203964
100
AcDbArc
 50
247.5357415817
 51
67.4642583845
  0
ARC
  5
469
100
AcDbEntity
  8
0
100
AcDbCircle
 62
7
  6
CONTINUOUS
 10
6.0205790886
 20
23.3657369059
 40
0.0176194003
100
AcDbArc
 50
67.5333449442
 51
247.4666550617
  0
CIRCLE
  5
46A
100
AcDbEntity
  8
0
100
AcDbCircle
 62
7
  6
CONTINUOUS
 10
5.9027795391
 20
23.6319348573
 40
0.0826771654
  0
CIRCLE
  5
46B
100
AcDbEntity
  8
0
100
AcDbCircle
 62
9
  6
CONTINUOUS
 10
5.9027795391
 20
23.6319348573
 40
0.0769109535
  0
CIRCLE
  5
46C
100
AcDbEntity
  8
0
100
AcDbCircle
 62
9
  6
CONTINUOUS
 10
5.9027795391
 20
23.6319348573
 40
0.0687574628
  0
CIRCLE
  5
46D
100
AcDbEntity
  8
0
100
AcDbCircle
 62
9
  6
CONTINUOUS
 10
5.9027795391
 20
23.6319348573
 40
0.0548379698
  0
CIRCLE
  5
46E
100
AcDbEntity
  8
0
100
AcDbCircle
 62
7
  6
CONTINUOUS
 10
6.6263936012
 20
23.2141560837
 40
0.0826771654
  0
CIRCLE
  5
46F
100
AcDbEntity
  8
0
100
AcDbCircle
 62
9
  6
CONTINUOUS
 10
6.6263936012
 20
23.2141560837
 40
0.0769109535
  0
CIRCLE
  5
470
100
AcDbEntity
  8
0
100
AcDbCircle
 62
7
  6
CONTINUOUS
 10
6.3370270962
 20
23.1831455805
 40
0.0708661417
  0
CIRCLE
  5
471
100
AcDbEntity
  8
0
100
AcDbCircle
 62
9
  6
CONTINUOUS
 10
6.6263936012
 20
23.2141560837
 40
0.0687574628
  0
CIRCLE
  5
472
100
AcDbEntity
  8
0
100
AcDbCircle
 62
9
  6
CONTINUOUS
 10
6.3370270962
 20
23.1831455805
 40
0.0651002345
  0
CIRCLE
  5
473
100
AcDbEntity
  8
0
100
AcDbCircle
 62
9
  6
CONTINUOUS
 10
6.3370270962
 20
23.1831455805
 40
0.0569463945
  0
CIRCLE
  5
474
100
AcDbEntity
  8
0
100
AcDbCircle
 62
9
  6
CONTINUOUS
 10
6.6263936012
 20
23.2141560837
 40
0.0548379698
  0
CIRCLE
  5
475
100
AcDbEntity
  8
0
100
AcDbCircle
 62
9
  6
CONTINUOUS
 10
6.3370270962
 20
23.1831455805
 40
0.0430269203
  0
CIRCLE
  5
476
100
AcDbEntity
  8
0
100
AcDbCircle
 62
7
  6
CONTINUOUS
 10
6.2920873796
 20
23.4706782698
 40
0.0826771654
  0
CIRCLE
  5
477
100
AcDbEntity
  8
0
100
AcDbCircle
 62
9
  6
CONTINUOUS
 10
6.2920873796
 20
23.4706782698
 40
0.0769109535
  0
CIRCLE
  5
478
100
AcDbEntity
  8
0
100
AcDbCircle
 62
9
  6
CONTINUOUS
 10
6.2920873796
 20
23.4706782698
 40
0.0687574628
  0
CIRCLE
  5
479
100
AcDbEntity
  8
0
100
AcDbCircle
 62
9
  6
CONTINUOUS
 10
6.2920873796
 20
23.4706782698
 40
0.0548379698
  0
ARC
  5
47A
100
AcDbEntity
  8
0
100
AcDbCircle
 62
9
  6
CONTINUOUS
 10
34.9429177381
 20
-32.6844547999
 40
62.1408708825
100
AcDbArc
 50
119.9966189927
 51
120.193532084
  0
ARC
  5
47B
100
AcDbEntity
  8
0
100
AcDbCircle
 62
9
  6
CONTINUOUS
 10
34.9427682082
 20
-32.6841971522
 40
62.1405729875
100
AcDbArc
 50
119.9966264532
 51
120.1935323914
  0
ARC
  5
47C
100
AcDbEntity
  8
0
100
AcDbCircle
 62
9
  6
CONTINUOUS
 10
27.2418327062
 20
-19.3463986537
 40
46.6723066354
100
AcDbArc
 50
119.9913600724
 51
120.2033691435
  0
ARC
  5
47D
100
AcDbEntity
  8
0
100
AcDbCircle
 62
9
  6
CONTINUOUS
 10
27.24181564
 20
-19.3463691072
 40
46.6722725143
100
AcDbArc
 50
119.9913600581
 51
120.2033692842
  0
ARC
  5
47E
100
AcDbEntity
  8
0
100
AcDbCircle
 62
9
  6
CONTINUOUS
 10
26.7180124249
 20
-18.6207179493
 40
45.9358348329
100
AcDbArc
 50
119.8779797699
 51
120.0926475921
  0
ARC
  5
47F
100
AcDbEntity
  8
0
100
AcDbCircle
 62
9
  6
CONTINUOUS
 10
26.7126360088
 20
-18.6113995933
 40
45.9250767132
100
AcDbArc
 50
119.87795501
 51
120.0926709128
  0
ARC
  5
480
100
AcDbEntity
  8
0
100
AcDbCircle
 62
9
  6
CONTINUOUS
 10
8.7159018546
 20
13.6943165673
 40
8.8601835192
100
AcDbArc
 50
120.0157904175
 51
120.1523908627
  0
ARC
  5
481
100
AcDbEntity
  8
0
100
AcDbCircle
 62
9
  6
CONTINUOUS
 10
8.7149659065
 20
13.6959273728
 40
8.8583205365
100
AcDbArc
 50
120.0158226889
 51
120.1523895879
  0
ARC
  5
482
100
AcDbEntity
  8
0
100
AcDbCircle
 62
9
  6
CONTINUOUS
 10
16.8003791229
 20
-3.0868492156
 40
1.8855172246
100
AcDbArc
 50
274.7548137536
 51
277.4511156326
  0
ARC
  5
483
100
AcDbEntity
  8
0
100
AcDbCircle
 62
9
  6
CONTINUOUS
 10
17.1478574933
 20
-4.2553831046
 40
0.6539696062
100
AcDbArc
 50
310.9736424517
 51
313.7679426181
  0
ARC
  5
484
100
AcDbEntity
  8
0
100
AcDbCircle
 62
7
  6
CONTINUOUS
 10
11.0259605444
 20
14.1077835145
 40
0.223
100
AcDbArc
 50
122.5461444331
 51
134.3558392099
  0
ARC
  5
485
100
AcDbEntity
  8
0
100
AcDbCircle
 62
7
  6
CONTINUOUS
 10
11.0259605444
 20
13.9737429814
 40
0.223
100
AcDbArc
 50
225.6441607901
 51
237.4538555669
  0
ARC
  5
486
100
AcDbEntity
  8
0
100
AcDbCircle
 62
7
  6
CONTINUOUS
 10
10.7879669467
 20
14.579263248
 40
0.1
100
AcDbArc
 50
270.0
 51
360.0
  0
ARC
  5
487
100
AcDbEntity
  8
0
100
AcDbCircle
 62
7
  6
CONTINUOUS
 10
11.8979669467
 20
14.579263248
 40
0.1
100
AcDbArc
 50
180.0
 51
270.0
  0
ARC
  5
488
100
AcDbEntity
  8
0
100
AcDbCircle
 62
7
  6
CONTINUOUS
 10
11.7861205058
 20
14.2101688419
 40
0.0798403671
100
AcDbArc
 50
131.3592913185
 51
132.7783086989
  0
ARC
  5
489
100
AcDbEntity
  8
0
100
AcDbCircle
 62
7
  6
CONTINUOUS
 10
11.7851105615
 20
14.2113115662
 40
0.0783153106
100
AcDbArc
 50
130.5583087462
 51
131.357128115
  0
ARC
  5
48A
100
AcDbEntity
  8
0
100
AcDbCircle
 62
7
  6
CONTINUOUS
 10
25.0400013877
 20
17.082763248
 40
20.175
100
AcDbArc
 50
174.9244926841
 51
185.0755073159
  0
ARC
  5
48B
100
AcDbEntity
  8
0
100
AcDbCircle
 62
7
  6
CONTINUOUS
 10
11.3429669467
 20
15.579263248
 40
1.0
100
AcDbArc
 50
297.076090966
 51
242.9243748432
  0
CIRCLE
  5
48C
100
AcDbEntity
  8
0
100
AcDbCircle
 62
7
  6
CONTINUOUS
 10
11.3429669467
 20
15.579263248
 40
0.55
  0
SPLINE
  5
48D
100
AcDbEntity
  8
0
100
AcDbSpline
 62
9
  6
CONTINUOUS
 70
0
 71
3
 72
17
 73
13
 74
0
 42
0.0000001
 43
0.0000001
 44
0.0000000001
 40
0.0
 40
0.0
 40
0.0
 40
0.0
 40
0.0886368503
 40
0.186980495
 40
0.2407896237
 40
0.2978339368
 40
0.421491409
 40
0.4883405749
 40
0.5580530707
 40
0.70344779
 40
0.8526880944
 40
1.0
 40
1.0
 40
1.0
 40
1.0
 10
5.8100007655
 20
14.9336086315
 30
0.0
 10
5.8100007982
 20
14.9346121448
 30
0.0
 10
5.8102494419
 20
14.9367360423
 30
0.0
 10
5.8112033202
 20
14.9393187129
 30
0.0
 10
5.8123997042
 20
14.9413679924
 30
0.0
 10
5.8139889046
 20
14.9435007189
 30
0.0
 10
5.8160318286
 20
14.9454562811
 30
0.0
 10
5.8184474091
 20
14.9471486771
 30
0.0
 10
5.8212248362
 20
14.948730285
 30
0.0
 10
5.825067927
 20
14.9502905106
 30
0.0
 10
5.8299711932
 20
14.9513785015
 30
0.0
 10
5.833332955
 20
14.9516271074
 30
0.0
 10
5.8350007655
 20
14.9516271074
 30
0.0
  0
SPLINE
  5
48E
100
AcDbEntity
  8
0
100
AcDbSpline
 62
9
  6
CONTINUOUS
 70
0
 71
3
 72
10
 73
6
 74
0
 42
0.0000001
 43
0.0000001
 44
0.0000000001
 40
0.0
 40
0.0
 40
0.0
 40
0.0
 40
0.5318531939
 40
0.7750802999
 40
1.0
 40
1.0
 40
1.0
 40
1.0
 10
5.8350007655
 20
14.9516272778
 30
0.0
 10
5.8371562347
 20
14.9516272778
 30
0.0
 10
5.8403086857
 20
14.9513291145
 30
0.0
 10
5.8442541507
 20
14.9503889155
 30
0.0
 10
5.8460562202
 20
14.9497846366
 30
0.0
 10
5.846905376
 20
14.9494532055
 30
0.0
  0
SPLINE
  5
48F
100
AcDbEntity
  8
0
100
AcDbSpline
 62
9
  6
CONTINUOUS
 70
0
 71
3
 72
17
 73
13
 74
0
 42
0.0000001
 43
0.0000001
 44
0.0000000001
 40
0.0
 40
0.0
 40
0.0
 40
0.0
 40
0.088636904
 40
0.1869805934
 40
0.2407897378
 40
0.2978340608
 40
0.4214915345
 40
0.4883406938
 40
0.5580531789
 40
0.703447867
 40
0.8526881338
 40
1.0
 40
1.0
 40
1.0
 40
1.0
 10
5.1600007655
 20
14.0019178813
 30
0.0
 10
5.160000734
 20
14.0009143662
 30
0.0
 10
5.1597520931
 20
13.998790465
 30
0.0
 10
5.1587982176
 20
13.9962077886
 30
0.0
 10
5.1576018355
 20
13.9941585041
 30
0.0
 10
5.1560126368
 20
13.9920257722
 30
0.0
 10
5.1539697136
 20
13.9900702044
 30
0.0
 10
5.1515541328
 20
13.9883778033
 30
0.0
 10
5.1487767049
 20
13.9867961907
 30
0.0
 10
5.1449336121
 20
13.9852359599
 30
0.0
 10
5.1400303421
 20
13.9841479654
 30
0.0
 10
5.1366685774
 20
13.9838993586
 30
0.0
 10
5.1350007655
 20
13.9838993586
 30
0.0
  0
SPLINE
  5
490
100
AcDbEntity
  8
0
100
AcDbSpline
 62
9
  6
CONTINUOUS
 70
0
 71
3
 72
10
 73
6
 74
0
 42
0.0000001
 43
0.0000001
 44
0.0000000001
 40
0.0
 40
0.0
 40
0.0
 40
0.0
 40
0.5318532062
 40
0.7750803099
 40
1.0
 40
1.0
 40
1.0
 40
1.0
 10
5.1350007655
 20
13.9838991974
 30
0.0
 10
5.132845294
 20
13.9838991974
 30
0.0
 10
5.1296928395
 20
13.9841973618
 30
0.0
 10
5.1257473708
 20
13.9851375641
 30
0.0
 10
5.1239453
 20
13.985741845
 30
0.0
 10
5.1230961436
 20
13.9860732773
 30
0.0
  0
SPLINE
  5
491
100
AcDbEntity
  8
0
100
AcDbSpline
 62
9
  6
CONTINUOUS
 70
0
 71
3
 72
16
 73
12
 74
0
 42
0.0000001
 43
0.0000001
 44
0.0000000001
 40
0.0
 40
0.0
 40
0.0
 40
0.0
 40
0.1870410516
 40
0.3557530665
 40
0.5051038896
 40
0.6351617849
 40
0.746765813
 40
0.8419306158
 40
0.9243087689
 40
0.9625720469
 40
1.0
 40
1.0
 40
1.0
 40
1.0
 10
5.1230960037
 20
14.9494533888
 30
0.0
 10
5.1234369635
 20
14.9508528283
 30
0.0
 10
5.1241545068
 20
14.9534986721
 30
0.0
 10
5.1254122639
 20
14.9571828165
 30
0.0
 10
5.1267867719
 20
14.9603531734
 30
0.0
 10
5.128260081
 20
14.9629867183
 30
0.0
 10
5.1298220096
 20
14.9650703656
 30
0.0
 10
5.1314646554
 20
14.9665961645
 30
0.0
 10
5.1329459261
 20
14.967404097
 30
0.0
 10
5.1341285929
 20
14.9677128314
 30
0.0
 10
5.1347126991
 20
14.9677632849
 30
0.0
 10
5.1350009265
 20
14.967763248
 30
0.0
  0
SPLINE
  5
492
100
AcDbEntity
  8
0
100
AcDbSpline
 62
9
  6
CONTINUOUS
 70
0
 71
3
 72
17
 73
13
 74
0
 42
0.0000001
 43
0.0000001
 44
0.0000000001
 40
0.0
 40
0.0
 40
0.0
 40
0.0
 40
0.0886364796
 40
0.1869797829
 40
0.2407887746
 40
0.297832983
 40
0.421490366
 40
0.4883395537
 40
0.5580521135
 40
0.7034470699
 40
0.8526877148
 40
1.0
 40
1.0
 40
1.0
 40
1.0
 10
5.1600007655
 20
14.9336085105
 30
0.0
 10
5.1600007329
 20
14.9346120171
 30
0.0
 10
5.1597520893
 20
14.9367359012
 30
0.0
 10
5.1587982109
 20
14.9393185543
 30
0.0
 10
5.1576018273
 20
14.9413678194
 30
0.0
 10
5.1560126263
 20
14.9435005324
 30
0.0
 10
5.1539697021
 20
14.9454560811
 30
0.0
 10
5.1515541224
 20
14.9471484651
 30
0.0
 10
5.1487766945
 20
14.9487300626
 30
0.0
 10
5.1449336031
 20
14.9502902776
 30
0.0
 10
5.1400303374
 20
14.9513782609
 30
0.0
 10
5.136668576
 20
14.951626865
 30
0.0
 10
5.1350007655
 20
14.951626865
 30
0.0
  0
SPLINE
  5
493
100
AcDbEntity
  8
0
100
AcDbSpline
 62
9
  6
CONTINUOUS
 70
0
 71
3
 72
10
 73
6
 74
0
 42
0.0000001
 43
0.0000001
 44
0.0000000001
 40
0.0
 40
0.0
 40
0.0
 40
0.0
 40
0.5318533403
 40
0.7750804051
 40
1.0
 40
1.0
 40
1.0
 40
1.0
 10
5.1350007655
 20
14.9516268651
 30
0.0
 10
5.1328452969
 20
14.9516268651
 30
0.0
 10
5.1296928473
 20
14.9513287054
 30
0.0
 10
5.1257473821
 20
14.9503885172
 30
0.0
 10
5.1239453121
 20
14.9497842451
 30
0.0
 10
5.1230961558
 20
14.9494528178
 30
0.0
  0
SPLINE
  5
494
100
AcDbEntity
  8
0
100
AcDbSpline
 62
9
  6
CONTINUOUS
 70
0
 71
3
 72
16
 73
12
 74
0
 42
0.0000001
 43
0.0000001
 44
0.0000000001
 40
0.0
 40
0.0
 40
0.0
 40
0.0
 40
0.1870435062
 40
0.3557609937
 40
0.5051113343
 40
0.6351630241
 40
0.7467588378
 40
0.8419195302
 40
0.9243034444
 40
0.96257046
 40
1.0
 40
1.0
 40
1.0
 40
1.0
 10
5.8469055273
 20
14.9494533888
 30
0.0
 10
5.8465645613
 20
14.9508528487
 30
0.0
 10
5.8458469083
 20
14.9534987335
 30
0.0
 10
5.8445889851
 20
14.957182885
 30
0.0
 10
5.843214515
 20
14.9603532493
 30
0.0
 10
5.8417413806
 20
14.9629867605
 30
0.0
 10
5.8401796944
 20
14.9650704142
 30
0.0
 10
5.8385371128
 20
14.966596236
 30
0.0
 10
5.837055748
 20
14.9674040984
 30
0.0
 10
5.8358729918
 20
14.9677128249
 30
0.0
 10
5.8352888442
 20
14.9677632846
 30
0.0
 10
5.8350006042
 20
14.967763248
 30
0.0
  0
SPLINE
  5
495
100
AcDbEntity
  8
0
100
AcDbSpline
 62
9
  6
CONTINUOUS
 70
0
 71
3
 72
16
 73
12
 74
0
 42
0.0000001
 43
0.0000001
 44
0.0000000001
 40
0.0
 40
0.0
 40
0.0
 40
0.0
 40
0.1870409159
 40
0.3557520207
 40
0.5051059241
 40
0.635167381
 40
0.7467702898
 40
0.841931172
 40
0.9243069066
 40
0.9625704386
 40
1.0
 40
1.0
 40
1.0
 40
1.0
 10
5.8469055273
 20
13.9860731071
 30
0.0
 10
5.8465645444
 20
13.9846736763
 30
0.0
 10
5.8458470444
 20
13.9820278363
 30
0.0
 10
5.8445893635
 20
13.978343651
 30
0.0
 10
5.8432147176
 20
13.9751733054
 30
0.0
 10
5.8417412821
 20
13.9725397922
 30
0.0
 10
5.8401794004
 20
13.9704561367
 30
0.0
 10
5.8385368509
 20
13.9689303223
 30
0.0
 10
5.8370556299
 20
13.9681223946
 30
0.0
 10
5.8358729678
 20
13.9678136645
 30
0.0
 10
5.835288848
 20
13.967763212
 30
0.0
 10
5.8350006087
 20
13.967763248
 30
0.0
  0
SPLINE
  5
496
100
AcDbEntity
  8
0
100
AcDbSpline
 62
9
  6
CONTINUOUS
 70
0
 71
3
 72
17
 73
13
 74
0
 42
0.0000001
 43
0.0000001
 44
0.0000000001
 40
0.0
 40
0.0
 40
0.0
 40
0.0
 40
0.0886365522
 40
0.1869799175
 40
0.2407889318
 40
0.2978331555
 40
0.4214905444
 40
0.4883397243
 40
0.5580522702
 40
0.7034471833
 40
0.8526877734
 40
1.0
 40
1.0
 40
1.0
 40
1.0
 10
5.8100007655
 20
14.0019179957
 30
0.0
 10
5.8100007968
 20
14.000914487
 30
0.0
 10
5.8102494376
 20
13.9987905984
 30
0.0
 10
5.811203313
 20
13.9962079387
 30
0.0
 10
5.8123996948
 20
13.9941586678
 30
0.0
 10
5.813988894
 20
13.9920259486
 30
0.0
 10
5.8160318175
 20
13.9900703936
 30
0.0
 10
5.8184473975
 20
13.9883780039
 30
0.0
 10
5.8212248261
 20
13.986796401
 30
0.0
 10
5.8250679196
 20
13.9852361803
 30
0.0
 10
5.8299711892
 20
13.984148193
 30
0.0
 10
5.8333329535
 20
13.9838995879
 30
0.0
 10
5.8350007655
 20
13.9838995879
 30
0.0
  0
SPLINE
  5
497
100
AcDbEntity
  8
0
100
AcDbSpline
 62
9
  6
CONTINUOUS
 70
0
 71
3
 72
10
 73
6
 74
0
 42
0.0000001
 43
0.0000001
 44
0.0000000001
 40
0.0
 40
0.0
 40
0.0
 40
0.0
 40
0.5318533454
 40
0.77508041
 40
1.0
 40
1.0
 40
1.0
 40
1.0
 10
5.8350007655
 20
13.9838995879
 30
0.0
 10
5.8371562365
 20
13.9838995879
 30
0.0
 10
5.8403086896
 20
13.9841977488
 30
0.0
 10
5.8442541584
 20
13.985137941
 30
0.0
 10
5.8460562298
 20
13.9857422154
 30
0.0
 10
5.8469053866
 20
13.9860736441
 30
0.0
  0
SPLINE
  5
498
100
AcDbEntity
  8
0
100
AcDbSpline
 62
9
  6
CONTINUOUS
 70
0
 71
3
 72
16
 73
12
 74
0
 42
0.0000001
 43
0.0000001
 44
0.0000000001
 40
0.0
 40
0.0
 40
0.0
 40
0.0
 40
0.1870434448
 40
0.3557600734
 40
0.5051134351
 40
0.6351686105
 40
0.7467632714
 40
0.8419200313
 40
0.9243015462
 40
0.962568834
 40
1.0
 40
1.0
 40
1.0
 40
1.0
 10
5.1230960036
 20
13.9860731071
 30
0.0
 10
5.1234369924
 20
13.9846736554
 30
0.0
 10
5.1241546048
 20
13.9820277739
 30
0.0
 10
5.125412456
 20
13.9783435827
 30
0.0
 10
5.1267870612
 20
13.9751732295
 30
0.0
 10
5.128260319
 20
13.9725397498
 30
0.0
 10
5.1298219569
 20
13.9704560882
 30
0.0
 10
5.1314644417
 20
13.9689302506
 30
0.0
 10
5.1329457571
 20
13.9681223933
 30
0.0
 10
5.134128509
 20
13.967813671
 30
0.0
 10
5.1347126704
 20
13.9677632122
 30
0.0
 10
5.1350009226
 20
13.967763248
 30
0.0
  0
SPLINE
  5
499
100
AcDbEntity
  8
0
100
AcDbSpline
 62
7
  6
CONTINUOUS
 70
0
 71
3
 72
11
 73
7
 74
0
 42
0.0000001
 43
0.0000001
 44
0.0000000001
 40
0.0
 40
0.0
 40
0.0
 40
0.0
 40
0.3170093114
 40
0.589697754
 40
0.8175217031
 40
1.0
 40
1.0
 40
1.0
 40
1.0
 10
5.1397150844
 20
15.007763248
 30
0.0
 10
5.1376325965
 20
15.0075877775
 30
0.0
 10
5.133760408
 20
15.0072413576
 30
0.0
 10
5.1283995681
 20
15.0066836845
 30
0.0
 10
5.1239310546
 20
15.006128827
 30
0.0
 10
5.1212565736
 20
15.0057186998
 30
0.0
 10
5.1200728472
 20
15.0055043412
 30
0.0
  0
SPLINE
  5
49A
100
AcDbEntity
  8
0
100
AcDbSpline
 62
7
  6
CONTINUOUS
 70
0
 71
3
 72
23
 73
19
 74
0
 42
0.0000001
 43
0.0000001
 44
0.0000000001
 40
0.0
 40
0.0
 40
0.0
 40
0.0
 40
0.0084450332
 40
0.0188206001
 40
0.0311286246
 40
0.0453387223
 40
0.0614074262
 40
0.0792904115
 40
0.1203194659
 40
0.1680643307
 40
0.2221606768
 40
0.2822429067
 40
0.3479095074
 40
0.4185830646
 40
0.4936312738
 40
0.6543212865
 40
0.8249063153
 40
1.0
 40
1.0
 40
1.0
 40
1.0
 10
5.849970971
 20
14.9840220276
 30
0.0
 10
5.848918665
 20
14.9838307415
 30
0.0
 10
5.8465630207
 20
14.9834624691
 30
0.0
 10
5.8426522649
 20
14.982962166
 30
0.0
 10
5.8380065084
 20
14.9824603803
 30
0.0
 10
5.8326363813
 20
14.9819569455
 30
0.0
 10
5.8265575812
 20
14.9814523251
 30
0.0
 10
5.8170876341
 20
14.9807456449
 30
0.0
 10
5.8036072677
 20
14.9798781743
 30
0.0
 10
5.7855407288
 20
14.9788738863
 30
0.0
 10
5.7650580066
 20
14.9778667541
 30
0.0
 10
5.7423031954
 20
14.9768575773
 30
0.0
 10
5.7174470365
 20
14.9758483778
 30
0.0
 10
5.6906940714
 20
14.9748379912
 30
0.0
 10
5.6519120146
 20
14.9734579342
 30
0.0
 10
5.6004798341
 20
14.9717575086
 30
0.0
 10
5.5363802228
 20
14.9697567229
 30
0.0
 10
5.492620787
 20
14.9684255387
 30
0.0
 10
5.4704557688
 20
14.9677488328
 30
0.0
  0
SPLINE
  5
49B
100
AcDbEntity
  8
0
100
AcDbSpline
 62
7
  6
CONTINUOUS
 70
0
 71
3
 72
25
 73
21
 74
0
 42
0.0000001
 43
0.0000001
 44
0.0000000001
 40
0.0
 40
0.0
 40
0.0
 40
0.0
 40
0.0186087425
 40
0.0395086241
 40
0.0625902354
 40
0.0877408734
 40
0.1437787916
 40
0.2065677931
 40
0.274916821
 40
0.347532057
 40
0.4230370524
 40
0.5000007964
 40
0.6524690812
 40
0.7250839524
 40
0.7934326628
 40
0.8562214632
 40
0.912259207
 40
0.9604915067
 40
0.9813917566
 40
1.0
 40
1.0
 40
1.0
 40
1.0
 10
5.8500007655
 20
15.0029735516
 30
0.0
 10
5.8454786168
 20
15.002692073
 30
0.0
 10
5.8358744386
 20
15.0021442911
 30
0.0
 10
5.8206540753
 20
15.0013773356
 30
0.0
 10
5.8038392641
 20
15.0006058514
 30
0.0
 10
5.7784739882
 20
14.9995321848
 30
0.0
 10
5.7434426284
 20
14.9982135674
 30
0.0
 10
5.6978943899
 20
14.996678439
 30
0.0
 10
5.6483079081
 20
14.9951391415
 30
0.0
 10
5.5956239762
 20
14.993598267
 30
0.0
 10
5.5408416976
 20
14.9920560476
 30
0.0
 10
5.4666232441
 20
14.9900052742
 30
0.0
 10
5.3931081354
 20
14.9879759679
 30
0.0
 10
5.3216931685
 20
14.9858871788
 30
0.0
 10
5.2721068928
 20
14.9843484808
 30
0.0
 10
5.2265588232
 20
14.982812352
 30
0.0
 10
5.1859116372
 20
14.9812822144
 30
0.0
 10
5.1554631825
 20
14.9799604055
 30
0.0
 10
5.1341275155
 20
14.9788717024
 30
0.0
 10
5.1245232718
 20
14.978326612
 30
0.0
 10
5.1200007655
 20
14.9780529443
 30
0.0
  0
SPLINE
  5
49C
100
AcDbEntity
  8
0
100
AcDbSpline
 62
7
  6
CONTINUOUS
 70
0
 71
3
 72
24
 73
20
 74
0
 42
0.0000001
 43
0.0000001
 44
0.0000000001
 40
0.0
 40
0.0
 40
0.0
 40
0.0
 40
0.0175964357
 40
0.0370666885
 40
0.0583359259
 40
0.0813275036
 40
0.1059625099
 40
0.1321609659
 40
0.1888816702
 40
0.250709039
 40
0.3167937357
 40
0.3862285671
 40
0.4580601856
 40
0.6049475356
 40
0.7494121217
 40
0.8182472776
 40
0.8835401432
 40
0.9444122199
 40
1.0
 40
1.0
 40
1.0
 40
1.0
 10
5.1200007655
 20
14.9865522215
 30
0.0
 10
5.123813716
 20
14.9867935687
 30
0.0
 10
5.131848284
 20
14.9872604696
 30
0.0
 10
5.1444976245
 20
14.9879115297
 30
0.0
 10
5.1583197343
 20
14.9885634581
 30
0.0
 10
5.1732640088
 20
14.9892235907
 30
0.0
 10
5.1892793912
 20
14.9898864278
 30
0.0
 10
5.2126142293
 20
14.9907930578
 30
0.0
 10
5.2440221366
 20
14.9919109558
 30
0.0
 10
5.284088564
 20
14.9932243826
 30
0.0
 10
5.3269168589
 20
14.9945389458
 30
0.0
 10
5.3719182356
 20
14.9958543456
 30
0.0
 10
5.4344579145
 20
14.9976223321
 30
0.0
 10
5.5132834755
 20
14.9997877316
 30
0.0
 10
5.5914577773
 20
15.0019690054
 30
0.0
 10
5.6519202336
 20
15.0037514715
 30
0.0
 10
5.6942387558
 20
15.0050657022
 30
0.0
 10
5.7336795514
 20
15.006378308
 30
0.0
 10
5.7589489732
 20
15.0072971192
 30
0.0
 10
5.7710093234
 20
15.007763248
 30
0.0
  0
SPLINE
  5
49D
100
AcDbEntity
  8
0
100
AcDbSpline
 62
9
  6
CONTINUOUS
 70
0
 71
3
 72
33
 73
29
 74
0
 42
0.0000001
 43
0.0000001
 44
0.0000000001
 40
0.0
 40
0.0
 40
0.0
 40
0.0
 40
0.031384176
 40
0.0627778824
 40
0.0784679514
 40
0.094153204
 40
0.1255121761
 40
0.156862582
 40
0.188180941
 40
0.2194656248
 40
0.2507325923
 40
0.2819812758
 40
0.3132008532
 40
0.375511262
 40
0.4377619178
 40
0.499973912
 40
0.5621929579
 40
0.6244473384
 40
0.6867705557
 40
0.7491858509
 40
0.7804628433
 40
0.8117659335
 40
0.8430968317
 40
0.8744508281
 40
0.9058184508
 40
0.9372055253
 40
0.9686163279
 40
1.0
 40
1.0
 40
1.0
 40
1.0
 10
6.0992341757
 20
21.5272380012
 30
0.0
 10
6.0975112036
 20
21.5251850783
 30
0.0
 10
6.0942356938
 20
21.5209312506
 30
0.0
 10
6.0906456749
 20
21.5152598543
 30
0.0
 10
6.0881317077
 20
21.5105230853
 30
0.0
 10
6.0858682129
 20
21.5056651135
 30
0.0
 10
6.0835014436
 20
21.4993901746
 30
0.0
 10
6.0813953722
 20
21.4916296596
 30
0.0
 10
6.0800236954
 20
21.4837122452
 30
0.0
 10
6.0794188663
 20
21.4757058778
 30
0.0
 10
6.0796092933
 20
21.4676848758
 30
0.0
 10
6.0805845285
 20
21.4597262215
 30
0.0
 10
6.082917101
 20
21.449314023
 30
0.0
 10
6.0877130246
 20
21.4368107135
 30
0.0
 10
6.0961775108
 20
21.4231786778
 30
0.0
 10
6.1071317152
 20
21.4114544991
 30
0.0
 10
6.1201376777
 20
21.4020647495
 30
0.0
 10
6.134709136
 20
21.3953329968
 30
0.0
 10
6.1503157123
 20
21.3915148163
 30
0.0
 10
6.1637179231
 20
21.3909121624
 30
0.0
 10
6.1743513996
 20
21.3919923007
 30
0.0
 10
6.182226607
 20
21.3935760252
 30
0.0
 10
6.1899189442
 20
21.3959096503
 30
0.0
 10
6.1973568883
 20
21.3989737792
 30
0.0
 10
6.2044663317
 20
21.4027494634
 30
0.0
 10
6.2111637796
 20
21.4072253973
 30
0.0
 10
6.2173842074
 20
21.4123424624
 30
0.0
 10
6.2212008059
 20
21.4161213783
 30
0.0
 10
6.2230205665
 20
21.4180889571
 30
0.0
  0
SPLINE
  5
49E
100
AcDbEntity
  8
0
100
AcDbSpline
 62
9
  6
CONTINUOUS
 70
0
 71
3
 72
33
 73
29
 74
0
 42
0.0000001
 43
0.0000001
 44
0.0000000001
 40
0.0
 40
0.0
 40
0.0
 40
0.0
 40
0.0627042609
 40
0.0940955095
 40
0.1254565994
 40
0.156795259
 40
0.1881171153
 40
0.2194188152
 40
0.2506949403
 40
0.2819464453
 40
0.313173334
 40
0.3754875274
 40
0.4377350068
 40
0.4688808465
 40
0.5000225936
 40
0.5311651559
 40
0.5623126969
 40
0.6245670565
 40
0.6868825478
 40
0.7181076934
 40
0.7493568176
 40
0.7806291592
 40
0.8119259338
 40
0.8432441537
 40
0.8745804591
 40
0.9059370816
 40
0.9373192445
 40
1.0
 40
1.0
 40
1.0
 40
1.0
 10
6.3344178053
 20
22.574540554
 30
0.0
 10
6.3316097295
 20
22.5791407252
 30
0.0
 10
6.3267039844
 20
22.585655817
 30
0.0
 10
6.3190178667
 20
22.5932356961
 30
0.0
 10
6.3127199575
 20
22.5983314993
 30
0.0
 10
6.3059604628
 20
22.6027836439
 30
0.0
 10
6.2988011983
 20
22.6065491263
 30
0.0
 10
6.2913147902
 20
22.6095985754
 30
0.0
 10
6.2835715853
 20
22.6118985312
 30
0.0
 10
6.2756466476
 20
22.6134304815
 30
0.0
 10
6.2649533932
 20
22.6144344056
 30
0.0
 10
6.251490914
 20
22.6137247279
 30
0.0
 10
6.2384298203
 20
22.6104165498
 30
0.0
 10
6.2285320043
 20
22.6063040654
 30
0.0
 10
6.2214403251
 20
22.6025084406
 30
0.0
 10
6.2147498154
 20
22.5980432766
 30
0.0
 10
6.206455927
 20
22.5912529647
 30
0.0
 10
6.1973815032
 20
22.5812922256
 30
0.0
 10
6.1904082584
 20
22.5697543973
 30
0.0
 10
6.1862493799
 20
22.559852234
 30
0.0
 10
6.1838639059
 20
22.5521418531
 30
0.0
 10
6.1822391913
 20
22.5442303938
 30
0.0
 10
6.1813972253
 20
22.5361917332
 30
0.0
 10
6.1813408781
 20
22.528103791
 30
0.0
 10
6.1820768043
 20
22.5200442725
 30
0.0
 10
6.183598419
 20
22.5120885317
 30
0.0
 10
6.1866594268
 20
22.5017395361
 30
0.0
 10
6.1900916569
 20
22.4943461837
 30
0.0
 10
6.1928131691
 20
22.4896966177
 30
0.0
  0
SPLINE
  5
49F
100
AcDbEntity
  8
0
100
AcDbSpline
 62
9
  6
CONTINUOUS
 70
0
 71
3
 72
32
 73
28
 74
0
 42
0.0000001
 43
0.0000001
 44
0.0000000001
 40
0.0
 40
0.0
 40
0.0
 40
0.0
 40
0.0313954855
 40
0.0627987833
 40
0.0784926832
 40
0.0941815191
 40
0.125550402
 40
0.1569188236
 40
0.1882613153
 40
0.2195681883
 40
0.2508507735
 40
0.313304674
 40
0.3756683574
 40
0.4379783408
 40
0.4691418715
 40
0.5002966407
 40
0.5314507203
 40
0.5626051484
 40
0.6248623748
 40
0.6871649243
 40
0.718371172
 40
0.7495975049
 40
0.8120548791
 40
0.8433451515
 40
0.8746597972
 40
0.9372997038
 40
1.0
 40
1.0
 40
1.0
 40
1.0
 10
6.1936492945
 20
22.4883457682
 30
0.0
 10
6.1949736632
 20
22.4862426726
 30
0.0
 10
6.1977778358
 20
22.4821310037
 30
0.0
 10
6.2016939672
 20
22.4772958055
 30
0.0
 10
6.2050840206
 20
22.4736585994
 30
0.0
 10
6.2086460849
 20
22.4701936946
 30
0.0
 10
6.2134013735
 20
22.4661870207
 30
0.0
 10
6.2195154723
 20
22.4619179685
 30
0.0
 10
6.2259719166
 20
22.4581969621
 30
0.0
 10
6.2327253036
 20
22.4550601707
 30
0.0
 10
6.2420538407
 20
22.4517157066
 30
0.0
 10
6.2542209485
 20
22.4491572317
 30
0.0
 10
6.2691059577
 20
22.4487858107
 30
0.0
 10
6.2813694396
 20
22.4506667507
 30
0.0
 10
6.2908467354
 20
22.4534477173
 30
0.0
 10
6.29773897
 20
22.4561691444
 30
0.0
 10
6.3043563013
 20
22.4595016406
 30
0.0
 10
6.3127402154
 20
22.464714011
 30
0.0
 10
6.3222934039
 20
22.4726151236
 30
0.0
 10
6.3302924865
 20
22.4820904602
 30
0.0
 10
6.3356029043
 20
22.4904294502
 30
0.0
 10
6.3401464113
 20
22.4992222174
 30
0.0
 10
6.3434808408
 20
22.5086048125
 30
0.0
 10
6.3455043689
 20
22.5183070138
 30
0.0
 10
6.3466495821
 20
22.5281675443
 30
0.0
 10
6.3464289126
 20
22.5406343443
 30
0.0
 10
6.3444630947
 20
22.5504265375
 30
0.0
 10
6.3430327304
 20
22.5551794949
 30
0.0
  0
SPLINE
  5
4A0
100
AcDbEntity
  8
0
100
AcDbSpline
 62
9
  6
CONTINUOUS
 70
0
 71
3
 72
9
 73
5
 74
0
 42
0.0000001
 43
0.0000001
 44
0.0000000001
 40
0.0
 40
0.0
 40
0.0
 40
0.0
 40
0.2502221138
 40
1.0
 40
1.0
 40
1.0
 40
1.0
 10
6.3430327304
 20
22.5551794949
 30
0.0
 10
6.3425833344
 20
22.5566727929
 30
0.0
 10
6.3406131592
 20
22.5625874341
 30
0.0
 10
6.3379784113
 20
22.5682761715
 30
0.0
 10
6.3356956081
 20
22.5723534369
 30
0.0
  0
SPLINE
  5
4A1
100
AcDbEntity
  8
0
100
AcDbSpline
 62
9
  6
CONTINUOUS
 70
0
 71
3
 72
36
 73
32
 74
0
 42
0.0000001
 43
0.0000001
 44
0.0000000001
 40
0.0
 40
0.0
 40
0.0
 40
0.0
 40
0.031378278
 40
0.0627650663
 40
0.0784517214
 40
0.0941339185
 40
0.1254870438
 40
0.1568313701
 40
0.1881435892
 40
0.2194225434
 40
0.2506831309
 40
0.281925202
 40
0.3131385068
 40
0.3754349949
 40
0.4376719849
 40
0.4688076455
 40
0.4999436253
 40
0.5310810261
 40
0.5622212508
 40
0.5933702363
 40
0.6245335101
 40
0.6868424488
 40
0.7492434169
 40
0.7805132834
 40
0.8118091443
 40
0.8431327923
 40
0.8744796286
 40
0.9058401112
 40
0.9372198472
 40
0.9686233308
 40
1.0
 40
1.0
 40
1.0
 40
1.0
 10
5.9490032365
 20
21.3948351665
 30
0.0
 10
5.946837019
 20
21.3932570779
 30
0.0
 10
5.9426321114
 20
21.3899196659
 30
0.0
 10
5.9377757165
 20
21.385286802
 30
0.0
 10
5.9341886251
 20
21.3813009104
 30
0.0
 10
5.9308155827
 20
21.3771362462
 30
0.0
 10
5.9269999923
 20
21.3716210912
 30
0.0
 10
5.9230809308
 20
21.3645996163
 30
0.0
 10
5.9198391948
 20
21.3572473409
 30
0.0
 10
5.9173195188
 20
21.3496240571
 30
0.0
 10
5.9155652598
 20
21.341795235
 30
0.0
 10
5.9145863575
 20
21.3338373951
 30
0.0
 10
5.9143299725
 20
21.3231704662
 30
0.0
 10
5.9159589642
 20
21.3098805646
 30
0.0
 10
5.9200647875
 20
21.2971428386
 30
0.0
 10
5.9247758098
 20
21.2875923952
 30
0.0
 10
5.9289926876
 20
21.2808042834
 30
0.0
 10
5.9338452936
 20
21.2744553561
 30
0.0
 10
5.939289699
 20
21.2686046247
 30
0.0
 10
5.9452724133
 20
21.2633013579
 30
0.0
 10
5.9538916725
 20
21.2570324849
 30
0.0
 10
5.9657528601
 20
21.2507924085
 30
0.0
 10
5.9786091135
 20
21.2469682629
 30
0.0
 10
5.9891876995
 20
21.2454443214
 30
0.0
 10
5.9972116216
 20
21.2450764726
 30
0.0
 10
6.0052395096
 20
21.2454804359
 30
0.0
 10
6.0131972305
 20
21.2466546553
 30
0.0
 10
6.021008324
 20
21.248598585
 30
0.0
 10
6.0285890913
 20
21.2513214056
 30
0.0
 10
6.0358620181
 20
21.2547818746
 30
0.0
 10
6.0404790578
 20
21.257525247
 30
0.0
 10
6.0427206305
 20
21.2589940822
 30
0.0
  0
SPLINE
  5
4A2
100
AcDbEntity
  8
0
100
AcDbSpline
 62
9
  6
CONTINUOUS
 70
0
 71
3
 72
34
 73
30
 74
0
 42
0.0000001
 43
0.0000001
 44
0.0000000001
 40
0.0
 40
0.0
 40
0.0
 40
0.0
 40
0.0313627234
 40
0.0627668771
 40
0.0941450375
 40
0.1255004392
 40
0.1568487273
 40
0.188174484
 40
0.2194668164
 40
0.2507366205
 40
0.3131319337
 40
0.3754322739
 40
0.4065999428
 40
0.437748289
 40
0.4688840874
 40
0.5000217725
 40
0.5311617595
 40
0.562302456
 40
0.6245494727
 40
0.6868605359
 40
0.7492621823
 40
0.7805393255
 40
0.8118362898
 40
0.8431559208
 40
0.8744982485
 40
0.9058565039
 40
0.9372372084
 40
0.968637975
 40
1.0
 40
1.0
 40
1.0
 40
1.0
 10
6.3057003842
 20
22.1085957661
 30
0.0
 10
6.3055776558
 20
22.1113016086
 30
0.0
 10
6.3055960133
 20
22.1167325233
 30
0.0
 10
6.3064237942
 20
22.1248342808
 30
0.0
 10
6.3080790638
 20
22.1328091723
 30
0.0
 10
6.3105358416
 20
22.1405681676
 30
0.0
 10
6.3137260544
 20
22.1480491983
 30
0.0
 10
6.3175980348
 20
22.155194701
 30
0.0
 10
6.3221330193
 20
22.1619328946
 30
0.0
 10
6.3290257949
 20
22.1702560152
 30
0.0
 10
6.3391414221
 20
22.1792975022
 30
0.0
 10
6.3508442599
 20
22.1861321263
 30
0.0
 10
6.3608265529
 20
22.1901896353
 30
0.0
 10
6.3685727052
 20
22.1925030096
 30
0.0
 10
6.3765058293
 20
22.1940444175
 30
0.0
 10
6.3845519672
 20
22.1947902335
 30
0.0
 10
6.3926334156
 20
22.1947442709
 30
0.0
 10
6.4033441706
 20
22.1936252721
 30
0.0
 10
6.4164620254
 20
22.1902780047
 30
0.0
 10
6.431139207
 20
22.1833102807
 30
0.0
 10
6.4419936778
 20
22.1751668924
 30
0.0
 10
6.4495974471
 20
22.1674873032
 30
0.0
 10
6.4547241587
 20
22.1611871469
 30
0.0
 10
6.4592209611
 20
22.1544173505
 30
0.0
 10
6.463043129
 20
22.1472385671
 30
0.0
 10
6.4661443723
 20
22.1397137578
 30
0.0
 10
6.4684667023
 20
22.1319071891
 30
0.0
 10
6.4699920479
 20
22.1239082171
 30
0.0
 10
6.4704981641
 20
22.1185021185
 30
0.0
 10
6.4706256744
 20
22.1157965575
 30
0.0
  0
SPLINE
  5
4A3
100
AcDbEntity
  8
0
100
AcDbSpline
 62
9
  6
CONTINUOUS
 70
0
 71
3
 72
40
 73
36
 74
0
 42
0.0000001
 43
0.0000001
 44
0.0000000001
 40
0.0
 40
0.0
 40
0.0
 40
0.0
 40
0.0313578249
 40
0.0627582106
 40
0.0784453565
 40
0.0941164465
 40
0.1254502136
 40
0.1411304394
 40
0.1568117004
 40
0.1881329417
 40
0.2193905762
 40
0.2506367917
 40
0.2818964148
 40
0.3131343833
 40
0.3443308653
 40
0.3755091013
 40
0.4066852512
 40
0.437842999
 40
0.4689696387
 40
0.5000887192
 40
0.5312338683
 40
0.5624034037
 40
0.6246252757
 40
0.6557754797
 40
0.6869836513
 40
0.7182435387
 40
0.7495032032
 40
0.7807361318
 40
0.8119911138
 40
0.8433126336
 40
0.8589911987
 40
0.8746658488
 40
0.905996304
 40
0.9373549427
 40
1.0
 40
1.0
 40
1.0
 40
1.0
 10
6.4309376994
 20
22.3529625413
 30
0.0
 10
6.4317509995
 20
22.3503784418
 30
0.0
 10
6.4330939644
 20
22.3451127688
 30
0.0
 10
6.4340506803
 20
22.3383895997
 30
0.0
 10
6.4343713534
 20
22.3329747942
 30
0.0
 10
6.4343984169
 20
22.3275566106
 30
0.0
 10
6.4340131497
 20
22.3221449815
 30
0.0
 10
6.4332652757
 20
22.3167793293
 30
0.0
 10
6.4322953938
 20
22.3114502665
 30
0.0
 10
6.4306608045
 20
22.3048798289
 30
0.0
 10
6.4279511977
 20
22.2972250176
 30
0.0
 10
6.4244299205
 20
22.2899124922
 30
0.0
 10
6.4201740007
 20
22.2830062309
 30
0.0
 10
6.4152617871
 20
22.2765567074
 30
0.0
 10
6.4097571339
 20
22.2706149021
 30
0.0
 10
6.4037144538
 20
22.2652294302
 30
0.0
 10
6.3971896972
 20
22.2604448502
 30
0.0
 10
6.3902366396
 20
22.2563147578
 30
0.0
 10
6.3829088271
 20
22.25290211
 30
0.0
 10
6.3752710748
 20
22.2502604268
 30
0.0
 10
6.3674089454
 20
22.2483751188
 30
0.0
 10
6.3567491536
 20
22.2468458973
 30
0.0
 10
6.3459038047
 20
22.2468267246
 30
0.0
 10
6.3352571408
 20
22.2485086024
 30
0.0
 10
6.3274202885
 20
22.2505593507
 30
0.0
 10
6.3197985334
 20
22.2533252655
 30
0.0
 10
6.3124566514
 20
22.2567737866
 30
0.0
 10
6.305494695
 20
22.2609426815
 30
0.0
 10
6.2990303665
 20
22.2658564383
 30
0.0
 10
6.2940805683
 20
22.2704773848
 30
0.0
 10
6.2903823635
 20
22.2744343031
 30
0.0
 10
6.2868596517
 20
22.2785489431
 30
0.0
 10
6.2828079072
 20
22.2839878825
 30
0.0
 10
6.2771990808
 20
22.2932592978
 30
0.0
 10
6.2740737774
 20
22.30085427
 30
0.0
 10
6.2726534276
 20
22.3060765939
 30
0.0
  0
SPLINE
  5
4A4
100
AcDbEntity
  8
0
100
AcDbSpline
 62
9
  6
CONTINUOUS
 70
0
 71
3
 72
36
 73
32
 74
0
 42
0.0000001
 43
0.0000001
 44
0.0000000001
 40
0.0
 40
0.0
 40
0.0
 40
0.0
 40
0.0313579316
 40
0.0627574775
 40
0.0941314579
 40
0.1254823743
 40
0.1568262831
 40
0.1881482277
 40
0.2194369075
 40
0.2507026229
 40
0.2819509805
 40
0.3131694118
 40
0.3754625086
 40
0.4066266061
 40
0.4377715535
 40
0.4689030662
 40
0.5000358743
 40
0.5311712439
 40
0.5623070048
 40
0.6245424322
 40
0.6868422184
 40
0.7180585351
 40
0.7493048498
 40
0.7805751477
 40
0.8118649172
 40
0.8431769966
 40
0.8745121098
 40
0.9058636949
 40
0.9372357064
 40
0.9686314888
 40
1.0
 40
1.0
 40
1.0
 40
1.0
 10
6.2726534276
 20
22.3060765939
 30
0.0
 10
6.2718833879
 20
22.3086601391
 30
0.0
 10
6.2705922644
 20
22.3139089508
 30
0.0
 10
6.2694353081
 20
22.3219314514
 30
0.0
 10
6.2691036536
 20
22.3300311054
 30
0.0
 10
6.269594758
 20
22.3381165421
 30
0.0
 10
6.2708583269
 20
22.3461118483
 30
0.0
 10
6.272858098
 20
22.3539498518
 30
0.0
 10
6.2755922559
 20
22.3615567872
 30
0.0
 10
6.2790606658
 20
22.3688516553
 30
0.0
 10
6.2832346611
 20
22.3757610062
 30
0.0
 10
6.2896720051
 20
22.3843576799
 30
0.0
 10
6.2973635012
 20
22.3919387446
 30
0.0
 10
6.3059905861
 20
22.3983080037
 30
0.0
 10
6.3128891119
 20
22.4024499992
 30
0.0
 10
6.3201558137
 20
22.4058982399
 30
0.0
 10
6.3277272357
 20
22.4086104125
 30
0.0
 10
6.3355277918
 20
22.4105714924
 30
0.0
 10
6.3461284259
 20
22.4121554807
 30
0.0
 10
6.3595991588
 20
22.412198546
 30
0.0
 10
6.3728394875
 20
22.4096609144
 30
0.0
 10
6.3829708942
 20
22.4060937346
 30
0.0
 10
6.3902834882
 20
22.402676458
 30
0.0
 10
6.3972335607
 20
22.3985609253
 30
0.0
 10
6.4037563189
 20
22.3937874242
 30
0.0
 10
6.4097940287
 20
22.388405382
 30
0.0
 10
6.4152886733
 20
22.3824624804
 30
0.0
 10
6.4201812479
 20
22.3760076795
 30
0.0
 10
6.4244031787
 20
22.3690883432
 30
0.0
 10
6.4279055281
 20
22.3617785991
 30
0.0
 10
6.4297670576
 20
22.3567041762
 30
0.0
 10
6.430577911
 20
22.3541321948
 30
0.0
  0
SPLINE
  5
4A5
100
AcDbEntity
  8
0
100
AcDbSpline
 62
9
  6
CONTINUOUS
 70
0
 71
3
 72
27
 73
23
 74
0
 42
0.0000001
 43
0.0000001
 44
0.0000000001
 40
0.0
 40
0.0
 40
0.0
 40
0.0
 40
0.0313780793
 40
0.0627931003
 40
0.0941973609
 40
0.1255812209
 40
0.1882329331
 40
0.2508012644
 40
0.3132848168
 40
0.375682104
 40
0.4380106126
 40
0.500293219
 40
0.5625540926
 40
0.6248275109
 40
0.6560086404
 40
0.6872027985
 40
0.7495808554
 40
0.8120423493
 40
0.8433379487
 40
0.8746582021
 40
0.9372911229
 40
1.0
 40
1.0
 40
1.0
 40
1.0
 10
4.9849145022
 20
21.4210381409
 30
0.0
 10
4.9829426591
 20
21.4225324275
 30
0.0
 10
4.9788697357
 20
21.4253596082
 30
0.0
 10
4.9724207882
 20
21.4290620316
 30
0.0
 10
4.9656632586
 20
21.4321715935
 30
0.0
 10
4.9563258822
 20
21.4354672925
 30
0.0
 10
4.9441637348
 20
21.4379853273
 30
0.0
 10
4.9292907631
 20
21.4383586739
 30
0.0
 10
4.9146081767
 20
21.4360696701
 30
0.0
 10
4.9005868763
 20
21.4312096081
 30
0.0
 10
4.8876675982
 20
21.4239407014
 30
0.0
 10
4.8762543298
 20
21.414497498
 30
0.0
 10
4.8667063308
 20
21.4031798938
 30
0.0
 10
4.8605522434
 20
21.392473814
 30
0.0
 10
4.8568301093
 20
21.3833654755
 30
0.0
 10
4.853936387
 20
21.3739521967
 30
0.0
 10
4.851910914
 20
21.3617465392
 30
0.0
 10
4.8520963262
 20
21.3493667612
 30
0.0
 10
4.8535660737
 20
21.3396031291
 30
0.0
 10
4.8559119998
 20
21.3299980734
 30
0.0
 10
4.8604473519
 20
21.3184344971
 30
0.0
 10
4.8656780254
 20
21.3099766449
 30
0.0
 10
4.8686449038
 20
21.306021271
 30
0.0
  0
SPLINE
  5
4A6
100
AcDbEntity
  8
0
100
AcDbSpline
 62
9
  6
CONTINUOUS
 70
0
 71
3
 72
10
 73
6
 74
0
 42
0.0000001
 43
0.0000001
 44
0.0000000001
 40
0.0
 40
0.0
 40
0.0
 40
0.0
 40
0.49972449
 40
0.7499641269
 40
1.0
 40
1.0
 40
1.0
 40
1.0
 10
5.7045321458
 20
22.8643678251
 30
0.0
 10
5.7007643107
 20
22.8654058739
 30
0.0
 10
5.6952080929
 20
22.867364825
 30
0.0
 10
5.6881512624
 20
22.8707465228
 30
0.0
 10
5.6847545037
 20
22.8726974972
 30
0.0
 10
5.6830961101
 20
22.87373363
 30
0.0
  0
SPLINE
  5
4A7
100
AcDbEntity
  8
0
100
AcDbSpline
 62
9
  6
CONTINUOUS
 70
0
 71
3
 72
33
 73
29
 74
0
 42
0.0000001
 43
0.0000001
 44
0.0000000001
 40
0.0
 40
0.0
 40
0.0
 40
0.0
 40
0.0626690645
 40
0.0940164264
 40
0.1253346909
 40
0.1566253878
 40
0.1879013763
 40
0.2191573953
 40
0.2503833072
 40
0.3127174914
 40
0.3438978268
 40
0.3750606269
 40
0.4062094532
 40
0.4373575099
 40
0.4995978136
 40
0.5618597733
 40
0.6241830176
 40
0.6553955385
 40
0.6866297242
 40
0.7178914628
 40
0.7491757714
 40
0.8117382809
 40
0.8430814188
 40
0.8744425509
 40
0.9058179304
 40
0.9372173767
 40
0.9686295212
 40
1.0
 40
1.0
 40
1.0
 40
1.0
 10
5.6830961101
 20
22.87373363
 30
0.0
 10
5.6789211956
 20
22.8763420373
 30
0.0
 10
5.673005432
 20
22.8808479045
 30
0.0
 10
5.6659943303
 20
22.8877701091
 30
0.0
 10
5.6612007929
 20
22.893395478
 30
0.0
 10
5.6569281726
 20
22.8994186337
 30
0.0
 10
5.6532246738
 20
22.9058021594
 30
0.0
 10
5.650115789
 20
22.9124904839
 30
0.0
 10
5.6468072313
 20
22.9217313306
 30
0.0
 10
5.6447748567
 20
22.9313797153
 30
0.0
 10
5.6440140524
 20
22.9411526024
 30
0.0
 10
5.6440830935
 20
22.9485062558
 30
0.0
 10
5.6448043802
 20
22.9558224554
 30
0.0
 10
5.6466429986
 20
22.9654418874
 30
0.0
 10
5.650549284
 20
22.9771034247
 30
0.0
 10
5.6576411863
 20
22.9900346951
 30
0.0
 10
5.6653532983
 20
22.9996268242
 30
0.0
 10
5.6724669512
 20
23.0063850241
 30
0.0
 10
5.6782517868
 20
23.010953832
 30
0.0
 10
5.6844290552
 20
23.0149862616
 30
0.0
 10
5.6931121926
 20
23.0196098556
 30
0.0
 10
5.7023870166
 20
23.0230585519
 30
0.0
 10
5.7119902732
 20
23.0252470737
 30
0.0
 10
5.7193231698
 20
23.0262456741
 30
0.0
 10
5.7267204823
 20
23.0265794661
 30
0.0
 10
5.7341212054
 20
23.0262223611
 30
0.0
 10
5.7414574262
 20
23.025198404
 30
0.0
 10
5.7462716392
 20
23.0240965769
 30
0.0
 10
5.7486484922
 20
23.0234462672
 30
0.0
  0
SPLINE
  5
4A8
100
AcDbEntity
  8
0
100
AcDbSpline
 62
9
  6
CONTINUOUS
 70
0
 71
3
 72
36
 73
32
 74
0
 42
0.0000001
 43
0.0000001
 44
0.0000000001
 40
0.0
 40
0.0
 40
0.0
 40
0.0
 40
0.0313579316
 40
0.0627574775
 40
0.094131458
 40
0.1254823744
 40
0.1568262831
 40
0.1881482278
 40
0.2194369076
 40
0.2507026231
 40
0.2819509806
 40
0.313169412
 40
0.3754625088
 40
0.4066266063
 40
0.4377715538
 40
0.4689030665
 40
0.5000358746
 40
0.5311712442
 40
0.5623070051
 40
0.6245424327
 40
0.6868422189
 40
0.7180585355
 40
0.7493048503
 40
0.7805751484
 40
0.8118649179
 40
0.8431769971
 40
0.8745121101
 40
0.9058636953
 40
0.9372357066
 40
0.9686314888
 40
1.0
 40
1.0
 40
1.0
 40
1.0
 10
5.3071996306
 20
22.8747723439
 30
0.0
 10
5.3045686635
 20
22.874184399
 30
0.0
 10
5.2992425734
 20
22.8732625592
 30
0.0
 10
5.29115891
 20
22.8726680426
 30
0.0
 10
5.2830558512
 20
22.8729021994
 30
0.0
 10
5.2750243681
 20
22.8739561192
 30
0.0
 10
5.2671366801
 20
22.8757743346
 30
0.0
 10
5.2594572666
 20
22.8783159859
 30
0.0
 10
5.2520595866
 20
22.8815741166
 30
0.0
 10
5.2450244325
 20
22.8855429419
 30
0.0
 10
5.2384230756
 20
22.8901887417
 30
0.0
 10
5.2302963895
 20
22.8972100784
 30
0.0
 10
5.2232703236
 20
22.9054116668
 30
0.0
 10
5.2175183748
 20
22.9144620337
 30
0.0
 10
5.2138676859
 20
22.9216326861
 30
0.0
 10
5.2109347445
 20
22.9291222237
 30
0.0
 10
5.2087573344
 20
22.9368643938
 30
0.0
 10
5.207345171
 20
22.9447827461
 30
0.0
 10
5.2065045042
 20
22.9554680511
 30
0.0
 10
5.2074012148
 20
22.9689089741
 30
0.0
 10
5.2108562635
 20
22.9819400338
 30
0.0
 10
5.2151214853
 20
22.9917979269
 30
0.0
 10
5.2190405388
 20
22.9988543304
 30
0.0
 10
5.2236308589
 20
23.0055003878
 30
0.0
 10
5.2288477363
 20
23.0116742745
 30
0.0
 10
5.2346378373
 20
23.0173218447
 30
0.0
 10
5.2409495494
 20
23.0223885485
 30
0.0
 10
5.2477299158
 20
23.0268189404
 30
0.0
 10
5.2549269043
 20
23.0305479177
 30
0.0
 10
5.262463154
 20
23.033531833
 30
0.0
 10
5.2676550694
 20
23.0350348543
 30
0.0
 10
5.2702773478
 20
23.0356643206
 30
0.0
  0
SPLINE
  5
4A9
100
AcDbEntity
  8
0
100
AcDbSpline
 62
9
  6
CONTINUOUS
 70
0
 71
3
 72
35
 73
31
 74
0
 42
0.0000001
 43
0.0000001
 44
0.0000000001
 40
0.0
 40
0.0
 40
0.0
 40
0.0
 40
0.0313751085
 40
0.0627764514
 40
0.0941466974
 40
0.1254989424
 40
0.1568433528
 40
0.1881628617
 40
0.2194494664
 40
0.2507157055
 40
0.2819632656
 40
0.3131796219
 40
0.3754757802
 40
0.4066404339
 40
0.4377859242
 40
0.4689196032
 40
0.5000554126
 40
0.5311934298
 40
0.5623321551
 40
0.624576311
 40
0.6868840585
 40
0.7492801131
 40
0.780553911
 40
0.81184713
 40
0.8431626018
 40
0.8745009035
 40
0.9058554382
 40
0.9372305165
 40
0.9686290214
 40
1.0
 40
1.0
 40
1.0
 40
1.0
 10
4.7991141298
 20
22.5248839186
 30
0.0
 10
4.797596848
 20
22.5226736181
 30
0.0
 10
4.7943453104
 20
22.5183948827
 30
0.0
 10
4.7888664502
 20
22.5124865525
 30
0.0
 10
4.7828127841
 20
22.5071698052
 30
0.0
 10
4.7762641704
 20
22.5024872196
 30
0.0
 10
4.7693064774
 20
22.4984480527
 30
0.0
 10
4.7620102141
 20
22.4950717372
 30
0.0
 10
4.7544314405
 20
22.4924058185
 30
0.0
 10
4.7466327128
 20
22.4905006835
 30
0.0
 10
4.7386891969
 20
22.4893748592
 30
0.0
 10
4.7280241148
 20
22.4889286729
 30
0.0
 10
4.7173523522
 20
22.4900710496
 30
0.0
 10
4.7070190991
 20
22.4926847976
 30
0.0
 10
4.6994861206
 20
22.4953717447
 30
0.0
 10
4.6922527858
 20
22.4987771764
 30
0.0
 10
4.6853894777
 20
22.5028761849
 30
0.0
 10
4.6789549812
 20
22.5076216066
 30
0.0
 10
4.6710358782
 20
22.5147486961
 30
0.0
 10
4.662472329
 20
22.5250448836
 30
0.0
 10
4.6547316034
 20
22.5391295782
 30
0.0
 10
4.6507100782
 20
22.5519356641
 30
0.0
 10
4.649016975
 20
22.5624919223
 30
0.0
 10
4.6485139881
 20
22.570511324
 30
0.0
 10
4.6487800221
 20
22.5785466582
 30
0.0
 10
4.6498154051
 20
22.5865251161
 30
0.0
 10
4.651620689
 20
22.5943710714
 30
0.0
 10
4.6542036372
 20
22.6020028776
 30
0.0
 10
4.6575382318
 20
22.609337236
 30
0.0
 10
4.660214013
 20
22.6139961259
 30
0.0
 10
4.6616543729
 20
22.6162568877
 30
0.0
  0
SPLINE
  5
4AA
100
AcDbEntity
  8
0
100
AcDbSpline
 62
9
  6
CONTINUOUS
 70
0
 71
3
 72
35
 73
31
 74
0
 42
0.0000001
 43
0.0000001
 44
0.0000000001
 40
0.0
 40
0.0
 40
0.0
 40
0.0
 40
0.0313750235
 40
0.0627760437
 40
0.0941456805
 40
0.1254976115
 40
0.1568414933
 40
0.1881599446
 40
0.2194454416
 40
0.2507109662
 40
0.2819572755
 40
0.3131718651
 40
0.3754657528
 40
0.4066291227
 40
0.437773255
 40
0.4689065489
 40
0.5000424249
 40
0.5311802234
 40
0.562319174
 40
0.6245653632
 40
0.6868748133
 40
0.7492762145
 40
0.7805520155
 40
0.811847619
 40
0.8431658221
 40
0.8745064709
 40
0.9058628546
 40
0.9372418106
 40
0.9686403853
 40
1.0
 40
1.0
 40
1.0
 40
1.0
 10
4.7101100042
 20
22.3455230079
 30
0.0
 10
4.7091680477
 20
22.3429993394
 30
0.0
 10
4.7070369589
 20
22.3380379866
 30
0.0
 10
4.7031266366
 20
22.3309487999
 30
0.0
 10
4.6985089943
 20
22.3242995533
 30
0.0
 10
4.6932528739
 20
22.3181511672
 30
0.0
 10
4.6874403859
 20
22.3125336442
 30
0.0
 10
4.6811355055
 20
22.3074839781
 30
0.0
 10
4.6743816499
 20
22.3030629648
 30
0.0
 10
4.6672284395
 20
22.2993354221
 30
0.0
 10
4.659746011
 20
22.2963367435
 30
0.0
 10
4.6494435842
 20
22.2933560767
 30
0.0
 10
4.6387544087
 20
22.2919293589
 30
0.0
 10
4.6280456586
 20
22.2920258004
 30
0.0
 10
4.620053582
 20
22.2928635463
 30
0.0
 10
4.6121847449
 20
22.2944790435
 30
0.0
 10
4.6045140886
 20
22.2968621229
 30
0.0
 10
4.597110973
 20
22.2999811798
 30
0.0
 10
4.5876987769
 20
22.3050809639
 30
0.0
 10
4.5769150372
 20
22.3131309372
 30
0.0
 10
4.5660595771
 20
22.3250887411
 30
0.0
 10
4.5591499012
 20
22.336672699
 30
0.0
 10
4.5550446528
 20
22.3466004127
 30
0.0
 10
4.552694585
 20
22.3543250017
 30
0.0
 10
4.5510960673
 20
22.3622440899
 30
0.0
 10
4.5502675998
 20
22.3702859565
 30
0.0
 10
4.5502282087
 20
22.3783761645
 30
0.0
 10
4.5510071674
 20
22.3864346456
 30
0.0
 10
4.5525867283
 20
22.3943734777
 30
0.0
 10
4.5541347466
 20
22.3995439772
 30
0.0
 10
4.5550247017
 20
22.4020850477
 30
0.0
  0
SPLINE
  5
4AB
100
AcDbEntity
  8
0
100
AcDbSpline
 62
9
  6
CONTINUOUS
 70
0
 71
3
 72
31
 73
27
 74
0
 42
0.0000001
 43
0.0000001
 44
0.0000000001
 40
0.0
 40
0.0
 40
0.0
 40
0.0
 40
0.0313984692
 40
0.0628051308
 40
0.078500602
 40
0.0941907259
 40
0.1255621617
 40
0.1569342841
 40
0.1882818551
 40
0.2195934688
 40
0.2508798936
 40
0.3133450276
 40
0.3757195392
 40
0.4380412316
 40
0.4692097792
 40
0.5003680196
 40
0.5315250434
 40
0.5626827053
 40
0.6249447538
 40
0.6872484688
 40
0.7496153128
 40
0.8120688826
 40
0.8433572031
 40
0.8746678885
 40
0.9373006375
 40
1.0
 40
1.0
 40
1.0
 40
1.0
 10
4.8410878993
 20
21.5625990569
 30
0.0
 10
4.8395013233
 20
21.5644769065
 30
0.0
 10
4.8361904735
 20
21.568119924
 30
0.0
 10
4.8316951074
 20
21.5723233323
 30
0.0
 10
4.8278809381
 20
21.5754281118
 30
0.0
 10
4.8239230254
 20
21.5783426792
 30
0.0
 10
4.8187247652
 20
21.5816301079
 30
0.0
 10
4.8121624382
 20
21.5849978259
 30
0.0
 10
4.8053406355
 20
21.5877900975
 30
0.0
 10
4.7983078053
 20
21.5899788693
 30
0.0
 10
4.7887251639
 20
21.5920442989
 30
0.0
 10
4.7764635681
 20
21.5929856337
 30
0.0
 10
4.7618153383
 20
21.5914562134
 30
0.0
 10
4.750019691
 20
21.5880718415
 30
0.0
 10
4.7410629426
 20
21.5841694169
 30
0.0
 10
4.7346319245
 20
21.5806530477
 30
0.0
 10
4.728542755
 20
21.5765751225
 30
0.0
 10
4.7209425987
 20
21.5704447354
 30
0.0
 10
4.7125068694
 20
21.5615455708
 30
0.0
 10
4.704418871
 20
21.5492579059
 30
0.0
 10
4.6986135716
 20
21.5357227554
 30
0.0
 10
4.695860075
 20
21.5237415249
 30
0.0
 10
4.6949574782
 20
21.5139809928
 30
0.0
 10
4.6949287584
 20
21.5041643069
 30
0.0
 10
4.6965179446
 20
21.4919372451
 30
0.0
 10
4.699502359
 20
21.4825238276
 30
0.0
 10
4.7014109479
 20
21.4780009534
 30
0.0
  0
SPLINE
  5
4AC
100
AcDbEntity
  8
0
100
AcDbSpline
 62
9
  6
CONTINUOUS
 70
0
 71
3
 72
9
 73
5
 74
0
 42
0.0000001
 43
0.0000001
 44
0.0000000001
 40
0.0
 40
0.0
 40
0.0
 40
0.0
 40
0.250226647
 40
1.0
 40
1.0
 40
1.0
 40
1.0
 10
4.7024581098
 20
21.4756283407
 30
0.0
 10
4.7031109648
 20
21.4742120643
 30
0.0
 10
4.7058848975
 20
21.4686289775
 30
0.0
 10
4.7092852792
 20
21.4633618295
 30
0.0
 10
4.7121135438
 20
21.4596420705
 30
0.0
  0
SPLINE
  5
4AD
100
AcDbEntity
  8
0
100
AcDbSpline
 62
9
  6
CONTINUOUS
 70
0
 71
3
 72
36
 73
32
 74
0
 42
0.0000001
 43
0.0000001
 44
0.0000000001
 40
0.0
 40
0.0
 40
0.0
 40
0.0
 40
0.0313650979
 40
0.0627548192
 40
0.0784434873
 40
0.0941260442
 40
0.1254784532
 40
0.1568258854
 40
0.1881431982
 40
0.2194252937
 40
0.2506869568
 40
0.2819315389
 40
0.3131481413
 40
0.3754463809
 40
0.4376855242
 40
0.4688216641
 40
0.4999575135
 40
0.5310946046
 40
0.5622342113
 40
0.5933824316
 40
0.6245446571
 40
0.6868500906
 40
0.7492476968
 40
0.780516575
 40
0.8118113907
 40
0.8431341346
 40
0.8744803737
 40
0.905840506
 40
0.9372199284
 40
0.9686233707
 40
1.0
 40
1.0
 40
1.0
 40
1.0
 10
4.799979001
 20
22.5261692643
 30
0.0
 10
4.8014403152
 20
22.5284342701
 30
0.0
 10
4.8041821871
 20
22.5330868163
 30
0.0
 10
4.8070765123
 20
22.5391871571
 30
0.0
 10
4.8090178548
 20
22.5442217012
 30
0.0
 10
4.8106903963
 20
22.5493483414
 30
0.0
 10
4.8122848638
 20
22.5559056873
 30
0.0
 10
4.8134223335
 20
22.5639169687
 30
0.0
 10
4.8138011978
 20
22.5719939129
 30
0.0
 10
4.8134027542
 20
22.5800633947
 30
0.0
 10
4.8122078861
 20
22.58804773
 30
0.0
 10
4.8102319583
 20
22.5958701047
 30
0.0
 10
4.8065880257
 20
22.6059695462
 30
0.0
 10
4.8002050048
 20
22.6178357356
 30
0.0
 10
4.7916895874
 20
22.6282685983
 30
0.0
 10
4.7837709326
 20
22.6354874574
 30
0.0
 10
4.7773256367
 20
22.6402949969
 30
0.0
 10
4.770443974
 20
22.64445326
 30
0.0
 10
4.7631892677
 20
22.6479221455
 30
0.0
 10
4.7556309387
 20
22.6506752681
 30
0.0
 10
4.745247146
 20
22.6533524122
 30
0.0
 10
4.7318386234
 20
22.6547921947
 30
0.0
 10
4.7183963839
 20
22.6535867865
 30
0.0
 10
4.7079418746
 20
22.6510687817
 30
0.0
 10
4.7003073484
 20
22.6484173212
 30
0.0
 10
4.6929592525
 20
22.6450387824
 30
0.0
 10
4.6859669717
 20
22.6409628617
 30
0.0
 10
4.6794024117
 20
22.6362192991
 30
0.0
 10
4.6733478386
 20
22.6308314335
 30
0.0
 10
4.6678616223
 20
22.6248667774
 30
0.0
 10
4.6645870756
 20
22.6205680784
 30
0.0
 10
4.6630495898
 20
22.6183528648
 30
0.0
  0
SPLINE
  5
4AE
100
AcDbEntity
  8
0
100
AcDbSpline
 62
9
  6
CONTINUOUS
 70
0
 71
3
 72
28
 73
24
 74
0
 42
0.0000001
 43
0.0000001
 44
0.0000000001
 40
0.0
 40
0.0
 40
0.0
 40
0.0
 40
0.0627260014
 40
0.1254628319
 40
0.1568250044
 40
0.1881704748
 40
0.2507470292
 40
0.313233298
 40
0.3756277513
 40
0.4379505734
 40
0.5002258588
 40
0.5624785574
 40
0.6247431283
 40
0.6559204943
 40
0.6871112684
 40
0.7183187725
 40
0.749544214
 40
0.8119982029
 40
0.8432914336
 40
0.8746090903
 40
0.9059461285
 40
0.9372976703
 40
1.0
 40
1.0
 40
1.0
 40
1.0
 10
5.7045321458
 20
22.8643678251
 30
0.0
 10
5.7092989703
 20
22.8630456519
 30
0.0
 10
5.7190952176
 20
22.8612658522
 30
0.0
 10
5.7315315631
 20
22.8612626999
 30
0.0
 10
5.7413473572
 20
22.8625893506
 30
0.0
 10
5.7509908828
 20
22.8647915778
 30
0.0
 10
5.7626066142
 20
22.8691517072
 30
0.0
 10
5.7753624303
 20
22.8767771227
 30
0.0
 10
5.7865426217
 20
22.8865401719
 30
0.0
 10
5.7957962856
 20
22.8981230257
 30
0.0
 10
5.8028387296
 20
22.9111569683
 30
0.0
 10
5.8074480934
 20
22.925229533
 30
0.0
 10
5.8091406397
 20
22.9374629058
 30
0.0
 10
5.8091773704
 20
22.9473026074
 30
0.0
 10
5.808543265
 20
22.9546652497
 30
0.0
 10
5.8072534882
 20
22.9619456961
 30
0.0
 10
5.8046753403
 20
22.9714616515
 30
0.0
 10
5.8008178605
 20
22.9805999277
 30
0.0
 10
5.7957950818
 20
22.9890999066
 30
0.0
 10
5.7914618572
 20
22.9951224768
 30
0.0
 10
5.7866046514
 20
23.0007374132
 30
0.0
 10
5.7794829016
 20
23.0076111749
 30
0.0
 10
5.7734580085
 20
23.0120276164
 30
0.0
 10
5.7692238718
 20
23.0145819026
 30
0.0
  0
SPLINE
  5
4AF
100
AcDbEntity
  8
0
100
AcDbSpline
 62
9
  6
CONTINUOUS
 70
0
 71
3
 72
36
 73
32
 74
0
 42
0.0000001
 43
0.0000001
 44
0.0000000001
 40
0.0
 40
0.0
 40
0.0
 40
0.0
 40
0.031364195
 40
0.0627549931
 40
0.0784449791
 40
0.0941286157
 40
0.1254815037
 40
0.1568278807
 40
0.1881450146
 40
0.2194279968
 40
0.2506903275
 40
0.2819348452
 40
0.3131509154
 40
0.375447047
 40
0.4376835781
 40
0.4688184384
 40
0.4999534741
 40
0.531090285
 40
0.5622297622
 40
0.5933778269
 40
0.6245403416
 40
0.6868473915
 40
0.7492475432
 40
0.7805182513
 40
0.8118156567
 40
0.8431411139
 40
0.8744890538
 40
0.9058503327
 40
0.9372328641
 40
0.9686360065
 40
1.0
 40
1.0
 40
1.0
 40
1.0
 10
5.3071996306
 20
22.8747723439
 30
0.0
 10
5.3098380543
 20
22.8753863479
 30
0.0
 10
5.3150689207
 20
22.8768351282
 30
0.0
 10
5.3214176506
 20
22.8792324587
 30
0.0
 10
5.3263326397
 20
22.881524658
 30
0.0
 10
5.3311171807
 20
22.8840708061
 30
0.0
 10
5.3368421233
 20
22.8877074327
 30
0.0
 10
5.3432474385
 20
22.8927180181
 30
0.0
 10
5.3491449585
 20
22.8983090135
 30
0.0
 10
5.3544704803
 20
22.9044387758
 30
0.0
 10
5.3591563478
 20
22.9110628841
 30
0.0
 10
5.3631597792
 20
22.9181143097
 30
0.0
 10
5.3675305362
 20
22.9279799318
 30
0.0
 10
5.3711295067
 20
22.9410349011
 30
0.0
 10
5.3721720416
 20
22.9545294407
 30
0.0
 10
5.371410444
 20
22.9652712311
 30
0.0
 10
5.3700460227
 20
22.9732362304
 30
0.0
 10
5.3679106342
 20
22.9810296979
 30
0.0
 10
5.3650234235
 20
22.9885781155
 30
0.0
 10
5.3614163038
 20
22.99581339
 30
0.0
 10
5.35569126
 20
23.0049444798
 30
0.0
 10
5.3468949302
 20
23.0152570612
 30
0.0
 10
5.3362389956
 20
23.0236515998
 30
0.0
 10
5.3268568765
 20
23.0290173193
 30
0.0
 10
5.3194440348
 20
23.0323390396
 30
0.0
 10
5.3117385108
 20
23.0349281208
 30
0.0
 10
5.3038120664
 20
23.0367570859
 30
0.0
 10
5.2957382307
 20
23.0377966653
 30
0.0
 10
5.2875951097
 20
23.0380045514
 30
0.0
 10
5.279473654
 20
23.0374041247
 30
0.0
 10
5.2741185845
 20
23.0365066772
 30
0.0
 10
5.2714692593
 20
23.0359416441
 30
0.0
  0
SPLINE
  5
4B0
100
AcDbEntity
  8
0
100
AcDbSpline
 62
9
  6
CONTINUOUS
 70
0
 71
3
 72
37
 73
33
 74
0
 42
0.0000001
 43
0.0000001
 44
0.0000000001
 40
0.0
 40
0.0
 40
0.0
 40
0.0
 40
0.0313621511
 40
0.0627609985
 40
0.0784585572
 40
0.0941485781
 40
0.1255057552
 40
0.1568498284
 40
0.1881714254
 40
0.2194663903
 40
0.2507376533
 40
0.3131410322
 40
0.3754525875
 40
0.4066199351
 40
0.4377729879
 40
0.4689147444
 40
0.5000513858
 40
0.5311877864
 40
0.5623259747
 40
0.6245596193
 40
0.686853228
 40
0.7180683131
 40
0.7493104195
 40
0.7805729509
 40
0.8118573602
 40
0.8431735395
 40
0.8745205552
 40
0.9058751651
 40
0.9215582984
 40
0.9372460253
 40
0.96863404
 40
1.0
 40
1.0
 40
1.0
 40
1.0
 10
4.5029788101
 20
22.1673212004
 30
0.0
 10
4.5027386428
 20
22.1646231089
 30
0.0
 10
4.5024972548
 20
22.1591993461
 30
0.0
 10
4.5028267921
 20
22.1524198934
 30
0.0
 10
4.5034919287
 20
22.147035799
 30
0.0
 10
4.5044324278
 20
22.141696655
 30
0.0
 10
4.5061133623
 20
22.135125241
 30
0.0
 10
4.5088955865
 20
22.1274825024
 30
0.0
 10
4.512402705
 20
22.1201500664
 30
0.0
 10
4.5166012227
 20
22.1131966956
 30
0.0
 10
4.5230695524
 20
22.1045377069
 30
0.0
 10
4.5326974361
 20
22.0949802571
 30
0.0
 10
4.5440069392
 20
22.0875065505
 30
0.0
 10
4.5537683176
 20
22.0829355696
 30
0.0
 10
4.5613897175
 20
22.0802351506
 30
0.0
 10
4.5692344597
 20
22.0782891382
 30
0.0
 10
4.5772311212
 20
22.0771236587
 30
0.0
 10
4.5853035738
 20
22.0767444217
 30
0.0
 10
4.5960579273
 20
22.0772948787
 30
0.0
 10
4.6093290168
 20
22.0799557262
 30
0.0
 10
4.6218446147
 20
22.0851299923
 30
0.0
 10
4.6310987367
 20
22.0906778961
 30
0.0
 10
4.6376076577
 20
22.095512947
 30
0.0
 10
4.643613816
 20
22.1009678963
 30
0.0
 10
4.6490584443
 20
22.1069920138
 30
0.0
 10
4.6538979201
 20
22.113520913
 30
0.0
 10
4.6580884361
 20
22.1204910737
 30
0.0
 10
4.6609903078
 20
22.1266217376
 30
0.0
 10
4.662922947
 20
22.1316852363
 30
0.0
 10
4.6645867271
 20
22.1368464512
 30
0.0
 10
4.6661837166
 20
22.1434413531
 30
0.0
 10
4.6669977272
 20
22.1488067227
 30
0.0
 10
4.6673012162
 20
22.1514987581
 30
0.0
  0
SPLINE
  5
4B1
100
AcDbEntity
  8
0
100
AcDbSpline
 62
9
  6
CONTINUOUS
 70
0
 71
3
 72
39
 73
35
 74
0
 42
0.0000001
 43
0.0000001
 44
0.0000000001
 40
0.0
 40
0.0
 40
0.0
 40
0.0
 40
0.031373774
 40
0.0627616865
 40
0.0784402509
 40
0.0941111999
 40
0.1254525315
 40
0.1568117861
 40
0.1881415082
 40
0.219414196
 40
0.2506507624
 40
0.281886558
 40
0.3131195638
 40
0.3754283533
 40
0.4065814703
 40
0.4377295962
 40
0.4688742915
 40
0.5000137388
 40
0.5311515627
 40
0.5622947566
 40
0.5934505179
 40
0.6246156477
 40
0.6557867489
 40
0.6869760424
 40
0.7181996659
 40
0.7494497413
 40
0.7807050763
 40
0.8119814043
 40
0.8433042929
 40
0.8589792192
 40
0.8746514176
 40
0.905983474
 40
0.9373537679
 40
1.0
 40
1.0
 40
1.0
 40
1.0
 10
4.6673012162
 20
22.1514987581
 30
0.0
 10
4.667495487
 20
22.1542019927
 30
0.0
 10
4.6677062498
 20
22.1596248035
 30
0.0
 10
4.6674158328
 20
22.1664046376
 30
0.0
 10
4.666782679
 20
22.1717894591
 30
0.0
 10
4.6658566362
 20
22.1771276531
 30
0.0
 10
4.664160716
 20
22.183695706
 30
0.0
 10
4.6613567572
 20
22.1913316238
 30
0.0
 10
4.6578647852
 20
22.1986718016
 30
0.0
 10
4.6536912486
 20
22.2056367787
 30
0.0
 10
4.6488326384
 20
22.2121331595
 30
0.0
 10
4.6433420159
 20
22.218100311
 30
0.0
 10
4.6353042888
 20
22.2252994928
 30
0.0
 10
4.6262773592
 20
22.2313240584
 30
0.0
 10
4.6165219305
 20
22.2359074172
 30
0.0
 10
4.6088986171
 20
22.238603693
 30
0.0
 10
4.6010505635
 20
22.2405415113
 30
0.0
 10
4.5930515768
 20
22.2417041587
 30
0.0
 10
4.5849775455
 20
22.2420836271
 30
0.0
 10
4.576903661
 20
22.2416677989
 30
0.0
 10
4.568907406
 20
22.2404621225
 30
0.0
 10
4.561063302
 20
22.2384869586
 30
0.0
 10
4.5534455847
 20
22.2357576397
 30
0.0
 10
4.5461233865
 20
22.2323015923
 30
0.0
 10
4.5391645664
 20
22.228148582
 30
0.0
 10
4.5326422406
 20
22.2233286047
 30
0.0
 10
4.5266377078
 20
22.2178680301
 30
0.0
 10
4.5212375638
 20
22.2118018883
 30
0.0
 10
4.5172467347
 20
22.2063306059
 30
0.0
 10
4.5143582923
 20
22.201750018
 30
0.0
 10
4.5116726763
 20
22.1970470836
 30
0.0
 10
4.5087177425
 20
22.190941581
 30
0.0
 10
4.5049565583
 20
22.1807810586
 30
0.0
 10
4.5033224162
 20
22.1727219416
 30
0.0
 10
4.5029788101
 20
22.1673212004
 30
0.0
  0
SPLINE
  5
4B2
100
AcDbEntity
  8
0
100
AcDbSpline
 62
9
  6
CONTINUOUS
 70
0
 71
3
 72
36
 73
32
 74
0
 42
0.0000001
 43
0.0000001
 44
0.0000000001
 40
0.0
 40
0.0
 40
0.0
 40
0.0
 40
0.0313655695
 40
0.0627548206
 40
0.0784429127
 40
0.0941250723
 40
0.1254774107
 40
0.1568251651
 40
0.188142243
 40
0.2194238252
 40
0.250685093
 40
0.2819293155
 40
0.3131456264
 40
0.3754436119
 40
0.4376824363
 40
0.4688188061
 40
0.4999548118
 40
0.5310918672
 40
0.5622315634
 40
0.5933800611
 40
0.624542605
 40
0.686848398
 40
0.7492464558
 40
0.7805155501
 40
0.8118105777
 40
0.8431334798
 40
0.8744798139
 40
0.9058400675
 40
0.9372197099
 40
0.9686233311
 40
1.0
 40
1.0
 40
1.0
 40
1.0
 10
4.710638232
 20
22.3469794041
 30
0.0
 10
4.7115062813
 20
22.3495313346
 30
0.0
 10
4.7130397578
 20
22.3547092477
 30
0.0
 10
4.7143738939
 20
22.3613281406
 30
0.0
 10
4.7150410776
 20
22.3666824717
 30
0.0
 10
4.7154246065
 20
22.3720612893
 30
0.0
 10
4.715385554
 20
22.3788095908
 30
0.0
 10
4.7145507767
 20
22.3868580224
 30
0.0
 10
4.7129641103
 20
22.394786577
 30
0.0
 10
4.7106250632
 20
22.4025197592
 30
0.0
 10
4.7075339973
 20
22.4099776597
 30
0.0
 10
4.7037244916
 20
22.4170895908
 30
0.0
 10
4.697745733
 20
22.4260074735
 30
0.0
 10
4.6886823485
 20
22.4359775112
 30
0.0
 10
4.6778957497
 20
22.44404014
 30
0.0
 10
4.6684658489
 20
22.4491286429
 30
0.0
 10
4.6610490962
 20
22.4522344379
 30
0.0
 10
4.6533659466
 20
22.454604593
 30
0.0
 10
4.6454875373
 20
22.4562153934
 30
0.0
 10
4.6374876505
 20
22.4570582067
 30
0.0
 10
4.6267646011
 20
22.4571438139
 30
0.0
 10
4.6134059654
 20
22.4552973076
 30
0.0
 10
4.6006545428
 20
22.4508758134
 30
0.0
 10
4.591119688
 20
22.4459034451
 30
0.0
 10
4.5843533213
 20
22.4414838454
 30
0.0
 10
4.5780407721
 20
22.4364280587
 30
0.0
 10
4.572242217
 20
22.4307816461
 30
0.0
 10
4.5670201998
 20
22.4245908853
 30
0.0
 10
4.5624488342
 20
22.4178983692
 30
0.0
 10
4.5585683706
 20
22.4107837473
 30
0.0
 10
4.5564310192
 20
22.4058205537
 30
0.0
 10
4.5554751721
 20
22.4032991734
 30
0.0
  0
SPLINE
  5
4B3
100
AcDbEntity
  8
0
100
AcDbSpline
 62
9
  6
CONTINUOUS
 70
0
 71
3
 72
32
 73
28
 74
0
 42
0.0000001
 43
0.0000001
 44
0.0000000001
 40
0.0
 40
0.0
 40
0.0
 40
0.0
 40
0.0626941646
 40
0.1253795317
 40
0.1879724128
 40
0.2504857564
 40
0.31290169
 40
0.3752291227
 40
0.4064033108
 40
0.4375650028
 40
0.4687173776
 40
0.499864641
 40
0.5310122716
 40
0.5621640345
 40
0.5933256813
 40
0.6244991561
 40
0.6868168526
 40
0.7180419105
 40
0.7492903401
 40
0.7805608215
 40
0.8118543933
 40
0.8431716518
 40
0.8745105291
 40
0.9058677298
 40
0.9372445976
 40
0.9686385675
 40
1.0
 40
1.0
 40
1.0
 40
1.0
 10
5.5108259965
 20
23.0589890768
 30
0.0
 10
5.5054137953
 20
23.0591252213
 30
0.0
 10
5.4945332539
 20
23.0583373569
 30
0.0
 10
5.47878826
 20
23.0539936118
 30
0.0
 10
5.4642088555
 20
23.0466537939
 30
0.0
 10
5.4513618394
 20
23.0366249758
 30
0.0
 10
5.4407347269
 20
23.0243018555
 30
0.0
 10
5.4340543194
 20
23.0125036445
 30
0.0
 10
5.4301718916
 20
23.0024477169
 30
0.0
 10
5.4280112885
 20
22.9946551307
 30
0.0
 10
5.4266200499
 20
22.9866922176
 30
0.0
 10
5.4260168183
 20
22.9786322143
 30
0.0
 10
5.4262020052
 20
22.9705519591
 30
0.0
 10
5.4271760123
 20
22.9625273073
 30
0.0
 10
5.428933008
 20
22.9546338036
 30
0.0
 10
5.4322853427
 20
22.9443912327
 30
0.0
 10
5.4371370661
 20
22.9346837949
 30
0.0
 10
5.44331998
 20
22.9258418654
 30
0.0
 10
5.4485957505
 20
22.9196837627
 30
0.0
 10
5.4544518277
 20
22.9140674596
 30
0.0
 10
5.4608378114
 20
22.909051793
 30
0.0
 10
5.4676880231
 20
22.904680882
 30
0.0
 10
5.4749383964
 20
22.9009993721
 30
0.0
 10
5.482520373
 20
22.8980459291
 30
0.0
 10
5.4903648981
 20
22.8958641452
 30
0.0
 10
5.4983861704
 20
22.8944734837
 30
0.0
 10
5.5037978761
 20
22.8940511925
 30
0.0
 10
5.5065046432
 20
22.8939632339
 30
0.0
  0
SPLINE
  5
4B4
100
AcDbEntity
  8
0
100
AcDbSpline
 62
9
  6
CONTINUOUS
 70
0
 71
3
 72
43
 73
39
 74
0
 42
0.0000001
 43
0.0000001
 44
0.0000000001
 40
0.0
 40
0.0
 40
0.0
 40
0.0
 40
0.0626675826
 40
0.094057024
 40
0.1254250994
 40
0.1567524464
 40
0.1880433808
 40
0.2193372132
 40
0.2506406192
 40
0.2819102611
 40
0.313103692
 40
0.3286833532
 40
0.3442613094
 40
0.3754302069
 40
0.3910295513
 40
0.406626899
 40
0.4377804152
 40
0.4688834132
 40
0.4999822994
 40
0.531119716
 40
0.5622898378
 40
0.5934553933
 40
0.6245912686
 40
0.6557185355
 40
0.6869028678
 40
0.702527078
 40
0.7181640356
 40
0.7494154029
 40
0.7806095808
 40
0.8118385752
 40
0.8431754969
 40
0.8588651682
 40
0.8745476234
 40
0.9058763163
 40
0.9215430881
 40
0.9372265215
 40
0.9686278999
 40
1.0
 40
1.0
 40
1.0
 40
1.0
 10
5.7726896464
 20
21.3033043852
 30
0.0
 10
5.777753648
 20
21.3051498012
 30
0.0
 10
5.785630203
 20
21.3072458228
 30
0.0
 10
5.7963571227
 20
21.3084988139
 30
0.0
 10
5.8044620415
 20
21.3086377052
 30
0.0
 10
5.8125314276
 20
21.3079666509
 30
0.0
 10
5.820482263
 20
21.3064665202
 30
0.0
 10
5.8282429831
 20
21.3041923274
 30
0.0
 10
5.8357583206
 20
21.3012139116
 30
0.0
 10
5.8429683335
 20
21.2975761838
 30
0.0
 10
5.8486453112
 20
21.2939702921
 30
0.0
 10
5.8529264008
 20
21.2907368763
 30
0.0
 10
5.8570246976
 20
21.2872784059
 30
0.0
 10
5.8608538526
 20
21.2835104002
 30
0.0
 10
5.8644080827
 20
21.2794915056
 30
0.0
 10
5.8677830852
 20
21.2753224142
 30
0.0
 10
5.8716465975
 20
21.2698412811
 30
0.0
 10
5.8756286461
 20
21.2628535612
 30
0.0
 10
5.8788584466
 20
21.2554882863
 30
0.0
 10
5.8813333438
 20
21.2478321901
 30
0.0
 10
5.8830701814
 20
21.2399707392
 30
0.0
 10
5.8840620664
 20
21.2319808792
 30
0.0
 10
5.8842642676
 20
21.2239337697
 30
0.0
 10
5.8836224141
 20
21.2159082742
 30
0.0
 10
5.8824328833
 20
21.2093011847
 30
0.0
 10
5.8811324318
 20
21.2040889522
 30
0.0
 10
5.8796139728
 20
21.1989301204
 30
0.0
 10
5.8773033934
 20
21.1926136252
 30
0.0
 10
5.8737566356
 20
21.185359654
 30
0.0
 10
5.8693586404
 20
21.1785797622
 30
0.0
 10
5.8651409028
 20
21.1733227672
 30
0.0
 10
5.8615124257
 20
21.1693308959
 30
0.0
 10
5.8577257721
 20
21.1654898296
 30
0.0
 10
5.8536898041
 20
21.1619022422
 30
0.0
 10
5.849404975
 20
21.1586277379
 30
0.0
 10
5.8449482573
 20
21.1555797383
 30
0.0
 10
5.8390805255
 20
21.15222151
 30
0.0
 10
5.834129466
 20
21.1500400119
 30
0.0
 10
5.8316061633
 20
21.1490844332
 30
0.0
  0
SPLINE
  5
4B5
100
AcDbEntity
  8
0
100
AcDbSpline
 62
9
  6
CONTINUOUS
 70
0
 71
3
 72
35
 73
31
 74
0
 42
0.0000001
 43
0.0000001
 44
0.0000000001
 40
0.0
 40
0.0
 40
0.0
 40
0.0
 40
0.0313715215
 40
0.0627741951
 40
0.0941440407
 40
0.1254930531
 40
0.1568342876
 40
0.1881521836
 40
0.2194379883
 40
0.2507046016
 40
0.281952032
 40
0.3131682606
 40
0.3443599048
 40
0.3755398975
 40
0.437778757
 40
0.468912254
 40
0.5000469533
 40
0.5311828793
 40
0.5623207277
 40
0.6245670383
 40
0.6868758641
 40
0.7492743006
 40
0.7805481885
 40
0.8118418583
 40
0.8431583766
 40
0.8744977104
 40
0.9058528807
 40
0.937228938
 40
0.9686285693
 40
1.0
 40
1.0
 40
1.0
 40
1.0
 10
6.1012552025
 20
21.5295573292
 30
0.0
 10
6.103057287
 20
21.5315424019
 30
0.0
 10
6.106867936
 20
21.5353338077
 30
0.0
 10
6.1131224595
 20
21.5404157575
 30
0.0
 10
6.1198621258
 20
21.5448320539
 30
0.0
 10
6.126998944
 20
21.5485579243
 30
0.0
 10
6.1344489267
 20
21.551595624
 30
0.0
 10
6.1421421248
 20
21.5539324487
 30
0.0
 10
6.1500177359
 20
21.5555251881
 30
0.0
 10
6.1580067119
 20
21.5563301209
 30
0.0
 10
6.1660301263
 20
21.556342847
 30
0.0
 10
6.1740088084
 20
21.5555609425
 30
0.0
 10
6.1818660765
 20
21.5539955468
 30
0.0
 10
6.1920742941
 20
21.5509217283
 30
0.0
 10
6.2018040856
 20
21.5464169823
 30
0.0
 10
6.2107187405
 20
21.5405831827
 30
0.0
 10
6.2169482462
 20
21.5355707246
 30
0.0
 10
6.2226623434
 20
21.5299777296
 30
0.0
 10
6.2295158917
 20
21.5218187448
 30
0.0
 10
6.2365685955
 20
21.5104317756
 30
0.0
 10
6.2422782569
 20
21.4954054231
 30
0.0
 10
6.2444821681
 20
21.4821626628
 30
0.0
 10
6.2446923431
 20
21.4714717228
 30
0.0
 10
6.2440755019
 20
21.4634589501
 30
0.0
 10
6.2426948334
 20
21.4555372559
 30
0.0
 10
6.2405604424
 20
21.4477787379
 30
0.0
 10
6.2376818846
 20
21.4402584455
 30
0.0
 10
6.2340621538
 20
21.433058686
 30
0.0
 10
6.2297394217
 20
21.4262580469
 30
0.0
 10
6.2264411031
 20
21.4220158547
 30
0.0
 10
6.2246999205
 20
21.4199771631
 30
0.0
  0
SPLINE
  5
4B6
100
AcDbEntity
  8
0
100
AcDbSpline
 62
9
  6
CONTINUOUS
 70
0
 71
3
 72
31
 73
27
 74
0
 42
0.0000001
 43
0.0000001
 44
0.0000000001
 40
0.0
 40
0.0
 40
0.0
 40
0.0
 40
0.0313793002
 40
0.0627909244
 40
0.0941799255
 40
0.1255527836
 40
0.1569223972
 40
0.1882744875
 40
0.2195951669
 40
0.2508881519
 40
0.2821658598
 40
0.3134252593
 40
0.3446575593
 40
0.375867799
 40
0.4070654079
 40
0.4382505725
 40
0.5005128467
 40
0.5627570498
 40
0.6250107422
 40
0.6873006348
 40
0.7496566894
 40
0.8120982515
 40
0.8433806193
 40
0.8746854906
 40
0.9373096942
 40
1.0
 40
1.0
 40
1.0
 40
1.0
 10
5.5065046432
 20
22.8939632339
 30
0.0
 10
5.5089782618
 20
22.8939229391
 30
0.0
 10
5.5139335624
 20
22.894032475
 30
0.0
 10
5.5213269646
 20
22.8948088387
 30
0.0
 10
5.5286213044
 20
22.8962525993
 30
0.0
 10
5.5357408593
 20
22.8983856679
 30
0.0
 10
5.5426344867
 20
22.9011522625
 30
0.0
 10
5.5492562359
 20
22.9045083483
 30
0.0
 10
5.5555551154
 20
22.9084260706
 30
0.0
 10
5.5614752311
 20
22.9128868257
 30
0.0
 10
5.5669602287
 20
22.9178658059
 30
0.0
 10
5.5719699734
 20
22.9233160349
 30
0.0
 10
5.5764612983
 20
22.9291942832
 30
0.0
 10
5.58040105
 20
22.9354492725
 30
0.0
 10
5.5837700942
 20
22.9420254016
 30
0.0
 10
5.5874710625
 20
22.9511397853
 30
0.0
 10
5.590565589
 20
22.9630923628
 30
0.0
 10
5.5916277712
 20
22.9778568507
 30
0.0
 10
5.5900537838
 20
22.99257724
 30
0.0
 10
5.5858971831
 20
23.0067955464
 30
0.0
 10
5.579279865
 20
23.0200644288
 30
0.0
 10
5.5718611634
 20
23.0299725409
 30
0.0
 10
5.5649388013
 20
23.0370061788
 30
0.0
 10
5.5573996456
 20
23.0433973764
 30
0.0
 10
5.5469483682
 20
23.0500973199
 30
0.0
 10
5.5377575772
 20
23.0538917051
 30
0.0
 10
5.5330334979
 20
23.0553447963
 30
0.0
  0
SPLINE
  5
4B7
100
AcDbEntity
  8
0
100
AcDbSpline
 62
9
  6
CONTINUOUS
 70
0
 71
3
 72
9
 73
5
 74
0
 42
0.0000001
 43
0.0000001
 44
0.0000000001
 40
0.0
 40
0.0
 40
0.0
 40
0.0
 40
0.5001328701
 40
1.0
 40
1.0
 40
1.0
 40
1.0
 10
5.5330334979
 20
23.0553447963
 30
0.0
 10
5.5294397522
 20
23.0564502054
 30
0.0
 10
5.5220872753
 20
23.0581444138
 30
0.0
 10
5.5145817053
 20
23.0588603515
 30
0.0
 10
5.5108259965
 20
23.0589890768
 30
0.0
  0
SPLINE
  5
4B8
100
AcDbEntity
  8
0
100
AcDbSpline
 62
9
  6
CONTINUOUS
 70
0
 71
3
 72
36
 73
32
 74
0
 42
0.0000001
 43
0.0000001
 44
0.0000000001
 40
0.0
 40
0.0
 40
0.0
 40
0.0
 40
0.0313579316
 40
0.0627574775
 40
0.094131458
 40
0.1254823744
 40
0.1568262831
 40
0.1881482278
 40
0.2194369076
 40
0.2507026231
 40
0.2819509806
 40
0.313169412
 40
0.3754625089
 40
0.4066266063
 40
0.4377715538
 40
0.4689030665
 40
0.5000358746
 40
0.5311712442
 40
0.5623070051
 40
0.6245424327
 40
0.6868422189
 40
0.7180585355
 40
0.7493048503
 40
0.7805751484
 40
0.8118649179
 40
0.8431769971
 40
0.8745121101
 40
0.9058636953
 40
0.9372357066
 40
0.9686314888
 40
1.0
 40
1.0
 40
1.0
 40
1.0
 10
5.9502930023
 20
21.3957588404
 30
0.0
 10
5.9525121445
 20
21.3972895511
 30
0.0
 10
5.9571050821
 20
21.4001394545
 30
0.0
 10
5.9643774143
 20
21.4037188743
 30
0.0
 10
5.9719781563
 20
21.4065372271
 30
0.0
 10
5.9798196231
 20
21.4085686963
 30
0.0
 10
5.9878140756
 20
21.4098376562
 30
0.0
 10
5.9958864231
 20
21.4103578371
 30
0.0
 10
6.0039659498
 20
21.4101081707
 30
0.0
 10
6.0119755793
 20
21.409063755
 30
0.0
 10
6.019836598
 20
21.4072291562
 30
0.0
 10
6.0300017691
 20
21.4037633965
 30
0.0
 10
6.0395885931
 20
21.3987910267
 30
0.0
 10
6.0483120343
 20
21.3925543906
 30
0.0
 10
6.0543830678
 20
21.3872734496
 30
0.0
 10
6.0599080738
 20
21.3814279704
 30
0.0
 10
6.0648272013
 20
21.3750652275
 30
0.0
 10
6.0691028034
 20
21.3682524648
 30
0.0
 10
6.0738850418
 20
21.3586601419
 30
0.0
 10
6.0780886845
 20
21.3458620214
 30
0.0
 10
6.0797667401
 20
21.3324855492
 30
0.0
 10
6.079504927
 20
21.3217476896
 30
0.0
 10
6.0785146192
 20
21.3137370029
 30
0.0
 10
6.0767482055
 20
21.3058553217
 30
0.0
 10
6.0742239796
 20
21.2981767169
 30
0.0
 10
6.0709711085
 20
21.2907713711
 30
0.0
 10
6.0670170115
 20
21.2837091961
 30
0.0
 10
6.0623900193
 20
21.2770614383
 30
0.0
 10
6.0571139872
 20
21.2709079514
 30
0.0
 10
6.0512442926
 20
21.2653181845
 30
0.0
 10
6.0469934741
 20
21.2619796816
 30
0.0
 10
6.0447979422
 20
21.2604137278
 30
0.0
  0
SPLINE
  5
4B9
100
AcDbEntity
  8
0
100
AcDbSpline
 62
9
  6
CONTINUOUS
 70
0
 71
3
 72
36
 73
32
 74
0
 42
0.0000001
 43
0.0000001
 44
0.0000000001
 40
0.0
 40
0.0
 40
0.0
 40
0.0
 40
0.0313782819
 40
0.0627927265
 40
0.0941901834
 40
0.125560703
 40
0.1569177232
 40
0.1882599559
 40
0.2508140147
 40
0.313283597
 40
0.3445174804
 40
0.3757263275
 40
0.4380343523
 40
0.5002928677
 40
0.5314325008
 40
0.5625718837
 40
0.5937259228
 40
0.624899111
 40
0.6560745672
 40
0.687237066
 40
0.7184003443
 40
0.7496041882
 40
0.7808583667
 40
0.8121298498
 40
0.8433775211
 40
0.8589998599
 40
0.874628676
 40
0.9059250559
 40
0.9372835291
 40
0.9686525698
 40
1.0
 40
1.0
 40
1.0
 40
1.0
 10
4.8854110373
 20
21.2893207973
 30
0.0
 10
4.8873804062
 20
21.287857584
 30
0.0
 10
4.8914511059
 20
21.285099503
 30
0.0
 10
4.8978955665
 20
21.2815155
 30
0.0
 10
4.9046395636
 20
21.2785314935
 30
0.0
 10
4.9116246548
 20
21.2761822622
 30
0.0
 10
4.9187869193
 20
21.27446517
 30
0.0
 10
4.9284835293
 20
21.2730211475
 30
0.0
 10
4.9407759486
 20
21.2728069484
 30
0.0
 10
4.9529020598
 20
21.274791961
 30
0.0
 10
4.9622553834
 20
21.2776426304
 30
0.0
 10
4.971304824
 20
21.281313445
 30
0.0
 10
4.9819442264
 20
21.2873796494
 30
0.0
 10
4.9913480298
 20
21.2952187449
 30
0.0
 10
4.9979384192
 20
21.3024019524
 30
0.0
 10
5.0023843175
 20
21.3082113644
 30
0.0
 10
5.0063070969
 20
21.314388083
 30
0.0
 10
5.0096841464
 20
21.3208826465
 30
0.0
 10
5.0124813709
 20
21.3276482752
 30
0.0
 10
5.0146577926
 20
21.3346386729
 30
0.0
 10
5.0161654847
 20
21.3418054563
 30
0.0
 10
5.0170227695
 20
21.3490845887
 30
0.0
 10
5.0172645309
 20
21.356417348
 30
0.0
 10
5.016915474
 20
21.3637493168
 30
0.0
 10
5.0160852796
 20
21.3698122711
 30
0.0
 10
5.0150723847
 20
21.3745947314
 30
0.0
 10
5.0138194894
 20
21.3793239306
 30
0.0
 10
5.0118296317
 20
21.3851222495
 30
0.0
 10
5.0088497345
 20
21.391851509
 30
0.0
 10
5.005346936
 20
21.3983282892
 30
0.0
 10
5.0026450174
 20
21.4024302019
 30
0.0
 10
5.0012017974
 20
21.4044112856
 30
0.0
  0
SPLINE
  5
4BA
100
AcDbEntity
  8
0
100
AcDbSpline
 62
9
  6
CONTINUOUS
 70
0
 71
3
 72
9
 73
5
 74
0
 42
0.0000001
 43
0.0000001
 44
0.0000000001
 40
0.0
 40
0.0
 40
0.0
 40
0.0
 40
0.2500172068
 40
1.0
 40
1.0
 40
1.0
 40
1.0
 10
4.998913046
 20
21.407396626
 30
0.0
 10
4.9979694166
 20
21.4085661352
 30
0.0
 10
4.9940543597
 20
21.4131297178
 30
0.0
 10
4.9896289084
 20
21.4172453413
 30
0.0
 10
4.9861224011
 20
21.4200780736
 30
0.0
  0
SPLINE
  5
4BB
100
AcDbEntity
  8
0
100
AcDbSpline
 62
9
  6
CONTINUOUS
 70
0
 71
3
 72
10
 73
6
 74
0
 42
0.0000001
 43
0.0000001
 44
0.0000000001
 40
0.0
 40
0.0
 40
0.0
 40
0.0
 40
0.4998248733
 40
0.7500095993
 40
1.0
 40
1.0
 40
1.0
 40
1.0
 10
5.1588606994
 20
21.3187814986
 30
0.0
 10
5.1621837403
 20
21.3172660732
 30
0.0
 10
5.1670300637
 20
21.3146620033
 30
0.0
 10
5.1730894124
 20
21.3105715082
 30
0.0
 10
5.1759723867
 20
21.3083189791
 30
0.0
 10
5.1773721123
 20
21.3071452551
 30
0.0
  0
SPLINE
  5
4BC
100
AcDbEntity
  8
0
100
AcDbSpline
 62
9
  6
CONTINUOUS
 70
0
 71
3
 72
30
 73
26
 74
0
 42
0.0000001
 43
0.0000001
 44
0.0000000001
 40
0.0
 40
0.0
 40
0.0
 40
0.0
 40
0.0626832658
 40
0.0940379981
 40
0.1253646884
 40
0.1566631932
 40
0.1879457759
 40
0.2503810221
 40
0.3127281747
 40
0.3439149414
 40
0.3750851398
 40
0.4062400823
 40
0.4373922556
 40
0.4996456408
 40
0.5619182145
 40
0.6242485304
 40
0.6554670423
 40
0.6867051375
 40
0.749194626
 40
0.8117657361
 40
0.8744136835
 40
0.9057933477
 40
0.9371946187
 40
0.9686123898
 40
1.0
 40
1.0
 40
1.0
 40
1.0
 10
5.1773721123
 20
21.3071452551
 30
0.0
 10
5.1811245342
 20
21.3039987043
 30
0.0
 10
5.1863326365
 20
21.2987456542
 30
0.0
 10
5.1922879175
 20
21.2909610125
 30
0.0
 10
5.1962381527
 20
21.2847602362
 30
0.0
 10
5.1996234336
 20
21.2782400928
 30
0.0
 10
5.2033242082
 20
21.2691895114
 30
0.0
 10
5.2063941766
 20
21.2573160546
 30
0.0
 10
5.207278691
 20
21.2450955176
 30
0.0
 10
5.206722192
 20
21.2353592029
 30
0.0
 10
5.2056737831
 20
21.2281195387
 30
0.0
 10
5.2039913904
 20
21.2210027127
 30
0.0
 10
5.2009042367
 20
21.2117627379
 30
0.0
 10
5.1955151411
 20
21.2007812873
 30
0.0
 10
5.186834736
 20
21.188954973
 30
0.0
 10
5.177977301
 20
21.1805038942
 30
0.0
 10
5.1700852669
 20
21.1747613055
 30
0.0
 10
5.1616978549
 20
21.1697455154
 30
0.0
 10
5.1504102505
 20
21.16490695
 30
0.0
 10
5.1360566306
 20
21.1615689082
 30
0.0
 10
5.1237689088
 20
21.160923812
 30
0.0
 10
5.1139915489
 20
21.1617264574
 30
0.0
 10
5.1067326409
 20
21.1630023213
 30
0.0
 10
5.0996198472
 20
21.1649277993
 30
0.0
 10
5.0950044405
 20
21.1666131207
 30
0.0
 10
5.0927380862
 20
21.1675493922
 30
0.0
  0
SPLINE
  5
4BD
100
AcDbEntity
  8
0
100
AcDbSpline
 62
9
  6
CONTINUOUS
 70
0
 71
3
 72
31
 73
27
 74
0
 42
0.0000001
 43
0.0000001
 44
0.0000000001
 40
0.0
 40
0.0
 40
0.0
 40
0.0
 40
0.0313815306
 40
0.0627909276
 40
0.0941731282
 40
0.1255431158
 40
0.1569139303
 40
0.1882657998
 40
0.2195829758
 40
0.2508719538
 40
0.2821470002
 40
0.3134039767
 40
0.3446340738
 40
0.375843618
 40
0.4381641044
 40
0.4693326682
 40
0.5004892876
 40
0.5627363103
 40
0.6249915055
 40
0.6872862241
 40
0.749645119
 40
0.8120901973
 40
0.8433741677
 40
0.8746807498
 40
0.9373075006
 40
1.0
 40
1.0
 40
1.0
 40
1.0
 10
6.3057003842
 20
22.1085957661
 30
0.0
 10
6.3058408831
 20
22.1061258962
 30
0.0
 10
6.306301541
 20
22.1011918844
 30
0.0
 10
6.3075834327
 20
22.0938707496
 30
0.0
 10
6.3095235068
 20
22.0866940316
 30
0.0
 10
6.3121477029
 20
22.0797418043
 30
0.0
 10
6.3153900965
 20
22.0730598431
 30
0.0
 10
6.3191992089
 20
22.0666891444
 30
0.0
 10
6.3235444343
 20
22.060678918
 30
0.0
 10
6.3284056586
 20
22.0550850277
 30
0.0
 10
6.333754002
 20
22.0499616411
 30
0.0
 10
6.339539048
 20
22.0453449712
 30
0.0
 10
6.3457159045
 20
22.0412752132
 30
0.0
 10
6.3543904051
 20
22.036619469
 30
0.0
 10
6.3636471676
 20
22.0331345321
 30
0.0
 10
6.3732296496
 20
22.0309139946
 30
0.0
 10
6.382968189
 20
22.0295612483
 30
0.0
 10
6.3953108807
 20
22.0295287491
 30
0.0
 10
6.4098832855
 20
22.0321243883
 30
0.0
 10
6.4237775231
 20
22.0372596754
 30
0.0
 10
6.4365543683
 20
22.0447816798
 30
0.0
 10
6.4459224318
 20
22.0528707784
 30
0.0
 10
6.4524572687
 20
22.0602651671
 30
0.0
 10
6.4583087562
 20
22.0682297506
 30
0.0
 10
6.4642663237
 20
22.0791204252
 30
0.0
 10
6.4674123943
 20
22.0885521212
 30
0.0
 10
6.468533778
 20
22.0933653815
 30
0.0
  0
SPLINE
  5
4BE
100
AcDbEntity
  8
0
100
AcDbSpline
 62
9
  6
CONTINUOUS
 70
0
 71
3
 72
9
 73
5
 74
0
 42
0.0000001
 43
0.0000001
 44
0.0000000001
 40
0.0
 40
0.0
 40
0.0
 40
0.0
 40
0.500143992
 40
1.0
 40
1.0
 40
1.0
 40
1.0
 10
6.468533778
 20
22.0933653815
 30
0.0
 10
6.4693878429
 20
22.0970312425
 30
0.0
 10
6.470568848
 20
22.1044916016
 30
0.0
 10
6.4707604093
 20
22.1120371029
 30
0.0
 10
6.4706256744
 20
22.1157965575
 30
0.0
  0
SPLINE
  5
4BF
100
AcDbEntity
  8
0
100
AcDbSpline
 62
9
  6
CONTINUOUS
 70
0
 71
3
 72
36
 73
32
 74
0
 42
0.0000001
 43
0.0000001
 44
0.0000000001
 40
0.0
 40
0.0
 40
0.0
 40
0.0
 40
0.0313697296
 40
0.0627270504
 40
0.0940764722
 40
0.125402044
 40
0.1566965305
 40
0.1879707932
 40
0.2192295693
 40
0.2504619316
 40
0.2816650278
 40
0.3128540443
 40
0.3440327257
 40
0.3751952151
 40
0.4063409856
 40
0.4374811027
 40
0.4686242926
 40
0.4997686403
 40
0.5620077806
 40
0.624306511
 40
0.6555077264
 40
0.6867276429
 40
0.7179751524
 40
0.7492473215
 40
0.8117848241
 40
0.8431160035
 40
0.8744668594
 40
0.9058318077
 40
0.9372187296
 40
0.9686244942
 40
1.0
 40
1.0
 40
1.0
 40
1.0
 10
4.8524614739
 20
21.5446289338
 30
0.0
 10
4.8535019756
 20
21.5423658912
 30
0.0
 10
4.855367392
 20
21.5377385031
 30
0.0
 10
4.8575180191
 20
21.5305752283
 30
0.0
 10
4.8590333557
 20
21.5232547886
 30
0.0
 10
4.8599139221
 20
21.5158362955
 30
0.0
 10
4.8601360294
 20
21.5083741842
 30
0.0
 10
4.8596755215
 20
21.5009278571
 30
0.0
 10
4.8585330309
 20
21.4935604196
 30
0.0
 10
4.8567219941
 20
21.4863339
 30
0.0
 10
4.8542520984
 20
21.4793112675
 30
0.0
 10
4.8511618487
 20
21.472544072
 30
0.0
 10
4.847489446
 20
21.4660783125
 30
0.0
 10
4.8432668739
 20
21.4599617469
 30
0.0
 10
4.8385188772
 20
21.4542467177
 30
0.0
 10
4.8332707945
 20
21.4489891853
 30
0.0
 10
4.8275667123
 20
21.4442299917
 30
0.0
 10
4.8194256808
 20
21.4385986033
 30
0.0
 10
4.8083398455
 20
21.4329724814
 30
0.0
 10
4.7964303923
 20
21.4293940841
 30
0.0
 10
4.7866384211
 20
21.4278403925
 30
0.0
 10
4.779206214
 20
21.4273529159
 30
0.0
 10
4.7717550111
 20
21.427548079
 30
0.0
 10
4.7618821938
 20
21.428700657
 30
0.0
 10
4.7521962883
 20
21.431186222
 30
0.0
 10
4.7429706314
 20
21.4349193054
 30
0.0
 10
4.7363166268
 20
21.4383320252
 30
0.0
 10
4.7299959849
 20
21.4423362983
 30
0.0
 10
4.7240742579
 20
21.4469182452
 30
0.0
 10
4.7186014771
 20
21.4520270147
 30
0.0
 10
4.7152646796
 20
21.4557401545
 30
0.0
 10
4.7136800759
 20
21.4576624764
 30
0.0
  0
SPLINE
  5
4C0
100
AcDbEntity
  8
0
100
AcDbSpline
 62
9
  6
CONTINUOUS
 70
0
 71
3
 72
34
 73
30
 74
0
 42
0.0000001
 43
0.0000001
 44
0.0000000001
 40
0.0
 40
0.0
 40
0.0
 40
0.0
 40
0.0313825484
 40
0.0627741313
 40
0.0784633266
 40
0.0941480021
 40
0.1255055696
 40
0.1568536519
 40
0.1881696179
 40
0.2194526907
 40
0.250717546
 40
0.2819632851
 40
0.3131798128
 40
0.3754830597
 40
0.4377260296
 40
0.4999310175
 40
0.5621441967
 40
0.6243939519
 40
0.6867143366
 40
0.7179470997
 40
0.7492027328
 40
0.7804795201
 40
0.8117831319
 40
0.8431146123
 40
0.8744679172
 40
0.905834484
 40
0.9372229872
 40
0.9686314822
 40
1.0
 40
1.0
 40
1.0
 40
1.0
 10
5.7712142313
 20
21.3027205498
 30
0.0
 10
5.7687178208
 20
21.3017090462
 30
0.0
 10
5.7638060883
 20
21.2994759304
 30
0.0
 10
5.7579466226
 20
21.2961335811
 30
0.0
 10
5.7534832633
 20
21.2931129958
 30
0.0
 10
5.749185981
 20
21.2898656176
 30
0.0
 10
5.7441316985
 20
21.2854064605
 30
0.0
 10
5.7386152035
 20
21.2795004911
 30
0.0
 10
5.7336833477
 20
21.273105758
 30
0.0
 10
5.7293946282
 20
21.2662704986
 30
0.0
 10
5.7258071931
 20
21.259049193
 30
0.0
 10
5.7229490867
 20
21.251514948
 30
0.0
 10
5.7201541753
 20
21.2411623328
 30
0.0
 10
5.7185836602
 20
21.2277955008
 30
0.0
 10
5.7197685266
 20
21.21171258
 30
0.0
 10
5.7240738522
 20
21.1961725282
 30
0.0
 10
5.7313063671
 20
21.1817632964
 30
0.0
 10
5.7411772071
 20
21.1690069955
 30
0.0
 10
5.7513166256
 20
21.160146668
 30
0.0
 10
5.7603408879
 20
21.154348584
 30
0.0
 10
5.7675145047
 20
21.1506711783
 30
0.0
 10
5.7750199214
 20
21.1477146848
 30
0.0
 10
5.7827836903
 20
21.1455015188
 30
0.0
 10
5.7907308451
 20
21.1440452229
 30
0.0
 10
5.7987870266
 20
21.1433627345
 30
0.0
 10
5.8068770986
 20
21.1434727537
 30
0.0
 10
5.8149192012
 20
21.1444056983
 30
0.0
 10
5.8228281682
 20
21.1461259902
 30
0.0
 10
5.8279738261
 20
21.1477524934
 30
0.0
 10
5.8305027263
 20
21.1486762807
 30
0.0
  0
SPLINE
  5
4C1
100
AcDbEntity
  8
0
100
AcDbSpline
 62
9
  6
CONTINUOUS
 70
0
 71
3
 72
31
 73
27
 74
0
 42
0.0000001
 43
0.0000001
 44
0.0000000001
 40
0.0
 40
0.0
 40
0.0
 40
0.0
 40
0.0313784668
 40
0.062790836
 40
0.0941821693
 40
0.1255559881
 40
0.1569251255
 40
0.1882771629
 40
0.2195989435
 40
0.2508932835
 40
0.2821718804
 40
0.3134320629
 40
0.3446651055
 40
0.3758755512
 40
0.4070732718
 40
0.4382587242
 40
0.5005209758
 40
0.5627640396
 40
0.625017229
 40
0.6873055284
 40
0.749660582
 40
0.8121009789
 40
0.8433828181
 40
0.8746871272
 40
0.9373104426
 40
1.0
 40
1.0
 40
1.0
 40
1.0
 10
5.1574357868
 20
21.3194153746
 30
0.0
 10
5.1551584704
 20
21.3203819864
 30
0.0
 10
5.1505233563
 20
21.3221387403
 30
0.0
 10
5.1433762115
 20
21.324185941
 30
0.0
 10
5.1360710968
 20
21.3255768702
 30
0.0
 10
5.1286705026
 20
21.3262662108
 30
0.0
 10
5.1212421587
 20
21.3262842849
 30
0.0
 10
5.1138450398
 20
21.3256531251
 30
0.0
 10
5.1065368762
 20
21.3243796135
 30
0.0
 10
5.0993764052
 20
21.3224609525
 30
0.0
 10
5.0924252024
 20
21.319899012
 30
0.0
 10
5.085738212
 20
21.3167220332
 30
0.0
 10
5.0793714889
 20
21.3129542049
 30
0.0
 10
5.0733754992
 20
21.3086298658
 30
0.0
 10
5.0677886414
 20
21.3037938024
 30
0.0
 10
5.0609434011
 20
21.2967285021
 30
0.0
 10
5.0535962415
 20
21.286805376
 30
0.0
 10
5.0470819989
 20
21.2735126616
 30
0.0
 10
5.0430278105
 20
21.2592741245
 30
0.0
 10
5.0415561424
 20
21.2445336673
 30
0.0
 10
5.0427227063
 20
21.2297519873
 30
0.0
 10
5.0458905418
 20
21.2177863265
 30
0.0
 10
5.049674676
 20
21.208671792
 30
0.0
 10
5.0542714891
 20
21.1999219731
 30
0.0
 10
5.0614530463
 20
21.1897952849
 30
0.0
 10
5.0685538886
 20
21.1828346667
 30
0.0
 10
5.072390015
 20
21.1797179972
 30
0.0
  0
SPLINE
  5
4C2
100
AcDbEntity
  8
0
100
AcDbSpline
 62
9
  6
CONTINUOUS
 70
0
 71
3
 72
9
 73
5
 74
0
 42
0.0000001
 43
0.0000001
 44
0.0000000001
 40
0.0
 40
0.0
 40
0.0
 40
0.0
 40
0.2502098676
 40
1.0
 40
1.0
 40
1.0
 40
1.0
 10
5.0744068115
 20
21.1781329491
 30
0.0
 10
5.0756480787
 20
21.1771894829
 30
0.0
 10
5.0807188643
 20
21.1735646075
 30
0.0
 10
5.0861941679
 20
21.1705135335
 30
0.0
 10
5.0904365032
 20
21.1685561021
 30
0.0
  0
LINE
  5
4C3
100
AcDbEntity
  8
0
100
AcDbLine
 62
7
  6
CONTINUOUS
 10
3.7506979413
 20
20.981806786
 11
3.7537478841
 21
20.9835538547
  0
LINE
  5
4C4
100
AcDbEntity
  8
0
100
AcDbLine
 62
7
  6
CONTINUOUS
 10
3.7633868933
 20
20.9890884474
 11
3.8101015686
 21
21.0159938859
  0
LINE
  5
4C5
100
AcDbEntity
  8
0
100
AcDbLine
 62
7
  6
CONTINUOUS
 10
3.8101015686
 20
21.0159938859
 11
3.8758862379
 21
21.0540082005
  0
LINE
  5
4C6
100
AcDbEntity
  8
0
100
AcDbLine
 62
7
  6
CONTINUOUS
 10
3.8758862379
 20
21.0540082005
 11
3.9125055318
 21
21.0752337116
  0
LINE
  5
4C7
100
AcDbEntity
  8
0
100
AcDbLine
 62
7
  6
CONTINUOUS
 10
3.6744845615
 20
21.1171242696
 11
3.6651483489
 21
21.1116803649
  0
LINE
  5
4C8
100
AcDbEntity
  8
0
100
AcDbLine
 62
7
  6
CONTINUOUS
 10
3.8348673377
 20
21.209706989
 11
3.7974275886
 21
21.1881761773
  0
LINE
  5
4C9
100
AcDbEntity
  8
0
100
AcDbLine
 62
7
  6
CONTINUOUS
 10
3.7974275886
 20
21.1881761773
 11
3.7245764777
 21
21.1461421671
  0
LINE
  5
4CA
100
AcDbEntity
  8
0
100
AcDbLine
 62
7
  6
CONTINUOUS
 10
3.7245764777
 20
21.1461421671
 11
3.6857040718
 21
21.1236390992
  0
LINE
  5
4CB
100
AcDbEntity
  8
0
100
AcDbLine
 62
7
  6
CONTINUOUS
 10
4.2836955507
 20
21.3662394325
 11
4.2780733654
 21
21.375943391
  0
LINE
  5
4CC
100
AcDbEntity
  8
0
100
AcDbLine
 62
9
  6
CONTINUOUS
 10
4.0350722893
 20
21.1226026819
 11
4.250098528
 21
21.2473279219
  0
SPLINE
  5
4CD
100
AcDbEntity
  8
0
100
AcDbSpline
 62
9
  6
CONTINUOUS
 70
0
 71
3
 72
22
 73
18
 74
0
 42
0.0000001
 43
0.0000001
 44
0.0000000001
 40
0.0
 40
0.0
 40
0.0
 40
0.0
 40
0.0618487529
 40
0.1237882713
 40
0.1856632758
 40
0.2475722347
 40
0.309662027
 40
0.3719383507
 40
0.4343066567
 40
0.4967053066
 40
0.5279418329
 40
0.5592208741
 40
0.6219132703
 40
0.6847767086
 40
0.7477228656
 40
0.8737841393
 40
1.0
 40
1.0
 40
1.0
 40
1.0
 10
4.250098528
 20
21.2473279219
 30
0.0
 10
4.2525055349
 20
21.2488142395
 30
0.0
 10
4.2572397962
 20
21.2519281435
 30
0.0
 10
4.2639867127
 20
21.2570991918
 30
0.0
 10
4.2702591009
 20
21.2628489952
 30
0.0
 10
4.2758885651
 20
21.2692415572
 30
0.0
 10
4.2808510816
 20
21.2761836093
 30
0.0
 10
4.2851564526
 20
21.2835734581
 30
0.0
 10
4.2887989422
 20
21.2913271838
 30
0.0
 10
4.2912048783
 20
21.2980586864
 30
0.0
 10
4.2927067691
 20
21.3035737243
 30
0.0
 10
4.2939124704
 20
21.3091748034
 30
0.0
 10
4.294864579
 20
21.3162987471
 30
0.0
 10
4.2951460125
 20
21.3249299799
 30
0.0
 10
4.2944092089
 20
21.3364424293
 30
0.0
 10
4.2913850043
 20
21.3506357221
 30
0.0
 10
4.2866765902
 20
21.3612953687
 30
0.0
 10
4.2837155073
 20
21.3662511713
 30
0.0
  0
SPLINE
  5
4CE
100
AcDbEntity
  8
0
100
AcDbSpline
 62
9
  6
CONTINUOUS
 70
0
 71
3
 72
14
 73
10
 74
0
 42
0.0000001
 43
0.0000001
 44
0.0000000001
 40
0.0
 40
0.0
 40
0.0
 40
0.0
 40
0.2388185921
 40
0.3680980477
 40
0.5000614001
 40
0.6319167167
 40
0.7609059581
 40
0.884070901
 40
1.0
 40
1.0
 40
1.0
 40
1.0
 10
3.9148502883
 20
21.2807953644
 30
0.0
 10
3.9159953826
 20
21.2785316599
 30
0.0
 10
3.9184750373
 20
21.2753414297
 30
0.0
 10
3.9228639177
 20
21.272301149
 30
0.0
 10
3.9267356386
 20
21.2706473743
 30
0.0
 10
3.9308720715
 20
21.2698939907
 30
0.0
 10
3.9349797329
 20
21.2699902582
 30
0.0
 10
3.9388082347
 20
21.2709051929
 30
0.0
 10
3.941135513
 20
21.2719646799
 30
0.0
 10
3.9422024275
 20
21.2725796406
 30
0.0
  0
SPLINE
  5
4CF
100
AcDbEntity
  8
0
100
AcDbSpline
 62
9
  6
CONTINUOUS
 70
0
 71
3
 72
18
 73
14
 74
0
 42
0.0000001
 43
0.0000001
 44
0.0000000001
 40
0.0
 40
0.0
 40
0.0
 40
0.0
 40
0.1718617942
 40
0.3453268571
 40
0.5117225564
 40
0.6635150646
 40
0.7936970938
 40
0.8486768258
 40
0.8960858084
 40
0.9353490548
 40
0.9659685983
 40
0.9876184716
 40
1.0
 40
1.0
 40
1.0
 40
1.0
 10
3.9907889045
 20
21.1197731125
 30
0.0
 10
3.9924898245
 20
21.1207601701
 30
0.0
 10
3.9959095346
 20
21.1227400443
 30
0.0
 10
4.0009824086
 20
21.1256646111
 30
0.0
 10
4.0058617234
 20
21.1284651054
 30
0.0
 10
4.0103170442
 20
21.1310093408
 30
0.0
 10
4.0136703039
 20
21.1329125138
 30
0.0
 10
4.015988924
 20
21.134218746
 30
0.0
 10
4.0174031777
 20
21.1350107184
 30
0.0
 10
4.0185767227
 20
21.1356619104
 30
0.0
 10
4.0194949698
 20
21.1361659381
 30
0.0
 10
4.0201475502
 20
21.1365140441
 30
0.0
 10
4.0204931702
 20
21.1366940629
 30
0.0
 10
4.0206222357
 20
21.136752501
 30
0.0
  0
SPLINE
  5
4D0
100
AcDbEntity
  8
0
100
AcDbSpline
 62
9
  6
CONTINUOUS
 70
0
 71
3
 72
18
 73
14
 74
0
 42
0.0000001
 43
0.0000001
 44
0.0000000001
 40
0.0
 40
0.0
 40
0.0
 40
0.0
 40
0.1680541974
 40
0.3402395817
 40
0.5076173073
 40
0.6597729006
 40
0.787268274
 40
0.8401990665
 40
0.8853782684
 40
0.9227870032
 40
0.9533209739
 40
0.9784046784
 40
1.0
 40
1.0
 40
1.0
 40
1.0
 10
4.0047013542
 20
21.1053857741
 30
0.0
 10
4.0041142948
 20
21.106389917
 30
0.0
 10
4.0028809244
 20
21.1083970304
 30
0.0
 10
4.0009065691
 20
21.1113048947
 30
0.0
 10
3.9988413188
 20
21.1140126253
 30
0.0
 10
3.9968100711
 20
21.116349631
 30
0.0
 10
3.9951436405
 20
21.1179461724
 30
0.0
 10
3.9939068479
 20
21.1189017365
 30
0.0
 10
3.9931152957
 20
21.1194081377
 30
0.0
 10
3.9924059604
 20
21.1197459455
 30
0.0
 10
3.9917818267
 20
21.1199207518
 30
0.0
 10
3.9912411848
 20
21.1199403948
 30
0.0
 10
3.9909240245
 20
21.1198451825
 30
0.0
 10
3.9907920841
 20
21.1197749501
 30
0.0
  0
LINE
  5
4D1
100
AcDbEntity
  8
0
100
AcDbLine
 62
7
  6
CONTINUOUS
 10
4.2597921846
 20
21.365388744
 11
4.2780733654
 21
21.375943391
  0
SPLINE
  5
4D2
100
AcDbEntity
  8
0
100
AcDbSpline
 62
9
  6
CONTINUOUS
 70
0
 71
3
 72
18
 73
14
 74
0
 42
0.0000001
 43
0.0000001
 44
0.0000000001
 40
0.0
 40
0.0
 40
0.0
 40
0.0
 40
0.0183998678
 40
0.0406174416
 40
0.0687599508
 40
0.1042547494
 40
0.1479683416
 40
0.1998638994
 40
0.3266582377
 40
0.4800381602
 40
0.6503509791
 40
0.8268586372
 40
1.0
 40
1.0
 40
1.0
 40
1.0
 10
4.2368443612
 20
21.2620944947
 30
0.0
 10
4.2369553885
 20
21.2621526754
 30
0.0
 10
4.2372322886
 20
21.2622230833
 30
0.0
 10
4.2377039636
 20
21.2621684122
 30
0.0
 10
4.2382560522
 20
21.2619647202
 30
0.0
 10
4.2388938373
 20
21.2616023764
 30
0.0
 10
4.23961629
 20
21.2610750386
 30
0.0
 10
4.2407661745
 20
21.2600867607
 30
0.0
 10
4.2423388673
 20
21.2584544827
 30
0.0
 10
4.2442887178
 20
21.2560824576
 30
0.0
 10
4.2463058192
 20
21.2533340892
 30
0.0
 10
4.2482649358
 20
21.2503817466
 30
0.0
 10
4.2495043006
 20
21.2483468596
 30
0.0
 10
4.2500987619
 20
21.2473281028
 30
0.0
  0
SPLINE
  5
4D3
100
AcDbEntity
  8
0
100
AcDbSpline
 62
9
  6
CONTINUOUS
 70
0
 71
3
 72
18
 73
14
 74
0
 42
0.0000001
 43
0.0000001
 44
0.0000000001
 40
0.0
 40
0.0
 40
0.0
 40
0.0
 40
0.1821152424
 40
0.3581218117
 40
0.5208922839
 40
0.6651106194
 40
0.7863656934
 40
0.8374542214
 40
0.8818472736
 40
0.9195421194
 40
0.9509873454
 40
0.9771786578
 40
1.0
 40
1.0
 40
1.0
 40
1.0
 10
4.0350729818
 20
21.1226031091
 30
0.0
 10
4.0344378865
 20
21.1236895489
 30
0.0
 10
4.0331384119
 20
21.1257968642
 30
0.0
 10
4.0311056583
 20
21.1287690906
 30
0.0
 10
4.0290732822
 20
21.131419175
 30
0.0
 10
4.0271235504
 20
21.1336480187
 30
0.0
 10
4.0255458562
 20
21.1351703559
 30
0.0
 10
4.0243676357
 20
21.1360970687
 30
0.0
 10
4.0235972091
 20
21.1366031188
 30
0.0
 10
4.0228937695
 20
21.1369558384
 30
0.0
 10
4.0222611756
 20
21.1371534269
 30
0.0
 10
4.0216996427
 20
21.137193285
 30
0.0
 10
4.0213640922
 20
21.1370991812
 30
0.0
 10
4.0212248603
 20
21.1370251292
 30
0.0
  0
LINE
  5
4D4
100
AcDbEntity
  8
0
100
AcDbLine
 62
9
  6
CONTINUOUS
 10
4.2368447451
 20
21.2620947997
 11
4.0212249063
 21
21.1370250856
  0
LINE
  5
4D5
100
AcDbEntity
  8
0
100
AcDbLine
 62
9
  6
CONTINUOUS
 10
3.9907889045
 20
21.1197731125
 11
3.9129203732
 21
21.0745786631
  0
SPLINE
  5
4D6
100
AcDbEntity
  8
0
100
AcDbSpline
 62
9
  6
CONTINUOUS
 70
0
 71
3
 72
52
 73
48
 74
0
 42
0.0000001
 43
0.0000001
 44
0.0000000001
 40
0.0
 40
0.0
 40
0.0
 40
0.0
 40
0.1086786533
 40
0.2116862356
 40
0.3060366789
 40
0.3492427185
 40
0.3894534105
 40
0.4264162055
 40
0.4599179844
 40
0.4897560422
 40
0.515727729
 40
0.527202489
 40
0.5376478381
 40
0.5470518759
 40
0.5554027263
 40
0.5626885519
 40
0.5688975825
 40
0.5740181731
 40
0.5780389456
 40
0.5809514184
 40
0.582758223
 40
0.5832521467
 40
0.5834005867
 40
0.5834906191
 40
0.5835522677
 40
0.5836477153
 40
0.5838027207
 40
0.5840230421
 40
0.5846658208
 40
0.58558192
 40
0.5867728401
 40
0.5882391481
 40
0.5899810662
 40
0.5919986601
 40
0.5968607463
 40
0.6028222793
 40
0.6098701911
 40
0.6179890393
 40
0.6271633027
 40
0.6373774152
 40
0.6486157839
 40
0.6741028258
 40
0.7034858141
 40
0.7365746903
 40
0.8130612199
 40
0.9017412019
 40
1.0
 40
1.0
 40
1.0
 40
1.0
 10
3.7634715913
 20
20.9891402715
 30
0.0
 10
3.7603576138
 20
20.9873491737
 30
0.0
 10
3.7542896949
 20
20.9838647111
 30
0.0
 10
3.7455096339
 20
20.9788404804
 30
0.0
 10
3.738600997
 20
20.9749032962
 30
0.0
 10
3.733490951
 20
20.9720023928
 30
0.0
 10
3.7300281079
 20
20.970042288
 30
0.0
 10
3.7268417879
 20
20.9682448486
 30
0.0
 10
3.7239512748
 20
20.966620874
 30
0.0
 10
3.7213744237
 20
20.9651803462
 30
0.0
 10
3.7194301621
 20
20.9641003733
 30
0.0
 10
3.7180440276
 20
20.9633357328
 30
0.0
 10
3.7171362779
 20
20.9628376722
 30
0.0
 10
3.7163178289
 20
20.9623915228
 30
0.0
 10
3.7155897387
 20
20.9619978362
 30
0.0
 10
3.7149530361
 20
20.9616571527
 30
0.0
 10
3.7144088574
 20
20.9613700019
 30
0.0
 10
3.7139580528
 20
20.9611368701
 30
0.0
 10
3.7136022416
 20
20.9609581663
 30
0.0
 10
3.7133406927
 20
20.9608338404
 30
0.0
 10
3.7131835247
 20
20.9607659298
 30
0.0
 10
3.7131051238
 20
20.9607405519
 30
0.0
 10
3.7130817865
 20
20.9607377496
 30
0.0
 10
3.713070739
 20
20.9607382716
 30
0.0
 10
3.7130666329
 20
20.9607467746
 30
0.0
 10
3.7130722767
 20
20.9607564842
 30
0.0
 10
3.7130814211
 20
20.9607685799
 30
0.0
 10
3.7131053838
 20
20.9607926814
 30
0.0
 10
3.7131502176
 20
20.9608305005
 30
0.0
 10
3.7132225055
 20
20.960885789
 30
0.0
 10
3.7133183359
 20
20.9609547904
 30
0.0
 10
3.7134378882
 20
20.9610376003
 30
0.0
 10
3.7135811415
 20
20.9611341218
 30
0.0
 10
3.7138189899
 20
20.9612911156
 30
0.0
 10
3.7141758562
 20
20.9615209482
 30
0.0
 10
3.7146753261
 20
20.9618363937
 30
0.0
 10
3.715268151
 20
20.9622055964
 30
0.0
 10
3.7159530795
 20
20.9626277724
 30
0.0
 10
3.7167288052
 20
20.9631020866
 30
0.0
 10
3.7175940077
 20
20.963627723
 30
0.0
 10
3.7189219337
 20
20.9644302112
 30
0.0
 10
3.7207955627
 20
20.9655547542
 30
0.0
 10
3.7232926953
 20
20.9670439237
 30
0.0
 10
3.7272428699
 20
20.9693878214
 30
0.0
 10
3.7328877959
 20
20.9727165248
 30
0.0
 10
3.7403991731
 20
20.9771209287
 30
0.0
 10
3.7457356012
 20
20.9802362296
 30
0.0
 10
3.7485418429
 20
20.981871449
 30
0.0
  0
LINE
  5
4D7
100
AcDbEntity
  8
0
100
AcDbLine
 62
9
  6
CONTINUOUS
 10
3.7485418429
 20
20.981871449
 11
3.7623595905
 21
20.9899193349
  0
SPLINE
  5
4D8
100
AcDbEntity
  8
0
100
AcDbSpline
 62
9
  6
CONTINUOUS
 70
0
 71
3
 72
12
 73
8
 74
0
 42
0.0000001
 43
0.0000001
 44
0.0000000001
 40
0.0
 40
0.0
 40
0.0
 40
0.0
 40
0.295416982
 40
0.5717537221
 40
0.8116327431
 40
0.9131019827
 40
1.0
 40
1.0
 40
1.0
 40
1.0
 10
3.9117747051
 20
21.0765230657
 30
0.0
 10
3.9436968984
 20
21.0949508457
 30
0.0
 10
4.0055175046
 20
21.1305504517
 30
0.0
 10
4.0933902388
 20
21.1808850086
 30
0.0
 10
4.1603683769
 20
21.2190106568
 30
0.0
 10
4.206887731
 20
21.2452972557
 30
0.0
 10
4.2273802315
 20
21.2568053175
 30
0.0
 10
4.2368447451
 20
21.2620947997
 30
0.0
  0
LINE
  5
4D9
100
AcDbEntity
  8
0
100
AcDbLine
 62
9
  6
CONTINUOUS
 10
3.8345073456
 20
21.2103939752
 11
3.9125862037
 21
21.255235778
  0
LINE
  5
4DA
100
AcDbEntity
  8
0
100
AcDbLine
 62
9
  6
CONTINUOUS
 10
3.9427398618
 20
21.2729652759
 11
4.1588630822
 21
21.397162534
  0
SPLINE
  5
4DB
100
AcDbEntity
  8
0
100
AcDbSpline
 62
9
  6
CONTINUOUS
 70
0
 71
3
 72
12
 73
8
 74
0
 42
0.0000001
 43
0.0000001
 44
0.0000000001
 40
0.0
 40
0.0
 40
0.0
 40
0.0
 40
0.0868977891
 40
0.1883668997
 40
0.4282459044
 40
0.7045828031
 40
1.0
 40
1.0
 40
1.0
 40
1.0
 10
4.1588630822
 20
21.397162534
 30
0.0
 10
4.1495500337
 20
21.3916107851
 30
0.0
 10
4.1293375685
 20
21.3796178234
 30
0.0
 10
4.0833131155
 20
21.3524742296
 30
0.0
 10
4.0168063313
 20
21.3135323215
 30
0.0
 10
3.9292790073
 20
21.2625996075
 30
0.0
 10
3.8675385616
 20
21.2268612074
 30
0.0
 10
3.8356185475
 20
21.208429672
 30
0.0
  0
SPLINE
  5
4DC
100
AcDbEntity
  8
0
100
AcDbSpline
 62
9
  6
CONTINUOUS
 70
0
 71
3
 72
52
 73
48
 74
0
 42
0.0000001
 43
0.0000001
 44
0.0000000001
 40
0.0
 40
0.0
 40
0.0
 40
0.0
 40
0.0982547878
 40
0.1869296776
 40
0.2634103437
 40
0.2964960605
 40
0.3258757223
 40
0.3513592953
 40
0.3625958851
 40
0.3728081852
 40
0.3819805996
 40
0.3900975592
 40
0.3971435401
 40
0.4031030971
 40
0.4079631779
 40
0.4099797652
 40
0.4117206739
 40
0.4131859699
 40
0.4143758759
 40
0.4152909604
 40
0.4159327293
 40
0.4161525549
 40
0.416307085
 40
0.4164021355
 40
0.4164637534
 40
0.4165541653
 40
0.4167030798
 40
0.4171980182
 40
0.4190069181
 40
0.4219215248
 40
0.4259444424
 40
0.4310671661
 40
0.4372783168
 40
0.4445662491
 40
0.4529191922
 40
0.4623253084
 40
0.4727727214
 40
0.4842495306
 40
0.5102251812
 40
0.5400669939
 40
0.5735723573
 40
0.6105386049
 40
0.6507525646
 40
0.6939615043
 40
0.7883160014
 40
0.8913241275
 40
1.0
 40
1.0
 40
1.0
 40
1.0
 10
3.6720304879
 20
21.1143911491
 30
0.0
 10
3.6692110914
 20
21.1127784052
 30
0.0
 10
3.6638447344
 20
21.109714452
 30
0.0
 10
3.6562744795
 20
21.1054114772
 30
0.0
 10
3.6505691746
 20
21.1021871277
 30
0.0
 10
3.646564212
 20
21.0999381301
 30
0.0
 10
3.6440260478
 20
21.0985201734
 30
0.0
 10
3.6421154273
 20
21.0974598822
 30
0.0
 10
3.6407565713
 20
21.096711159
 30
0.0
 10
3.639868833
 20
21.0962247364
 30
0.0
 10
3.6390702906
 20
21.0957901482
 30
0.0
 10
3.6383623112
 20
21.0954081302
 30
0.0
 10
3.6377462717
 20
21.0950793963
 30
0.0
 10
3.6372234765
 20
21.0948046383
 30
0.0
 10
3.6368461123
 20
21.0946105642
 30
0.0
 10
3.6365913203
 20
21.0944831336
 30
0.0
 10
3.6364361771
 20
21.0944073763
 30
0.0
 10
3.6363047608
 20
21.0943452904
 30
0.0
 10
3.636197168
 20
21.0942968444
 30
0.0
 10
3.6361132212
 20
21.0942619333
 30
0.0
 10
3.6360581254
 20
21.0942420522
 30
0.0
 10
3.6360253209
 20
21.0942333878
 30
0.0
 10
3.6360103236
 20
21.0942315336
 30
0.0
 10
3.6359991036
 20
21.0942315353
 30
0.0
 10
3.6359938765
 20
21.094239397
 30
0.0
 10
3.6359989935
 20
21.0942492171
 30
0.0
 10
3.6360131436
 20
21.0942680752
 30
0.0
 10
3.6360744383
 20
21.0943233251
 30
0.0
 10
3.6362119917
 20
21.0944256012
 30
0.0
 10
3.636450642
 20
21.0945900538
 30
0.0
 10
3.636783522
 20
21.0948089744
 30
0.0
 10
3.6372110444
 20
21.0950829439
 30
0.0
 10
3.6377320423
 20
21.0954107752
 30
0.0
 10
3.6383456702
 20
21.0957919709
 30
0.0
 10
3.6390509006
 20
21.0962258132
 30
0.0
 10
3.6398467516
 20
21.0967116808
 30
0.0
 10
3.640732216
 20
21.0972489334
 30
0.0
 10
3.6420878338
 20
21.0980672443
 30
0.0
 10
3.6439956986
 20
21.0992112976
 30
0.0
 10
3.6465322076
 20
21.1007229694
 30
0.0
 10
3.6493844308
 20
21.102414564
 30
0.0
 10
3.652534795
 20
21.1042756089
 30
0.0
 10
3.6559642985
 20
21.1062947992
 30
0.0
 10
3.6610323224
 20
21.1092702019
 30
0.0
 10
3.6678971691
 20
21.1132851348
 30
0.0
 10
3.6766391407
 20
21.1183772473
 30
0.0
 10
3.6826912055
 20
21.1218902592
 30
0.0
 10
3.6857995258
 20
21.123691607
 30
0.0
  0
LINE
  5
4DD
100
AcDbEntity
  8
0
100
AcDbLine
 62
9
  6
CONTINUOUS
 10
3.9234298749
 20
21.0582158987
 11
4.0047006548
 21
21.1053849136
  0
SPLINE
  5
4DE
100
AcDbEntity
  8
0
100
AcDbSpline
 62
9
  6
CONTINUOUS
 70
0
 71
3
 72
19
 73
15
 74
0
 42
0.0000001
 43
0.0000001
 44
0.0000000001
 40
0.0
 40
0.0
 40
0.0
 40
0.0
 40
0.167693736
 40
0.33050196
 40
0.4829727185
 40
0.6210289802
 40
0.6836737387
 40
0.7416349891
 40
0.7947912405
 40
0.843236445
 40
0.8872527899
 40
0.9274049804
 40
0.9645877355
 40
1.0
 40
1.0
 40
1.0
 40
1.0
 10
3.6908834454
 20
21.0258625029
 30
0.0
 10
3.6930615136
 20
21.0221186482
 30
0.0
 10
3.6976556613
 20
21.0149107829
 30
0.0
 10
3.7052120574
 20
21.0049661667
 30
0.0
 10
3.7131283986
 20
20.9963151584
 30
0.0
 10
3.7199861745
 20
20.9902618524
 30
0.0
 10
3.7254315446
 20
20.9863815161
 30
0.0
 10
3.7292856389
 20
20.9840709528
 30
0.0
 10
3.7330090358
 20
20.9822878347
 30
0.0
 10
3.7365690811
 20
20.9810460612
 30
0.0
 10
3.7399381951
 20
20.9803614694
 30
0.0
 10
3.7430878495
 20
20.9802517975
 30
0.0
 10
3.7459826775
 20
20.9807188186
 30
0.0
 10
3.7477398524
 20
20.9814284835
 30
0.0
 10
3.7485405042
 20
20.9818706983
 30
0.0
  0
SPLINE
  5
4DF
100
AcDbEntity
  8
0
100
AcDbSpline
 62
9
  6
CONTINUOUS
 70
0
 71
3
 72
17
 73
13
 74
0
 42
0.0000001
 43
0.0000001
 44
0.0000000001
 40
0.0
 40
0.0
 40
0.0
 40
0.0
 40
0.1239513696
 40
0.2479728478
 40
0.372171679
 40
0.4344865148
 40
0.4968776066
 40
0.6217802428
 40
0.7472368878
 40
0.8102192217
 40
0.8733539184
 40
1.0
 40
1.0
 40
1.0
 40
1.0
 10
4.2654176471
 20
21.3556508202
 30
0.0
 10
4.2676689822
 20
21.3517671307
 30
0.0
 10
4.2713413576
 20
21.3434838731
 30
0.0
 10
4.2741346771
 20
21.3302015548
 30
0.0
 10
4.2740733402
 20
21.3188655243
 30
0.0
 10
4.2726572807
 20
21.3099505756
 30
0.0
 10
4.2703474844
 20
21.3011961536
 30
0.0
 10
4.2658101313
 20
21.2907334483
 30
0.0
 10
4.2593703078
 20
21.2813054242
 30
0.0
 10
4.2532329205
 20
21.2745561765
 30
0.0
 10
4.2464834145
 20
21.2683589289
 30
0.0
 10
4.2408143955
 20
21.2643925188
 30
0.0
 10
4.2368448148
 20
21.2620947591
 30
0.0
  0
LINE
  5
4E0
100
AcDbEntity
  8
0
100
AcDbLine
 62
9
  6
CONTINUOUS
 10
4.1527016885
 20
21.416024204
 11
3.9371736816
 21
21.2921688595
  0
SPLINE
  5
4E1
100
AcDbEntity
  8
0
100
AcDbSpline
 62
9
  6
CONTINUOUS
 70
0
 71
3
 72
18
 73
14
 74
0
 42
0.0000001
 43
0.0000001
 44
0.0000000001
 40
0.0
 40
0.0
 40
0.0
 40
0.0
 40
0.1731413637
 40
0.3496490174
 40
0.5199618328
 40
0.6733417379
 40
0.8001360748
 40
0.852031639
 40
0.8957452323
 40
0.9312400354
 40
0.9593825579
 40
0.9816001409
 40
1.0
 40
1.0
 40
1.0
 40
1.0
 10
4.1527022169
 20
21.4160244626
 30
0.0
 10
4.1532872527
 20
21.4150002634
 30
0.0
 10
4.1544298283
 20
21.4129094942
 30
0.0
 10
4.1560070646
 20
21.409736672
 30
0.0
 10
4.1573786619
 20
21.4066156213
 30
0.0
 10
4.1584579626
 20
21.4037409844
 30
0.0
 10
4.1590852043
 20
21.4015628507
 30
0.0
 10
4.1593661319
 20
21.4000728811
 30
0.0
 10
4.1594615912
 20
21.3991835491
 30
0.0
 10
4.1594564958
 20
21.3984500387
 30
0.0
 10
4.1593568528
 20
21.3978700698
 30
0.0
 10
4.1591683613
 20
21.3974342515
 30
0.0
 10
4.1589689362
 20
21.3972296529
 30
0.0
 10
4.1588630366
 20
21.3971625909
 30
0.0
  0
SPLINE
  5
4E2
100
AcDbEntity
  8
0
100
AcDbSpline
 62
9
  6
CONTINUOUS
 70
0
 71
3
 72
18
 73
14
 74
0
 42
0.0000001
 43
0.0000001
 44
0.0000000001
 40
0.0
 40
0.0
 40
0.0
 40
0.0
 40
0.0230429502
 40
0.0493562737
 40
0.0808061373
 40
0.1183989449
 40
0.162612401
 40
0.2135190198
 40
0.3346360955
 40
0.4790240435
 40
0.6419353468
 40
0.8179348542
 40
1.0
 40
1.0
 40
1.0
 40
1.0
 10
3.9427399661
 20
21.2729652658
 30
0.0
 10
3.9428750696
 20
21.2730495873
 30
0.0
 10
3.9431268802
 20
21.2732938781
 30
0.0
 10
3.9433765103
 20
21.2738013849
 30
0.0
 10
3.9435224861
 20
21.2744483239
 30
0.0
 10
3.9435659793
 20
21.2752324129
 30
0.0
 10
3.9435063811
 20
21.2761492491
 30
0.0
 10
3.9432823914
 20
21.2776281339
 30
0.0
 10
3.9427463549
 20
21.2797525503
 30
0.0
 10
3.9418115983
 20
21.2825637634
 30
0.0
 10
3.9405516856
 20
21.2856600408
 30
0.0
 10
3.9389902631
 20
21.2889065304
 30
0.0
 10
3.9378039564
 20
21.2910797179
 30
0.0
 10
3.9371741557
 20
21.2921690806
 30
0.0
  0
SPLINE
  5
4E3
100
AcDbEntity
  8
0
100
AcDbSpline
 62
9
  6
CONTINUOUS
 70
0
 71
3
 72
17
 73
13
 74
0
 42
0.0000001
 43
0.0000001
 44
0.0000000001
 40
0.0
 40
0.0
 40
0.0
 40
0.0
 40
0.1266459785
 40
0.1897810331
 40
0.2527636795
 40
0.3782203432
 40
0.5031228216
 40
0.5655140395
 40
0.6278290729
 40
0.7520278299
 40
0.876048082
 40
1.0
 40
1.0
 40
1.0
 40
1.0
 10
4.1588631082
 20
21.3971626302
 30
0.0
 10
4.1628378156
 20
21.3994515175
 30
0.0
 10
4.1691073553
 20
21.4023778358
 30
0.0
 10
4.1778491086
 20
21.4051244874
 30
0.0
 10
4.1867628538
 20
21.4070650373
 30
0.0
 10
4.1981476974
 20
21.4079281167
 30
0.0
 10
4.2094773623
 20
21.4066262116
 30
0.0
 10
4.2182138239
 20
21.4042493073
 30
0.0
 10
4.2266424386
 20
21.4010181453
 30
0.0
 10
4.2364903844
 20
21.3954032843
 30
0.0
 10
4.246596614
 20
21.3863431152
 30
0.0
 10
4.2519339074
 20
21.3790210984
 30
0.0
 10
4.2541716148
 20
21.3751295098
 30
0.0
  0
SPLINE
  5
4E4
100
AcDbEntity
  8
0
100
AcDbSpline
 62
7
  6
CONTINUOUS
 70
0
 71
3
 72
25
 73
21
 74
0
 42
0.0000001
 43
0.0000001
 44
0.0000000001
 40
0.0
 40
0.0
 40
0.0
 40
0.0
 40
0.0759612643
 40
0.1520128802
 40
0.2279195079
 40
0.3037688928
 40
0.3795643514
 40
0.4553984209
 40
0.5311680856
 40
0.5690669761
 40
0.6068742355
 40
0.644550308
 40
0.6819980314
 40
0.742862229
 40
0.7736473785
 40
0.8038135495
 40
0.8410540375
 40
0.8864564046
 40
0.9397156228
 40
1.0
 40
1.0
 40
1.0
 40
1.0
 10
3.6216410243
 20
20.9852363657
 30
0.0
 10
3.6233661063
 20
20.9822492672
 30
0.0
 10
3.6272915468
 20
20.9765317471
 30
0.0
 10
3.634412271
 20
20.9689665376
 30
0.0
 10
3.6426181769
 20
20.9625981893
 30
0.0
 10
3.6516946398
 20
20.9575745403
 30
0.0
 10
3.6614328367
 20
20.9540058369
 30
0.0
 10
3.6715997667
 20
20.9519821006
 30
0.0
 10
3.6802347362
 20
20.9516143141
 30
0.0
 10
3.6871001856
 20
20.9521222081
 30
0.0
 10
3.692196275
 20
20.9528921588
 30
0.0
 10
3.6971982617
 20
20.9540466866
 30
0.0
 10
3.7030955122
 20
20.9558963425
 30
0.0
 10
3.708504354
 20
20.9581978897
 30
0.0
 10
3.7134008212
 20
20.9607728664
 30
0.0
 10
3.7173148324
 20
20.9629090005
 30
0.0
 10
3.7217916607
 20
20.9653991188
 30
0.0
 10
3.7271724896
 20
20.9684211727
 30
0.0
 10
3.7334551064
 20
20.9719744655
 30
0.0
 10
3.7379374972
 20
20.9745226728
 30
0.0
 10
3.7403162041
 20
20.9758776347
 30
0.0
  0
LINE
  5
4E5
100
AcDbEntity
  8
0
100
AcDbLine
 62
7
  6
CONTINUOUS
 10
3.7537478852
 20
20.9835538551
 11
3.7633867096
 21
20.9890884262
  0
LINE
  5
4E6
100
AcDbEntity
  8
0
100
AcDbLine
 62
7
  6
CONTINUOUS
 10
3.7633868049
 20
20.9890887634
 11
3.8101015719
 21
21.0159938779
  0
LINE
  5
4E7
100
AcDbEntity
  8
0
100
AcDbLine
 62
7
  6
CONTINUOUS
 10
3.8101015719
 20
21.0159938779
 11
3.8758862567
 21
21.0540081791
  0
LINE
  5
4E8
100
AcDbEntity
  8
0
100
AcDbLine
 62
7
  6
CONTINUOUS
 10
3.8758862567
 20
21.0540081791
 11
3.9125054307
 21
21.0752338711
  0
LINE
  5
4E9
100
AcDbEntity
  8
0
100
AcDbLine
 62
7
  6
CONTINUOUS
 10
3.6857039361
 20
21.1236392396
 11
3.6744846445
 21
21.1171243342
  0
LINE
  5
4EA
100
AcDbEntity
  8
0
100
AcDbLine
 62
7
  6
CONTINUOUS
 10
3.6744846445
 20
21.1171243342
 11
3.6651484035
 21
21.1116804225
  0
SPLINE
  5
4EB
100
AcDbEntity
  8
0
100
AcDbSpline
 62
7
  6
CONTINUOUS
 70
0
 71
3
 72
26
 73
22
 74
0
 42
0.0000001
 43
0.0000001
 44
0.0000000001
 40
0.0
 40
0.0
 40
0.0
 40
0.0
 40
0.0622249944
 40
0.1176015646
 40
0.1651668589
 40
0.204413512
 40
0.2359321789
 40
0.2499339228
 40
0.2650716123
 40
0.2867799259
 40
0.3190054911
 40
0.355821122
 40
0.3934063302
 40
0.4690145309
 40
0.5447576128
 40
0.6205487721
 40
0.6963344724
 40
0.7721632006
 40
0.8480381093
 40
0.9240505014
 40
1.0
 40
1.0
 40
1.0
 40
1.0
 10
3.6651484035
 20
21.1116804225
 30
0.0
 10
3.6626586908
 20
21.1102255001
 30
0.0
 10
3.6579555309
 20
21.1074719273
 30
0.0
 10
3.651358318
 20
21.1035906836
 30
0.0
 10
3.6456880242
 20
21.1002339532
 30
0.0
 10
3.6409804827
 20
21.0974214291
 30
0.0
 10
3.6376204256
 20
21.0953861669
 30
0.0
 10
3.6352325651
 20
21.0939028435
 30
0.0
 10
3.6332457273
 20
21.0926357073
 30
0.0
 10
3.6305958988
 20
21.0908387192
 30
0.0
 10
3.6272389744
 20
21.0883006449
 30
0.0
 10
3.6235116223
 20
21.0850489609
 30
0.0
 10
3.6186381661
 20
21.0800833987
 30
0.0
 10
3.6132526343
 20
21.0731301744
 30
0.0
 10
3.6081714658
 20
21.0638627552
 30
0.0
 10
3.6046022762
 20
21.0539046664
 30
0.0
 10
3.6026394762
 20
21.0435060175
 30
0.0
 10
3.6023334079
 20
21.0329245868
 30
0.0
 10
3.6036919153
 20
21.022414417
 30
0.0
 10
3.6066948962
 20
21.0122483208
 30
0.0
 10
3.6097354788
 20
21.0058581426
 30
0.0
 10
3.611494984
 20
21.002809815
 30
0.0
  0
LINE
  5
4EC
100
AcDbEntity
  8
0
100
AcDbLine
 62
7
  6
CONTINUOUS
 10
3.8348674624
 20
21.2097067505
 11
3.7974275778
 21
21.1881762084
  0
LINE
  5
4ED
100
AcDbEntity
  8
0
100
AcDbLine
 62
7
  6
CONTINUOUS
 10
3.7974275778
 20
21.1881762084
 11
3.7245764576
 21
21.1461421908
  0
LINE
  5
4EE
100
AcDbEntity
  8
0
100
AcDbLine
 62
7
  6
CONTINUOUS
 10
3.7245764576
 20
21.1461421908
 11
3.6857044434
 21
21.1236389854
  0
LINE
  5
4EF
100
AcDbEntity
  8
0
100
AcDbLine
 62
9
  6
CONTINUOUS
 10
4.2837109554
 20
21.3662485779
 11
4.2780645036
 21
21.3759382723
  0
SPLINE
  5
4F0
100
AcDbEntity
  8
0
100
AcDbSpline
 62
9
  6
CONTINUOUS
 70
0
 71
3
 72
22
 73
18
 74
0
 42
0.0000001
 43
0.0000001
 44
0.0000000001
 40
0.0
 40
0.0
 40
0.0
 40
0.0
 40
0.061848694
 40
0.1237881668
 40
0.1856631701
 40
0.247572116
 40
0.3096618618
 40
0.371938173
 40
0.4343065301
 40
0.4967051532
 40
0.5279415976
 40
0.5592205056
 40
0.6219126897
 40
0.6847762514
 40
0.747722762
 40
0.8737837908
 40
1.0
 40
1.0
 40
1.0
 40
1.0
 10
4.2500985242
 20
21.2473279208
 30
0.0
 10
4.2525055459
 20
21.2488141879
 30
0.0
 10
4.2572398134
 20
21.2519280368
 30
0.0
 10
4.2639866887
 20
21.2570990786
 30
0.0
 10
4.2702590097
 20
21.2628489011
 30
0.0
 10
4.2758884314
 20
21.2692414492
 30
0.0
 10
4.2808509476
 20
21.2761834544
 30
0.0
 10
4.2851563438
 20
21.2835732485
 30
0.0
 10
4.2887988672
 20
21.2913269216
 30
0.0
 10
4.2912048175
 20
21.2980583875
 30
0.0
 10
4.2927066952
 20
21.3035733942
 30
0.0
 10
4.2939123594
 20
21.3091744385
 30
0.0
 10
4.2948644225
 20
21.3162983482
 30
0.0
 10
4.2951459343
 20
21.3249295478
 30
0.0
 10
4.2944097235
 20
21.3364419828
 30
0.0
 10
4.2913855614
 20
21.3506354244
 30
0.0
 10
4.2866740455
 20
21.3612939833
 30
0.0
 10
4.2837109554
 20
21.3662485779
 30
0.0
  0
SPLINE
  5
4F1
100
AcDbEntity
  8
0
100
AcDbSpline
 62
9
  6
CONTINUOUS
 70
0
 71
3
 72
18
 73
14
 74
0
 42
0.0000001
 43
0.0000001
 44
0.0000000001
 40
0.0
 40
0.0
 40
0.0
 40
0.0
 40
0.012385548
 40
0.0340448275
 40
0.064672637
 40
0.1039379809
 40
0.1513441419
 40
0.2063184385
 40
0.336492252
 40
0.4882804212
 40
0.6546700207
 40
0.8281335907
 40
1.0
 40
1.0
 40
1.0
 40
1.0
 10
3.9422031499
 20
21.2725800371
 30
0.0
 10
3.94208796
 20
21.2724975055
 30
0.0
 10
3.9417591606
 20
21.272288162
 30
0.0
 10
3.9411312829
 20
21.271896983
 30
0.0
 10
3.9402356125
 20
21.271353703
 30
0.0
 10
3.9390849895
 20
21.2706630216
 30
0.0
 10
3.9376922554
 20
21.2698343831
 30
0.0
 10
3.9354022021
 20
21.2684798132
 30
0.0
 10
3.9320780329
 20
21.2665277738
 30
0.0
 10
3.9276478266
 20
21.26394194
 30
0.0
 10
3.9227836861
 20
21.2611170529
 30
0.0
 10
3.9177152721
 20
21.2581865122
 30
0.0
 10
3.9142912625
 20
21.2562151488
 30
0.0
 10
3.9125861783
 20
21.2552357633
 30
0.0
  0
SPLINE
  5
4F2
100
AcDbEntity
  8
0
100
AcDbSpline
 62
9
  6
CONTINUOUS
 70
0
 71
3
 72
14
 73
10
 74
0
 42
0.0000001
 43
0.0000001
 44
0.0000000001
 40
0.0
 40
0.0
 40
0.0
 40
0.0
 40
0.2388183077
 40
0.3680976551
 40
0.5000609583
 40
0.6319163028
 40
0.7609056435
 40
0.8840707346
 40
1.0
 40
1.0
 40
1.0
 40
1.0
 10
3.9148502884
 20
21.2807953644
 30
0.0
 10
3.9159953779
 20
21.2785316644
 30
0.0
 10
3.9184750267
 20
21.2753414403
 30
0.0
 10
3.9228639006
 20
21.2723011696
 30
0.0
 10
3.9267356178
 20
21.2706474026
 30
0.0
 10
3.9308720477
 20
21.2698940265
 30
0.0
 10
3.9349797068
 20
21.2699903005
 30
0.0
 10
3.9388082068
 20
21.27090524
 30
0.0
 10
3.9411354844
 20
21.2719647291
 30
0.0
 10
3.9422023987
 20
21.2725796906
 30
0.0
  0
SPLINE
  5
4F3
100
AcDbEntity
  8
0
100
AcDbSpline
 62
9
  6
CONTINUOUS
 70
0
 71
3
 72
18
 73
14
 74
0
 42
0.0000001
 43
0.0000001
 44
0.0000000001
 40
0.0
 40
0.0
 40
0.0
 40
0.0
 40
0.1710190871
 40
0.3435976921
 40
0.5096545933
 40
0.6611092953
 40
0.7905161311
 40
0.8453757989
 40
0.892959437
 40
0.9327339789
 40
0.9641703039
 40
0.9867502478
 40
1.0
 40
1.0
 40
1.0
 40
1.0
 10
4.0047012354
 20
21.1053859768
 30
0.0
 10
4.0052284706
 20
21.1056062103
 30
0.0
 10
4.0062896018
 20
21.1060442584
 30
0.0
 10
4.0078680933
 20
21.1066829116
 30
0.0
 10
4.0093902429
 20
21.1072864447
 30
0.0
 10
4.0107826128
 20
21.1078258249
 30
0.0
 10
4.0118327607
 20
21.1082200494
 30
0.0
 10
4.0125610026
 20
21.1084840498
 30
0.0
 10
4.0130091758
 20
21.10864202
 30
0.0
 10
4.0133850766
 20
21.1087691627
 30
0.0
 10
4.0136836598
 20
21.1088650899
 30
0.0
 10
4.0138995792
 20
21.1089258662
 30
0.0
 10
4.0140166543
 20
21.1089543157
 30
0.0
 10
4.0140607977
 20
21.1089576374
 30
0.0
  0
SPLINE
  5
4F4
100
AcDbEntity
  8
0
100
AcDbSpline
 62
9
  6
CONTINUOUS
 70
0
 71
3
 72
18
 73
14
 74
0
 42
0.0000001
 43
0.0000001
 44
0.0000000001
 40
0.0
 40
0.0
 40
0.0
 40
0.0
 40
0.013249784
 40
0.0358297591
 40
0.0672661141
 40
0.1070406842
 40
0.1546243483
 40
0.2094840395
 40
0.3388909117
 40
0.4903456335
 40
0.6564025224
 40
0.8289810594
 40
1.0
 40
1.0
 40
1.0
 40
1.0
 10
3.9148506411
 20
21.2807946675
 30
0.0
 10
3.9148256927
 20
21.280758099
 30
0.0
 10
3.914742517
 20
21.2806709336
 30
0.0
 10
3.9145819232
 20
21.2805143299
 30
0.0
 10
3.914349556
 20
21.2803037127
 30
0.0
 10
3.9140514966
 20
21.2800417443
 30
0.0
 10
3.9136906036
 20
21.2797325998
 30
0.0
 10
3.9130978513
 20
21.2792339239
 30
0.0
 10
3.9122313687
 20
21.2785215813
 30
0.0
 10
3.9110680667
 20
21.2775854437
 30
0.0
 10
3.9097843171
 20
21.2765689902
 30
0.0
 10
3.9084419821
 20
21.2755213036
 30
0.0
 10
3.9075320563
 20
21.2748213615
 30
0.0
 10
3.9070777113
 20
21.2744748795
 30
0.0
  0
SPLINE
  5
4F5
100
AcDbEntity
  8
0
100
AcDbSpline
 62
9
  6
CONTINUOUS
 70
0
 71
3
 72
14
 73
10
 74
0
 42
0.0000001
 43
0.0000001
 44
0.0000000001
 40
0.0
 40
0.0
 40
0.0
 40
0.0
 40
0.1159300682
 40
0.2390957174
 40
0.36808525
 40
0.4999405828
 40
0.6319035807
 40
0.7611825166
 40
1.0
 40
1.0
 40
1.0
 40
1.0
 10
4.0206219049
 20
21.1367522211
 30
0.0
 10
4.0195558944
 20
21.1361357058
 30
0.0
 10
4.0174747586
 20
21.1346499293
 30
0.0
 10
4.0147682278
 20
21.1317917866
 30
0.0
 10
4.0126311128
 20
21.1282825791
 30
0.0
 10
4.0112154265
 20
21.1243236619
 30
0.0
 10
4.0107118365
 20
21.1201438238
 30
0.0
 10
4.0111504075
 20
21.114822897
 30
0.0
 10
4.0126733976
 20
21.1110804163
 30
0.0
 10
4.0140612612
 20
21.108956927
 30
0.0
  0
SPLINE
  5
4F6
100
AcDbEntity
  8
0
100
AcDbSpline
 62
9
  6
CONTINUOUS
 70
0
 71
3
 72
18
 73
14
 74
0
 42
0.0000001
 43
0.0000001
 44
0.0000000001
 40
0.0
 40
0.0
 40
0.0
 40
0.0
 40
0.1680542537
 40
0.3402396943
 40
0.5076174674
 40
0.6597730899
 40
0.7872684643
 40
0.8401992454
 40
0.8853784272
 40
0.9227871327
 40
0.9533210653
 40
0.978404725
 40
1.0
 40
1.0
 40
1.0
 40
1.0
 10
4.0047013556
 20
21.105385775
 30
0.0
 10
4.0041142951
 20
21.1063899195
 30
0.0
 10
4.0028809224
 20
21.1083970361
 30
0.0
 10
4.0009065639
 20
21.1113049053
 30
0.0
 10
3.9988413106
 20
21.1140126406
 30
0.0
 10
3.9968100605
 20
21.1163496504
 30
0.0
 10
3.9951436282
 20
21.1179461948
 30
0.0
 10
3.9939068346
 20
21.1189017607
 30
0.0
 10
3.9931152821
 20
21.1194081629
 30
0.0
 10
3.9924059466
 20
21.1197459714
 30
0.0
 10
3.9917818129
 20
21.1199207781
 30
0.0
 10
3.9912411712
 20
21.1199404215
 30
0.0
 10
3.9909240111
 20
21.1198452091
 30
0.0
 10
3.9907920709
 20
21.1197749766
 30
0.0
  0
LINE
  5
4F7
100
AcDbEntity
  8
0
100
AcDbLine
 62
9
  6
CONTINUOUS
 10
4.2654163595
 20
21.3556500943
 11
4.2597934158
 21
21.3653894548
  0
SPLINE
  5
4F8
100
AcDbEntity
  8
0
100
AcDbSpline
 62
9
  6
CONTINUOUS
 70
0
 71
3
 72
18
 73
14
 74
0
 42
0.0000001
 43
0.0000001
 44
0.0000000001
 40
0.0
 40
0.0
 40
0.0
 40
0.0
 40
0.0183989396
 40
0.0406158199
 40
0.0687578675
 40
0.1042523864
 40
0.1479658356
 40
0.1998613546
 40
0.3266558528
 40
0.4800361664
 40
0.650349545
 40
0.8268578877
 40
1.0
 40
1.0
 40
1.0
 40
1.0
 10
4.2368444914
 20
21.2620945702
 30
0.0
 10
4.2369555135
 20
21.2621527457
 30
0.0
 10
4.237232404
 20
21.2622231416
 30
0.0
 10
4.2377040601
 20
21.2621684535
 30
0.0
 10
4.2382561293
 20
21.261964747
 30
0.0
 10
4.2388938954
 20
21.2616023902
 30
0.0
 10
4.2396163299
 20
21.2610750409
 30
0.0
 10
4.2407661903
 20
21.2600867476
 30
0.0
 10
4.2423388566
 20
21.2584544561
 30
0.0
 10
4.2442886834
 20
21.2560824228
 30
0.0
 10
4.2463057692
 20
21.2533340512
 30
0.0
 10
4.2482648792
 20
21.2503817103
 30
0.0
 10
4.2495042449
 20
21.248346827
 30
0.0
 10
4.250098708
 20
21.2473280725
 30
0.0
  0
SPLINE
  5
4F9
100
AcDbEntity
  8
0
100
AcDbSpline
 62
9
  6
CONTINUOUS
 70
0
 71
3
 72
18
 73
14
 74
0
 42
0.0000001
 43
0.0000001
 44
0.0000000001
 40
0.0
 40
0.0
 40
0.0
 40
0.0
 40
0.1821152431
 40
0.3581218124
 40
0.5208922842
 40
0.6651106192
 40
0.7863656927
 40
0.8374542206
 40
0.8818472728
 40
0.9195421188
 40
0.950987345
 40
0.9771786576
 40
1.0
 40
1.0
 40
1.0
 40
1.0
 10
4.0350729818
 20
21.1226031087
 30
0.0
 10
4.0344378865
 20
21.1236895485
 30
0.0
 10
4.033138412
 20
21.1257968637
 30
0.0
 10
4.0311056585
 20
21.12876909
 30
0.0
 10
4.0290732824
 20
21.1314191744
 30
0.0
 10
4.0271235507
 20
21.133648018
 30
0.0
 10
4.0255458565
 20
21.1351703552
 30
0.0
 10
4.0243676361
 20
21.1360970679
 30
0.0
 10
4.0235972094
 20
21.136603118
 30
0.0
 10
4.0228937698
 20
21.1369558376
 30
0.0
 10
4.022261176
 20
21.1371534261
 30
0.0
 10
4.021699643
 20
21.1371932842
 30
0.0
 10
4.0213640926
 20
21.1370991803
 30
0.0
 10
4.0212248607
 20
21.1370251284
 30
0.0
  0
LINE
  5
4FA
100
AcDbEntity
  8
0
100
AcDbLine
 62
9
  6
CONTINUOUS
 10
3.9907889132
 20
21.1197731175
 11
3.9129203716
 21
21.0745786622
  0
LINE
  5
4FB
100
AcDbEntity
  8
0
100
AcDbLine
 62
9
  6
CONTINUOUS
 10
3.7485418446
 20
20.98187145
 11
3.7623595905
 21
20.9899193348
  0
SPLINE
  5
4FC
100
AcDbEntity
  8
0
100
AcDbSpline
 62
9
  6
CONTINUOUS
 70
0
 71
3
 72
11
 73
7
 74
0
 42
0.0000001
 43
0.0000001
 44
0.0000000001
 40
0.0
 40
0.0
 40
0.0
 40
0.0
 40
0.2495284333
 40
0.4992516916
 40
0.7495684194
 40
1.0
 40
1.0
 40
1.0
 40
1.0
 10
4.0212252037
 20
21.1370252668
 30
0.0
 10
4.0189396846
 20
21.1357035341
 30
0.0
 10
4.0148629938
 20
21.1320755113
 30
0.0
 10
4.0114442647
 20
21.1246828688
 30
0.0
 10
4.0111957031
 20
21.1165328931
 30
0.0
 10
4.0132138837
 20
21.1114472187
 30
0.0
 10
4.0146647249
 20
21.1092299716
 30
0.0
  0
SPLINE
  5
4FD
100
AcDbEntity
  8
0
100
AcDbSpline
 62
9
  6
CONTINUOUS
 70
0
 71
3
 72
11
 73
7
 74
0
 42
0.0000001
 43
0.0000001
 44
0.0000000001
 40
0.0
 40
0.0
 40
0.0
 40
0.0
 40
0.2504079772
 40
0.5006299758
 40
0.7504785761
 40
1.0
 40
1.0
 40
1.0
 40
1.0
 10
3.9153884789
 20
21.2811814546
 30
0.0
 10
3.9165843845
 20
21.2788172038
 30
0.0
 10
3.9199794862
 20
21.2745293842
 30
0.0
 10
3.9271588182
 20
21.2706632708
 30
0.0
 10
3.9352718315
 20
21.2699316602
 30
0.0
 10
3.9404532195
 20
21.2716472917
 30
0.0
 10
3.9427405893
 20
21.2729656971
 30
0.0
  0
LINE
  5
4FE
100
AcDbEntity
  8
0
100
AcDbLine
 62
9
  6
CONTINUOUS
 10
3.8345073488
 20
21.210393977
 11
3.9125861783
 21
21.2552357633
  0
LINE
  5
4FF
100
AcDbEntity
  8
0
100
AcDbLine
 62
9
  6
CONTINUOUS
 10
3.6859099638
 20
21.1223342575
 11
3.672030465
 21
21.114391136
  0
SPLINE
  5
500
100
AcDbEntity
  8
0
100
AcDbSpline
 62
9
  6
CONTINUOUS
 70
0
 71
3
 72
52
 73
48
 74
0
 42
0.0000001
 43
0.0000001
 44
0.0000000001
 40
0.0
 40
0.0
 40
0.0
 40
0.0
 40
0.0982555675
 40
0.1869312575
 40
0.2634128016
 40
0.2964989921
 40
0.325879154
 40
0.3513632527
 40
0.3626001144
 40
0.3728126928
 40
0.3819853919
 40
0.3901026432
 40
0.3971489227
 40
0.4031087855
 40
0.4079691779
 40
0.4099859225
 40
0.4117269894
 40
0.4131924444
 40
0.4143825102
 40
0.415297755
 40
0.4159396838
 40
0.4161595881
 40
0.4163141936
 40
0.4164093072
 40
0.4164709298
 40
0.4165612813
 40
0.4167101203
 40
0.4172048972
 40
0.4190134629
 40
0.421927729
 40
0.425950303
 40
0.431072683
 40
0.4372834904
 40
0.4445710803
 40
0.4529236824
 40
0.4623294594
 40
0.4727765352
 40
0.4842530098
 40
0.5102280108
 40
0.5400692043
 40
0.5735739752
 40
0.6105396538
 40
0.6507530774
 40
0.6939615446
 40
0.7883154021
 40
0.8913235072
 40
1.0
 40
1.0
 40
1.0
 40
1.0
 10
3.672030465
 20
21.114391136
 30
0.0
 10
3.669211097
 20
21.1127784102
 30
0.0
 10
3.6638447925
 20
21.1097144876
 30
0.0
 10
3.6562746066
 20
21.1054115491
 30
0.0
 10
3.6505693444
 20
21.102187223
 30
0.0
 10
3.6465644018
 20
21.0999382363
 30
0.0
 10
3.6440262409
 20
21.0985202812
 30
0.0
 10
3.6421156181
 20
21.0974599881
 30
0.0
 10
3.640756756
 20
21.0967112609
 30
0.0
 10
3.63986901
 20
21.0962248336
 30
0.0
 10
3.6390704577
 20
21.0957902393
 30
0.0
 10
3.6383624661
 20
21.0954082139
 30
0.0
 10
3.6377464122
 20
21.0950794713
 30
0.0
 10
3.6372236002
 20
21.0948047032
 30
0.0
 10
3.6368462206
 20
21.09461062
 30
0.0
 10
3.6365914153
 20
21.0944831814
 30
0.0
 10
3.6364362613
 20
21.0944074177
 30
0.0
 10
3.6363048337
 20
21.0943453251
 30
0.0
 10
3.6361972288
 20
21.0942968723
 30
0.0
 10
3.63611327
 20
21.0942619538
 30
0.0
 10
3.6360581628
 20
21.0942420669
 30
0.0
 10
3.6360253506
 20
21.0942333967
 30
0.0
 10
3.6360103455
 20
21.0942315398
 30
0.0
 10
3.6359991238
 20
21.0942315361
 30
0.0
 10
3.6359938834
 20
21.0942393892
 30
0.0
 10
3.6359989932
 20
21.0942492105
 30
0.0
 10
3.6360131345
 20
21.0942680608
 30
0.0
 10
3.6360744104
 20
21.0943233039
 30
0.0
 10
3.6362119381
 20
21.0944255605
 30
0.0
 10
3.6364505545
 20
21.0945899952
 30
0.0
 10
3.636783399
 20
21.094808894
 30
0.0
 10
3.6372108839
 20
21.0950828419
 30
0.0
 10
3.6377318427
 20
21.0954106502
 30
0.0
 10
3.6383454298
 20
21.0957918222
 30
0.0
 10
3.6390506179
 20
21.0962256399
 30
0.0
 10
3.639846425
 20
21.0967114821
 30
0.0
 10
3.6407318441
 20
21.0972487083
 30
0.0
 10
3.642087399
 20
21.0980669829
 30
0.0
 10
3.6439951827
 20
21.0992109894
 30
0.0
 10
3.6465315916
 20
21.1007226034
 30
0.0
 10
3.6493837113
 20
21.1024141383
 30
0.0
 10
3.6525339689
 20
21.1042751218
 30
0.0
 10
3.6559633641
 20
21.1062942498
 30
0.0
 10
3.6610312475
 20
21.109269572
 30
0.0
 10
3.6678959351
 20
21.1132844146
 30
0.0
 10
3.6766377435
 20
21.1183764369
 30
0.0
 10
3.6826897149
 20
21.1218893944
 30
0.0
 10
3.6857979968
 20
21.1236907183
 30
0.0
  0
SPLINE
  5
501
100
AcDbEntity
  8
0
100
AcDbSpline
 62
9
  6
CONTINUOUS
 70
0
 71
3
 72
18
 73
14
 74
0
 42
0.0000001
 43
0.0000001
 44
0.0000000001
 40
0.0
 40
0.0
 40
0.0
 40
0.0
 40
0.1680541921
 40
0.3402395392
 40
0.5076172058
 40
0.6597728627
 40
0.7872681677
 40
0.8401989284
 40
0.8853782267
 40
0.9227870482
 40
0.9533209921
 40
0.9784046636
 40
1.0
 40
1.0
 40
1.0
 40
1.0
 10
3.9070775918
 20
21.2744750891
 30
0.0
 10
3.907653676
 20
21.273464608
 30
0.0
 10
3.9087752029
 20
21.2713929185
 30
0.0
 10
3.9103063116
 20
21.2682291412
 30
0.0
 10
3.9116186509
 20
21.2650867125
 30
0.0
 10
3.9126269355
 20
21.2621590946
 30
0.0
 10
3.9131763676
 20
21.2599176502
 30
0.0
 10
3.9133855137
 20
21.2583687722
 30
0.0
 10
3.9134282953
 20
21.2574300653
 30
0.0
 10
3.9133661803
 20
21.2566468566
 30
0.0
 10
3.9132055005
 20
21.2560189366
 30
0.0
 10
3.9129521905
 20
21.2555409052
 30
0.0
 10
3.9127111546
 20
21.2553138419
 30
0.0
 10
3.9125843618
 20
21.2552346932
 30
0.0
  0
LINE
  5
502
100
AcDbEntity
  8
0
100
AcDbLine
 62
9
  6
CONTINUOUS
 10
3.9070764059
 20
21.2744748614
 11
3.8255915653
 21
21.2276768227
  0
LINE
  5
503
100
AcDbEntity
  8
0
100
AcDbLine
 62
9
  6
CONTINUOUS
 10
3.9234298755
 20
21.0582158991
 11
4.0047006548
 21
21.1053849136
  0
SPLINE
  5
504
100
AcDbEntity
  8
0
100
AcDbSpline
 62
9
  6
CONTINUOUS
 70
0
 71
3
 72
33
 73
29
 74
0
 42
0.0000001
 43
0.0000001
 44
0.0000000001
 40
0.0
 40
0.0
 40
0.0
 40
0.0
 40
0.2141699829
 40
0.3145749499
 40
0.4096984086
 40
0.4990605872
 40
0.5822430005
 40
0.6588301565
 40
0.7284469212
 40
0.7907492398
 40
0.8453953399
 40
0.8697539228
 40
0.8921001225
 40
0.9124081243
 40
0.930652124
 40
0.9468063343
 40
0.9608451756
 40
0.9727501235
 40
0.9825118456
 40
0.9865863253
 40
0.9901218254
 40
0.9931173562
 40
0.995572013
 40
0.9974850722
 40
0.9988562797
 40
0.999687079
 40
0.999903235
 40
1.0
 40
1.0
 40
1.0
 40
1.0
 10
3.6812991801
 20
21.0424622711
 30
0.0
 10
3.6763295132
 20
21.0396066822
 30
0.0
 10
3.6690284694
 20
21.0354150598
 30
0.0
 10
3.6595159637
 20
21.02996243
 30
0.0
 10
3.6528993891
 20
21.0261741617
 30
0.0
 10
3.6466808202
 20
21.0226183799
 30
0.0
 10
3.6408907933
 20
21.0193125161
 30
0.0
 10
3.6355574084
 20
21.016272622
 30
0.0
 10
3.6307070643
 20
21.0135137134
 30
0.0
 10
3.6263644666
 20
21.0110497954
 30
0.0
 10
3.6230727909
 20
21.0091880601
 30
0.0
 10
3.6207099766
 20
21.0078561114
 30
0.0
 10
3.6191467362
 20
21.0069771326
 30
0.0
 10
3.617725099
 20
21.0061801989
 30
0.0
 10
3.6164468777
 20
21.0054663198
 30
0.0
 10
3.6153138827
 20
21.0048364981
 30
0.0
 10
3.6143277639
 20
21.004291631
 30
0.0
 10
3.6134897808
 20
21.0038324073
 30
0.0
 10
3.6128840762
 20
21.0035042477
 30
0.0
 10
3.6124739712
 20
21.0032852416
 30
0.0
 10
3.6122229634
 20
21.0031528128
 30
0.0
 10
3.6120094318
 20
21.0030420188
 30
0.0
 10
3.6118338922
 20
21.0029529886
 30
0.0
 10
3.6116953027
 20
21.0028853815
 30
0.0
 10
3.6115965417
 20
21.0028398214
 30
0.0
 10
3.6115341147
 20
21.0028150445
 30
0.0
 10
3.6115068432
 20
21.002807537
 30
0.0
 10
3.6114963344
 20
21.0028074805
 30
0.0
 10
3.6114950397
 20
21.0028097233
 30
0.0
  0
SPLINE
  5
505
100
AcDbEntity
  8
0
100
AcDbSpline
 62
9
  6
CONTINUOUS
 70
0
 71
3
 72
33
 73
29
 74
0
 42
0.0000001
 43
0.0000001
 44
0.0000000001
 40
0.0
 40
0.0
 40
0.0
 40
0.0
 40
0.2141695371
 40
0.3145742699
 40
0.4096975344
 40
0.4990595697
 40
0.5822418824
 40
0.6588289727
 40
0.7284457076
 40
0.7907480339
 40
0.8453941817
 40
0.8697528053
 40
0.892099057
 40
0.9124071218
 40
0.930651195
 40
0.9468054891
 40
0.9608444238
 40
0.9727494752
 40
0.9825113106
 40
0.9865858507
 40
0.9901214135
 40
0.9931170095
 40
0.9955717339
 40
0.9974848631
 40
0.9988561427
 40
0.9996870158
 40
0.999903208
 40
1.0
 40
1.0
 40
1.0
 40
1.0
 10
3.690883157
 20
21.0258623361
 30
0.0
 10
3.6859253219
 20
21.0229862783
 30
0.0
 10
3.6786447627
 20
21.0187592121
 30
0.0
 10
3.6691664125
 20
21.0132474708
 30
0.0
 10
3.6625774021
 20
21.0094114909
 30
0.0
 10
3.6563887321
 20
21.0058039466
 30
0.0
 10
3.6506307663
 20
21.0024425683
 30
0.0
 10
3.6453314557
 20
20.9993436665
 30
0.0
 10
3.6405170039
 20
20.9965225957
 30
0.0
 10
3.6362118922
 20
20.9939937489
 30
0.0
 10
3.6329537453
 20
20.9920739354
 30
0.0
 10
3.6306188359
 20
20.9906936466
 30
0.0
 10
3.6290759957
 20
20.9897793255
 30
0.0
 10
3.6276750091
 20
20.9889466139
 30
0.0
 10
3.6264176566
 20
20.9881965775
 30
0.0
 10
3.6253057116
 20
20.9875302826
 30
0.0
 10
3.6243407761
 20
20.98694871
 30
0.0
 10
3.6235240763
 20
20.9864526059
 30
0.0
 10
3.622937021
 20
20.9860921296
 30
0.0
 10
3.6225422965
 20
20.985846471
 30
0.0
 10
3.6223021003
 20
20.9856953056
 30
0.0
 10
3.6220993784
 20
20.9855657781
 30
0.0
 10
3.6219345004
 20
20.9854582702
 30
0.0
 10
3.6218066502
 20
20.9853720508
 30
0.0
 10
3.6217178083
 20
20.9853092982
 30
0.0
 10
3.6216651316
 20
20.9852676237
 30
0.0
 10
3.6216449918
 20
20.9852477559
 30
0.0
 10
3.6216396855
 20
20.9852386841
 30
0.0
 10
3.6216409795
 20
20.9852364401
 30
0.0
  0
SPLINE
  5
506
100
AcDbEntity
  8
0
100
AcDbSpline
 62
9
  6
CONTINUOUS
 70
0
 71
3
 72
19
 73
15
 74
0
 42
0.0000001
 43
0.0000001
 44
0.0000000001
 40
0.0
 40
0.0
 40
0.0
 40
0.0
 40
0.1676937914
 40
0.3305020506
 40
0.4829728226
 40
0.6210290756
 40
0.6836738223
 40
0.7416350568
 40
0.7947912894
 40
0.8432364741
 40
0.8872528009
 40
0.9274049783
 40
0.9645877287
 40
1.0
 40
1.0
 40
1.0
 40
1.0
 10
3.690883414
 20
21.0258624848
 30
0.0
 10
3.6930614844
 20
21.0221186283
 30
0.0
 10
3.6976556363
 20
21.0149107602
 30
0.0
 10
3.7052120388
 20
21.0049661412
 30
0.0
 10
3.7131283857
 20
20.9963151326
 30
0.0
 10
3.7199861661
 20
20.9902618281
 30
0.0
 10
3.7254315393
 20
20.9863814945
 30
0.0
 10
3.7292856352
 20
20.9840709339
 30
0.0
 10
3.7330090334
 20
20.9822878192
 30
0.0
 10
3.7365690797
 20
20.9810460497
 30
0.0
 10
3.7399381942
 20
20.9803614625
 30
0.0
 10
3.7430878488
 20
20.9802517959
 30
0.0
 10
3.7459826764
 20
20.9807188228
 30
0.0
 10
3.7477398502
 20
20.9814284918
 30
0.0
 10
3.7485405015
 20
20.9818707087
 30
0.0
  0
SPLINE
  5
507
100
AcDbEntity
  8
0
100
AcDbSpline
 62
9
  6
CONTINUOUS
 70
0
 71
3
 72
17
 73
13
 74
0
 42
0.0000001
 43
0.0000001
 44
0.0000000001
 40
0.0
 40
0.0
 40
0.0
 40
0.0
 40
0.1239513694
 40
0.2479728474
 40
0.3721716785
 40
0.4344865142
 40
0.496877606
 40
0.6217802423
 40
0.7472368874
 40
0.8102192213
 40
0.8733539181
 40
1.0
 40
1.0
 40
1.0
 40
1.0
 10
4.2654176471
 20
21.3556508203
 30
0.0
 10
4.2676689823
 20
21.3517671304
 30
0.0
 10
4.2713413581
 20
21.343483872
 30
0.0
 10
4.2741346775
 20
21.3302015523
 30
0.0
 10
4.27407334
 20
21.3188655206
 30
0.0
 10
4.2726572798
 20
21.3099505711
 30
0.0
 10
4.2703474826
 20
21.3011961484
 30
0.0
 10
4.2658101282
 20
21.2907334425
 30
0.0
 10
4.2593703031
 20
21.2813054181
 30
0.0
 10
4.2532329144
 20
21.2745561704
 30
0.0
 10
4.246483407
 20
21.2683589229
 30
0.0
 10
4.2408143869
 20
21.2643925131
 30
0.0
 10
4.2368448055
 20
21.2620947537
 30
0.0
  0
SPLINE
  5
508
100
AcDbEntity
  8
0
100
AcDbSpline
 62
9
  6
CONTINUOUS
 70
0
 71
3
 72
13
 73
9
 74
0
 42
0.0000001
 43
0.0000001
 44
0.0000000001
 40
0.0
 40
0.0
 40
0.0
 40
0.0
 40
0.0819626972
 40
0.1803327953
 40
0.2933021214
 40
0.4188909615
 40
0.6987351342
 40
1.0
 40
1.0
 40
1.0
 40
1.0
 10
4.2654163595
 20
21.3556500943
 30
0.0
 10
4.2547111383
 20
21.3496654074
 30
0.0
 10
4.2311882474
 20
21.3364433974
 30
0.0
 10
4.1929883336
 20
21.3148342333
 30
0.0
 10
4.1491572844
 20
21.2899213618
 30
0.0
 10
4.0817802616
 20
21.2514812247
 30
0.0
 10
3.9900383324
 20
21.1988898148
 30
0.0
 10
3.9146906624
 20
21.1554869362
 30
0.0
 10
3.8756503871
 20
21.1329469703
 30
0.0
  0
SPLINE
  5
509
100
AcDbEntity
  8
0
100
AcDbSpline
 62
9
  6
CONTINUOUS
 70
0
 71
3
 72
14
 73
10
 74
0
 42
0.0000001
 43
0.0000001
 44
0.0000000001
 40
0.0
 40
0.0
 40
0.0
 40
0.0
 40
0.2795637387
 40
0.4241096672
 40
0.5650932029
 40
0.6975723339
 40
0.8169034187
 40
0.9189040872
 40
1.0
 40
1.0
 40
1.0
 40
1.0
 10
3.6812991823
 20
21.0424622672
 30
0.0
 10
3.7348691085
 20
21.0731425357
 30
0.0
 10
3.8160560916
 20
21.1198269347
 30
0.0
 10
3.9241050717
 20
21.1822490506
 30
0.0
 10
4.0039643773
 20
21.2285382818
 30
0.0
 10
4.0789390717
 20
21.2721513334
 30
0.0
 10
4.1464018682
 20
21.3115579168
 30
0.0
 10
4.2039887193
 20
21.3453755048
 30
0.0
 10
4.2387873817
 20
21.3659612464
 30
0.0
 10
4.2541704667
 20
21.3751288245
 30
0.0
  0
LINE
  5
50A
100
AcDbEntity
  8
0
100
AcDbLine
 62
7
  6
CONTINUOUS
 10
4.2724805055
 20
21.3856643861
 11
4.2780733337
 21
21.3759433704
  0
SPLINE
  5
50B
100
AcDbEntity
  8
0
100
AcDbSpline
 62
9
  6
CONTINUOUS
 70
0
 71
3
 72
18
 73
14
 74
0
 42
0.0000001
 43
0.0000001
 44
0.0000000001
 40
0.0
 40
0.0
 40
0.0
 40
0.0
 40
0.1731421154
 40
0.3496504559
 40
0.5199638329
 40
0.6733441305
 40
0.8001386276
 40
0.8520341527
 40
0.8957476025
 40
0.9312421248
 40
0.9593841842
 40
0.9816010715
 40
1.0
 40
1.0
 40
1.0
 40
1.0
 10
4.1527021634
 20
21.416024431
 30
0.0
 10
4.1532871963
 20
21.4150002313
 30
0.0
 10
4.1544297683
 20
21.4129094632
 30
0.0
 10
4.1560070065
 20
21.4097366475
 30
0.0
 10
4.1573786144
 20
21.4066156088
 30
0.0
 10
4.1584579341
 20
21.4037409883
 30
0.0
 10
4.1590852008
 20
21.401562871
 30
0.0
 10
4.1593661539
 20
21.4000729145
 30
0.0
 10
4.1594616322
 20
21.3991835926
 30
0.0
 10
4.1594565576
 20
21.3984500921
 30
0.0
 10
4.1593569369
 20
21.3978701327
 30
0.0
 10
4.1591684697
 20
21.3974343225
 30
0.0
 10
4.1589690598
 20
21.3972297261
 30
0.0
 10
4.1588631672
 20
21.397162666
 30
0.0
  0
SPLINE
  5
50C
100
AcDbEntity
  8
0
100
AcDbSpline
 62
9
  6
CONTINUOUS
 70
0
 71
3
 72
18
 73
14
 74
0
 42
0.0000001
 43
0.0000001
 44
0.0000000001
 40
0.0
 40
0.0
 40
0.0
 40
0.0
 40
0.0230429505
 40
0.0493562744
 40
0.0808061382
 40
0.1183989459
 40
0.1626124019
 40
0.2135190205
 40
0.3346360963
 40
0.4790240444
 40
0.6419353472
 40
0.8179348539
 40
1.0
 40
1.0
 40
1.0
 40
1.0
 10
3.9427399656
 20
21.2729652665
 30
0.0
 10
3.9428750691
 20
21.273049588
 30
0.0
 10
3.9431268797
 20
21.2732938788
 30
0.0
 10
3.9433765098
 20
21.2738013856
 30
0.0
 10
3.9435224856
 20
21.2744483246
 30
0.0
 10
3.9435659788
 20
21.2752324136
 30
0.0
 10
3.9435063806
 20
21.2761492498
 30
0.0
 10
3.9432823909
 20
21.2776281345
 30
0.0
 10
3.9427463545
 20
21.2797525508
 30
0.0
 10
3.941811598
 20
21.2825637639
 30
0.0
 10
3.9405516853
 20
21.2856600412
 30
0.0
 10
3.9389902625
 20
21.2889065305
 30
0.0
 10
3.9378039555
 20
21.2910797178
 30
0.0
 10
3.9371741546
 20
21.2921690803
 30
0.0
  0
SPLINE
  5
50D
100
AcDbEntity
  8
0
100
AcDbSpline
 62
9
  6
CONTINUOUS
 70
0
 71
3
 72
21
 73
17
 74
0
 42
0.0000001
 43
0.0000001
 44
0.0000000001
 40
0.0
 40
0.0
 40
0.0
 40
0.0
 40
0.0618014329
 40
0.1236846576
 40
0.1855641455
 40
0.2475132131
 40
0.3095861662
 40
0.3717911583
 40
0.4963939371
 40
0.6215285467
 40
0.6843452597
 40
0.7472573979
 40
0.8103242048
 40
0.8735845966
 40
0.9368805299
 40
1.0
 40
1.0
 40
1.0
 40
1.0
 10
4.1527016856
 20
21.4160242013
 30
0.0
 10
4.1551806769
 20
21.417382944
 30
0.0
 10
4.1602351084
 20
21.4199374048
 30
0.0
 10
4.1680929027
 20
21.4231721815
 30
0.0
 10
4.1762197901
 20
21.4256913159
 30
0.0
 10
4.1845679636
 20
21.4273817843
 30
0.0
 10
4.1930551143
 20
21.4282563194
 30
0.0
 10
4.2044529671
 20
21.4283395781
 30
0.0
 10
4.2186873528
 20
21.4263974892
 30
0.0
 10
4.2322789686
 20
21.4216375161
 30
0.0
 10
4.2424335378
 20
21.4162587931
 30
0.0
 10
4.249630682
 20
21.411458263
 30
0.0
 10
4.2563310678
 20
21.4059565688
 30
0.0
 10
4.2624818612
 20
21.3998210357
 30
0.0
 10
4.2679848326
 20
21.3930931007
 30
0.0
 10
4.2711074485
 20
21.3882044675
 30
0.0
 10
4.2724958732
 20
21.3856729929
 30
0.0
  0
SPLINE
  5
50E
100
AcDbEntity
  8
0
100
AcDbSpline
 62
9
  6
CONTINUOUS
 70
0
 71
3
 72
17
 73
13
 74
0
 42
0.0000001
 43
0.0000001
 44
0.0000000001
 40
0.0
 40
0.0
 40
0.0
 40
0.0
 40
0.1266459788
 40
0.1897810335
 40
0.25276368
 40
0.3782203438
 40
0.5031228222
 40
0.5655140402
 40
0.6278290735
 40
0.7520278303
 40
0.8760480822
 40
1.0
 40
1.0
 40
1.0
 40
1.0
 10
4.158863098
 20
21.3971626243
 30
0.0
 10
4.1628378054
 20
21.3994515124
 30
0.0
 10
4.1691073454
 20
21.4023778319
 30
0.0
 10
4.1778490994
 20
21.405124485
 30
0.0
 10
4.1867628453
 20
21.4070650362
 30
0.0
 10
4.1981476902
 20
21.4079281169
 30
0.0
 10
4.2094773564
 20
21.4066262128
 30
0.0
 10
4.2182138192
 20
21.4042493089
 30
0.0
 10
4.2266424351
 20
21.4010181471
 30
0.0
 10
4.2364903823
 20
21.395403286
 30
0.0
 10
4.2465966133
 20
21.3863431161
 30
0.0
 10
4.2519339074
 20
21.3790210986
 30
0.0
 10
4.254171615
 20
21.3751295095
 30
0.0
  0
SPLINE
  5
50F
100
AcDbEntity
  8
0
100
AcDbSpline
 62
9
  6
CONTINUOUS
 70
0
 71
3
 72
19
 73
15
 74
0
 42
0.0000001
 43
0.0000001
 44
0.0000000001
 40
0.0
 40
0.0
 40
0.0
 40
0.0
 40
0.1676930349
 40
0.3305006624
 40
0.4829710362
 40
0.6210271997
 40
0.6836720259
 40
0.7416334199
 40
0.7947898884
 40
0.843235377
 40
0.8872520615
 40
0.9274046105
 40
0.9645876477
 40
1.0
 40
1.0
 40
1.0
 40
1.0
 10
3.6812996332
 20
21.0424625273
 30
0.0
 10
3.6791464067
 20
21.0462206928
 30
0.0
 10
3.6752013092
 20
21.0538032277
 30
0.0
 10
3.6703672421
 20
21.0653195011
 30
0.0
 10
3.6668334291
 20
21.0765007051
 30
0.0
 10
3.6650199965
 20
21.0854663343
 30
0.0
 10
3.6643821977
 20
21.0921223184
 30
0.0
 10
3.664308223
 20
21.0966153447
 30
0.0
 10
3.6646256756
 20
21.1007314692
 30
0.0
 10
3.665330267
 20
21.1044354639
 30
0.0
 10
3.6664219242
 20
21.1076955253
 30
0.0
 10
3.6679017431
 20
21.1104780778
 30
0.0
 10
3.6697535724
 20
21.1127516067
 30
0.0
 10
3.6712467222
 20
21.1139185729
 30
0.0
 10
3.6720300054
 20
21.1143908708
 30
0.0
  0
SPLINE
  5
510
100
AcDbEntity
  8
0
100
AcDbSpline
 62
7
  6
CONTINUOUS
 70
0
 71
3
 72
29
 73
25
 74
0
 42
0.0000001
 43
0.0000001
 44
0.0000000001
 40
0.0
 40
0.0
 40
0.0
 40
0.0
 40
0.0632316531
 40
0.1264995918
 40
0.1581215416
 40
0.1897261804
 40
0.2213130853
 40
0.2528815987
 40
0.2844285704
 40
0.3159497958
 40
0.347441319
 40
0.3789002762
 40
0.4416948972
 40
0.5043363161
 40
0.5668144973
 40
0.6291247761
 40
0.6602265444
 40
0.6912878816
 40
0.7223097815
 40
0.7532928741
 40
0.8151292434
 40
0.8768453851
 40
0.9384812159
 40
1.0
 40
1.0
 40
1.0
 40
1.0
 10
5.0428422618
 20
-0.3277385913
 30
0.0
 10
5.0350123091
 20
-0.429253217
 30
0.0
 10
5.0287684237
 20
-0.6331825545
 30
0.0
 10
5.0444710843
 20
-0.887684841
 30
0.0
 10
5.0711274892
 20
-1.0896784873
 30
0.0
 10
5.0980886009
 20
-1.2400059156
 30
0.0
 10
5.1319614862
 20
-1.3888376691
 30
0.0
 10
5.1726857444
 20
-1.5358467731
 30
0.0
 10
5.2201524297
 20
-1.6807079374
 30
0.0
 10
5.2742456976
 20
-1.8230939661
 30
0.0
 10
5.3348590455
 20
-1.9626788182
 30
0.0
 10
5.424122322
 20
-2.1444830667
 30
0.0
 10
5.5512443378
 20
-2.3632690423
 30
0.0
 10
5.7274044241
 20
-2.6098228378
 30
0.0
 10
5.9254498428
 20
-2.8381396011
 30
0.0
 10
6.1074537033
 20
-3.0116053859
 30
0.0
 10
6.2620716624
 20
-3.1392366862
 30
0.0
 10
6.3822661509
 20
-3.2291548086
 30
0.0
 10
6.5064649061
 20
-3.3131147382
 30
0.0
 10
6.6768696479
 20
-3.4168053187
 30
0.0
 10
6.89856907
 20
-3.5307163912
 30
0.0
 10
7.1761132745
 20
-3.6409994304
 30
0.0
 10
7.4625195139
 20
-3.7237678618
 30
0.0
 10
7.6578154966
 20
-3.7602351981
 30
0.0
 10
7.755960309
 20
-3.7736552132
 30
0.0
  0
SPLINE
  5
511
100
AcDbEntity
  8
0
100
AcDbSpline
 62
7
  6
CONTINUOUS
 70
0
 71
3
 72
28
 73
24
 74
0
 42
0.0000001
 43
0.0000001
 44
0.0000000001
 40
0.0
 40
0.0
 40
0.0
 40
0.0
 40
0.0630235247
 40
0.1260846341
 40
0.189097389
 40
0.2520564537
 40
0.2835227553
 40
0.314970492
 40
0.3463965805
 40
0.3777988916
 40
0.4405090263
 40
0.5031082059
 40
0.5655893614
 40
0.6279495144
 40
0.659093706
 40
0.6902090185
 40
0.7212961713
 40
0.7523553726
 40
0.783386951
 40
0.8143926593
 40
0.8763273231
 40
0.9382100271
 40
1.0
 40
1.0
 40
1.0
 40
1.0
 10
4.4845006513
 20
-0.2846729902
 30
0.0
 10
4.475329165
 20
-0.4035804779
 30
0.0
 10
4.4680326955
 20
-0.6424636123
 30
0.0
 10
4.490180914
 20
-1.000101391
 30
0.0
 10
4.5453705769
 20
-1.3540437149
 30
0.0
 10
4.6184627593
 20
-1.643342347
 30
0.0
 10
4.6927926953
 20
-1.869714432
 30
0.0
 10
4.7563249795
 20
-2.036619876
 30
0.0
 10
4.827524851
 20
-2.2002702066
 30
0.0
 10
4.9324143206
 20
-2.413498019
 30
0.0
 10
5.081844306
 20
-2.6701933621
 30
0.0
 10
5.2889825966
 20
-2.9595739718
 30
0.0
 10
5.5219769986
 20
-3.2277009308
 30
0.0
 10
5.7361768173
 20
-3.4314956712
 30
0.0
 10
5.9182206342
 20
-3.5815147145
 30
0.0
 10
6.0598020176
 20
-3.6872592889
 30
0.0
 10
6.2061377207
 20
-3.7860259999
 30
0.0
 10
6.3568881675
 20
-3.8776085375
 30
0.0
 10
6.5117217832
 20
-3.9617926732
 30
0.0
 10
6.7230401483
 20
-4.0638383112
 30
0.0
 10
6.9958224743
 20
-4.1720918982
 30
0.0
 10
7.3337612184
 20
-4.2696389314
 30
0.0
 10
7.5642452113
 20
-4.3126515978
 30
0.0
 10
7.6800936123
 20
-4.3284923464
 30
0.0
  0
SPLINE
  5
512
100
AcDbEntity
  8
0
100
AcDbSpline
 62
7
  6
CONTINUOUS
 70
0
 71
3
 72
15
 73
11
 74
0
 42
0.0000001
 43
0.0000001
 44
0.0000000001
 40
0.0
 40
0.0
 40
0.0
 40
0.0
 40
0.1437155328
 40
0.2725140471
 40
0.3920415566
 40
0.5069487693
 40
0.6210994253
 40
0.7383329473
 40
0.8628524274
 40
1.0
 40
1.0
 40
1.0
 40
1.0
 10
11.8158749051
 20
14.2672258559
 30
0.0
 10
11.8127735787
 20
14.2702564222
 30
0.0
 10
11.8064333974
 20
14.2755669715
 30
0.0
 10
11.7960769531
 20
14.2814232367
 30
0.0
 10
11.7856186997
 20
14.2849109997
 30
0.0
 10
11.7751355402
 20
14.2863465031
 30
0.0
 10
11.764640892
 20
14.2857153762
 30
0.0
 10
11.754172936
 20
14.2830523884
 30
0.0
 10
11.7437612294
 20
14.2781712561
 30
0.0
 10
11.7373321404
 20
14.2735017867
 30
0.0
 10
11.734188258
 20
14.2708112038
 30
0.0
  0
SPLINE
  5
513
100
AcDbEntity
  8
0
100
AcDbSpline
 62
7
  6
CONTINUOUS
 70
0
 71
3
 72
9
 73
5
 74
0
 42
0.0000001
 43
0.0000001
 44
0.0000000001
 40
0.0
 40
0.0
 40
0.0
 40
0.0
 40
0.2336036892
 40
1.0
 40
1.0
 40
1.0
 40
1.0
 10
11.7318958445
 20
14.2687706365
 30
0.0
 10
11.7308435307
 20
14.2677970248
 30
0.0
 10
11.7264498244
 20
14.2635097993
 30
0.0
 10
11.7225209947
 20
14.2587550378
 30
0.0
 10
11.7197662685
 20
14.2549427916
 30
0.0
  0
SPLINE
  5
514
100
AcDbEntity
  8
0
100
AcDbSpline
 62
7
  6
CONTINUOUS
 70
0
 71
3
 72
9
 73
5
 74
0
 42
0.0000001
 43
0.0000001
 44
0.0000000001
 40
0.0
 40
0.0
 40
0.0
 40
0.0
 40
0.2382436629
 40
1.0
 40
1.0
 40
1.0
 40
1.0
 10
11.7197662685
 20
14.2549427916
 30
0.0
 10
11.7191314126
 20
14.2540642191
 30
0.0
 10
11.7165218944
 20
14.2503367545
 30
0.0
 10
11.7141336301
 20
14.2464558443
 30
0.0
 10
11.7124286163
 20
14.2434384678
 30
0.0
  0
SPLINE
  5
515
100
AcDbEntity
  8
0
100
AcDbSpline
 62
9
  6
CONTINUOUS
 70
0
 71
3
 72
10
 73
6
 74
0
 42
0.0000001
 43
0.0000001
 44
0.0000000001
 40
0.0
 40
0.0
 40
0.0
 40
0.0
 40
0.17410401
 40
0.3999312205
 40
1.0
 40
1.0
 40
1.0
 40
1.0
 10
4.4911488161
 20
-0.2841541003
 30
0.0
 10
4.4930101876
 20
-0.2841541003
 30
0.0
 10
4.4972858042
 20
-0.2842193333
 30
0.0
 10
4.507972401
 20
-0.284534147
 30
0.0
 10
4.5167939998
 20
-0.284925613
 30
0.0
 10
4.5232020364
 20
-0.2852333869
 30
0.0
  0
SPLINE
  5
516
100
AcDbEntity
  8
0
100
AcDbSpline
 62
9
  6
CONTINUOUS
 70
0
 71
3
 72
33
 73
29
 74
0
 42
0.0000001
 43
0.0000001
 44
0.0000000001
 40
0.0
 40
0.0
 40
0.0
 40
0.0
 40
0.0503628377
 40
0.111636107
 40
0.2603025673
 40
0.3437374578
 40
0.4303239735
 40
0.5177780434
 40
0.60377074
 40
0.6860224135
 40
0.7623507418
 40
0.7976483102
 40
0.8307284846
 40
0.8613653979
 40
0.8893413726
 40
0.9144843241
 40
0.9366381065
 40
0.9556468019
 40
0.971369765
 40
0.9779712817
 40
0.9837205129
 40
0.9886084744
 40
0.9926265676
 40
0.9957670214
 40
0.9980243257
 40
0.9994057538
 40
0.9997847862
 40
1.0
 40
1.0
 40
1.0
 40
1.0
 10
4.5232020364
 20
-0.2852333869
 30
0.0
 10
4.5319478988
 20
-0.2856534451
 30
0.0
 10
4.551328927
 20
-0.2866956933
 30
0.0
 10
4.5965028618
 20
-0.2894136179
 30
0.0
 10
4.6473933103
 20
-0.2928444844
 30
0.0
 10
4.7026573194
 20
-0.2968112846
 30
0.0
 10
4.747296943
 20
-0.3001466549
 30
0.0
 10
4.7923705408
 20
-0.3036393925
 30
0.0
 10
4.8366830815
 20
-0.3071965947
 30
0.0
 10
4.8790572872
 20
-0.3107243343
 30
0.0
 10
4.9126388325
 20
-0.3136309991
 30
0.0
 10
4.9376965552
 20
-0.3158774132
 30
0.0
 10
4.9548387247
 20
-0.3174530691
 30
0.0
 10
4.970709507
 20
-0.3189532202
 30
0.0
 10
4.9852021883
 20
-0.3203681458
 30
0.0
 10
4.9982221963
 20
-0.3216880617
 30
0.0
 10
5.0096856595
 20
-0.322903662
 30
0.0
 10
5.0195140123
 20
-0.3240063462
 30
0.0
 10
5.02664846
 20
-0.3248673409
 30
0.0
 10
5.0314879542
 20
-0.3255017356
 30
0.0
 10
5.0344561402
 20
-0.3259165908
 30
0.0
 10
5.0369756708
 20
-0.3262980936
 30
0.0
 10
5.0390406591
 20
-0.3266442518
 30
0.0
 10
5.040649944
 20
-0.3269553496
 30
0.0
 10
5.0417939515
 20
-0.3272230593
 30
0.0
 10
5.0424666731
 20
-0.3274421688
 30
0.0
 10
5.0427650259
 20
-0.3276028566
 30
0.0
 10
5.0428326702
 20
-0.3277003335
 30
0.0
 10
5.0428289433
 20
-0.3277375639
 30
0.0
  0
SPLINE
  5
517
100
AcDbEntity
  8
0
100
AcDbSpline
 62
9
  6
CONTINUOUS
 70
0
 71
3
 72
11
 73
7
 74
0
 42
0.0000001
 43
0.0000001
 44
0.0000000001
 40
0.0
 40
0.0
 40
0.0
 40
0.0
 40
0.2415511255
 40
0.4887147724
 40
0.7415349
 40
1.0
 40
1.0
 40
1.0
 40
1.0
 10
11.0787890596
 20
12.785763248
 30
0.0
 10
11.0873604906
 20
12.6885715313
 30
0.0
 10
11.1085884286
 20
12.4922560264
 30
0.0
 10
11.151404315
 20
12.1957510402
 30
0.0
 10
11.2050496367
 20
11.8940773936
 30
0.0
 10
11.2472345674
 20
11.6918772686
 30
0.0
 10
11.2699210747
 20
11.5899710318
 30
0.0
  0
LINE
  5
518
100
AcDbEntity
  8
0
100
AcDbLine
 62
9
  6
CONTINUOUS
 10
11.2699210747
 20
11.5899710318
 11
11.2767969959
 21
11.559278722
  0
SPLINE
  5
519
100
AcDbEntity
  8
0
100
AcDbSpline
 62
9
  6
CONTINUOUS
 70
0
 71
3
 72
49
 73
45
 74
0
 42
0.0000001
 43
0.0000001
 44
0.0000000001
 40
0.0
 40
0.0
 40
0.0
 40
0.0
 40
0.0330721554
 40
0.0673469275
 40
0.102750943
 40
0.1391901108
 40
0.1765520169
 40
0.214714041
 40
0.2535458888
 40
0.2929111283
 40
0.3326659902
 40
0.3726600759
 40
0.4527499229
 40
0.5319303629
 40
0.5707790823
 40
0.608917427
 40
0.6461827614
 40
0.6824131504
 40
0.717445482
 40
0.7511172241
 40
0.7832679351
 40
0.813738522
 40
0.8423756664
 40
0.855958036
 40
0.8690231442
 40
0.881552706
 40
0.8935297782
 40
0.9049374925
 40
0.9157595581
 40
0.9259812385
 40
0.9355877114
 40
0.9445671926
 40
0.9529121844
 40
0.9606198335
 40
0.9676974748
 40
0.9741674161
 40
0.9800635584
 40
0.9854679705
 40
0.988020778
 40
0.9904918592
 40
0.9929004587
 40
0.9952710882
 40
0.9976290946
 40
1.0
 40
1.0
 40
1.0
 40
1.0
 10
11.2767969959
 20
11.559278722
 30
0.0
 10
11.3198047971
 20
11.3684967458
 30
0.0
 10
11.4169745232
 20
10.9821164615
 30
0.0
 10
11.589332846
 20
10.3993271627
 30
0.0
 10
11.7882930934
 20
9.8040654837
 30
0.0
 10
12.011194639
 20
9.1978933718
 30
0.0
 10
12.2554906485
 20
8.5824612768
 30
0.0
 10
12.5185964242
 20
7.9594621529
 30
0.0
 10
12.7979326745
 20
7.3305977887
 30
0.0
 10
13.0909038141
 20
6.6975850299
 30
0.0
 10
13.3949260054
 20
6.0621854092
 30
0.0
 10
13.8117883411
 20
5.213867743
 30
0.0
 10
14.3444994865
 20
4.1627855819
 30
0.0
 10
14.8827136603
 20
3.1221711508
 30
0.0
 10
15.307089917
 20
2.3019714762
 30
0.0
 10
15.616340826
 20
1.7012796265
 30
0.0
 10
15.9159841785
 20
1.1130605873
 30
0.0
 10
16.2034078322
 20
0.5392421691
 30
0.0
 10
16.4760198746
 20
-0.0182029
 30
0.0
 10
16.7312306422
 20
-0.5572580216
 30
0.0
 10
16.9664346007
 20
-1.0758689126
 30
0.0
 10
17.1790287552
 20
-1.5719279826
 30
0.0
 10
17.3378246378
 20
-1.971447228
 30
0.0
 10
17.45078426
 20
-2.2782500816
 30
0.0
 10
17.5267147737
 20
-2.4971402697
 30
0.0
 10
17.5950556239
 20
-2.7085657347
 30
0.0
 10
17.6554880497
 20
-2.9121870647
 30
0.0
 10
17.7077239279
 20
-3.1076349828
 30
0.0
 10
17.751495068
 20
-3.2945117865
 30
0.0
 10
17.7865260351
 20
-3.4723857979
 30
0.0
 10
17.8126759801
 20
-3.6407722389
 30
0.0
 10
17.829754299
 20
-3.7991743376
 30
0.0
 10
17.8377557493
 20
-3.9470630466
 30
0.0
 10
17.8367641103
 20
-4.083938963
 30
0.0
 10
17.8268803747
 20
-4.2093606784
 30
0.0
 10
17.8086258206
 20
-4.3230275798
 30
0.0
 10
17.7823605824
 20
-4.4249490956
 30
0.0
 10
17.7535535948
 20
-4.5018407405
 30
0.0
 10
17.7268513043
 20
-4.5574618523
 30
0.0
 10
17.7054803617
 20
-4.5958999168
 30
0.0
 10
17.6823086785
 20
-4.632008543
 30
0.0
 10
17.657173859
 20
-4.6659543537
 30
0.0
 10
17.6299224318
 20
-4.6979314334
 30
0.0
 10
17.6103577759
 20
-4.7179464391
 30
0.0
 10
17.6002339289
 20
-4.7276455384
 30
0.0
  0
SPLINE
  5
51A
100
AcDbEntity
  8
0
100
AcDbSpline
 62
9
  6
CONTINUOUS
 70
0
 71
3
 72
9
 73
5
 74
0
 42
0.0000001
 43
0.0000001
 44
0.0000000001
 40
0.0
 40
0.0
 40
0.0
 40
0.0
 40
0.4852427529
 40
1.0
 40
1.0
 40
1.0
 40
1.0
 10
17.5766730636
 20
-4.7491375501
 30
0.0
 10
17.5584691516
 20
-4.7649502417
 30
0.0
 10
17.5191187574
 20
-4.7954779658
 30
0.0
 10
17.4766894321
 20
-4.8215436042
 30
0.0
 10
17.4542601711
 20
-4.8338412519
 30
0.0
  0
SPLINE
  5
51B
100
AcDbEntity
  8
0
100
AcDbSpline
 62
9
  6
CONTINUOUS
 70
0
 71
3
 72
9
 73
5
 74
0
 42
0.0000001
 43
0.0000001
 44
0.0000000001
 40
0.0
 40
0.0
 40
0.0
 40
0.0
 40
0.2425876718
 40
1.0
 40
1.0
 40
1.0
 40
1.0
 10
17.4542601711
 20
-4.8338412519
 30
0.0
 10
17.4486985448
 20
-4.8368906132
 30
0.0
 10
17.425619318
 20
-4.8491805915
 30
0.0
 10
17.4019485806
 20
-4.860352456
 30
0.0
 10
17.3837776796
 20
-4.8682260745
 30
0.0
  0
SPLINE
  5
51C
100
AcDbEntity
  8
0
100
AcDbSpline
 62
9
  6
CONTINUOUS
 70
0
 71
3
 72
9
 73
5
 74
0
 42
0.0000001
 43
0.0000001
 44
0.0000000001
 40
0.0
 40
0.0
 40
0.0
 40
0.0
 40
0.2386692172
 40
1.0
 40
1.0
 40
1.0
 40
1.0
 10
17.3837776796
 20
-4.8682260745
 30
0.0
 10
17.3747827005
 20
-4.8721236817
 30
0.0
 10
17.3368353396
 20
-4.8878528061
 30
0.0
 10
17.2979081898
 20
-4.901187299
 30
0.0
 10
17.2679434621
 20
-4.910130826
 30
0.0
  0
SPLINE
  5
51D
100
AcDbEntity
  8
0
100
AcDbSpline
 62
9
  6
CONTINUOUS
 70
0
 71
3
 72
9
 73
5
 74
0
 42
0.0000001
 43
0.0000001
 44
0.0000000001
 40
0.0
 40
0.0
 40
0.0
 40
0.0
 40
0.2406795926
 40
1.0
 40
1.0
 40
1.0
 40
1.0
 10
17.2679434621
 20
-4.910130826
 30
0.0
 10
17.2594258797
 20
-4.912673056
 30
0.0
 10
17.2239163212
 20
-4.9228320076
 30
0.0
 10
17.1879537968
 20
-4.9313906869
 30
0.0
 10
17.1604933883
 20
-4.9370797724
 30
0.0
  0
SPLINE
  5
51E
100
AcDbEntity
  8
0
100
AcDbSpline
 62
9
  6
CONTINUOUS
 70
0
 71
3
 72
9
 73
5
 74
0
 42
0.0000001
 43
0.0000001
 44
0.0000000001
 40
0.0
 40
0.0
 40
0.0
 40
0.0
 40
0.2410725421
 40
1.0
 40
1.0
 40
1.0
 40
1.0
 10
17.1604933883
 20
-4.9370797724
 30
0.0
 10
17.1512692808
 20
-4.9389907687
 30
0.0
 10
17.1129285474
 20
-4.9465393609
 30
0.0
 10
17.074297233
 20
-4.9525904443
 30
0.0
 10
17.0448934695
 20
-4.9564448774
 30
0.0
  0
SPLINE
  5
51F
100
AcDbEntity
  8
0
100
AcDbSpline
 62
9
  6
CONTINUOUS
 70
0
 71
3
 72
9
 73
5
 74
0
 42
0.0000001
 43
0.0000001
 44
0.0000000001
 40
0.0
 40
0.0
 40
0.0
 40
0.0
 40
0.2383680881
 40
1.0
 40
1.0
 40
1.0
 40
1.0
 10
16.9566732932
 20
-4.9658775115
 30
0.0
 10
16.9409996499
 20
-4.967194812
 30
0.0
 10
16.8751830557
 20
-4.9719657036
 30
0.0
 10
16.8091650394
 20
-4.973802687
 30
0.0
 10
16.7589081724
 20
-4.9738212789
 30
0.0
  0
SPLINE
  5
520
100
AcDbEntity
  8
0
100
AcDbSpline
 62
9
  6
CONTINUOUS
 70
0
 71
3
 72
9
 73
5
 74
0
 42
0.0000001
 43
0.0000001
 44
0.0000000001
 40
0.0
 40
0.0
 40
0.0
 40
0.0
 40
0.4797538312
 40
1.0
 40
1.0
 40
1.0
 40
1.0
 10
16.7584781791
 20
-5.5338470341
 30
0.0
 10
16.6670170966
 20
-5.5338449273
 30
0.0
 10
16.4763366834
 20
-5.5259382957
 30
0.0
 10
16.2866974551
 20
-5.5052111173
 30
0.0
 10
16.188431231
 20
-5.4917745007
 30
0.0
  0
SPLINE
  5
521
100
AcDbEntity
  8
0
100
AcDbSpline
 62
9
  6
CONTINUOUS
 70
0
 71
3
 72
36
 73
32
 74
0
 42
0.0000001
 43
0.0000001
 44
0.0000000001
 40
0.0
 40
0.0
 40
0.0
 40
0.0
 40
0.0049711329
 40
0.0101864848
 40
0.0158451216
 40
0.0221005008
 40
0.0367933114
 40
0.0548196119
 40
0.0763420726
 40
0.1013593001
 40
0.1297853376
 40
0.161426255
 40
0.1960360909
 40
0.2333512814
 40
0.3147884655
 40
0.4029032613
 40
0.4945588371
 40
0.5864657655
 40
0.6753156389
 40
0.7579482985
 40
0.8314553016
 40
0.8640196714
 40
0.8934273847
 40
0.9194800582
 40
0.9420648178
 40
0.9611342387
 40
0.9767928124
 40
0.9834643909
 40
0.9894650637
 40
0.9949196248
 40
1.0
 40
1.0
 40
1.0
 40
1.0
 10
7.7559600839
 20
-3.7736568589
 30
0.0
 10
7.7569280528
 20
-3.7737908999
 30
0.0
 10
7.7588858147
 20
-3.7742990988
 30
0.0
 10
7.761676745
 20
-3.7757277999
 30
0.0
 10
7.7643461122
 20
-3.7778079366
 30
0.0
 10
7.7679311589
 20
-3.7816393544
 30
0.0
 10
7.7720093766
 20
-3.788200183
 30
0.0
 10
7.7761228315
 20
-3.7980626695
 30
0.0
 10
7.779709316
 20
-3.8102580264
 30
0.0
 10
7.7827328123
 20
-3.8246921418
 30
0.0
 10
7.7851577633
 20
-3.8412492883
 30
0.0
 10
7.7869658556
 20
-3.859778153
 30
0.0
 10
7.7881390876
 20
-3.8801075516
 30
0.0
 10
7.7888450721
 20
-3.9102512937
 30
0.0
 10
7.7879609157
 20
-3.9509285932
 30
0.0
 10
7.7843939201
 20
-4.0021675588
 30
0.0
 10
7.778413549
 20
-4.055252863
 30
0.0
 10
7.7702292121
 20
-4.108188696
 30
0.0
 10
7.7601609481
 20
-4.1589941885
 30
0.0
 10
7.7485939144
 20
-4.2057622715
 30
0.0
 10
7.7376819088
 20
-4.2412473997
 30
0.0
 10
7.7283939201
 20
-4.2662147381
 30
0.0
 10
7.7216250004
 20
-4.282147644
 30
0.0
 10
7.714831455
 20
-4.2959140923
 30
0.0
 10
7.708080284
 20
-4.3074041621
 30
0.0
 10
7.7014276871
 20
-4.3165216955
 30
0.0
 10
7.6957087806
 20
-4.3223845039
 30
0.0
 10
7.6911872595
 20
-4.3256591658
 30
0.0
 10
7.6880293944
 20
-4.3273400813
 30
0.0
 10
7.6849275395
 20
-4.3283689069
 30
0.0
 10
7.6828514407
 20
-4.3286115285
 30
0.0
 10
7.6818527606
 20
-4.3286115285
 30
0.0
  0
SPLINE
  5
522
100
AcDbEntity
  8
0
100
AcDbSpline
 62
9
  6
CONTINUOUS
 70
0
 71
3
 72
36
 73
32
 74
0
 42
0.0000001
 43
0.0000001
 44
0.0000000001
 40
0.0
 40
0.0
 40
0.0
 40
0.0
 40
0.0002345066
 40
0.0006720677
 40
0.0022950733
 40
0.0049582639
 40
0.008663966
 40
0.0134032298
 40
0.0191650734
 40
0.0259377356
 40
0.0337090927
 40
0.0424668296
 40
0.0521962587
 40
0.0744736161
 40
0.1003369544
 40
0.12957947
 40
0.1619755935
 40
0.1972386533
 40
0.235069401
 40
0.2751660214
 40
0.3607900035
 40
0.4512464065
 40
0.543531671
 40
0.6345649852
 40
0.7213266527
 40
0.8009160975
 40
0.8706849986
 40
0.9283239179
 40
0.9719209154
 40
0.9879777552
 40
1.0
 40
1.0
 40
1.0
 40
1.0
 10
5.7596094235
 20
8.965256323
 30
0.0
 10
5.7596137342
 20
8.9652993855
 30
0.0
 10
5.7595220776
 20
8.9654118122
 30
0.0
 10
5.7591495421
 20
8.9655902449
 30
0.0
 10
5.7583009845
 20
8.9658456232
 30
0.0
 10
5.7568657495
 20
8.966154926
 30
0.0
 10
5.7548451957
 20
8.9665204337
 30
0.0
 10
5.7522563357
 20
8.966928181
 30
0.0
 10
5.7491001745
 20
8.9673800108
 30
0.0
 10
5.745385408
 20
8.9678727994
 30
0.0
 10
5.7411181927
 20
8.9684057834
 30
0.0
 10
5.7363060817
 20
8.9689776032
 30
0.0
 10
5.7288313954
 20
8.9698291924
 30
0.0
 10
5.7182129941
 20
8.9709737037
 30
0.0
 10
5.7040060904
 20
8.9724262387
 30
0.0
 10
5.6879345971
 20
8.9739999454
 30
0.0
 10
5.6701307521
 20
8.975681129
 30
0.0
 10
5.6507438512
 20
8.9774560365
 30
0.0
 10
5.6299371637
 20
8.9793096084
 30
0.0
 10
5.5998673505
 20
8.9819221961
 30
0.0
 10
5.5601118962
 20
8.9852576948
 30
0.0
 10
5.5107453449
 20
8.9892339384
 30
0.0
 10
5.4603714013
 20
8.9931342258
 30
0.0
 10
5.4106656014
 20
8.9968279097
 30
0.0
 10
5.3632851036
 20
9.000193627
 30
0.0
 10
5.3198078177
 20
9.0031185646
 30
0.0
 10
5.2816816116
 20
9.0055111978
 30
0.0
 10
5.2501732068
 20
9.0072904691
 30
0.0
 10
5.2285504882
 20
9.0083191314
 30
0.0
 10
5.2153296995
 20
9.0087483101
 30
0.0
 10
5.2101479777
 20
9.0088397866
 30
0.0
 10
5.2079292963
 20
9.0088397866
 30
0.0
  0
SPLINE
  5
523
100
AcDbEntity
  8
0
100
AcDbSpline
 62
7
  6
CONTINUOUS
 70
0
 71
3
 72
19
 73
15
 74
0
 42
0.0000001
 43
0.0000001
 44
0.0000000001
 40
0.0
 40
0.0
 40
0.0
 40
0.0
 40
0.1252027587
 40
0.1878713628
 40
0.2503931395
 40
0.3128278892
 40
0.3752403305
 40
0.4999999663
 40
0.6247597547
 40
0.6871722014
 40
0.7496068432
 40
0.8121284958
 40
0.8747970771
 40
1.0
 40
1.0
 40
1.0
 40
1.0
 10
11.6373260795
 20
14.2434384678
 30
0.0
 10
11.62242972
 20
14.2515617141
 30
0.0
 10
11.598828046
 20
14.2615495046
 30
0.0
 10
11.5662879471
 20
14.2712013278
 30
0.0
 10
11.5414816382
 20
14.2768692822
 30
0.0
 10
11.5164276341
 20
14.2810751512
 30
0.0
 10
11.4828077508
 20
14.2849127006
 30
0.0
 10
11.4405167069
 20
14.2868009018
 30
0.0
 10
11.3982257657
 20
14.284911569
 30
0.0
 10
11.3646058298
 20
14.2810745277
 30
0.0
 10
11.3395517567
 20
14.2768692596
 30
0.0
 10
11.3147453666
 20
14.2712017861
 30
0.0
 10
11.2822052646
 20
14.2615498956
 30
0.0
 10
11.2586037452
 20
14.2515617248
 30
0.0
 10
11.2437073661
 20
14.2434384678
 30
0.0
  0
SPLINE
  5
524
100
AcDbEntity
  8
0
100
AcDbSpline
 62
7
  6
CONTINUOUS
 70
0
 71
3
 72
15
 73
11
 74
0
 42
0.0000001
 43
0.0000001
 44
0.0000000001
 40
0.0
 40
0.0
 40
0.0
 40
0.0
 40
0.1331712605
 40
0.2610854132
 40
0.3855227981
 40
0.5081989661
 40
0.63016934
 40
0.7522060285
 40
0.8750905388
 40
1.0
 40
1.0
 40
1.0
 40
1.0
 10
11.1465747947
 20
14.2434384678
 30
0.0
 10
11.1384041725
 20
14.2498784741
 30
0.0
 10
11.1211877325
 20
14.2610532202
 30
0.0
 10
11.0934707489
 20
14.2731038223
 30
0.0
 10
11.0651670314
 20
14.2809892934
 30
0.0
 10
11.0365934704
 20
14.2852755269
 30
0.0
 10
11.0079241194
 20
14.2865419113
 30
0.0
 10
10.9792643605
 20
14.2847532853
 30
0.0
 10
10.9507239011
 20
14.2799019503
 30
0.0
 10
10.9321332989
 20
14.2742581136
 30
0.0
 10
10.9230166654
 20
14.2707785982
 30
0.0
  0
SPLINE
  5
525
100
AcDbEntity
  8
0
100
AcDbSpline
 62
7
  6
CONTINUOUS
 70
0
 71
3
 72
9
 73
5
 74
0
 42
0.0000001
 43
0.0000001
 44
0.0000000001
 40
0.0
 40
0.0
 40
0.0
 40
0.0
 40
0.4905243535
 40
1.0
 40
1.0
 40
1.0
 40
1.0
 10
10.9230166654
 20
14.2707785982
 30
0.0
 10
10.914450857
 20
14.2675093144
 30
0.0
 10
10.8974002669
 20
14.2596897143
 30
0.0
 10
10.8817245783
 20
14.249333251
 30
0.0
 10
10.8742456965
 20
14.2434384678
 30
0.0
  0
SPLINE
  5
526
100
AcDbEntity
  8
0
100
AcDbSpline
 62
7
  6
CONTINUOUS
 70
0
 71
3
 72
9
 73
5
 74
0
 42
0.0000001
 43
0.0000001
 44
0.0000000001
 40
0.0
 40
0.0
 40
0.0
 40
0.0
 40
0.5095696223
 40
1.0
 40
1.0
 40
1.0
 40
1.0
 10
10.8742456965
 20
13.8380880281
 30
0.0
 10
10.8818640849
 20
13.8320832872
 30
0.0
 10
10.8978489805
 20
13.8215588175
 30
0.0
 10
10.9152493614
 20
13.8136668021
 30
0.0
 10
10.9239880761
 20
13.8103810928
 30
0.0
  0
SPLINE
  5
527
100
AcDbEntity
  8
0
100
AcDbSpline
 62
7
  6
CONTINUOUS
 70
0
 71
3
 72
15
 73
11
 74
0
 42
0.0000001
 43
0.0000001
 44
0.0000000001
 40
0.0
 40
0.0
 40
0.0
 40
0.0
 40
0.1248319412
 40
0.2476752401
 40
0.3697002215
 40
0.491677371
 40
0.6143637704
 40
0.7388397257
 40
0.8668063902
 40
1.0
 40
1.0
 40
1.0
 40
1.0
 10
10.9239880761
 20
13.8103810928
 30
0.0
 10
10.9330759691
 20
13.8069640943
 30
0.0
 10
10.9515975917
 20
13.8014253966
 30
0.0
 10
10.9800160615
 20
13.7966828752
 30
0.0
 10
11.008550162
 20
13.7949777298
 30
0.0
 10
11.0370903565
 20
13.7962983453
 30
0.0
 10
11.0655347218
 20
13.8006156846
 30
0.0
 10
11.0937083736
 20
13.8085126003
 30
0.0
 10
11.1213001374
 20
13.8205378086
 30
0.0
 10
11.1384388076
 20
13.8316753208
 30
0.0
 10
11.1465747947
 20
13.8380880281
 30
0.0
  0
SPLINE
  5
528
100
AcDbEntity
  8
0
100
AcDbSpline
 62
7
  6
CONTINUOUS
 70
0
 71
3
 72
19
 73
15
 74
0
 42
0.0000001
 43
0.0000001
 44
0.0000000001
 40
0.0
 40
0.0
 40
0.0
 40
0.0
 40
0.1252023579
 40
0.1879035176
 40
0.2504610085
 40
0.3128877043
 40
0.3752725333
 40
0.4999996576
 40
0.6247275111
 40
0.6871129392
 40
0.7495399275
 40
0.8120970547
 40
0.8747978299
 40
1.0
 40
1.0
 40
1.0
 40
1.0
 10
11.2437073661
 20
13.8380880281
 30
0.0
 10
11.2586038025
 20
13.8299647399
 30
0.0
 10
11.2822059163
 20
13.8199661468
 30
0.0
 10
11.3147573316
 20
13.8103176
 30
0.0
 10
11.3395732115
 20
13.8046548033
 30
0.0
 10
11.364626351
 20
13.8004432571
 30
0.0
 10
11.3982375127
 20
13.7966055106
 30
0.0
 10
11.440516721
 20
13.7947338068
 30
0.0
 10
11.4827960181
 20
13.7966052844
 30
0.0
 10
11.5164074252
 20
13.8004428353
 30
0.0
 10
11.5414606306
 20
13.8046544552
 30
0.0
 10
11.5662763892
 20
13.8103175098
 30
0.0
 10
11.5988276168
 20
13.8199662232
 30
0.0
 10
11.6224296655
 20
13.8299647521
 30
0.0
 10
11.6373260795
 20
13.8380880281
 30
0.0
  0
SPLINE
  5
529
100
AcDbEntity
  8
0
100
AcDbSpline
 62
7
  6
CONTINUOUS
 70
0
 71
3
 72
9
 73
5
 74
0
 42
0.0000001
 43
0.0000001
 44
0.0000000001
 40
0.0
 40
0.0
 40
0.0
 40
0.0
 40
0.5457337213
 40
1.0
 40
1.0
 40
1.0
 40
1.0
 10
11.7124286163
 20
13.8380880281
 30
0.0
 10
11.7157957938
 20
13.8321291074
 30
0.0
 10
11.7227791071
 20
13.8216237015
 30
0.0
 10
11.7316890225
 20
13.8126532293
 30
0.0
 10
11.7361408771
 20
13.8090979261
 30
0.0
  0
SPLINE
  5
52A
100
AcDbEntity
  8
0
100
AcDbSpline
 62
7
  6
CONTINUOUS
 70
0
 71
3
 72
15
 73
11
 74
0
 42
0.0000001
 43
0.0000001
 44
0.0000000001
 40
0.0
 40
0.0
 40
0.0
 40
0.0
 40
0.1349556302
 40
0.2584242608
 40
0.3754087476
 40
0.4898644943
 40
0.6054102886
 40
0.7257486161
 40
0.8554795498
 40
1.0
 40
1.0
 40
1.0
 40
1.0
 10
11.7361408771
 20
13.8090979261
 30
0.0
 10
11.739233762
 20
13.8066279121
 30
0.0
 10
11.7455516949
 20
13.8023555683
 30
0.0
 10
11.7557136481
 20
13.797959742
 30
0.0
 10
11.7659214309
 20
13.7956406146
 30
0.0
 10
11.7761507942
 20
13.7952492297
 30
0.0
 10
11.7863663764
 20
13.7968055607
 30
0.0
 10
11.7965584495
 20
13.8003317815
 30
0.0
 10
11.8066451992
 20
13.8061337892
 30
0.0
 10
11.8128420829
 20
13.8113311289
 30
0.0
 10
11.815874205
 20
13.8142929838
 30
0.0
  0
SPLINE
  5
52B
100
AcDbEntity
  8
0
100
AcDbSpline
 62
9
  6
CONTINUOUS
 70
0
 71
3
 72
37
 73
33
 74
0
 42
0.0000001
 43
0.0000001
 44
0.0000000001
 40
0.0
 40
0.0
 40
0.0
 40
0.0
 40
0.0067105561
 40
0.0146362411
 40
0.0244143524
 40
0.0366571644
 40
0.0519222695
 40
0.070713624
 40
0.0935172543
 40
0.1208110879
 40
0.1529988284
 40
0.1900901558
 40
0.2319540328
 40
0.2784606617
 40
0.329388023
 40
0.3838548208
 40
0.4406988443
 40
0.4987572206
 40
0.6139122627
 40
0.6687663242
 40
0.720301139
 40
0.8097907401
 40
0.8472621796
 40
0.8797911615
 40
0.9073407034
 40
0.9302023246
 40
0.9488956544
 40
0.9639601985
 40
0.9759574666
 40
0.9854976937
 40
0.9932700126
 40
1.0
 40
1.0
 40
1.0
 40
1.0
 10
16.188431231
 20
-5.4917745007
 30
0.0
 10
16.1897504116
 20
-5.4917745007
 30
0.0
 10
16.1926385231
 20
-5.4913446645
 30
0.0
 10
16.197072785
 20
-5.4893949872
 30
0.0
 10
16.2018626944
 20
-5.4859138117
 30
0.0
 10
16.2070374302
 20
-5.4806905563
 30
0.0
 10
16.2126331337
 20
-5.4734910194
 30
0.0
 10
16.2186306693
 20
-5.4640427154
 30
0.0
 10
16.2250016541
 20
-5.4520806874
 30
0.0
 10
16.2317087333
 20
-5.437351525
 30
0.0
 10
16.238685757
 20
-5.4196882184
 30
0.0
 10
16.2458453193
 20
-5.3990397735
 30
0.0
 10
16.2530491697
 20
-5.3754462007
 30
0.0
 10
16.2601479747
 20
-5.3489935107
 30
0.0
 10
16.2669561711
 20
-5.3199141748
 30
0.0
 10
16.2733532076
 20
-5.2886652542
 30
0.0
 10
16.2791773743
 20
-5.2558795287
 30
0.0
 10
16.2859312303
 20
-5.2111571185
 30
0.0
 10
16.290801843
 20
-5.1665620219
 30
0.0
 10
16.2937981458
 20
-5.1231086365
 30
0.0
 10
16.2953732564
 20
-5.0846321757
 30
0.0
 10
16.2952229779
 20
-5.0495070105
 30
0.0
 10
16.2931680346
 20
-5.0182132585
 30
0.0
 10
16.2910647899
 20
-4.9991448424
 30
0.0
 10
16.2884226236
 20
-4.9830462682
 30
0.0
 10
16.2853413915
 20
-4.9698031784
 30
0.0
 10
16.2819303444
 20
-4.9591916378
 30
0.0
 10
16.2782828646
 20
-4.9509467709
 30
0.0
 10
16.2744954814
 20
-4.944795872
 30
0.0
 10
16.2706080652
 20
-4.9404844894
 30
0.0
 10
16.2666352777
 20
-4.9378182714
 30
0.0
 10
16.2638534873
 20
-4.9369907074
 30
0.0
 10
16.2625421539
 20
-4.9368153928
 30
0.0
  0
ELLIPSE
  5
52C
100
AcDbEntity
  8
0
100
AcDbEllipse
 62
7
  6
CONTINUOUS
 10
6.8825816974
 20
22.8796569752
 30
0.0
 11
0.0150088799
 21
0.0086653808
 31
0.0
 40
0.9900227071
 41
0.0
 42
6.2831853072
  0
ELLIPSE
  5
52D
100
AcDbEntity
  8
0
100
AcDbEllipse
 62
7
  6
CONTINUOUS
 10
3.9262017849
 20
21.65508432
 30
0.0
 11
0.0167402303
 21
0.0044855312
 31
0.0
 40
0.9900227071
 41
0.0
 42
6.2831853072
  0
ELLIPSE
  5
52E
100
AcDbEntity
  8
0
100
AcDbEllipse
 62
7
  6
CONTINUOUS
 10
3.8712133109
 20
22.072763248
 30
0.0
 11
0.0173307617
 21
0.0
 31
0.0
 40
0.9900227071
 41
0.0
 42
6.2831853072
  0
ELLIPSE
  5
52F
100
AcDbEntity
  8
0
100
AcDbEllipse
 62
7
  6
CONTINUOUS
 10
3.9262017849
 20
22.4904421759
 30
0.0
 11
0.0167402303
 21
-0.0044855312
 31
0.0
 40
0.9900227071
 41
0.0
 42
6.2831853072
  0
ELLIPSE
  5
530
100
AcDbEntity
  8
0
100
AcDbEllipse
 62
7
  6
CONTINUOUS
 10
6.7778446707
 20
22.6082767276
 30
0.0
 11
0.0161442363
 21
0.0066871616
 31
0.0
 40
0.9960990528
 41
0.0
 42
6.2831853072
  0
ELLIPSE
  5
531
100
AcDbEntity
  8
0
100
AcDbEllipse
 62
7
  6
CONTINUOUS
 10
4.0874198335
 20
22.8796569752
 30
0.0
 11
0.0150088799
 21
-0.0086653808
 31
0.0
 40
0.9900227071
 41
0.0
 42
6.2831853072
  0
ELLIPSE
  5
532
100
AcDbEntity
  8
0
100
AcDbEllipse
 62
7
  6
CONTINUOUS
 10
4.6331218402
 20
20.9625730179
 30
0.0
 11
0.010637738
 21
0.01386337
 31
0.0
 40
0.9960990528
 41
0.0
 42
6.2831853072
  0
ELLIPSE
  5
533
100
AcDbEntity
  8
0
100
AcDbEllipse
 62
7
  6
CONTINUOUS
 10
5.3023470902
 20
20.6853708431
 30
0.0
 11
0.0022808663
 21
0.0173248996
 31
0.0
 40
0.9960990528
 41
0.0
 42
6.2831853072
  0
ELLIPSE
  5
534
100
AcDbEntity
  8
0
100
AcDbEllipse
 62
7
  6
CONTINUOUS
 10
6.0205142451
 20
20.7799193427
 30
0.0
 11
-0.0066871616
 21
0.0161442363
 31
0.0
 40
0.9960990528
 41
0.0
 42
6.2831853072
  0
ELLIPSE
  5
535
100
AcDbEntity
  8
0
100
AcDbEllipse
 62
7
  6
CONTINUOUS
 10
6.5951909955
 20
21.2208843227
 30
0.0
 11
0.01386337
 21
-0.010637738
 31
0.0
 40
0.9960990528
 41
0.0
 42
6.2831853072
  0
ELLIPSE
  5
536
100
AcDbEntity
  8
0
100
AcDbEllipse
 62
7
  6
CONTINUOUS
 10
6.8723931704
 20
21.8901095727
 30
0.0
 11
0.0173248996
 21
-0.0022808663
 31
0.0
 40
0.9960990528
 41
0.0
 42
6.2831853072
  0
ELLIPSE
  5
537
100
AcDbEntity
  8
0
100
AcDbEllipse
 62
7
  6
CONTINUOUS
 10
4.3438807129
 20
23.2138833005
 30
0.0
 11
-0.0122546991
 21
0.0122546991
 31
0.0
 40
0.9900227071
 41
0.0
 42
6.2831853072
  0
ELLIPSE
  5
538
100
AcDbEntity
  8
0
100
AcDbEllipse
 62
7
  6
CONTINUOUS
 10
7.043799746
 20
22.4904421759
 30
0.0
 11
0.0167402303
 21
0.0044855312
 31
0.0
 40
0.9900227071
 41
0.0
 42
6.2831853072
  0
ELLIPSE
  5
539
100
AcDbEntity
  8
0
100
AcDbEllipse
 62
7
  6
CONTINUOUS
 10
7.09878822
 20
22.072763248
 30
0.0
 11
0.0173307617
 21
0.0
 31
0.0
 40
0.9900227071
 41
0.0
 42
6.2831853072
  0
ELLIPSE
  5
53A
100
AcDbEntity
  8
0
100
AcDbEllipse
 62
7
  6
CONTINUOUS
 10
7.043799746
 20
21.65508432
 30
0.0
 11
0.0167402303
 21
-0.0044855312
 31
0.0
 40
0.9900227071
 41
0.0
 42
6.2831853072
  0
ELLIPSE
  5
53B
100
AcDbEntity
  8
0
100
AcDbEllipse
 62
7
  6
CONTINUOUS
 10
6.8825816974
 20
21.2658695207
 30
0.0
 11
0.0150088799
 21
-0.0086653808
 31
0.0
 40
0.9900227071
 41
0.0
 42
6.2831853072
  0
ELLIPSE
  5
53C
100
AcDbEntity
  8
0
100
AcDbEllipse
 62
7
  6
CONTINUOUS
 10
6.626120818
 20
20.9316431954
 30
0.0
 11
-0.0122546991
 21
0.0122546991
 31
0.0
 40
0.9900227071
 41
0.0
 42
6.2831853072
  0
ELLIPSE
  5
53D
100
AcDbEntity
  8
0
100
AcDbEllipse
 62
7
  6
CONTINUOUS
 10
4.6781070382
 20
23.4703441799
 30
0.0
 11
-0.0086653808
 21
0.0150088799
 31
0.0
 40
0.9900227071
 41
0.0
 42
6.2831853072
  0
ELLIPSE
  5
53E
100
AcDbEntity
  8
0
100
AcDbEllipse
 62
7
  6
CONTINUOUS
 10
6.2918944928
 20
20.675182316
 30
0.0
 11
-0.0086653808
 21
0.0150088799
 31
0.0
 40
0.9900227071
 41
0.0
 42
6.2831853072
  0
ELLIPSE
  5
53F
100
AcDbEntity
  8
0
100
AcDbEllipse
 62
7
  6
CONTINUOUS
 10
5.9026796935
 20
20.5139642674
 30
0.0
 11
-0.0044855312
 21
0.0167402303
 31
0.0
 40
0.9900227071
 41
0.0
 42
6.2831853072
  0
ELLIPSE
  5
540
100
AcDbEntity
  8
0
100
AcDbEllipse
 62
7
  6
CONTINUOUS
 10
5.4850007655
 20
20.4589757934
 30
0.0
 11
-0.0
 21
0.0173307617
 31
0.0
 40
0.9900227071
 41
0.0
 42
6.2831853072
  0
ELLIPSE
  5
541
100
AcDbEntity
  8
0
100
AcDbEllipse
 62
7
  6
CONTINUOUS
 10
5.0673218375
 20
20.5139642674
 30
0.0
 11
0.0044855312
 21
0.0167402303
 31
0.0
 40
0.9900227071
 41
0.0
 42
6.2831853072
  0
ELLIPSE
  5
542
100
AcDbEntity
  8
0
100
AcDbEllipse
 62
7
  6
CONTINUOUS
 10
4.6781070382
 20
20.675182316
 30
0.0
 11
0.0086653808
 21
0.0150088799
 31
0.0
 40
0.9900227071
 41
0.0
 42
6.2831853072
  0
ELLIPSE
  5
543
100
AcDbEntity
  8
0
100
AcDbEllipse
 62
7
  6
CONTINUOUS
 10
5.0673218375
 20
23.6315622285
 30
0.0
 11
-0.0044855312
 21
0.0167402303
 31
0.0
 40
0.9900227071
 41
0.0
 42
6.2831853072
  0
ELLIPSE
  5
544
100
AcDbEntity
  8
0
100
AcDbEllipse
 62
7
  6
CONTINUOUS
 10
4.3438807129
 20
20.9316431954
 30
0.0
 11
0.0122546991
 21
0.0122546991
 31
0.0
 40
0.9900227071
 41
0.0
 42
6.2831853072
  0
ELLIPSE
  5
545
100
AcDbEntity
  8
0
100
AcDbEllipse
 62
7
  6
CONTINUOUS
 10
5.4850007655
 20
23.6865507025
 30
0.0
 11
-0.0
 21
0.0173307617
 31
0.0
 40
0.9900227071
 41
0.0
 42
6.2831853072
  0
ELLIPSE
  5
546
100
AcDbEntity
  8
0
100
AcDbEllipse
 62
7
  6
CONTINUOUS
 10
6.3368796908
 20
23.182953478
 30
0.0
 11
0.010637738
 21
0.01386337
 31
0.0
 40
0.9960990528
 41
0.0
 42
6.2831853072
  0
ELLIPSE
  5
547
100
AcDbEntity
  8
0
100
AcDbEllipse
 62
7
  6
CONTINUOUS
 10
5.6676544407
 20
23.4601556528
 30
0.0
 11
0.0022808663
 21
0.0173248996
 31
0.0
 40
0.9960990528
 41
0.0
 42
6.2831853072
  0
ELLIPSE
  5
548
100
AcDbEntity
  8
0
100
AcDbEllipse
 62
7
  6
CONTINUOUS
 10
4.9494872859
 20
23.3656071532
 30
0.0
 11
-0.0066871616
 21
0.0161442363
 31
0.0
 40
0.9960990528
 41
0.0
 42
6.2831853072
  0
ELLIPSE
  5
549
100
AcDbEntity
  8
0
100
AcDbEllipse
 62
7
  6
CONTINUOUS
 10
4.3748105354
 20
22.9246421733
 30
0.0
 11
0.01386337
 21
-0.010637738
 31
0.0
 40
0.9960990528
 41
0.0
 42
6.2831853072
  0
ELLIPSE
  5
54A
100
AcDbEntity
  8
0
100
AcDbEllipse
 62
7
  6
CONTINUOUS
 10
5.9026796935
 20
23.6315622285
 30
0.0
 11
0.0044855312
 21
0.0167402303
 31
0.0
 40
0.9900227071
 41
0.0
 42
6.2831853072
  0
ELLIPSE
  5
54B
100
AcDbEntity
  8
0
100
AcDbEllipse
 62
7
  6
CONTINUOUS
 10
4.0976083606
 20
22.2554169232
 30
0.0
 11
0.0173248996
 21
-0.0022808663
 31
0.0
 40
0.9960990528
 41
0.0
 42
6.2831853072
  0
ELLIPSE
  5
54C
100
AcDbEntity
  8
0
100
AcDbEllipse
 62
7
  6
CONTINUOUS
 10
4.1921568602
 20
21.5372497684
 30
0.0
 11
0.0161442363
 21
0.0066871616
 31
0.0
 40
0.9960990528
 41
0.0
 42
6.2831853072
  0
ELLIPSE
  5
54D
100
AcDbEntity
  8
0
100
AcDbEllipse
 62
7
  6
CONTINUOUS
 10
6.626120818
 20
23.2138833005
 30
0.0
 11
0.0122546991
 21
0.0122546991
 31
0.0
 40
0.9900227071
 41
0.0
 42
6.2831853072
  0
ELLIPSE
  5
54E
100
AcDbEntity
  8
0
100
AcDbEllipse
 62
7
  6
CONTINUOUS
 10
6.2918944928
 20
23.4703441799
 30
0.0
 11
0.0086653808
 21
0.0150088799
 31
0.0
 40
0.9900227071
 41
0.0
 42
6.2831853072
  0
ENDSEC
  0
SECTION
  2
OBJECTS
  0
DICTIONARY
  5
C
100
AcDbDictionary
280
0
281
1
  3
ACAD_GROUP
350
D
  3
ACAD_MLINESTYLE
350
17
  3
ACAD_LAYOUT
350
1A
  3
ACAD_PLOTSETTINGS
350
19
  3
ACAD_PLOTSTYLENAME
350
E
  0
DICTIONARY
  5
D
102
{ACAD_REACTORS
330
C
102
}
100
AcDbDictionary
280
0
281
1
  0
ACDBDICTIONARYWDFLT
  5
E
102
{ACAD_REACTORS
330
C
102
}
100
AcDbDictionary
281
1
  3
Normal
350
F
100
AcDbDictionaryWithDefault
340
F
  0
DICTIONARY
  5
17
102
{ACAD_REACTORS
330
C
102
}
100
AcDbDictionary
280
0
281
1
  3
Standard
350
18
  0
DICTIONARY
  5
19
102
{ACAD_REACTORS
330
C
102
}
100
AcDbDictionary
281
1
  0
DICTIONARY
  5
1A
102
{ACAD_REACTORS
330
C
102
}
100
AcDbDictionary
281
1
  3
Model
350
54F
  3
Layout1
350
550
  0
ACDBPLACEHOLDER
  5
F
102
{ACAD_REACTORS
330
E
102
}
  0
MLINESTYLE
  5
18
102
{ACAD_REACTORS
330
17
102
}
100
AcDbMlineStyle
  2
STANDARD
 70
0
  3

 62
256
 51
90.0
 52
90.0
 71
2
 49
0.5
 62
256
  6
BYLAYER
 49
-0.5
 62
256
  6
BYLAYER
  0
LAYOUT
  5
54F
102
{ACAD_REACTORS
330
1A
102
}
100
AcDbPlotSettings
  1

  2
none_device
  4
ANSI_C_(22.00_x_17.00_Inches)
  6

 40
0.0
 41
0.0
 42
0.0
 43
0.0
 44
558.8
 45
431.8
 46
0.0
 47
0.0
 48
0.0
 49
0.0
140
0.0
141
0.0
142
1.0
143
1.0
 70
1024
 72
0
 73
0
 74
0
  7

 75
0
147
1.0
148
0.0
149
0.0
100
AcDbLayout
  1
Model
 70
0
 71
0
 10
0.0
 20
0.0
 11
22.0
 21
17.0
 12
0.0
 22
0.0
 32
0.0
 14
0.0
 24
0.0
 34
0.0
 15
0.0
 25
0.0
 35
0.0
146
0.0
 13
0.0
 23
0.0
 33
0.0
 16
1.0
 26
0.0
 36
0.0
 17
0.0
 27
1.0
 37
0.0
 76
0
330
202
345
0
346
0
  0
LAYOUT
  5
550
102
{ACAD_REACTORS
330
1A
102
}
100
AcDbPlotSettings
  1

  2
none_device
  4
ANSI_C_(22.00_x_17.00_Inches)
  6

 40
0.0
 41
0.0
 42
0.0
 43
0.0
 44
558.8
 45
431.8
 46
0.0
 47
0.0
 48
0.0
 49
0.0
140
0.0
141
0.0
142
1.0
143
1.0
 70
0
 72
0
 73
0
 74
0
  7

 75
0
147
1.0
148
0.0
149
0.0
100
AcDbLayout
  1
Layout1
 70
0
 71
1
 10
0.0
 20
0.0
 11
22.0
 21
17.0
 12
0.0
 22
0.0
 32
0.0
 14
0.0
 24
0.0
 34
0.0
 15
0.0
 25
0.0
 35
0.0
146
0.0
 13
0.0
 23
0.0
 33
0.0
 16
1.0
 26
0.0
 36
0.0
 17
0.0
 27
1.0
 37
0.0
 76
0
330
203
345
0
346
0
  0
ENDSEC
  0
EOF
