999
DXF file: E:\BT Custom\CADOUTPUT\_TOP.dxf
999
Pro/ENGINEER 2018400 by Parametric Technology Corporation
  0
SECTION
  2
HEADER
  9
$ACADVER
  1
AC1018
  9
$DWGCODEPAGE
  3
ANSI_1252
  9
$EXTMAX
 10
22.0
 20
17.0
 30
0.0
  9
$EXTMIN
 10
0.0
 20
0.0
 30
0.0
  9
$LIMMIN
 10
0.0
 20
0.0
  9
$LIMMAX
 10
22.0
 20
17.0
  9
$VIEWCTR
 10
11.0
 20
8.5
  9
$VIEWSIZE
 40
17.0
  9
$CLAYER
  8
0
  9
$LTSCALE
 40
1.21
  9
$CELTYPE
  6
BYLAYER
  9
$DIMSCALE
 40
1.0
  9
$DIMASZ
 40
0.1
  9
$DIMEXO
 40
0.0625
  9
$DIMDLI
 40
0.836
  9
$DIMEXE
 40
0.125
  9
$DIMCEN
 40
0.198
  9
$DIMLFAC
 40
1.0
  9
$DIMBLK
  1
_FILLED
  9
$DIMALT
 70
1
  9
$DIMALTD
 70
2
  9
$DIMALTTD
 70
2
  9
$DIMALTF
 40
25.4
  9
$DIMTXT
 40
0.08
  9
$DIMTOL
 70
1
  9
$DIMLIM
 70
0
  9
$DIMTFAC
 40
1.0
  9
$DIMTP
 40
0.001
  9
$DIMTM
 40
0.001
  9
$DIMGAP
 40
0.09
  9
$DIMDSEP
 70
46
  9
$AUNITS
 70
0
  9
$PDMODE
 70
3
  9
$PDSIZE
 40
0.06
  9
$HANDSEED
  5
73A
  9
$TILEMODE
 70
1
  9
$MEASUREMENT
 70
0
  9
$INSUNITS
 70
1
  0
ENDSEC
  0
SECTION
  2
CLASSES
  0
CLASS
  1
ACDBDICTIONARYWDFLT
  2
AcDbDictionaryWithDefault
  3
AutoCAD 2000
 90
0
 91
1
280
0
281
0
  0
CLASS
  1
ACDBPLACEHOLDER
  2
AcDbPlaceHolder
  3
AutoCAD 2000
 90
0
 91
1
280
0
281
0
  0
CLASS
  1
LAYOUT
  2
AcDbLayout
  3
AutoCAD 2000
 90
0
 91
0
280
0
281
0
  0
ENDSEC
  0
SECTION
  2
TABLES
  0
TABLE
  2
VPORT
  5
8
100
AcDbSymbolTable
 70
2
  0
VPORT
  5
1F4
100
AcDbSymbolTableRecord
100
AcDbViewportTableRecord
  2
*ACTIVE
 70
0
 10
0.0
 20
0.0
 11
1.0
 21
1.0
 12
11.0
 22
8.5
 13
0.0
 23
0.0
 14
1.0
 24
1.0
 15
0.0
 25
0.0
 16
0.0
 26
0.0
 36
1.0
 17
0.0
 27
0.0
 37
0.0
 40
17.0
 41
1.2941176471
 42
50.0
 43
0.0
 44
0.0
 50
0.0
 51
0.0
 71
0
 72
100
 73
1
 74
1
 75
0
 76
0
 77
0
 78
0
  0
ENDTAB
  0
TABLE
  2
LTYPE
  5
5
100
AcDbSymbolTable
 70
6
  0
LTYPE
  5
14
100
AcDbSymbolTableRecord
100
AcDbLinetypeTableRecord
  2
BYBLOCK
 70
0
  3

 72
65
 73
0
 40
0.0
  0
LTYPE
  5
15
100
AcDbSymbolTableRecord
100
AcDbLinetypeTableRecord
  2
BYLAYER
 70
0
  3

 72
65
 73
0
 40
0.0
  0
LTYPE
  5
16
100
AcDbSymbolTableRecord
100
AcDbLinetypeTableRecord
  2
CONTINUOUS
 70
64
  3
Solid line
 72
65
 73
0
 40
0.0
  0
LTYPE
  5
1F5
100
AcDbSymbolTableRecord
100
AcDbLinetypeTableRecord
  2
CENTER
 70
64
  3
____ _ ____ _ ____ _ ____ _ ____ _ ____ _ ____
 72
65
 73
4
 40
0.6
 49
0.375
 74
0
 49
-0.075
 74
0
 49
0.075
 74
0
 49
-0.075
 74
0
  0
LTYPE
  5
1F6
100
AcDbSymbolTableRecord
100
AcDbLinetypeTableRecord
  2
HIDDEN
 70
64
  3
- - - - - - - - - - - - - - - - - - - -
 72
65
 73
2
 40
0.2
 49
0.1
 74
0
 49
-0.1
 74
0
  0
LTYPE
  5
1F7
100
AcDbSymbolTableRecord
100
AcDbLinetypeTableRecord
  2
PHANTOM
 70
64
  3
_____ _ _ _____ _ _ _____ _ _ _____
 72
65
 73
6
 40
0.8
 49
0.45
 74
0
 49
-0.05
 74
0
 49
0.1
 74
0
 49
-0.05
 74
0
 49
0.1
 74
0
 49
-0.05
 74
0
  0
LTYPE
  5
1F8
100
AcDbSymbolTableRecord
100
AcDbLinetypeTableRecord
  2
DOT
 70
64
  3
. . . . . . . . . . . . . . . . . . . .
 72
65
 73
2
 40
0.2
 49
0.1
 74
0
 49
-0.1
 74
0
  0
LTYPE
  5
1F9
100
AcDbSymbolTableRecord
100
AcDbLinetypeTableRecord
  2
DASHED
 70
64
  3
- - - - - - - - - - - - - - - - - - - -
 72
65
 73
2
 40
0.2
 49
0.1
 74
0
 49
-0.1
 74
0
  0
ENDTAB
  0
TABLE
  2
LAYER
  5
2
100
AcDbSymbolTable
 70
36
  0
LAYER
  5
10
100
AcDbSymbolTableRecord
100
AcDbLayerTableRecord
  2
0
 70
0
 62
7
  6
CONTINUOUS
370
-3
390
F
  0
LAYER
  5
1FA
100
AcDbSymbolTableRecord
100
AcDbLayerTableRecord
  2
DEFAULT_1
 70
0
 62
7
  6
CENTER
370
-3
390
F
  0
LAYER
  5
1FB
100
AcDbSymbolTableRecord
100
AcDbLayerTableRecord
  2
DEFAULT_2
 70
0
 62
8
  6
HIDDEN
370
-3
390
F
  0
LAYER
  5
1FC
100
AcDbSymbolTableRecord
100
AcDbLayerTableRecord
  2
DEFAULT_3
 70
0
 62
7
  6
PHANTOM
370
-3
390
F
  0
LAYER
  5
1FD
100
AcDbSymbolTableRecord
100
AcDbLayerTableRecord
  2
ALL_FEATURES
 70
0
 62
7
  6
CONTINUOUS
370
-3
390
F
  0
LAYER
  5
1FE
100
AcDbSymbolTableRecord
100
AcDbLayerTableRecord
  2
AXES_FEATURES
 70
0
 62
7
  6
CONTINUOUS
370
-3
390
F
  0
LAYER
  5
1FF
100
AcDbSymbolTableRecord
100
AcDbLayerTableRecord
  2
DIMENSIONS
 70
0
 62
7
  6
CONTINUOUS
370
-3
390
F
  0
ENDTAB
  0
TABLE
  2
STYLE
  5
3
100
AcDbSymbolTable
 70
1
  0
STYLE
  5
11
100
AcDbSymbolTableRecord
100
AcDbTextStyleTableRecord
  2
STANDARD
 70
0
 40
0.0
 41
0.8
 50
0.0
 71
0
 42
0.2
  3
txt
  4

  0
STYLE
  5
200
100
AcDbSymbolTableRecord
100
AcDbTextStyleTableRecord
  2
TEXTSTYLE_1
 70
0
 40
0.0
 41
0.8
 50
0.0
 71
0
 42
0.2
  3
gdt
  4

  0
ENDTAB
  0
TABLE
  2
VIEW
  5
6
100
AcDbSymbolTable
 70
0
  0
ENDTAB
  0
TABLE
  2
UCS
  5
7
100
AcDbSymbolTable
 70
0
  0
ENDTAB
  0
TABLE
  2
APPID
  5
9
100
AcDbSymbolTable
 70
1
  0
APPID
  5
201
100
AcDbSymbolTableRecord
100
AcDbRegAppTableRecord
  2
ACAD
 70
0
  0
ENDTAB
  0
TABLE
  2
BLOCK_RECORD
  5
1
100
AcDbSymbolTable
 70
0
  0
BLOCK_RECORD
  5
202
100
AcDbSymbolTableRecord
100
AcDbBlockTableRecord
  2
*Model_Space
  0
BLOCK_RECORD
  5
203
100
AcDbSymbolTableRecord
100
AcDbBlockTableRecord
  2
*Paper_Space
  0
BLOCK_RECORD
  5
204
100
AcDbSymbolTableRecord
100
AcDbBlockTableRecord
  2
_FILLED
  0
ENDTAB
  0
TABLE
  2
DIMSTYLE
  5
A
100
AcDbSymbolTable
 70
1
100
AcDbDimStyleTable
 71
0
  0
DIMSTYLE
105
205
100
AcDbSymbolTableRecord
100
AcDbDimStyleTableRecord
  2
STANDARD
 70
0
  3

  4

 40
1.0
 41
0.1
 42
0.0625
 43
0.38
 44
0.125
 45
0.0
 46
0.0
 47
0.001
 48
0.001
140
0.08
141
0.09
142
0.0
143
25.4
144
1.0
145
0.0
146
1.0
147
0.09
 71
1.0
 72
0.0
 73
1
 74
1
 75
0
 76
0
 77
0
 78
4
 79
1
170
1
171
2
172
0
173
0
174
0
175
0
176
0
177
0
178
0
270
2
179
3
271
3
272
3
273
2
274
2
275
0
280
0
281
0
282
0
283
1
284
4
285
0
286
0
287
3
288
0
340
11
278
46
341
204
342
204
343
204
344
204
  0
ENDTAB
  0
ENDSEC
  0
SECTION
  2
BLOCKS
  0
BLOCK
  5
20
100
AcDbEntity
  8
0
100
AcDbBlockBegin
  2
*Model_Space
 70
0
 10
0.0
 20
0.0
 30
0.0
  3
*Model_Space
  1

  0
ENDBLK
  5
21
100
AcDbEntity
  8
0
100
AcDbBlockEnd
  0
BLOCK
  5
1C
100
AcDbEntity
  8
0
100
AcDbBlockBegin
  2
*Paper_Space
 70
0
 10
0.0
 20
0.0
 30
0.0
  3
*Paper_Space
  1

  0
ENDBLK
  5
1D
100
AcDbEntity
  8
0
100
AcDbBlockEnd
  0
BLOCK
  5
206
100
AcDbEntity
  8
0
100
AcDbBlockBegin
  2
_FILLED
 70
64
 10
0.0
 20
0.0
  3
_FILLED
  1

  0
SOLID
  5
207
100
AcDbEntity
  8
0
  6
BYBLOCK
 62
0
100
AcDbTrace
 10
0.0
 20
0.0
 11
-1.0
 21
0.2
 12
-1.0
 22
-0.2
 13
-1.0
 23
-0.2
  0
ENDBLK
  5
208
100
AcDbEntity
  8
0
  6
BYBLOCK
 62
0
100
AcDbBlockEnd
  0
ENDSEC
  0
SECTION
  2
ENTITIES
  0
LINE
  5
209
100
AcDbEntity
  8
0
100
AcDbLine
 62
7
  6
CONTINUOUS
 10
2.6464275158
 20
8.6984579729
 11
2.6464275158
 21
7.3376990267
  0
LINE
  5
20A
100
AcDbEntity
  8
0
100
AcDbLine
 62
7
  6
CONTINUOUS
 10
2.7234275158
 20
8.7461022317
 11
2.7234275158
 21
8.7452978141
  0
LINE
  5
20B
100
AcDbEntity
  8
0
100
AcDbLine
 62
7
  6
CONTINUOUS
 10
2.7234275158
 20
8.7624935697
 11
2.7234275158
 21
8.762146237
  0
LINE
  5
20C
100
AcDbEntity
  8
0
100
AcDbLine
 62
7
  6
CONTINUOUS
 10
2.7234275158
 20
8.7559456476
 11
2.7234275158
 21
8.7553684836
  0
LINE
  5
20D
100
AcDbEntity
  8
0
100
AcDbLine
 62
7
  6
CONTINUOUS
 10
2.7234275158
 20
8.733007285
 11
2.7234275158
 21
8.7319792067
  0
LINE
  5
20E
100
AcDbEntity
  8
0
100
AcDbLine
 62
7
  6
CONTINUOUS
 10
2.7234275158
 20
8.7167192928
 11
2.7234275158
 21
8.7154721453
  0
LINE
  5
20F
100
AcDbEntity
  8
0
100
AcDbLine
 62
7
  6
CONTINUOUS
 10
2.7234275158
 20
8.6973110013
 11
2.7234275158
 21
8.6958503547
  0
LINE
  5
210
100
AcDbEntity
  8
0
100
AcDbLine
 62
7
  6
CONTINUOUS
 10
2.7234275158
 20
8.6748690925
 11
2.7234275158
 21
8.6732014705
  0
LINE
  5
211
100
AcDbEntity
  8
0
100
AcDbLine
 62
7
  6
CONTINUOUS
 10
2.7234275158
 20
8.6494937975
 11
2.7234275158
 21
8.647626648
  0
LINE
  5
212
100
AcDbEntity
  8
0
100
AcDbLine
 62
7
  6
CONTINUOUS
 10
2.7234275158
 20
8.6212984485
 11
2.7234275158
 21
8.6192401106
  0
LINE
  5
213
100
AcDbEntity
  8
0
100
AcDbLine
 62
7
  6
CONTINUOUS
 10
2.7234275158
 20
8.5904089728
 11
2.7234275158
 21
8.5881686396
  0
LINE
  5
214
100
AcDbEntity
  8
0
100
AcDbLine
 62
7
  6
CONTINUOUS
 10
2.7234275158
 20
8.5569633302
 11
2.7234275158
 21
8.5545510076
  0
LINE
  5
215
100
AcDbEntity
  8
0
100
AcDbLine
 62
7
  6
CONTINUOUS
 10
2.7234275158
 20
8.5211108972
 11
2.7234275158
 21
8.5185373592
  0
LINE
  5
216
100
AcDbEntity
  8
0
100
AcDbLine
 62
7
  6
CONTINUOUS
 10
2.7234275158
 20
8.4830117993
 11
2.7234275158
 21
8.48028854
  0
LINE
  5
217
100
AcDbEntity
  8
0
100
AcDbLine
 62
7
  6
CONTINUOUS
 10
2.7234275158
 20
8.4428361965
 11
2.7234275158
 21
8.4399753785
  0
LINE
  5
218
100
AcDbEntity
  8
0
100
AcDbLine
 62
7
  6
CONTINUOUS
 10
2.7234275158
 20
8.4007635227
 11
2.7234275158
 21
8.3977779232
  0
LINE
  5
219
100
AcDbEntity
  8
0
100
AcDbLine
 62
7
  6
CONTINUOUS
 10
2.7234275158
 20
8.3569816847
 11
2.7234275158
 21
8.3538846381
  0
LINE
  5
21A
100
AcDbEntity
  8
0
100
AcDbLine
 62
7
  6
CONTINUOUS
 10
2.7234275158
 20
8.3116862228
 11
2.7234275158
 21
8.3084915613
  0
LINE
  5
21B
100
AcDbEntity
  8
0
100
AcDbLine
 62
7
  6
CONTINUOUS
 10
2.7234275158
 20
8.2650794376
 11
2.7234275158
 21
8.2618014292
  0
LINE
  5
21C
100
AcDbEntity
  8
0
100
AcDbLine
 62
7
  6
CONTINUOUS
 10
2.7234275158
 20
8.2173694862
 11
2.7234275158
 21
8.2140227714
  0
LINE
  5
21D
100
AcDbEntity
  8
0
100
AcDbLine
 62
7
  6
CONTINUOUS
 10
2.7234275158
 20
8.1687694528
 11
2.7234275158
 21
8.1653689788
  0
LINE
  5
21E
100
AcDbEntity
  8
0
100
AcDbLine
 62
7
  6
CONTINUOUS
 10
2.7234275158
 20
8.1194963971
 11
2.7234275158
 21
8.1160573513
  0
LINE
  5
21F
100
AcDbEntity
  8
0
100
AcDbLine
 62
7
  6
CONTINUOUS
 10
2.7234275158
 20
8.0697703844
 11
2.7234275158
 21
8.0663081264
  0
LINE
  5
220
100
AcDbEntity
  8
0
100
AcDbLine
 62
7
  6
CONTINUOUS
 10
2.7234275158
 20
8.0198135033
 11
2.7234275158
 21
8.0163434963
  0
LINE
  5
221
100
AcDbEntity
  8
0
100
AcDbLine
 62
7
  6
CONTINUOUS
 10
2.7234275158
 20
7.9698488732
 11
2.7234275158
 21
7.9663866151
  0
LINE
  5
222
100
AcDbEntity
  8
0
100
AcDbLine
 62
7
  6
CONTINUOUS
 10
2.7234275158
 20
7.9200996483
 11
2.7234275158
 21
7.9166606024
  0
LINE
  5
223
100
AcDbEntity
  8
0
100
AcDbLine
 62
7
  6
CONTINUOUS
 10
2.7234275158
 20
7.8707880207
 11
2.7234275158
 21
7.8673875467
  0
LINE
  5
224
100
AcDbEntity
  8
0
100
AcDbLine
 62
7
  6
CONTINUOUS
 10
2.7234275158
 20
7.8221342282
 11
2.7234275158
 21
7.8187875134
  0
LINE
  5
225
100
AcDbEntity
  8
0
100
AcDbLine
 62
7
  6
CONTINUOUS
 10
2.7234275158
 20
7.7743555703
 11
2.7234275158
 21
7.771077562
  0
LINE
  5
226
100
AcDbEntity
  8
0
100
AcDbLine
 62
7
  6
CONTINUOUS
 10
2.7234275158
 20
7.7276654383
 11
2.7234275158
 21
7.7244707767
  0
LINE
  5
227
100
AcDbEntity
  8
0
100
AcDbLine
 62
7
  6
CONTINUOUS
 10
2.7234275158
 20
7.6822723614
 11
2.7234275158
 21
7.6791753148
  0
LINE
  5
228
100
AcDbEntity
  8
0
100
AcDbLine
 62
7
  6
CONTINUOUS
 10
2.7234275158
 20
7.6383790763
 11
2.7234275158
 21
7.6353934768
  0
LINE
  5
229
100
AcDbEntity
  8
0
100
AcDbLine
 62
7
  6
CONTINUOUS
 10
2.7234275158
 20
7.596181621
 11
2.7234275158
 21
7.593320803
  0
LINE
  5
22A
100
AcDbEntity
  8
0
100
AcDbLine
 62
7
  6
CONTINUOUS
 10
2.7234275158
 20
7.5558684596
 11
2.7234275158
 21
7.5531452002
  0
LINE
  5
22B
100
AcDbEntity
  8
0
100
AcDbLine
 62
7
  6
CONTINUOUS
 10
2.7234275158
 20
7.5176196404
 11
2.7234275158
 21
7.5150461024
  0
LINE
  5
22C
100
AcDbEntity
  8
0
100
AcDbLine
 62
7
  6
CONTINUOUS
 10
2.7234275158
 20
7.4816059919
 11
2.7234275158
 21
7.4791936693
  0
LINE
  5
22D
100
AcDbEntity
  8
0
100
AcDbLine
 62
7
  6
CONTINUOUS
 10
2.7234275158
 20
7.44798836
 11
2.7234275158
 21
7.4457480268
  0
LINE
  5
22E
100
AcDbEntity
  8
0
100
AcDbLine
 62
7
  6
CONTINUOUS
 10
2.7234275158
 20
7.4169168889
 11
2.7234275158
 21
7.4148585511
  0
LINE
  5
22F
100
AcDbEntity
  8
0
100
AcDbLine
 62
7
  6
CONTINUOUS
 10
2.7234275158
 20
7.3885303516
 11
2.7234275158
 21
7.386663202
  0
LINE
  5
230
100
AcDbEntity
  8
0
100
AcDbLine
 62
7
  6
CONTINUOUS
 10
2.7234275158
 20
7.3629555291
 11
2.7234275158
 21
7.361287907
  0
LINE
  5
231
100
AcDbEntity
  8
0
100
AcDbLine
 62
7
  6
CONTINUOUS
 10
2.7234275158
 20
7.3403066448
 11
2.7234275158
 21
7.3388459983
  0
LINE
  5
232
100
AcDbEntity
  8
0
100
AcDbLine
 62
7
  6
CONTINUOUS
 10
2.7234275158
 20
7.3206848542
 11
2.7234275158
 21
7.3194377067
  0
LINE
  5
233
100
AcDbEntity
  8
0
100
AcDbLine
 62
7
  6
CONTINUOUS
 10
2.7234275158
 20
7.3041777929
 11
2.7234275158
 21
7.3031497145
  0
LINE
  5
234
100
AcDbEntity
  8
0
100
AcDbLine
 62
7
  6
CONTINUOUS
 10
2.7234275158
 20
7.2908591854
 11
2.7234275158
 21
7.2900547679
  0
LINE
  5
235
100
AcDbEntity
  8
0
100
AcDbLine
 62
7
  6
CONTINUOUS
 10
2.9114275158
 20
7.2900547679
 11
2.9114275158
 21
7.2908591854
  0
LINE
  5
236
100
AcDbEntity
  8
0
100
AcDbLine
 62
7
  6
CONTINUOUS
 10
2.9114275158
 20
7.2802113519
 11
2.9114275158
 21
7.280788516
  0
LINE
  5
237
100
AcDbEntity
  8
0
100
AcDbLine
 62
7
  6
CONTINUOUS
 10
2.9114275158
 20
7.2736634298
 11
2.9114275158
 21
7.2740107626
  0
LINE
  5
238
100
AcDbEntity
  8
0
100
AcDbLine
 62
7
  6
CONTINUOUS
 10
2.9114275158
 20
7.3031497145
 11
2.9114275158
 21
7.3041777929
  0
LINE
  5
239
100
AcDbEntity
  8
0
100
AcDbLine
 62
7
  6
CONTINUOUS
 10
2.9114275158
 20
7.3194377067
 11
2.9114275158
 21
7.3206848542
  0
LINE
  5
23A
100
AcDbEntity
  8
0
100
AcDbLine
 62
7
  6
CONTINUOUS
 10
2.9114275158
 20
7.3388459983
 11
2.9114275158
 21
7.3403066448
  0
LINE
  5
23B
100
AcDbEntity
  8
0
100
AcDbLine
 62
7
  6
CONTINUOUS
 10
2.9114275158
 20
7.361287907
 11
2.9114275158
 21
7.3629555291
  0
LINE
  5
23C
100
AcDbEntity
  8
0
100
AcDbLine
 62
7
  6
CONTINUOUS
 10
2.9114275158
 20
7.386663202
 11
2.9114275158
 21
7.3885303516
  0
LINE
  5
23D
100
AcDbEntity
  8
0
100
AcDbLine
 62
7
  6
CONTINUOUS
 10
2.9114275158
 20
7.4148585511
 11
2.9114275158
 21
7.4169168889
  0
LINE
  5
23E
100
AcDbEntity
  8
0
100
AcDbLine
 62
7
  6
CONTINUOUS
 10
2.9114275158
 20
7.4457480268
 11
2.9114275158
 21
7.44798836
  0
LINE
  5
23F
100
AcDbEntity
  8
0
100
AcDbLine
 62
7
  6
CONTINUOUS
 10
2.9114275158
 20
7.4791936693
 11
2.9114275158
 21
7.4816059919
  0
LINE
  5
240
100
AcDbEntity
  8
0
100
AcDbLine
 62
7
  6
CONTINUOUS
 10
2.9114275158
 20
7.5150461024
 11
2.9114275158
 21
7.5176196404
  0
LINE
  5
241
100
AcDbEntity
  8
0
100
AcDbLine
 62
7
  6
CONTINUOUS
 10
2.9114275158
 20
7.5531452002
 11
2.9114275158
 21
7.5558684596
  0
LINE
  5
242
100
AcDbEntity
  8
0
100
AcDbLine
 62
7
  6
CONTINUOUS
 10
2.9114275158
 20
7.593320803
 11
2.9114275158
 21
7.596181621
  0
LINE
  5
243
100
AcDbEntity
  8
0
100
AcDbLine
 62
7
  6
CONTINUOUS
 10
2.9114275158
 20
7.6353934768
 11
2.9114275158
 21
7.6383790763
  0
LINE
  5
244
100
AcDbEntity
  8
0
100
AcDbLine
 62
7
  6
CONTINUOUS
 10
2.9114275158
 20
7.6791753148
 11
2.9114275158
 21
7.6822723614
  0
LINE
  5
245
100
AcDbEntity
  8
0
100
AcDbLine
 62
7
  6
CONTINUOUS
 10
2.9114275158
 20
7.7244707767
 11
2.9114275158
 21
7.7276654383
  0
LINE
  5
246
100
AcDbEntity
  8
0
100
AcDbLine
 62
7
  6
CONTINUOUS
 10
2.9114275158
 20
7.771077562
 11
2.9114275158
 21
7.7743555703
  0
LINE
  5
247
100
AcDbEntity
  8
0
100
AcDbLine
 62
7
  6
CONTINUOUS
 10
2.9114275158
 20
7.8187875134
 11
2.9114275158
 21
7.8221342282
  0
LINE
  5
248
100
AcDbEntity
  8
0
100
AcDbLine
 62
7
  6
CONTINUOUS
 10
2.9114275158
 20
7.8673875467
 11
2.9114275158
 21
7.8707880207
  0
LINE
  5
249
100
AcDbEntity
  8
0
100
AcDbLine
 62
7
  6
CONTINUOUS
 10
2.9114275158
 20
7.9166606024
 11
2.9114275158
 21
7.9200996483
  0
LINE
  5
24A
100
AcDbEntity
  8
0
100
AcDbLine
 62
7
  6
CONTINUOUS
 10
2.9114275158
 20
7.9663866151
 11
2.9114275158
 21
7.9698488732
  0
LINE
  5
24B
100
AcDbEntity
  8
0
100
AcDbLine
 62
7
  6
CONTINUOUS
 10
2.9114275158
 20
8.0163434963
 11
2.9114275158
 21
8.0198135033
  0
LINE
  5
24C
100
AcDbEntity
  8
0
100
AcDbLine
 62
7
  6
CONTINUOUS
 10
2.9114275158
 20
8.0663081264
 11
2.9114275158
 21
8.0697703844
  0
LINE
  5
24D
100
AcDbEntity
  8
0
100
AcDbLine
 62
7
  6
CONTINUOUS
 10
2.9114275158
 20
8.1160573513
 11
2.9114275158
 21
8.1194963971
  0
LINE
  5
24E
100
AcDbEntity
  8
0
100
AcDbLine
 62
7
  6
CONTINUOUS
 10
2.9114275158
 20
8.1653689788
 11
2.9114275158
 21
8.1687694528
  0
LINE
  5
24F
100
AcDbEntity
  8
0
100
AcDbLine
 62
7
  6
CONTINUOUS
 10
2.9114275158
 20
8.2140227714
 11
2.9114275158
 21
8.2173694862
  0
LINE
  5
250
100
AcDbEntity
  8
0
100
AcDbLine
 62
7
  6
CONTINUOUS
 10
2.9114275158
 20
8.2618014292
 11
2.9114275158
 21
8.2650794376
  0
LINE
  5
251
100
AcDbEntity
  8
0
100
AcDbLine
 62
7
  6
CONTINUOUS
 10
2.9114275158
 20
8.3084915613
 11
2.9114275158
 21
8.3116862228
  0
LINE
  5
252
100
AcDbEntity
  8
0
100
AcDbLine
 62
7
  6
CONTINUOUS
 10
2.9114275158
 20
8.3538846381
 11
2.9114275158
 21
8.3569816847
  0
LINE
  5
253
100
AcDbEntity
  8
0
100
AcDbLine
 62
7
  6
CONTINUOUS
 10
2.9114275158
 20
8.3977779232
 11
2.9114275158
 21
8.4007635227
  0
LINE
  5
254
100
AcDbEntity
  8
0
100
AcDbLine
 62
7
  6
CONTINUOUS
 10
2.9114275158
 20
8.4399753785
 11
2.9114275158
 21
8.4428361965
  0
LINE
  5
255
100
AcDbEntity
  8
0
100
AcDbLine
 62
7
  6
CONTINUOUS
 10
2.9114275158
 20
8.48028854
 11
2.9114275158
 21
8.4830117993
  0
LINE
  5
256
100
AcDbEntity
  8
0
100
AcDbLine
 62
7
  6
CONTINUOUS
 10
2.9114275158
 20
8.5185373592
 11
2.9114275158
 21
8.5211108972
  0
LINE
  5
257
100
AcDbEntity
  8
0
100
AcDbLine
 62
7
  6
CONTINUOUS
 10
2.9114275158
 20
8.5545510076
 11
2.9114275158
 21
8.5569633302
  0
LINE
  5
258
100
AcDbEntity
  8
0
100
AcDbLine
 62
7
  6
CONTINUOUS
 10
2.9114275158
 20
8.5881686396
 11
2.9114275158
 21
8.5904089728
  0
LINE
  5
259
100
AcDbEntity
  8
0
100
AcDbLine
 62
7
  6
CONTINUOUS
 10
2.9114275158
 20
8.6192401106
 11
2.9114275158
 21
8.6212984485
  0
LINE
  5
25A
100
AcDbEntity
  8
0
100
AcDbLine
 62
7
  6
CONTINUOUS
 10
2.9114275158
 20
8.647626648
 11
2.9114275158
 21
8.6494937975
  0
LINE
  5
25B
100
AcDbEntity
  8
0
100
AcDbLine
 62
7
  6
CONTINUOUS
 10
2.9114275158
 20
8.6732014705
 11
2.9114275158
 21
8.6748690925
  0
LINE
  5
25C
100
AcDbEntity
  8
0
100
AcDbLine
 62
7
  6
CONTINUOUS
 10
2.9114275158
 20
8.6958503547
 11
2.9114275158
 21
8.6973110013
  0
LINE
  5
25D
100
AcDbEntity
  8
0
100
AcDbLine
 62
7
  6
CONTINUOUS
 10
2.9114275158
 20
8.7154721453
 11
2.9114275158
 21
8.7167192928
  0
LINE
  5
25E
100
AcDbEntity
  8
0
100
AcDbLine
 62
7
  6
CONTINUOUS
 10
2.9114275158
 20
8.7319792067
 11
2.9114275158
 21
8.733007285
  0
LINE
  5
25F
100
AcDbEntity
  8
0
100
AcDbLine
 62
7
  6
CONTINUOUS
 10
2.9114275158
 20
8.7452978141
 11
2.9114275158
 21
8.7461022317
  0
LINE
  5
260
100
AcDbEntity
  8
0
100
AcDbLine
 62
7
  6
CONTINUOUS
 10
2.9814275158
 20
8.7080784998
 11
2.9814275158
 21
7.3280784998
  0
LINE
  5
261
100
AcDbEntity
  8
0
100
AcDbLine
 62
9
  6
CONTINUOUS
 10
3.0178798658
 20
7.3280784998
 11
3.0178798658
 21
8.7080784998
  0
LINE
  5
262
100
AcDbEntity
  8
0
100
AcDbLine
 62
9
  6
CONTINUOUS
 10
3.0950608695
 20
7.3997920281
 11
3.0950608695
 21
8.6363649715
  0
LINE
  5
263
100
AcDbEntity
  8
0
100
AcDbLine
 62
9
  6
CONTINUOUS
 10
3.1956144699
 20
8.2708783096
 11
3.1956144699
 21
7.76527869
  0
LINE
  5
264
100
AcDbEntity
  8
0
100
AcDbLine
 62
9
  6
CONTINUOUS
 10
3.3012605146
 20
8.2055784998
 11
3.3012605146
 21
7.8305784998
  0
LINE
  5
265
100
AcDbEntity
  8
0
100
AcDbLine
 62
7
  6
CONTINUOUS
 10
3.3189275158
 20
10.1624184998
 11
3.3189275158
 21
10.2024184998
  0
LINE
  5
266
100
AcDbEntity
  8
0
100
AcDbLine
 62
7
  6
CONTINUOUS
 10
3.4214275158
 20
7.8305788568
 11
3.4214275158
 21
8.2055781427
  0
LINE
  5
267
100
AcDbEntity
  8
0
100
AcDbLine
 62
7
  6
CONTINUOUS
 10
3.4314275158
 20
10.0024184998
 11
3.4314275158
 21
10.0499184998
  0
LINE
  5
268
100
AcDbEntity
  8
0
100
AcDbLine
 62
7
  6
CONTINUOUS
 10
3.4444275158
 20
8.3380701356
 11
3.4444275158
 21
7.6980868639
  0
LINE
  5
269
100
AcDbEntity
  8
0
100
AcDbLine
 62
7
  6
CONTINUOUS
 10
3.8314275158
 20
9.6624184998
 11
3.8314275158
 21
9.7136092979
  0
LINE
  5
26A
100
AcDbEntity
  8
0
100
AcDbLine
 62
7
  6
CONTINUOUS
 10
3.8314275158
 20
9.860586541
 11
3.8314275158
 21
9.9117773391
  0
LINE
  5
26B
100
AcDbEntity
  8
0
100
AcDbLine
 62
7
  6
CONTINUOUS
 10
3.9014275158
 20
9.0424750939
 11
3.9014275158
 21
9.6624184998
  0
LINE
  5
26C
100
AcDbEntity
  8
0
100
AcDbLine
 62
7
  6
CONTINUOUS
 10
4.6538499253
 20
5.6849169021
 11
4.6538499253
 21
5.5018680746
  0
LINE
  5
26D
100
AcDbEntity
  8
0
100
AcDbLine
 62
7
  6
CONTINUOUS
 10
4.8619995316
 20
4.9037872246
 11
4.8619995316
 21
4.9387070412
  0
LINE
  5
26E
100
AcDbEntity
  8
0
100
AcDbLine
 62
7
  6
CONTINUOUS
 10
4.9170011506
 20
4.9387070412
 11
4.9170011506
 21
4.9037872246
  0
LINE
  5
26F
100
AcDbEntity
  8
0
100
AcDbLine
 62
7
  6
CONTINUOUS
 10
4.9388499253
 20
5.9074892314
 11
4.9388499253
 21
5.8735007988
  0
LINE
  5
270
100
AcDbEntity
  8
0
100
AcDbLine
 62
7
  6
CONTINUOUS
 10
5.0782577381
 20
4.9387070412
 11
5.0782577381
 21
4.9037872246
  0
LINE
  5
271
100
AcDbEntity
  8
0
100
AcDbLine
 62
7
  6
CONTINUOUS
 10
5.1003513103
 20
4.8770911257
 11
5.1003513103
 21
4.8622400564
  0
LINE
  5
272
100
AcDbEntity
  8
0
100
AcDbLine
 62
7
  6
CONTINUOUS
 10
4.8759192342
 20
4.8817137118
 11
4.8677657435
 21
4.8898672025
  0
LINE
  5
273
100
AcDbEntity
  8
0
100
AcDbLine
 62
7
  6
CONTINUOUS
 10
4.9309205755
 20
4.8817139895
 11
4.9227673625
 21
4.8898672025
  0
LINE
  5
274
100
AcDbEntity
  8
0
100
AcDbLine
 62
7
  6
CONTINUOUS
 10
5.1142707351
 20
4.8401668212
 11
5.1061172175
 21
4.8483203388
  0
LINE
  5
275
100
AcDbEntity
  8
0
100
AcDbLine
 62
7
  6
CONTINUOUS
 10
5.092177163
 20
4.8817139895
 11
5.08402395
 21
4.8898672025
  0
LINE
  5
276
100
AcDbEntity
  8
0
100
AcDbLine
 62
7
  6
CONTINUOUS
 10
5.208835595
 20
4.8401668212
 11
5.2006820774
 21
4.8483203388
  0
LINE
  5
277
100
AcDbEntity
  8
0
100
AcDbLine
 62
7
  6
CONTINUOUS
 10
5.1114275158
 20
9.0424750939
 11
5.1114275158
 21
9.6624184998
  0
LINE
  5
278
100
AcDbEntity
  8
0
100
AcDbLine
 62
7
  6
CONTINUOUS
 10
5.1814275158
 20
9.6624184998
 11
5.1814275158
 21
9.7136092979
  0
LINE
  5
279
100
AcDbEntity
  8
0
100
AcDbLine
 62
7
  6
CONTINUOUS
 10
5.1814275158
 20
9.860586541
 11
5.1814275158
 21
9.9117773391
  0
LINE
  5
27A
100
AcDbEntity
  8
0
100
AcDbLine
 62
7
  6
CONTINUOUS
 10
5.1949161702
 20
4.875948375
 11
5.1949161702
 21
4.8622400564
  0
LINE
  5
27B
100
AcDbEntity
  8
0
100
AcDbLine
 62
7
  6
CONTINUOUS
 10
5.2436120688
 20
4.9257593738
 11
5.2436120688
 21
4.9037872246
  0
LINE
  5
27C
100
AcDbEntity
  8
0
100
AcDbLine
 62
7
  6
CONTINUOUS
 10
5.3347799242
 20
4.9387070412
 11
5.3347799242
 21
4.9037872246
  0
LINE
  5
27D
100
AcDbEntity
  8
0
100
AcDbLine
 62
7
  6
CONTINUOUS
 10
5.3366484537
 20
4.8827213337
 11
5.3366484537
 21
4.8622400564
  0
LINE
  5
27E
100
AcDbEntity
  8
0
100
AcDbLine
 62
7
  6
CONTINUOUS
 10
5.3704275158
 20
8.6530784926
 11
5.3704275158
 21
7.383078507
  0
LINE
  5
27F
100
AcDbEntity
  8
0
100
AcDbLine
 62
7
  6
CONTINUOUS
 10
5.377601451
 20
4.875948375
 11
5.377601451
 21
4.8622400564
  0
LINE
  5
280
100
AcDbEntity
  8
0
100
AcDbLine
 62
9
  6
CONTINUOUS
 10
5.3854275158
 20
8.6680784998
 11
5.3854275158
 21
7.3680852863
  0
LINE
  5
281
100
AcDbEntity
  8
0
100
AcDbLine
 62
7
  6
CONTINUOUS
 10
5.3974326025
 20
4.8139939947
 11
5.3974326025
 21
4.8072205042
  0
LINE
  5
282
100
AcDbEntity
  8
0
100
AcDbLine
 62
7
  6
CONTINUOUS
 10
5.4304275158
 20
7.3680784998
 11
5.4304275158
 21
8.6680784998
  0
LINE
  5
283
100
AcDbEntity
  8
0
100
AcDbLine
 62
7
  6
CONTINUOUS
 10
5.5001342549
 20
4.9288090459
 11
5.5001342549
 21
4.9037872246
  0
LINE
  5
284
100
AcDbEntity
  8
0
100
AcDbLine
 62
7
  6
CONTINUOUS
 10
5.5193337345
 20
4.884571309
 11
5.5193337345
 21
4.8622400564
  0
LINE
  5
285
100
AcDbEntity
  8
0
100
AcDbLine
 62
7
  6
CONTINUOUS
 10
5.5454275158
 20
8.6680784998
 11
5.5454275158
 21
7.3680784998
  0
LINE
  5
286
100
AcDbEntity
  8
0
100
AcDbLine
 62
9
  6
CONTINUOUS
 10
5.5735019478
 20
7.3680784998
 11
5.5735019478
 21
8.6680784998
  0
LINE
  5
287
100
AcDbEntity
  8
0
100
AcDbLine
 62
7
  6
CONTINUOUS
 10
5.5814275158
 20
10.0024184998
 11
5.5814275158
 21
10.0499184998
  0
LINE
  5
288
100
AcDbEntity
  8
0
100
AcDbLine
 62
7
  6
CONTINUOUS
 10
5.5866407693
 20
4.7689771002
 11
5.5866407693
 21
4.7425418258
  0
LINE
  5
289
100
AcDbEntity
  8
0
100
AcDbLine
 62
9
  6
CONTINUOUS
 10
5.6020198366
 20
8.647392082
 11
5.6020197996
 21
7.3887648167
  0
LINE
  5
28A
100
AcDbEntity
  8
0
100
AcDbLine
 62
7
  6
CONTINUOUS
 10
5.6344107799
 20
4.7684239459
 11
5.6344107799
 21
4.7425418258
  0
LINE
  5
28B
100
AcDbEntity
  8
0
100
AcDbLine
 62
7
  6
CONTINUOUS
 10
5.6359574529
 20
4.9044747713
 11
5.6359574529
 21
4.8622400564
  0
LINE
  5
28C
100
AcDbEntity
  8
0
100
AcDbLine
 62
7
  6
CONTINUOUS
 10
5.6690861458
 20
4.9387070412
 11
5.6690861458
 21
4.9037872246
  0
LINE
  5
28D
100
AcDbEntity
  8
0
100
AcDbLine
 62
7
  6
CONTINUOUS
 10
5.6939275158
 20
10.1624184998
 11
5.6939275158
 21
10.2024184998
  0
LWPOLYLINE
  5
28E
100
AcDbEntity
  8
0
100
AcDbPolyline
 62
7
  6
CONTINUOUS
 90
4
 70
0
 10
5.7276995449
 20
4.7766684282
 10
5.727720553
 20
4.7766502987
 10
5.729150367
 20
4.7756500958
 10
5.7315896888
 20
4.7725638829
  0
LINE
  5
28F
100
AcDbEntity
  8
0
100
AcDbLine
 62
7
  6
CONTINUOUS
 10
5.348699349
 20
4.8817139895
 11
5.3405461361
 21
4.8898672025
  0
LINE
  5
290
100
AcDbEntity
  8
0
100
AcDbLine
 62
7
  6
CONTINUOUS
 10
5.3915208759
 20
4.8401668212
 11
5.3833673583
 21
4.8483203388
  0
LINE
  5
291
100
AcDbEntity
  8
0
100
AcDbLine
 62
7
  6
CONTINUOUS
 10
5.60286644
 20
4.721423869
 11
5.5901001818
 21
4.7341901271
  0
LINE
  5
292
100
AcDbEntity
  8
0
100
AcDbLine
 62
7
  6
CONTINUOUS
 10
5.6506364505
 20
4.721423869
 11
5.6378701923
 21
4.7341901271
  0
LINE
  5
293
100
AcDbEntity
  8
0
100
AcDbLine
 62
7
  6
CONTINUOUS
 10
5.7491159933
 20
4.721423869
 11
5.7363497351
 21
4.7341901272
  0
LINE
  5
294
100
AcDbEntity
  8
0
100
AcDbLine
 62
7
  6
CONTINUOUS
 10
5.6498768777
 20
4.8401668212
 11
5.6417233601
 21
4.8483203388
  0
LINE
  5
295
100
AcDbEntity
  8
0
100
AcDbLine
 62
7
  6
CONTINUOUS
 10
5.6830055706
 20
4.8817139895
 11
5.6748523576
 21
4.8898672026
  0
LINE
  5
296
100
AcDbEntity
  8
0
100
AcDbLine
 62
7
  6
CONTINUOUS
 10
5.9743984207
 20
4.6185675927
 11
5.9662451996
 21
4.6267208139
  0
LINE
  5
297
100
AcDbEntity
  8
0
100
AcDbLine
 62
7
  6
CONTINUOUS
 10
6.0668151343
 20
4.6185675927
 11
6.0586619148
 21
4.6267208122
  0
LINE
  5
298
100
AcDbEntity
  8
0
100
AcDbLine
 62
7
  6
CONTINUOUS
 10
5.9662970659
 20
4.8401668212
 11
5.9581435483
 21
4.8483203388
  0
LINE
  5
299
100
AcDbEntity
  8
0
100
AcDbLine
 62
7
  6
CONTINUOUS
 10
6.0723134112
 20
4.8817139895
 11
6.0641601983
 21
4.8898672025
  0
LINE
  5
29A
100
AcDbEntity
  8
0
100
AcDbLine
 62
7
  6
CONTINUOUS
 10
5.8968724111
 20
4.6454393769
 11
5.8684954254
 21
4.7234045044
  0
LWPOLYLINE
  5
29B
100
AcDbEntity
  8
0
100
AcDbPolyline
 62
7
  6
CONTINUOUS
 90
3
 70
0
 10
5.7315896888
 20
4.7725638829
 10
5.7328824583
 20
4.7677895659
 10
5.7328934952
 20
4.7672824435
  0
LINE
  5
29C
100
AcDbEntity
  8
0
100
AcDbLine
 62
7
  6
CONTINUOUS
 10
5.6331141386
 20
4.7737658738
 11
5.6344112423
 21
4.7684240824
  0
LINE
  5
29D
100
AcDbEntity
  8
0
100
AcDbLine
 62
7
  6
CONTINUOUS
 10
5.5861196234
 20
4.7724453083
 11
5.5866400865
 21
4.7689797975
  0
LINE
  5
29E
100
AcDbEntity
  8
0
100
AcDbLine
 62
7
  6
CONTINUOUS
 10
5.7328903227
 20
4.7672810105
 11
5.7328903227
 21
4.7425418258
  0
LINE
  5
29F
100
AcDbEntity
  8
0
100
AcDbLine
 62
9
  6
CONTINUOUS
 10
5.7643914978
 20
8.3813641502
 11
5.7643914983
 21
7.6547928504
  0
LINE
  5
2A0
100
AcDbEntity
  8
0
100
AcDbLine
 62
7
  6
CONTINUOUS
 10
5.7776897363
 20
4.875948375
 11
5.7776897363
 21
4.8622400564
  0
LINE
  5
2A1
100
AcDbEntity
  8
0
100
AcDbLine
 62
7
  6
CONTINUOUS
 10
5.7804275158
 20
7.6813446861
 11
5.7804275158
 21
8.3548123135
  0
LINE
  5
2A2
100
AcDbEntity
  8
0
100
AcDbLine
 62
7
  6
CONTINUOUS
 10
5.7984275158
 20
8.2880784998
 11
5.7984275158
 21
7.7480784998
  0
LINE
  5
2A3
100
AcDbEntity
  8
0
100
AcDbLine
 62
7
  6
CONTINUOUS
 10
5.8344404765
 20
4.9327854548
 11
5.8344404765
 21
4.9037872246
  0
LINE
  5
2A4
100
AcDbEntity
  8
0
100
AcDbLine
 62
7
  6
CONTINUOUS
 10
5.8746226061
 20
4.7497502144
 11
5.8746226061
 21
4.7425418258
  0
LINE
  5
2A5
100
AcDbEntity
  8
0
100
AcDbLine
 62
7
  6
CONTINUOUS
 10
5.9523776411
 20
4.9012617059
 11
5.9523776411
 21
4.8622400564
  0
LINE
  5
2A6
100
AcDbEntity
  8
0
100
AcDbLine
 62
7
  6
CONTINUOUS
 10
6.0583939864
 20
4.9387070412
 11
6.0583939864
 21
4.9037872246
  0
LINE
  5
2A7
100
AcDbEntity
  8
0
100
AcDbLine
 62
7
  6
CONTINUOUS
 10
6.0748499253
 20
6.6436224716
 11
6.0748499253
 21
6.6636224716
  0
LINE
  5
2A8
100
AcDbEntity
  8
0
100
AcDbLine
 62
7
  6
CONTINUOUS
 10
6.0941099245
 20
4.875948375
 11
6.0941099245
 21
4.8622400564
  0
LINE
  5
2A9
100
AcDbEntity
  8
0
100
AcDbLine
 62
7
  6
CONTINUOUS
 10
6.1838499253
 20
8.0180784998
 11
6.1838499253
 21
6.9377997853
  0
LINE
  5
2AA
100
AcDbEntity
  8
0
100
AcDbLine
 62
7
  6
CONTINUOUS
 10
6.2237483171
 20
4.9374189364
 11
6.2237483171
 21
4.9037872246
  0
LINE
  5
2AB
100
AcDbEntity
  8
0
100
AcDbLine
 62
7
  6
CONTINUOUS
 10
6.2919951568
 20
4.7607881818
 11
6.2919951568
 21
4.7425418258
  0
LINE
  5
2AC
100
AcDbEntity
  8
0
100
AcDbLine
 62
7
  6
CONTINUOUS
 10
6.3052985028
 20
4.8976797139
 11
6.3052985028
 21
4.8622400564
  0
LINE
  5
2AD
100
AcDbEntity
  8
0
100
AcDbLine
 62
7
  6
CONTINUOUS
 10
6.3760474849
 20
4.6185675927
 11
6.3678942637
 21
4.6267208139
  0
LINE
  5
2AE
100
AcDbEntity
  8
0
100
AcDbLine
 62
7
  6
CONTINUOUS
 10
6.3082208275
 20
4.721423869
 11
6.2954545693
 21
4.7341901271
  0
LINE
  5
2AF
100
AcDbEntity
  8
0
100
AcDbLine
 62
7
  6
CONTINUOUS
 10
6.3192179276
 20
4.8401668212
 11
6.31106441
 21
4.8483203388
  0
LINE
  5
2B0
100
AcDbEntity
  8
0
100
AcDbLine
 62
7
  6
CONTINUOUS
 10
6.5279129901
 20
4.721423869
 11
6.5151467319
 21
4.7341901271
  0
LINE
  5
2B1
100
AcDbEntity
  8
0
100
AcDbLine
 62
7
  6
CONTINUOUS
 10
6.7209513554
 20
4.6185675927
 11
6.7127981359
 21
4.6267208122
  0
LINE
  5
2B2
100
AcDbEntity
  8
0
100
AcDbLine
 62
7
  6
CONTINUOUS
 10
6.4900921848
 20
4.8817139895
 11
6.4819389719
 21
4.8898672025
  0
LINE
  5
2B3
100
AcDbEntity
  8
0
100
AcDbLine
 62
7
  6
CONTINUOUS
 10
6.7461969602
 20
4.721423869
 11
6.733430702
 21
4.7341901271
  0
LINE
  5
2B4
100
AcDbEntity
  8
0
100
AcDbLine
 62
7
  6
CONTINUOUS
 10
6.6845884893
 20
4.8401668212
 11
6.6764349717
 21
4.8483203388
  0
LINE
  5
2B5
100
AcDbEntity
  8
0
100
AcDbLine
 62
7
  6
CONTINUOUS
 10
6.9078709584
 20
4.8817139895
 11
6.8997177455
 21
4.8898672025
  0
LINE
  5
2B6
100
AcDbEntity
  8
0
100
AcDbLine
 62
7
  6
CONTINUOUS
 10
6.4337274316
 20
4.7562379062
 11
6.4337274403
 21
4.7425418258
  0
LINE
  5
2B7
100
AcDbEntity
  8
0
100
AcDbLine
 62
7
  6
CONTINUOUS
 10
6.4470307862
 20
4.8939732981
 11
6.4470307862
 21
4.8622400564
  0
LINE
  5
2B8
100
AcDbEntity
  8
0
100
AcDbLine
 62
7
  6
CONTINUOUS
 10
6.47617276
 20
4.9387070412
 11
6.47617276
 21
4.9037872246
  0
LINE
  5
2B9
100
AcDbEntity
  8
0
100
AcDbLine
 62
7
  6
CONTINUOUS
 10
6.5116873195
 20
4.7582372509
 11
6.5116873195
 21
4.7425418258
  0
LINE
  5
2BA
100
AcDbEntity
  8
0
100
AcDbLine
 62
7
  6
CONTINUOUS
 10
6.6415270907
 20
4.9387070412
 11
6.6415270907
 21
4.9037872246
  0
LINE
  5
2BB
100
AcDbEntity
  8
0
100
AcDbLine
 62
7
  6
CONTINUOUS
 10
6.6534195816
 20
4.758791193
 11
6.6534196029
 21
4.7425418258
  0
LINE
  5
2BC
100
AcDbEntity
  8
0
100
AcDbLine
 62
7
  6
CONTINUOUS
 10
6.6706690645
 20
4.8939732972
 11
6.6706690645
 21
4.8622400564
  0
LINE
  5
2BD
100
AcDbEntity
  8
0
100
AcDbLine
 62
7
  6
CONTINUOUS
 10
6.7299712895
 20
4.7557024842
 11
6.7299712895
 21
4.7425418258
  0
LINE
  5
2BE
100
AcDbEntity
  8
0
100
AcDbLine
 62
7
  6
CONTINUOUS
 10
6.8124013479
 20
4.8976797129
 11
6.8124013479
 21
4.8622400564
  0
LINE
  5
2BF
100
AcDbEntity
  8
0
100
AcDbLine
 62
7
  6
CONTINUOUS
 10
6.8717035702
 20
4.76132162
 11
6.871703573
 21
4.7425418258
  0
LINE
  5
2C0
100
AcDbEntity
  8
0
100
AcDbLine
 62
7
  6
CONTINUOUS
 10
6.8939515336
 20
4.9374189712
 11
6.8939515336
 21
4.9037872246
  0
LINE
  5
2C1
100
AcDbEntity
  8
0
100
AcDbLine
 62
7
  6
CONTINUOUS
 10
6.5116873195
 20
4.7582372509
 11
6.5116873993
 21
4.7582529335
  0
LWPOLYLINE
  5
2C2
100
AcDbEntity
  8
0
100
AcDbPolyline
 62
7
  6
CONTINUOUS
 90
5
 70
0
 10
6.65341776
 20
4.7587934645
 10
6.6534386947
 20
4.7594556764
 10
6.654899672
 20
4.7641269369
 10
6.6569832971
 20
4.7664768829
 10
6.657352716
 20
4.7667288061
  0
LWPOLYLINE
  5
2C3
100
AcDbEntity
  8
0
100
AcDbPolyline
 62
7
  6
CONTINUOUS
 90
3
 70
0
 10
5.8746211389
 20
4.749751746
 10
5.8753091094
 20
4.7536553513
 10
5.8776499142
 20
4.7574812514
  0
LINE
  5
2C4
100
AcDbEntity
  8
0
100
AcDbLine
 62
7
  6
CONTINUOUS
 10
6.1206210741
 20
6.7600337761
 11
6.1638498914
 21
6.8930783954
  0
LWPOLYLINE
  5
2C5
100
AcDbEntity
  8
0
100
AcDbPolyline
 62
7
  6
CONTINUOUS
 90
5
 70
0
 10
5.6280838992
 20
4.778702534
 10
5.6278622733
 20
4.7787748165
 10
5.6284513282
 20
4.7785077753
 10
5.6304242399
 20
4.7771732475
 10
5.6331141386
 20
4.7737658738
  0
LWPOLYLINE
  5
2C6
100
AcDbEntity
  8
0
100
AcDbPolyline
 62
7
  6
CONTINUOUS
 90
6
 70
0
 10
6.2892430695
 20
4.7682261264
 10
6.2882742958
 20
4.7686219479
 10
6.2885483333
 20
4.7683999772
 10
6.2905723348
 20
4.7660443053
 10
6.2919789388
 20
4.7614237773
 10
6.291997886
 20
4.7607908607
  0
LWPOLYLINE
  5
2C7
100
AcDbEntity
  8
0
100
AcDbPolyline
 62
7
  6
CONTINUOUS
 90
5
 70
0
 10
6.5079011753
 20
4.7661329138
 10
6.5077190064
 20
4.7662094001
 10
6.5091451711
 20
4.7649957136
 10
6.5112253815
 20
4.7613063456
 10
6.5116869175
 20
4.7582508195
  0
LINE
  5
2C8
100
AcDbEntity
  8
0
100
AcDbLine
 62
7
  6
CONTINUOUS
 10
7.037509351
 20
4.8401668212
 11
7.0293558334
 21
4.8483203388
  0
LINE
  5
2C9
100
AcDbEntity
  8
0
100
AcDbLine
 62
7
  6
CONTINUOUS
 10
7.2844248358
 20
4.721423869
 11
7.2716585776
 21
4.7341901271
  0
LINE
  5
2CA
100
AcDbEntity
  8
0
100
AcDbLine
 62
7
  6
CONTINUOUS
 10
7.297178799
 20
4.8817139895
 11
7.2890255861
 21
4.8898672025
  0
LINE
  5
2CB
100
AcDbEntity
  8
0
100
AcDbLine
 62
7
  6
CONTINUOUS
 10
7.3539295392
 20
4.8401668212
 11
7.3457760216
 21
4.8483203388
  0
LINE
  5
2CC
100
AcDbEntity
  8
0
100
AcDbLine
 62
7
  6
CONTINUOUS
 10
7.612285541
 20
4.8401668212
 11
7.6041320234
 21
4.8483203388
  0
LINE
  5
2CD
100
AcDbEntity
  8
0
100
AcDbLine
 62
7
  6
CONTINUOUS
 10
7.6314850206
 20
4.8817139895
 11
7.6233318077
 21
4.8898672025
  0
LINE
  5
2CE
100
AcDbEntity
  8
0
100
AcDbLine
 62
7
  6
CONTINUOUS
 10
7.7949708219
 20
4.8401668212
 11
7.7868173043
 21
4.8483203388
  0
LWPOLYLINE
  5
2CF
100
AcDbEntity
  8
0
100
AcDbPolyline
 62
7
  6
CONTINUOUS
 90
3
 70
0
 10
7.2651218102
 20
4.7572673772
 10
7.26764713
 20
4.7529746292
 10
7.2681987873
 20
4.7494583607
  0
LINE
  5
2D0
100
AcDbEntity
  8
0
100
AcDbLine
 62
7
  6
CONTINUOUS
 10
6.9338499253
 20
8.0180784998
 11
6.9338499253
 21
6.9377997853
  0
LINE
  5
2D1
100
AcDbEntity
  8
0
100
AcDbLine
 62
7
  6
CONTINUOUS
 10
7.0235899262
 20
4.875948375
 11
7.0235899262
 21
4.8622400564
  0
LINE
  5
2D2
100
AcDbEntity
  8
0
100
AcDbLine
 62
7
  6
CONTINUOUS
 10
7.0428499253
 20
6.6436224716
 11
7.0428499253
 21
6.6636224716
  0
LINE
  5
2D3
100
AcDbEntity
  8
0
100
AcDbLine
 62
7
  6
CONTINUOUS
 10
7.0593058643
 20
4.9387070412
 11
7.0593058643
 21
4.9037872246
  0
LINE
  5
2D4
100
AcDbEntity
  8
0
100
AcDbLine
 62
7
  6
CONTINUOUS
 10
7.1653222096
 20
4.9012617067
 11
7.1653222096
 21
4.8622400564
  0
LINE
  5
2D5
100
AcDbEntity
  8
0
100
AcDbLine
 62
7
  6
CONTINUOUS
 10
7.2681991651
 20
4.7494593365
 11
7.2681991651
 21
4.7425418258
  0
LINE
  5
2D6
100
AcDbEntity
  8
0
100
AcDbLine
 62
7
  6
CONTINUOUS
 10
7.2832593742
 20
4.9327854627
 11
7.2832593742
 21
4.9037872246
  0
LINE
  5
2D7
100
AcDbEntity
  8
0
100
AcDbLine
 62
7
  6
CONTINUOUS
 10
7.3400101144
 20
4.875948375
 11
7.3400101144
 21
4.8622400564
  0
LINE
  5
2D8
100
AcDbEntity
  8
0
100
AcDbLine
 62
7
  6
CONTINUOUS
 10
7.4099314486
 20
4.7675721334
 11
7.4099314486
 21
4.7425418258
  0
LINE
  5
2D9
100
AcDbEntity
  8
0
100
AcDbLine
 62
7
  6
CONTINUOUS
 10
7.4486137049
 20
4.9387070412
 11
7.4486137049
 21
4.9037872246
  0
LINE
  5
2DA
100
AcDbEntity
  8
0
100
AcDbLine
 62
7
  6
CONTINUOUS
 10
7.4817423978
 20
4.904474802
 11
7.4817423978
 21
4.8622400564
  0
LINE
  5
2DB
100
AcDbEntity
  8
0
100
AcDbLine
 62
7
  6
CONTINUOUS
 10
7.4979386616
 20
4.7685951511
 11
7.4979386616
 21
4.7425418258
  0
LWPOLYLINE
  5
2DC
100
AcDbEntity
  8
0
100
AcDbPolyline
 62
7
  6
CONTINUOUS
 90
4
 70
0
 10
6.4337278955
 20
4.7562407322
 10
6.4351065252
 20
4.7614301834
 10
6.4372334099
 20
4.7639549359
 10
6.4379486312
 20
4.7644524582
  0
LINE
  5
2DD
100
AcDbEntity
  8
0
100
AcDbLine
 62
7
  6
CONTINUOUS
 10
5.2966842218
 20
4.8293337706
 11
5.385621579
 21
4.8139939947
  0
LWPOLYLINE
  5
2DE
100
AcDbEntity
  8
0
100
AcDbPolyline
 62
7
  6
CONTINUOUS
 90
7
 70
0
 10
5.5781311429
 20
4.7802822469
 10
5.5780706115
 20
4.7802949991
 10
5.5785875427
 20
4.7801471961
 10
5.5802037526
 20
4.7794815171
 10
5.5824737918
 20
4.7779750921
 10
5.5845801589
 20
4.7756404251
 10
5.5861196234
 20
4.7724453083
  0
LWPOLYLINE
  5
2DF
100
AcDbEntity
  8
0
100
AcDbPolyline
 62
7
  6
CONTINUOUS
 90
5
 70
0
 10
6.7258439649
 20
4.7639533639
 10
6.7255226582
 20
4.764081512
 10
6.7264463776
 20
4.7634605119
 10
6.7286662848
 20
4.7607739399
 10
6.7299718189
 20
4.755700286
  0
LINE
  5
2E0
100
AcDbEntity
  8
0
100
AcDbLine
 62
7
  6
CONTINUOUS
 10
7.8880072067
 20
4.8817139895
 11
7.879853645
 21
4.8898675512
  0
LINE
  5
2E1
100
AcDbEntity
  8
0
100
AcDbLine
 62
7
  6
CONTINUOUS
 10
8.0492637942
 20
4.8817139895
 11
8.0411105812
 21
4.8898672025
  0
LINE
  5
2E2
100
AcDbEntity
  8
0
100
AcDbLine
 62
7
  6
CONTINUOUS
 10
6.9970787765
 20
6.7600337761
 11
6.9538499593
 21
6.8930783954
  0
LINE
  5
2E3
100
AcDbEntity
  8
0
100
AcDbLine
 62
7
  6
CONTINUOUS
 10
7.5343660315
 20
4.7690167565
 11
7.5343660315
 21
4.7425418258
  0
LINE
  5
2E4
100
AcDbEntity
  8
0
100
AcDbLine
 62
7
  6
CONTINUOUS
 10
7.5983661162
 20
4.8845712939
 11
7.5983661162
 21
4.8622400564
  0
LINE
  5
2E5
100
AcDbEntity
  8
0
100
AcDbLine
 62
7
  6
CONTINUOUS
 10
7.6175655958
 20
4.928809046
 11
7.6175655958
 21
4.9037872246
  0
LINE
  5
2E6
100
AcDbEntity
  8
0
100
AcDbLine
 62
7
  6
CONTINUOUS
 10
7.7202672482
 20
4.8139939947
 11
7.7202672482
 21
4.8072205042
  0
LINE
  5
2E7
100
AcDbEntity
  8
0
100
AcDbLine
 62
7
  6
CONTINUOUS
 10
7.7400983996
 20
4.875948375
 11
7.7400983996
 21
4.8622400564
  0
LINE
  5
2E8
100
AcDbEntity
  8
0
100
AcDbLine
 62
7
  6
CONTINUOUS
 10
7.781051397
 20
4.8827213329
 11
7.781051397
 21
4.8622400564
  0
LINE
  5
2E9
100
AcDbEntity
  8
0
100
AcDbLine
 62
7
  6
CONTINUOUS
 10
7.7829199265
 20
4.9387070412
 11
7.7829199265
 21
4.9037872246
  0
LINE
  5
2EA
100
AcDbEntity
  8
0
100
AcDbLine
 62
7
  6
CONTINUOUS
 10
7.8740877818
 20
4.9257593771
 11
7.8740877818
 21
4.9037872246
  0
LINE
  5
2EB
100
AcDbEntity
  8
0
100
AcDbLine
 62
7
  6
CONTINUOUS
 10
7.9227836805
 20
4.875948375
 11
7.9227836805
 21
4.8622400564
  0
LINE
  5
2EC
100
AcDbEntity
  8
0
100
AcDbLine
 62
7
  6
CONTINUOUS
 10
8.0173485404
 20
4.877091131
 11
8.0173485404
 21
4.8622400564
  0
LINE
  5
2ED
100
AcDbEntity
  8
0
100
AcDbLine
 62
7
  6
CONTINUOUS
 10
8.0394421126
 20
4.9387070412
 11
8.0394421126
 21
4.9037872246
  0
LINE
  5
2EE
100
AcDbEntity
  8
0
100
AcDbLine
 62
7
  6
CONTINUOUS
 10
7.4979389579
 20
4.768594904
 11
7.4979575111
 21
4.7692600269
  0
LINE
  5
2EF
100
AcDbEntity
  8
0
100
AcDbLine
 62
7
  6
CONTINUOUS
 10
7.5343669089
 20
4.7690182956
 11
7.5345796437
 21
4.7712500574
  0
LWPOLYLINE
  5
2F0
100
AcDbEntity
  8
0
100
AcDbPolyline
 62
7
  6
CONTINUOUS
 90
4
 70
0
 10
6.8717037288
 20
4.7613222781
 10
6.8730565968
 20
4.7664626925
 10
6.8750585519
 20
4.7688757258
 10
6.8755562675
 20
4.7692359302
  0
LINE
  5
2F1
100
AcDbEntity
  8
0
100
AcDbLine
 62
7
  6
CONTINUOUS
 10
4.7924310226
 20
4.9387070412
 11
4.7904875024
 21
4.9389506668
  0
LWPOLYLINE
  5
2F2
100
AcDbEntity
  8
0
100
AcDbPolyline
 62
7
  6
CONTINUOUS
 90
5
 70
0
 10
7.2606749876
 20
4.7601082539
 10
7.2605048805
 20
4.7601336721
 10
7.2606587638
 20
4.760091631
 10
7.2621648496
 20
4.7594957731
 10
7.2651218102
 20
4.7572673772
  0
LINE
  5
2F3
100
AcDbEntity
  8
0
100
AcDbLine
 62
9
  6
CONTINUOUS
 10
7.5342985826
 20
4.7690282258
 11
7.5343660309
 21
4.7690168206
  0
LINE
  5
2F4
100
AcDbEntity
  8
0
100
AcDbLine
 62
7
  6
CONTINUOUS
 10
8.1788499253
 20
5.9074892314
 11
8.1788499253
 21
5.8735007988
  0
LINE
  5
2F5
100
AcDbEntity
  8
0
100
AcDbLine
 62
7
  6
CONTINUOUS
 10
8.2006987001
 20
4.9387070412
 11
8.2006987001
 21
4.9037872246
  0
LINE
  5
2F6
100
AcDbEntity
  8
0
100
AcDbLine
 62
7
  6
CONTINUOUS
 10
8.255700319
 20
4.9037872246
 11
8.255700319
 21
4.9387070412
  0
LINE
  5
2F7
100
AcDbEntity
  8
0
100
AcDbLine
 62
7
  6
CONTINUOUS
 10
8.4638499253
 20
5.6849169021
 11
8.4638499253
 21
5.5018680746
  0
LINE
  5
2F8
100
AcDbEntity
  8
0
100
AcDbLine
 62
7
  6
CONTINUOUS
 10
7.409927825
 20
4.7675717994
 11
7.4111445461
 21
4.7727023011
  0
LINE
  5
2F9
100
AcDbEntity
  8
0
100
AcDbLine
 62
7
  6
CONTINUOUS
 10
7.4979575111
 20
4.7692600269
 11
7.4993146059
 21
4.7740969759
  0
LWPOLYLINE
  5
2FA
100
AcDbEntity
  8
0
100
AcDbPolyline
 62
7
  6
CONTINUOUS
 90
7
 70
0
 10
7.5345796437
 20
4.7712500574
 10
7.5356057812
 20
4.7742852316
 10
7.5372855852
 20
4.7767915751
 10
7.5393709623
 20
4.7786693352
 10
7.5415859423
 20
4.7798967729
 10
7.5430650633
 20
4.78040386
 10
7.5435573816
 20
4.7805219748
  0
LINE
  5
2FB
100
AcDbEntity
  8
0
100
AcDbLine
 62
7
  6
CONTINUOUS
 10
7.2208274396
 20
4.6454393769
 11
7.2492044253
 21
4.7234045044
  0
LINE
  5
2FC
100
AcDbEntity
  8
0
100
AcDbLine
 62
7
  6
CONTINUOUS
 10
5.0684360565
 20
4.8817139895
 11
5.0765892694
 21
4.8898672025
  0
LINE
  5
2FD
100
AcDbEntity
  8
0
100
AcDbLine
 62
7
  6
CONTINUOUS
 10
8.4358499253
 20
4.9593151479
 11
8.5838499253
 21
4.9670714992
  0
LINE
  5
2FE
100
AcDbEntity
  8
0
100
AcDbLine
 62
7
  6
CONTINUOUS
 10
5.9883290115
 20
4.6128019782
 11
6.3828277638
 21
4.6128019782
  0
LINE
  5
2FF
100
AcDbEntity
  8
0
100
AcDbLine
 62
7
  6
CONTINUOUS
 10
6.389974565
 20
4.6128019782
 11
6.6059350985
 21
4.6128019782
  0
LINE
  5
300
100
AcDbEntity
  8
0
100
AcDbLine
 62
7
  6
CONTINUOUS
 10
6.6770233773
 20
4.6128019782
 11
6.7277252857
 21
4.6128019782
  0
LINE
  5
301
100
AcDbEntity
  8
0
100
AcDbLine
 62
7
  6
CONTINUOUS
 10
6.7348720869
 20
4.6128019782
 11
7.1293708392
 21
4.6128019782
  0
LINE
  5
302
100
AcDbEntity
  8
0
100
AcDbLine
 62
9
  6
CONTINUOUS
 10
5.9743990439
 20
4.6185669696
 11
6.3490532597
 21
4.6185669695
  0
LINE
  5
303
100
AcDbEntity
  8
0
100
AcDbLine
 62
9
  6
CONTINUOUS
 10
6.3760481081
 20
4.6185669696
 11
6.6198615554
 21
4.6185669696
  0
LINE
  5
304
100
AcDbEntity
  8
0
100
AcDbLine
 62
9
  6
CONTINUOUS
 10
6.7209519786
 20
4.6185669695
 11
7.1433008068
 21
4.6185669696
  0
LINE
  5
305
100
AcDbEntity
  8
0
100
AcDbLine
 62
7
  6
CONTINUOUS
 10
4.9495676295
 20
4.6186158779
 11
4.940337943
 21
4.6186158779
  0
LINE
  5
306
100
AcDbEntity
  8
0
100
AcDbLine
 62
9
  6
CONTINUOUS
 10
4.9403379536
 20
4.6186158779
 11
4.940390046
 21
4.6186158814
  0
LINE
  5
307
100
AcDbEntity
  8
0
100
AcDbLine
 62
9
  6
CONTINUOUS
 10
6.7160305754
 20
4.6234883727
 11
6.6247829586
 21
4.6234883727
  0
LINE
  5
308
100
AcDbEntity
  8
0
100
AcDbLine
 62
9
  6
CONTINUOUS
 10
6.3711267049
 20
4.6234883727
 11
6.315550608
 21
4.6234883727
  0
LINE
  5
309
100
AcDbEntity
  8
0
100
AcDbLine
 62
9
  6
CONTINUOUS
 10
7.1514546511
 20
4.6267208139
 11
6.7127981359
 21
4.6267208122
  0
LINE
  5
30A
100
AcDbEntity
  8
0
100
AcDbLine
 62
9
  6
CONTINUOUS
 10
6.6280153997
 20
4.6267208139
 11
6.3678942637
 21
4.6267208139
  0
LINE
  5
30B
100
AcDbEntity
  8
0
100
AcDbLine
 62
9
  6
CONTINUOUS
 10
6.3187830475
 20
4.6267208122
 11
5.9662582925
 21
4.6267208139
  0
LINE
  5
30C
100
AcDbEntity
  8
0
100
AcDbLine
 62
7
  6
CONTINUOUS
 10
5.9153738805
 20
4.6324870176
 11
7.2023259702
 21
4.6324870176
  0
LINE
  5
30D
100
AcDbEntity
  8
0
100
AcDbLine
 62
9
  6
CONTINUOUS
 10
5.8968724222
 20
4.6454393463
 11
7.2208274285
 21
4.6454393463
  0
LINE
  5
30E
100
AcDbEntity
  8
0
100
AcDbLine
 62
7
  6
CONTINUOUS
 10
5.7574718579
 20
4.7179645002
 11
5.870475425
 21
4.7179645002
  0
LINE
  5
30F
100
AcDbEntity
  8
0
100
AcDbLine
 62
7
  6
CONTINUOUS
 10
5.6112181512
 20
4.7179645002
 11
5.7515549006
 21
4.7179645002
  0
LINE
  5
310
100
AcDbEntity
  8
0
100
AcDbLine
 62
7
  6
CONTINUOUS
 10
6.3165775829
 20
4.7179645002
 11
6.4091450142
 21
4.7179645002
  0
LINE
  5
311
100
AcDbEntity
  8
0
100
AcDbLine
 62
7
  6
CONTINUOUS
 10
6.5362711975
 20
4.7179645002
 11
6.6288357249
 21
4.7179645002
  0
LINE
  5
312
100
AcDbEntity
  8
0
100
AcDbLine
 62
7
  6
CONTINUOUS
 10
6.7545552136
 20
4.7179645002
 11
6.8471196489
 21
4.7179645002
  0
LINE
  5
313
100
AcDbEntity
  8
0
100
AcDbLine
 62
7
  6
CONTINUOUS
 10
7.2472244257
 20
4.7179645002
 11
7.283320212
 21
4.7179645002
  0
LINE
  5
314
100
AcDbEntity
  8
0
100
AcDbLine
 62
7
  6
CONTINUOUS
 10
7.2927791463
 20
4.7179645002
 11
7.5097781749
 21
4.7179645002
  0
LINE
  5
315
100
AcDbEntity
  8
0
100
AcDbLine
 62
9
  6
CONTINUOUS
 10
5.6028664769
 20
4.721423832
 11
5.8692163312
 21
4.721423832
  0
LINE
  5
316
100
AcDbEntity
  8
0
100
AcDbLine
 62
9
  6
CONTINUOUS
 10
6.3082208644
 20
4.721423832
 11
6.4175017327
 21
4.721423832
  0
LINE
  5
317
100
AcDbEntity
  8
0
100
AcDbLine
 62
9
  6
CONTINUOUS
 10
6.527913027
 20
4.721423832
 11
6.6371938954
 21
4.721423832
  0
LINE
  5
318
100
AcDbEntity
  8
0
100
AcDbLine
 62
9
  6
CONTINUOUS
 10
6.7461969971
 20
4.721423832
 11
6.8554778654
 21
4.721423832
  0
LINE
  5
319
100
AcDbEntity
  8
0
100
AcDbLine
 62
9
  6
CONTINUOUS
 10
7.2484835197
 20
4.7214238325
 11
7.518140324
 21
4.721423832
  0
LINE
  5
31A
100
AcDbEntity
  8
0
100
AcDbLine
 62
9
  6
CONTINUOUS
 10
7.2492044253
 20
4.7234045044
 11
6.8574585378
 21
4.7234045044
  0
LINE
  5
31B
100
AcDbEntity
  8
0
100
AcDbLine
 62
9
  6
CONTINUOUS
 10
6.7442163247
 20
4.7234045044
 11
6.6391745678
 21
4.7234045044
  0
LINE
  5
31C
100
AcDbEntity
  8
0
100
AcDbLine
 62
9
  6
CONTINUOUS
 10
6.5259323546
 20
4.7234045044
 11
6.4194824051
 21
4.7234045044
  0
LINE
  5
31D
100
AcDbEntity
  8
0
100
AcDbLine
 62
9
  6
CONTINUOUS
 10
6.306240192
 20
4.7234045044
 11
5.8684954254
 21
4.7234045044
  0
LINE
  5
31E
100
AcDbEntity
  8
0
100
AcDbLine
 62
9
  6
CONTINUOUS
 10
7.530906619
 20
4.7341901271
 11
7.4946691206
 21
4.7341901271
  0
LINE
  5
31F
100
AcDbEntity
  8
0
100
AcDbLine
 62
9
  6
CONTINUOUS
 10
7.4944792492
 20
4.7341901271
 11
7.2554167991
 21
4.7341901271
  0
LINE
  5
320
100
AcDbEntity
  8
0
100
AcDbLine
 62
9
  6
CONTINUOUS
 10
6.8682441605
 20
4.7341901271
 11
6.733430702
 21
4.7341901271
  0
LINE
  5
321
100
AcDbEntity
  8
0
100
AcDbLine
 62
9
  6
CONTINUOUS
 10
6.6499601905
 20
4.7341901271
 11
6.5151467319
 21
4.7341901271
  0
LINE
  5
322
100
AcDbEntity
  8
0
100
AcDbLine
 62
9
  6
CONTINUOUS
 10
6.4302680278
 20
4.7341901271
 11
6.2954545693
 21
4.7341901271
  0
LINE
  5
323
100
AcDbEntity
  8
0
100
AcDbLine
 62
9
  6
CONTINUOUS
 10
5.8711631938
 20
4.7341901272
 11
5.5901001818
 21
4.7341901271
  0
LINE
  5
324
100
AcDbEntity
  8
0
100
AcDbLine
 62
9
  6
CONTINUOUS
 10
5.5866407693
 20
4.7425418258
 11
5.8746226061
 21
4.7425418258
  0
LINE
  5
325
100
AcDbEntity
  8
0
100
AcDbLine
 62
9
  6
CONTINUOUS
 10
6.2919951568
 20
4.7425418258
 11
6.4337274403
 21
4.7425418258
  0
LINE
  5
326
100
AcDbEntity
  8
0
100
AcDbLine
 62
9
  6
CONTINUOUS
 10
6.5116873195
 20
4.7425418258
 11
6.6534196029
 21
4.7425418258
  0
LINE
  5
327
100
AcDbEntity
  8
0
100
AcDbLine
 62
9
  6
CONTINUOUS
 10
6.7299712895
 20
4.7425418258
 11
6.871703573
 21
4.7425418258
  0
LINE
  5
328
100
AcDbEntity
  8
0
100
AcDbLine
 62
9
  6
CONTINUOUS
 10
7.2646899594
 20
4.7425418258
 11
7.5343660315
 21
4.7425418258
  0
LINE
  5
329
100
AcDbEntity
  8
0
100
AcDbLine
 62
9
  6
CONTINUOUS
 10
6.7299712895
 20
4.7491069575
 11
6.6534196029
 21
4.7491069575
  0
LINE
  5
32A
100
AcDbEntity
  8
0
100
AcDbLine
 62
9
  6
CONTINUOUS
 10
6.5116873195
 20
4.7491069575
 11
6.4337274403
 21
4.7491069575
  0
LINE
  5
32B
100
AcDbEntity
  8
0
100
AcDbLine
 62
9
  6
CONTINUOUS
 10
6.2919951568
 20
4.7491069575
 11
5.8746226061
 21
4.7491069575
  0
LINE
  5
32C
100
AcDbEntity
  8
0
100
AcDbLine
 62
9
  6
CONTINUOUS
 10
7.2681991651
 20
4.7491069575
 11
6.871703573
 21
4.7491069575
  0
LINE
  5
32D
100
AcDbEntity
  8
0
100
AcDbLine
 62
7
  6
CONTINUOUS
 10
5.3974326025
 20
4.8072205042
 11
7.7202672482
 21
4.8072205042
  0
LINE
  5
32E
100
AcDbEntity
  8
0
100
AcDbLine
 62
7
  6
CONTINUOUS
 10
5.3856382325
 20
4.8139939947
 11
7.7320621341
 21
4.8139939947
  0
LINE
  5
32F
100
AcDbEntity
  8
0
100
AcDbLine
 62
9
  6
CONTINUOUS
 10
5.2966842218
 20
4.8293337706
 11
7.821015629
 21
4.8293337705
  0
LINE
  5
330
100
AcDbEntity
  8
0
100
AcDbLine
 62
7
  6
CONTINUOUS
 10
5.1281905381
 20
4.8344012067
 11
5.2142419412
 21
4.8344012067
  0
LINE
  5
331
100
AcDbEntity
  8
0
100
AcDbLine
 62
7
  6
CONTINUOUS
 10
5.2227619703
 20
4.8344012067
 11
5.3088026535
 21
4.8344012067
  0
LINE
  5
332
100
AcDbEntity
  8
0
100
AcDbLine
 62
7
  6
CONTINUOUS
 10
5.4054528263
 20
4.8344012067
 11
5.4914823592
 21
4.8344012067
  0
LINE
  5
333
100
AcDbEntity
  8
0
100
AcDbLine
 62
7
  6
CONTINUOUS
 10
5.6638054132
 20
4.8344012067
 11
5.7498417759
 21
4.8344012067
  0
LINE
  5
334
100
AcDbEntity
  8
0
100
AcDbLine
 62
7
  6
CONTINUOUS
 10
5.9802186982
 20
4.8344012067
 11
6.0662688674
 21
4.8344012067
  0
LINE
  5
335
100
AcDbEntity
  8
0
100
AcDbLine
 62
7
  6
CONTINUOUS
 10
6.3331403989
 20
4.8344012067
 11
6.4191888901
 21
4.8344012067
  0
LINE
  5
336
100
AcDbEntity
  8
0
100
AcDbLine
 62
7
  6
CONTINUOUS
 10
6.6985176494
 20
4.8344012067
 11
6.784552763
 21
4.8344012067
  0
LINE
  5
337
100
AcDbEntity
  8
0
100
AcDbLine
 62
7
  6
CONTINUOUS
 10
7.0514412505
 20
4.8344012067
 11
7.1374708853
 21
4.8344012067
  0
LINE
  5
338
100
AcDbEntity
  8
0
100
AcDbLine
 62
7
  6
CONTINUOUS
 10
7.3678572379
 20
4.8344012067
 11
7.4538952744
 21
4.8344012067
  0
LINE
  5
339
100
AcDbEntity
  8
0
100
AcDbLine
 62
7
  6
CONTINUOUS
 10
7.6262062891
 20
4.8344012067
 11
7.7122582268
 21
4.8344012067
  0
LINE
  5
33A
100
AcDbEntity
  8
0
100
AcDbLine
 62
7
  6
CONTINUOUS
 10
7.8088937428
 20
4.8344012067
 11
7.8949413347
 21
4.8344012067
  0
LINE
  5
33B
100
AcDbEntity
  8
0
100
AcDbLine
 62
7
  6
CONTINUOUS
 10
7.9034750175
 20
4.8344012067
 11
7.9894897798
 21
4.8344012067
  0
LINE
  5
33C
100
AcDbEntity
  8
0
100
AcDbLine
 62
9
  6
CONTINUOUS
 10
5.3170925973
 20
4.8364007513
 11
5.3971573074
 21
4.8364007513
  0
LINE
  5
33D
100
AcDbEntity
  8
0
100
AcDbLine
 62
9
  6
CONTINUOUS
 10
5.4997778782
 20
4.8364007513
 11
5.6555133092
 21
4.8364007513
  0
LINE
  5
33E
100
AcDbEntity
  8
0
100
AcDbLine
 62
9
  6
CONTINUOUS
 10
5.75813388
 20
4.8364007513
 11
5.9719334974
 21
4.8364007513
  0
LINE
  5
33F
100
AcDbEntity
  8
0
100
AcDbLine
 62
9
  6
CONTINUOUS
 10
6.0745540682
 20
4.8364007513
 11
6.3248543591
 21
4.8364007513
  0
LINE
  5
340
100
AcDbEntity
  8
0
100
AcDbLine
 62
9
  6
CONTINUOUS
 10
6.4274749299
 20
4.8364007513
 11
6.6902249208
 21
4.8364007513
  0
LINE
  5
341
100
AcDbEntity
  8
0
100
AcDbLine
 62
9
  6
CONTINUOUS
 10
6.7928454916
 20
4.8364007513
 11
7.0431457825
 21
4.8364007513
  0
LINE
  5
342
100
AcDbEntity
  8
0
100
AcDbLine
 62
9
  6
CONTINUOUS
 10
7.1457663533
 20
4.8364007513
 11
7.3539295392
 21
4.8364007513
  0
LINE
  5
343
100
AcDbEntity
  8
0
100
AcDbLine
 62
9
  6
CONTINUOUS
 10
7.4621865415
 20
4.8364007513
 11
7.612285541
 21
4.8364007513
  0
LINE
  5
344
100
AcDbEntity
  8
0
100
AcDbLine
 62
9
  6
CONTINUOUS
 10
7.7205425549
 20
4.836400759
 11
7.8006072418
 21
4.836400759
  0
LINE
  5
345
100
AcDbEntity
  8
0
100
AcDbLine
 62
9
  6
CONTINUOUS
 10
5.1142710576
 20
4.8401664988
 11
5.3227287064
 21
4.8401664988
  0
LINE
  5
346
100
AcDbEntity
  8
0
100
AcDbLine
 62
9
  6
CONTINUOUS
 10
5.3915211983
 20
4.8401664988
 11
5.5054139872
 21
4.8401664988
  0
LINE
  5
347
100
AcDbEntity
  8
0
100
AcDbLine
 62
9
  6
CONTINUOUS
 10
5.6498772001
 20
4.8401664988
 11
5.7637699891
 21
4.8401664988
  0
LINE
  5
348
100
AcDbEntity
  8
0
100
AcDbLine
 62
9
  6
CONTINUOUS
 10
5.9662973883
 20
4.8401664988
 11
6.0801901773
 21
4.8401664988
  0
LINE
  5
349
100
AcDbEntity
  8
0
100
AcDbLine
 62
9
  6
CONTINUOUS
 10
6.31921825
 20
4.8401664988
 11
6.433111039
 21
4.8401664988
  0
LINE
  5
34A
100
AcDbEntity
  8
0
100
AcDbLine
 62
9
  6
CONTINUOUS
 10
6.6845888117
 20
4.8401664988
 11
6.7984816007
 21
4.8401664988
  0
LINE
  5
34B
100
AcDbEntity
  8
0
100
AcDbLine
 62
9
  6
CONTINUOUS
 10
7.0375096734
 20
4.8401664988
 11
7.1514024624
 21
4.8401664988
  0
LINE
  5
34C
100
AcDbEntity
  8
0
100
AcDbLine
 62
9
  6
CONTINUOUS
 10
7.3539298616
 20
4.8401664988
 11
7.4678226506
 21
4.8401664988
  0
LINE
  5
34D
100
AcDbEntity
  8
0
100
AcDbLine
 62
9
  6
CONTINUOUS
 10
7.6122858634
 20
4.8401664988
 11
7.7261786524
 21
4.8401664988
  0
LINE
  5
34E
100
AcDbEntity
  8
0
100
AcDbLine
 62
9
  6
CONTINUOUS
 10
7.7949711443
 20
4.8401664988
 11
8.0034287931
 21
4.8401664988
  0
LINE
  5
34F
100
AcDbEntity
  8
0
100
AcDbLine
 62
9
  6
CONTINUOUS
 10
8.0115820725
 20
4.8483203388
 11
7.9230012963
 21
4.8483203388
  0
LINE
  5
350
100
AcDbEntity
  8
0
100
AcDbLine
 62
9
  6
CONTINUOUS
 10
7.9170177732
 20
4.8483203388
 11
7.7868173043
 21
4.8483203388
  0
LINE
  5
351
100
AcDbEntity
  8
0
100
AcDbLine
 62
9
  6
CONTINUOUS
 10
7.7343324924
 20
4.8483203388
 11
7.6041320234
 21
4.8483203388
  0
LINE
  5
352
100
AcDbEntity
  8
0
100
AcDbLine
 62
9
  6
CONTINUOUS
 10
7.4759764906
 20
4.8483203388
 11
7.3457760216
 21
4.8483203388
  0
LINE
  5
353
100
AcDbEntity
  8
0
100
AcDbLine
 62
9
  6
CONTINUOUS
 10
7.1595563024
 20
4.8483203388
 11
7.0293558334
 21
4.8483203388
  0
LINE
  5
354
100
AcDbEntity
  8
0
100
AcDbLine
 62
9
  6
CONTINUOUS
 10
6.8066354407
 20
4.8483203388
 11
6.6764349717
 21
4.8483203388
  0
LINE
  5
355
100
AcDbEntity
  8
0
100
AcDbLine
 62
9
  6
CONTINUOUS
 10
6.441264879
 20
4.8483203388
 11
6.31106441
 21
4.8483203388
  0
LINE
  5
356
100
AcDbEntity
  8
0
100
AcDbLine
 62
9
  6
CONTINUOUS
 10
6.0883440173
 20
4.8483203388
 11
5.9581435483
 21
4.8483203388
  0
LINE
  5
357
100
AcDbEntity
  8
0
100
AcDbLine
 62
9
  6
CONTINUOUS
 10
5.7719238291
 20
4.8483203388
 11
5.6417233601
 21
4.8483203388
  0
LINE
  5
358
100
AcDbEntity
  8
0
100
AcDbLine
 62
9
  6
CONTINUOUS
 10
5.5135678273
 20
4.8483203388
 11
5.3833673583
 21
4.8483203388
  0
LINE
  5
359
100
AcDbEntity
  8
0
100
AcDbLine
 62
9
  6
CONTINUOUS
 10
5.3308825464
 20
4.8483203388
 11
5.1061172175
 21
4.8483203388
  0
LINE
  5
35A
100
AcDbEntity
  8
0
100
AcDbLine
 62
9
  6
CONTINUOUS
 10
7.7822737419
 20
4.8560950828
 11
7.7388760548
 21
4.8560950828
  0
LINE
  5
35B
100
AcDbEntity
  8
0
100
AcDbLine
 62
9
  6
CONTINUOUS
 10
7.599588461
 20
4.8560950828
 11
7.480520053
 21
4.8560950828
  0
LINE
  5
35C
100
AcDbEntity
  8
0
100
AcDbLine
 62
9
  6
CONTINUOUS
 10
7.3412324592
 20
4.8560950828
 11
7.1640998648
 21
4.8560950828
  0
LINE
  5
35D
100
AcDbEntity
  8
0
100
AcDbLine
 62
9
  6
CONTINUOUS
 10
7.024812271
 20
4.8560950828
 11
6.8111790031
 21
4.8560950828
  0
LINE
  5
35E
100
AcDbEntity
  8
0
100
AcDbLine
 62
9
  6
CONTINUOUS
 10
6.6718914093
 20
4.8560950828
 11
6.4458084414
 21
4.8560950828
  0
LINE
  5
35F
100
AcDbEntity
  8
0
100
AcDbLine
 62
9
  6
CONTINUOUS
 10
6.3065208476
 20
4.8560950828
 11
6.0928875797
 21
4.8560950828
  0
LINE
  5
360
100
AcDbEntity
  8
0
100
AcDbLine
 62
9
  6
CONTINUOUS
 10
5.9535999859
 20
4.8560950828
 11
5.7764673915
 21
4.8560950828
  0
LINE
  5
361
100
AcDbEntity
  8
0
100
AcDbLine
 62
9
  6
CONTINUOUS
 10
5.6371797977
 20
4.8560950828
 11
5.5181113897
 21
4.8560950828
  0
LINE
  5
362
100
AcDbEntity
  8
0
100
AcDbLine
 62
9
  6
CONTINUOUS
 10
5.3788237959
 20
4.8560950828
 11
5.3354261088
 21
4.8560950828
  0
LINE
  5
363
100
AcDbEntity
  8
0
100
AcDbLine
 62
9
  6
CONTINUOUS
 10
5.1003513103
 20
4.8622400564
 11
5.3366484537
 21
4.8622400564
  0
LINE
  5
364
100
AcDbEntity
  8
0
100
AcDbLine
 62
9
  6
CONTINUOUS
 10
5.377601451
 20
4.8622400564
 11
5.5193337345
 21
4.8622400564
  0
LINE
  5
365
100
AcDbEntity
  8
0
100
AcDbLine
 62
9
  6
CONTINUOUS
 10
5.6359574529
 20
4.8622400564
 11
5.7776897363
 21
4.8622400564
  0
LINE
  5
366
100
AcDbEntity
  8
0
100
AcDbLine
 62
9
  6
CONTINUOUS
 10
5.9523776411
 20
4.8622400564
 11
6.0941099245
 21
4.8622400564
  0
LINE
  5
367
100
AcDbEntity
  8
0
100
AcDbLine
 62
9
  6
CONTINUOUS
 10
6.3052985028
 20
4.8622400564
 11
6.4470307862
 21
4.8622400564
  0
LINE
  5
368
100
AcDbEntity
  8
0
100
AcDbLine
 62
9
  6
CONTINUOUS
 10
6.6706690645
 20
4.8622400564
 11
6.8124013479
 21
4.8622400564
  0
LINE
  5
369
100
AcDbEntity
  8
0
100
AcDbLine
 62
9
  6
CONTINUOUS
 10
7.0235899262
 20
4.8622400564
 11
7.1653222096
 21
4.8622400564
  0
LINE
  5
36A
100
AcDbEntity
  8
0
100
AcDbLine
 62
9
  6
CONTINUOUS
 10
7.3400101144
 20
4.8622400564
 11
7.4817423978
 21
4.8622400564
  0
LINE
  5
36B
100
AcDbEntity
  8
0
100
AcDbLine
 62
9
  6
CONTINUOUS
 10
7.5983661162
 20
4.8622400564
 11
7.7400983996
 21
4.8622400564
  0
LINE
  5
36C
100
AcDbEntity
  8
0
100
AcDbLine
 62
9
  6
CONTINUOUS
 10
7.781051397
 20
4.8622400564
 11
8.0173479301
 21
4.8622400564
  0
LINE
  5
36D
100
AcDbEntity
  8
0
100
AcDbLine
 62
9
  6
CONTINUOUS
 10
7.781051397
 20
4.8737385047
 11
7.7400983996
 21
4.8737385047
  0
LINE
  5
36E
100
AcDbEntity
  8
0
100
AcDbLine
 62
9
  6
CONTINUOUS
 10
7.5983661162
 20
4.8737385047
 11
7.4817423978
 21
4.8737385047
  0
LINE
  5
36F
100
AcDbEntity
  8
0
100
AcDbLine
 62
9
  6
CONTINUOUS
 10
7.3405178813
 20
4.8737385047
 11
7.1653222096
 21
4.8737385047
  0
LINE
  5
370
100
AcDbEntity
  8
0
100
AcDbLine
 62
9
  6
CONTINUOUS
 10
7.0235899262
 20
4.8737385047
 11
6.8124013479
 21
4.8737385047
  0
LINE
  5
371
100
AcDbEntity
  8
0
100
AcDbLine
 62
9
  6
CONTINUOUS
 10
6.6706690645
 20
4.8737385047
 11
6.4470307862
 21
4.8737385047
  0
LINE
  5
372
100
AcDbEntity
  8
0
100
AcDbLine
 62
9
  6
CONTINUOUS
 10
6.3052985028
 20
4.8737385047
 11
6.0941099245
 21
4.8737385047
  0
LINE
  5
373
100
AcDbEntity
  8
0
100
AcDbLine
 62
9
  6
CONTINUOUS
 10
5.9523776411
 20
4.8737385047
 11
5.7791824693
 21
4.8737385047
  0
LINE
  5
374
100
AcDbEntity
  8
0
100
AcDbLine
 62
9
  6
CONTINUOUS
 10
5.6359574529
 20
4.8737385047
 11
5.5193337345
 21
4.8737385047
  0
LINE
  5
375
100
AcDbEntity
  8
0
100
AcDbLine
 62
9
  6
CONTINUOUS
 10
5.377601451
 20
4.8737385047
 11
5.3366484537
 21
4.8737385047
  0
LINE
  5
376
100
AcDbEntity
  8
0
100
AcDbLine
 62
7
  6
CONTINUOUS
 10
4.8898387272
 20
4.875948375
 11
5.0545011012
 21
4.875948375
  0
LINE
  5
377
100
AcDbEntity
  8
0
100
AcDbLine
 62
7
  6
CONTINUOUS
 10
5.1061035854
 20
4.875948375
 11
5.2157662216
 21
4.875948375
  0
LINE
  5
378
100
AcDbEntity
  8
0
100
AcDbLine
 62
7
  6
CONTINUOUS
 10
5.3626219795
 20
4.875948375
 11
5.4722921996
 21
4.875948375
  0
LINE
  5
379
100
AcDbEntity
  8
0
100
AcDbLine
 62
7
  6
CONTINUOUS
 10
5.6969258287
 20
4.875948375
 11
5.8066007936
 21
4.875948375
  0
LINE
  5
37A
100
AcDbEntity
  8
0
100
AcDbLine
 62
7
  6
CONTINUOUS
 10
6.0862346285
 20
4.875948375
 11
6.195907675
 21
4.875948375
  0
LINE
  5
37B
100
AcDbEntity
  8
0
100
AcDbLine
 62
7
  6
CONTINUOUS
 10
6.5040116096
 20
4.875948375
 11
6.6136833973
 21
4.875948375
  0
LINE
  5
37C
100
AcDbEntity
  8
0
100
AcDbLine
 62
7
  6
CONTINUOUS
 10
6.921798387
 20
4.875948375
 11
7.0314590109
 21
4.875948375
  0
LINE
  5
37D
100
AcDbEntity
  8
0
100
AcDbLine
 62
7
  6
CONTINUOUS
 10
7.3111083195
 20
4.875948375
 11
7.4207647595
 21
4.875948375
  0
LINE
  5
37E
100
AcDbEntity
  8
0
100
AcDbLine
 62
7
  6
CONTINUOUS
 10
7.6454148186
 20
4.875948375
 11
7.7550707037
 21
4.875948375
  0
LINE
  5
37F
100
AcDbEntity
  8
0
100
AcDbLine
 62
7
  6
CONTINUOUS
 10
7.9019352191
 20
4.875948375
 11
8.0115946753
 21
4.875948375
  0
LINE
  5
380
100
AcDbEntity
  8
0
100
AcDbLine
 62
7
  6
CONTINUOUS
 10
8.0631874274
 20
4.875948375
 11
8.2278611235
 21
4.875948375
  0
LINE
  5
381
100
AcDbEntity
  8
0
100
AcDbLine
 62
9
  6
CONTINUOUS
 10
4.8759192342
 20
4.8817137118
 11
5.0684357788
 21
4.8817137118
  0
LINE
  5
382
100
AcDbEntity
  8
0
100
AcDbLine
 62
9
  6
CONTINUOUS
 10
5.0921774407
 20
4.8817137118
 11
5.2296923663
 21
4.8817137118
  0
LINE
  5
383
100
AcDbEntity
  8
0
100
AcDbLine
 62
9
  6
CONTINUOUS
 10
5.3486996268
 20
4.8817137118
 11
5.4862145523
 21
4.8817137118
  0
LINE
  5
384
100
AcDbEntity
  8
0
100
AcDbLine
 62
9
  6
CONTINUOUS
 10
5.6830058484
 20
4.8817137118
 11
5.8205207739
 21
4.8817137118
  0
LINE
  5
385
100
AcDbEntity
  8
0
100
AcDbLine
 62
9
  6
CONTINUOUS
 10
6.072313689
 20
4.8817137118
 11
6.2098286145
 21
4.8817137118
  0
LINE
  5
386
100
AcDbEntity
  8
0
100
AcDbLine
 62
9
  6
CONTINUOUS
 10
6.4900924626
 20
4.8817137118
 11
6.6276073881
 21
4.8817137118
  0
LINE
  5
387
100
AcDbEntity
  8
0
100
AcDbLine
 62
9
  6
CONTINUOUS
 10
6.9078712362
 20
4.8817137118
 11
7.0453861617
 21
4.8817137118
  0
LINE
  5
388
100
AcDbEntity
  8
0
100
AcDbLine
 62
9
  6
CONTINUOUS
 10
7.2971790767
 20
4.8817137118
 11
7.4346940023
 21
4.8817137118
  0
LINE
  5
389
100
AcDbEntity
  8
0
100
AcDbLine
 62
9
  6
CONTINUOUS
 10
7.6314852983
 20
4.8817137118
 11
7.7690002239
 21
4.8817137118
  0
LINE
  5
38A
100
AcDbEntity
  8
0
100
AcDbLine
 62
9
  6
CONTINUOUS
 10
7.8880074586
 20
4.8817137376
 11
8.0255224358
 21
4.8817137376
  0
LINE
  5
38B
100
AcDbEntity
  8
0
100
AcDbLine
 62
9
  6
CONTINUOUS
 10
8.0492640719
 20
4.8817137118
 11
8.2417806165
 21
4.8817137118
  0
LINE
  5
38C
100
AcDbEntity
  8
0
100
AcDbLine
 62
9
  6
CONTINUOUS
 10
8.2499341072
 20
4.8898672025
 11
8.0411105812
 21
4.8898672025
  0
LINE
  5
38D
100
AcDbEntity
  8
0
100
AcDbLine
 62
9
  6
CONTINUOUS
 10
7.7771537146
 20
4.8898672025
 11
7.6233318077
 21
4.8898672025
  0
LINE
  5
38E
100
AcDbEntity
  8
0
100
AcDbLine
 62
9
  6
CONTINUOUS
 10
7.442847493
 20
4.8898672025
 11
7.2890255861
 21
4.8898672025
  0
LINE
  5
38F
100
AcDbEntity
  8
0
100
AcDbLine
 62
9
  6
CONTINUOUS
 10
7.0535396524
 20
4.8898672025
 11
6.8997177455
 21
4.8898672025
  0
LINE
  5
390
100
AcDbEntity
  8
0
100
AcDbLine
 62
9
  6
CONTINUOUS
 10
6.6357608788
 20
4.8898672025
 11
6.4819389719
 21
4.8898672025
  0
LINE
  5
391
100
AcDbEntity
  8
0
100
AcDbLine
 62
9
  6
CONTINUOUS
 10
6.2179821052
 20
4.8898672025
 11
6.0641601983
 21
4.8898672025
  0
LINE
  5
392
100
AcDbEntity
  8
0
100
AcDbLine
 62
9
  6
CONTINUOUS
 10
5.8286742648
 20
4.8898672026
 11
5.6748523576
 21
4.8898672026
  0
LINE
  5
393
100
AcDbEntity
  8
0
100
AcDbLine
 62
9
  6
CONTINUOUS
 10
5.494368043
 20
4.8898672025
 11
5.3405461361
 21
4.8898672025
  0
LINE
  5
394
100
AcDbEntity
  8
0
100
AcDbLine
 62
9
  6
CONTINUOUS
 10
5.237845857
 20
4.8898672025
 11
5.08402395
 21
4.8898672025
  0
LINE
  5
395
100
AcDbEntity
  8
0
100
AcDbLine
 62
9
  6
CONTINUOUS
 10
5.0765892694
 20
4.8898672025
 11
4.8677657435
 21
4.8898672025
  0
LINE
  5
396
100
AcDbEntity
  8
0
100
AcDbLine
 62
9
  6
CONTINUOUS
 10
8.0336762494
 20
4.8898675512
 11
7.879853645
 21
4.8898675512
  0
LINE
  5
397
100
AcDbEntity
  8
0
100
AcDbLine
 62
9
  6
CONTINUOUS
 10
4.8619995316
 20
4.9037872246
 11
5.2436120688
 21
4.9037872246
  0
LINE
  5
398
100
AcDbEntity
  8
0
100
AcDbLine
 62
9
  6
CONTINUOUS
 10
5.3347799242
 20
4.9037872246
 11
5.5001342549
 21
4.9037872246
  0
LINE
  5
399
100
AcDbEntity
  8
0
100
AcDbLine
 62
9
  6
CONTINUOUS
 10
5.6690861458
 20
4.9037872246
 11
5.8344404765
 21
4.9037872246
  0
LINE
  5
39A
100
AcDbEntity
  8
0
100
AcDbLine
 62
9
  6
CONTINUOUS
 10
6.0583939864
 20
4.9037872246
 11
6.2237483171
 21
4.9037872246
  0
LINE
  5
39B
100
AcDbEntity
  8
0
100
AcDbLine
 62
9
  6
CONTINUOUS
 10
6.47617276
 20
4.9037872246
 11
6.6415270907
 21
4.9037872246
  0
LINE
  5
39C
100
AcDbEntity
  8
0
100
AcDbLine
 62
9
  6
CONTINUOUS
 10
6.8939515336
 20
4.9037872246
 11
7.0593058643
 21
4.9037872246
  0
LINE
  5
39D
100
AcDbEntity
  8
0
100
AcDbLine
 62
9
  6
CONTINUOUS
 10
7.2832593742
 20
4.9037872246
 11
7.4486137049
 21
4.9037872246
  0
LINE
  5
39E
100
AcDbEntity
  8
0
100
AcDbLine
 62
9
  6
CONTINUOUS
 10
7.6175655958
 20
4.9037872246
 11
7.7829199265
 21
4.9037872246
  0
LINE
  5
39F
100
AcDbEntity
  8
0
100
AcDbLine
 62
9
  6
CONTINUOUS
 10
7.8740877818
 20
4.9037872246
 11
8.255700319
 21
4.9037872246
  0
LINE
  5
3A0
100
AcDbEntity
  8
0
100
AcDbLine
 62
7
  6
CONTINUOUS
 10
4.8619995316
 20
4.934030753
 11
4.8559194194
 21
4.9340270861
  0
LINE
  5
3A1
100
AcDbEntity
  8
0
100
AcDbLine
 62
7
  6
CONTINUOUS
 10
4.7977259955
 20
4.9387070412
 11
8.3235979525
 21
4.9387070412
  0
LINE
  5
3A2
100
AcDbEntity
  8
0
100
AcDbLine
 62
9
  6
CONTINUOUS
 10
6.6415269313
 20
4.9389444392
 11
6.6131409209
 21
4.9389457508
  0
LINE
  5
3A3
100
AcDbEntity
  8
0
100
AcDbLine
 62
9
  6
CONTINUOUS
 10
5.080379165
 20
4.9389475694
 11
4.8015232696
 21
4.9389492148
  0
LINE
  5
3A4
100
AcDbEntity
  8
0
100
AcDbLine
 62
9
  6
CONTINUOUS
 10
6.6131409209
 20
4.9389457508
 11
6.4995860493
 21
4.9389461128
  0
LINE
  5
3A5
100
AcDbEntity
  8
0
100
AcDbLine
 62
9
  6
CONTINUOUS
 10
6.0839994274
 20
4.9389458611
 11
5.0819969573
 21
4.9389476534
  0
LINE
  5
3A6
100
AcDbEntity
  8
0
100
AcDbLine
 62
9
  6
CONTINUOUS
 10
8.3272131911
 20
4.9389473577
 11
6.9153436273
 21
4.9389470802
  0
LINE
  5
3A7
100
AcDbEntity
  8
0
100
AcDbLine
 62
9
  6
CONTINUOUS
 10
6.8939514576
 20
4.9389465326
 11
6.6415269313
 21
4.9389444392
  0
LINE
  5
3A8
100
AcDbEntity
  8
0
100
AcDbLine
 62
9
  6
CONTINUOUS
 10
6.9153436273
 20
4.9389470802
 11
6.8985711757
 21
4.9389467624
  0
LINE
  5
3A9
100
AcDbEntity
  8
0
100
AcDbLine
 62
9
  6
CONTINUOUS
 10
6.4995860493
 20
4.9389461128
 11
6.4942765023
 21
4.9389459661
  0
LINE
  5
3AA
100
AcDbEntity
  8
0
100
AcDbLine
 62
9
  6
CONTINUOUS
 10
6.8985711757
 20
4.9389467624
 11
6.8939514576
 21
4.9389465326
  0
LINE
  5
3AB
100
AcDbEntity
  8
0
100
AcDbLine
 62
9
  6
CONTINUOUS
 10
5.0819969573
 20
4.9389476534
 11
5.080379165
 21
4.9389475694
  0
LINE
  5
3AC
100
AcDbEntity
  8
0
100
AcDbLine
 62
9
  6
CONTINUOUS
 10
4.8015232696
 20
4.9389492148
 11
4.7904844231
 21
4.9389479276
  0
LINE
  5
3AD
100
AcDbEntity
  8
0
100
AcDbLine
 62
7
  6
CONTINUOUS
 10
4.6818499253
 20
4.9593151479
 11
8.4358499253
 21
4.9593151479
  0
LINE
  5
3AE
100
AcDbEntity
  8
0
100
AcDbLine
 62
9
  6
CONTINUOUS
 10
8.5838499253
 20
4.9670714992
 11
4.5338499253
 21
4.9670714992
  0
LINE
  5
3AF
100
AcDbEntity
  8
0
100
AcDbLine
 62
7
  6
CONTINUOUS
 10
4.4089127839
 20
5.0767931846
 11
8.7087870668
 21
5.0767931846
  0
LINE
  5
3B0
100
AcDbEntity
  8
0
100
AcDbLine
 62
9
  6
CONTINUOUS
 10
8.6599325323
 20
5.1473372703
 11
4.4577673184
 21
5.1473372703
  0
LINE
  5
3B1
100
AcDbEntity
  8
0
100
AcDbLine
 62
9
  6
CONTINUOUS
 10
6.4942765023
 20
4.9389459661
 11
6.2094757831
 21
4.9389431051
  0
LINE
  5
3B2
100
AcDbEntity
  8
0
100
AcDbLine
 62
9
  6
CONTINUOUS
 10
6.2237484196
 20
4.938942144
 11
6.0839994274
 21
4.9389458611
  0
LINE
  5
3B3
100
AcDbEntity
  8
0
100
AcDbLine
 62
7
  6
CONTINUOUS
 10
4.6818499253
 20
4.9593151479
 11
4.5338499253
 21
4.9670714992
  0
LINE
  5
3B4
100
AcDbEntity
  8
0
100
AcDbLine
 62
7
  6
CONTINUOUS
 10
8.1907151925
 20
5.8552298896
 11
8.4193551736
 21
5.7534328114
  0
LINE
  5
3B5
100
AcDbEntity
  8
0
100
AcDbLine
 62
7
  6
CONTINUOUS
 10
5.229692644
 20
4.8817139895
 11
5.237845857
 21
4.8898672025
  0
LINE
  5
3B6
100
AcDbEntity
  8
0
100
AcDbLine
 62
7
  6
CONTINUOUS
 10
5.3227290288
 20
4.8401668212
 11
5.3308825464
 21
4.8483203388
  0
LINE
  5
3B7
100
AcDbEntity
  8
0
100
AcDbLine
 62
7
  6
CONTINUOUS
 10
5.4862148301
 20
4.8817139895
 11
5.494368043
 21
4.8898672025
  0
LINE
  5
3B8
100
AcDbEntity
  8
0
100
AcDbLine
 62
7
  6
CONTINUOUS
 10
5.5054143097
 20
4.8401668212
 11
5.5135678273
 21
4.8483203388
  0
LINE
  5
3B9
100
AcDbEntity
  8
0
100
AcDbLine
 62
7
  6
CONTINUOUS
 10
5.7637703115
 20
4.8401668212
 11
5.7719238291
 21
4.8483203388
  0
LINE
  5
3BA
100
AcDbEntity
  8
0
100
AcDbLine
 62
7
  6
CONTINUOUS
 10
5.8205210517
 20
4.8817139895
 11
5.8286742648
 21
4.8898672026
  0
LINE
  5
3BB
100
AcDbEntity
  8
0
100
AcDbLine
 62
7
  6
CONTINUOUS
 10
7.5435573816
 20
4.7805219748
 11
7.5436436359
 21
4.7805394164
  0
LINE
  5
3BC
100
AcDbEntity
  8
0
100
AcDbLine
 62
7
  6
CONTINUOUS
 10
7.821015629
 20
4.8293337705
 11
7.7320782721
 21
4.8139939947
  0
LINE
  5
3BD
100
AcDbEntity
  8
0
100
AcDbLine
 62
9
  6
CONTINUOUS
 10
5.5866407693
 20
4.7689771002
 11
5.586967023
 21
4.7690282255
  0
LINE
  5
3BE
100
AcDbEntity
  8
0
100
AcDbLine
 62
7
  6
CONTINUOUS
 10
8.3252688281
 20
4.9387070412
 11
8.3272123483
 21
4.9389506668
  0
LINE
  5
3BF
100
AcDbEntity
  8
0
100
AcDbLine
 62
9
  6
CONTINUOUS
 10
8.561085371
 20
5.2224809432
 11
4.5566144797
 21
5.2224809432
  0
LINE
  5
3C0
100
AcDbEntity
  8
0
100
AcDbLine
 62
9
  6
CONTINUOUS
 10
4.6538499253
 20
5.5018680746
 11
8.4638499253
 21
5.5018680746
  0
LINE
  5
3C1
100
AcDbEntity
  8
0
100
AcDbLine
 62
9
  6
CONTINUOUS
 10
8.4638499253
 20
5.6849169021
 11
4.6538499253
 21
5.6849169021
  0
LINE
  5
3C2
100
AcDbEntity
  8
0
100
AcDbLine
 62
9
  6
CONTINUOUS
 10
4.6983446771
 20
5.7534328114
 11
8.4193551736
 21
5.7534328114
  0
LWPOLYLINE
  5
3C3
100
AcDbEntity
  8
0
100
AcDbPolyline
 62
7
  6
CONTINUOUS
 90
4
 70
0
 10
7.4111445461
 20
4.7727023011
 10
7.4136276918
 20
4.7759422669
 10
7.4152547544
 20
4.7770928512
 10
7.4153996055
 20
4.7771689349
  0
LINE
  5
3C4
100
AcDbEntity
  8
0
100
AcDbLine
 62
7
  6
CONTINUOUS
 10
5.8583969355
 20
4.721423869
 11
5.8711631938
 21
4.7341901272
  0
LINE
  5
3C5
100
AcDbEntity
  8
0
100
AcDbLine
 62
7
  6
CONTINUOUS
 10
6.0801904997
 20
4.8401668212
 11
6.0883440173
 21
4.8483203388
  0
LINE
  5
3C6
100
AcDbEntity
  8
0
100
AcDbLine
 62
7
  6
CONTINUOUS
 10
6.2098288923
 20
4.8817139895
 11
6.2179821052
 21
4.8898672025
  0
LINE
  5
3C7
100
AcDbEntity
  8
0
100
AcDbLine
 62
7
  6
CONTINUOUS
 10
6.4331113614
 20
4.8401668212
 11
6.441264879
 21
4.8483203388
  0
LINE
  5
3C8
100
AcDbEntity
  8
0
100
AcDbLine
 62
7
  6
CONTINUOUS
 10
6.310629828
 20
4.6185675927
 11
6.3187830475
 21
4.6267208122
  0
LINE
  5
3C9
100
AcDbEntity
  8
0
100
AcDbLine
 62
7
  6
CONTINUOUS
 10
6.4175017696
 20
4.721423869
 11
6.4302680278
 21
4.7341901271
  0
LINE
  5
3CA
100
AcDbEntity
  8
0
100
AcDbLine
 62
7
  6
CONTINUOUS
 10
6.6276076659
 20
4.8817139895
 11
6.6357608788
 21
4.8898672025
  0
LINE
  5
3CB
100
AcDbEntity
  8
0
100
AcDbLine
 62
7
  6
CONTINUOUS
 10
6.6371939323
 20
4.721423869
 11
6.6499601905
 21
4.7341901271
  0
LINE
  5
3CC
100
AcDbEntity
  8
0
100
AcDbLine
 62
7
  6
CONTINUOUS
 10
6.7984819231
 20
4.8401668212
 11
6.8066354407
 21
4.8483203388
  0
LINE
  5
3CD
100
AcDbEntity
  8
0
100
AcDbLine
 62
7
  6
CONTINUOUS
 10
5.8818517986
 20
4.7602117262
 11
5.8820512212
 21
4.7602645669
  0
LINE
  5
3CE
100
AcDbEntity
  8
0
100
AcDbLine
 62
9
  6
CONTINUOUS
 10
8.1907151925
 20
5.8552298896
 11
4.9269846582
 21
5.8552298896
  0
LINE
  5
3CF
100
AcDbEntity
  8
0
100
AcDbLine
 62
9
  6
CONTINUOUS
 10
4.9388499253
 20
5.8735007988
 11
8.1788499253
 21
5.8735007988
  0
LINE
  5
3D0
100
AcDbEntity
  8
0
100
AcDbLine
 62
9
  6
CONTINUOUS
 10
8.1788499253
 20
5.9074892314
 11
4.9388499253
 21
5.9074892314
  0
LINE
  5
3D1
100
AcDbEntity
  8
0
100
AcDbLine
 62
9
  6
CONTINUOUS
 10
4.9545355323
 20
5.9270183382
 11
8.1631643184
 21
5.9270183382
  0
LWPOLYLINE
  5
3D2
100
AcDbEntity
  8
0
100
AcDbPolyline
 62
7
  6
CONTINUOUS
 90
4
 70
0
 10
7.4993146059
 20
4.7740969759
 10
7.5019934883
 20
4.7774292254
 10
7.5040594115
 20
4.7788120734
 10
7.504748231
 20
4.7791209228
  0
LINE
  5
3D3
100
AcDbEntity
  8
0
100
AcDbLine
 62
7
  6
CONTINUOUS
 10
6.6198621786
 20
4.6185675927
 11
6.6280153997
 21
4.6267208139
  0
LINE
  5
3D4
100
AcDbEntity
  8
0
100
AcDbLine
 62
7
  6
CONTINUOUS
 10
6.8554779023
 20
4.721423869
 11
6.8682441605
 21
4.7341901271
  0
LINE
  5
3D5
100
AcDbEntity
  8
0
100
AcDbLine
 62
7
  6
CONTINUOUS
 10
7.0453864395
 20
4.8817139895
 11
7.0535396524
 21
4.8898672025
  0
LINE
  5
3D6
100
AcDbEntity
  8
0
100
AcDbLine
 62
7
  6
CONTINUOUS
 10
7.1514027848
 20
4.8401668212
 11
7.1595563024
 21
4.8483203388
  0
LINE
  5
3D7
100
AcDbEntity
  8
0
100
AcDbLine
 62
7
  6
CONTINUOUS
 10
6.9647660491
 20
4.6185675927
 11
6.9729192686
 21
4.6267208122
  0
LINE
  5
3D8
100
AcDbEntity
  8
0
100
AcDbLine
 62
7
  6
CONTINUOUS
 10
7.1433014299
 20
4.6185675927
 11
7.1514546511
 21
4.6267208139
  0
LINE
  5
3D9
100
AcDbEntity
  8
0
100
AcDbLine
 62
7
  6
CONTINUOUS
 10
7.43469428
 20
4.8817139895
 11
7.442847493
 21
4.8898672025
  0
LINE
  5
3DA
100
AcDbEntity
  8
0
100
AcDbLine
 62
7
  6
CONTINUOUS
 10
7.467822973
 20
4.8401668212
 11
7.4759764906
 21
4.8483203388
  0
LINE
  5
3DB
100
AcDbEntity
  8
0
100
AcDbLine
 62
7
  6
CONTINUOUS
 10
7.3937057779
 20
4.721423869
 11
7.4064720361
 21
4.7341901271
  0
LINE
  5
3DC
100
AcDbEntity
  8
0
100
AcDbLine
 62
7
  6
CONTINUOUS
 10
7.481712991
 20
4.721423869
 11
7.4944792492
 21
4.7341901271
  0
LINE
  5
3DD
100
AcDbEntity
  8
0
100
AcDbLine
 62
7
  6
CONTINUOUS
 10
7.5181403609
 20
4.721423869
 11
7.530906619
 21
4.7341901271
  0
LWPOLYLINE
  5
3DE
100
AcDbEntity
  8
0
100
AcDbPolyline
 62
7
  6
CONTINUOUS
 90
3
 70
0
 10
5.8776499142
 20
4.7574812514
 10
5.8803545614
 20
4.7595797402
 10
5.8818517986
 20
4.7602117262
  0
LINE
  5
3DF
100
AcDbEntity
  8
0
100
AcDbLine
 62
7
  6
CONTINUOUS
 10
4.9269846582
 20
5.8552298896
 11
4.6983446771
 21
5.7534328114
  0
LINE
  5
3E0
100
AcDbEntity
  8
0
100
AcDbLine
 62
7
  6
CONTINUOUS
 10
7.098848875
 20
6.5836224716
 11
6.0188509757
 21
6.5836224716
  0
LINE
  5
3E1
100
AcDbEntity
  8
0
100
AcDbLine
 62
9
  6
CONTINUOUS
 10
6.0748499253
 20
6.6436224716
 11
7.0428499253
 21
6.6436224716
  0
LINE
  5
3E2
100
AcDbEntity
  8
0
100
AcDbLine
 62
9
  6
CONTINUOUS
 10
7.0428499253
 20
6.6636224716
 11
6.0748499253
 21
6.6636224716
  0
LINE
  5
3E3
100
AcDbEntity
  8
0
100
AcDbLine
 62
9
  6
CONTINUOUS
 10
7.0124075767
 20
6.7354676742
 11
6.105292274
 21
6.7354676742
  0
LINE
  5
3E4
100
AcDbEntity
  8
0
100
AcDbLine
 62
9
  6
CONTINUOUS
 10
6.1206210741
 20
6.7600337761
 11
6.9970787765
 21
6.7600337761
  0
LINE
  5
3E5
100
AcDbEntity
  8
0
100
AcDbLine
 62
7
  6
CONTINUOUS
 10
6.9538499224
 20
6.8930785087
 11
6.1638498914
 21
6.8930783954
  0
LINE
  5
3E6
100
AcDbEntity
  8
0
100
AcDbLine
 62
9
  6
CONTINUOUS
 10
6.1838499253
 20
6.9377998256
 11
6.9338499253
 21
6.9377997853
  0
LINE
  5
3E7
100
AcDbEntity
  8
0
100
AcDbLine
 62
7
  6
CONTINUOUS
 10
7.7261789748
 20
4.8401668212
 11
7.7343324924
 21
4.8483203388
  0
LINE
  5
3E8
100
AcDbEntity
  8
0
100
AcDbLine
 62
7
  6
CONTINUOUS
 10
7.7690005016
 20
4.8817139895
 11
7.7771537146
 21
4.8898672025
  0
LINE
  5
3E9
100
AcDbEntity
  8
0
100
AcDbLine
 62
7
  6
CONTINUOUS
 10
7.9088642557
 20
4.8401668212
 11
7.9170177732
 21
4.8483203388
  0
LINE
  5
3EA
100
AcDbEntity
  8
0
100
AcDbLine
 62
7
  6
CONTINUOUS
 10
8.0255226877
 20
4.8817139895
 11
8.0336762494
 21
4.8898675512
  0
LINE
  5
3EB
100
AcDbEntity
  8
0
100
AcDbLine
 62
7
  6
CONTINUOUS
 10
8.0034291156
 20
4.8401668212
 11
8.0115826331
 21
4.8483203388
  0
LINE
  5
3EC
100
AcDbEntity
  8
0
100
AcDbLine
 62
7
  6
CONTINUOUS
 10
8.1867792752
 20
4.8817139895
 11
8.1949324882
 21
4.8898672025
  0
LINE
  5
3ED
100
AcDbEntity
  8
0
100
AcDbLine
 62
7
  6
CONTINUOUS
 10
8.2417806165
 20
4.8817137118
 11
8.2499341072
 21
4.8898672025
  0
LINE
  5
3EE
100
AcDbEntity
  8
0
100
AcDbLine
 62
7
  6
CONTINUOUS
 10
2.7234275158
 20
7.2705561963
 11
2.9114275158
 21
7.2705561963
  0
LINE
  5
3EF
100
AcDbEntity
  8
0
100
AcDbLine
 62
7
  6
CONTINUOUS
 10
2.9114275158
 20
7.2736634298
 11
2.7234275158
 21
7.2736634298
  0
LINE
  5
3F0
100
AcDbEntity
  8
0
100
AcDbLine
 62
7
  6
CONTINUOUS
 10
2.7234275158
 20
7.2740107626
 11
2.9114275158
 21
7.2740107626
  0
LINE
  5
3F1
100
AcDbEntity
  8
0
100
AcDbLine
 62
7
  6
CONTINUOUS
 10
2.9114275158
 20
7.2802113519
 11
2.7234275158
 21
7.2802113519
  0
LINE
  5
3F2
100
AcDbEntity
  8
0
100
AcDbLine
 62
7
  6
CONTINUOUS
 10
2.7234275158
 20
7.280788516
 11
2.9114275158
 21
7.280788516
  0
LINE
  5
3F3
100
AcDbEntity
  8
0
100
AcDbLine
 62
7
  6
CONTINUOUS
 10
2.9114275158
 20
7.2900547679
 11
2.7234275158
 21
7.2900547679
  0
LINE
  5
3F4
100
AcDbEntity
  8
0
100
AcDbLine
 62
7
  6
CONTINUOUS
 10
2.7234275158
 20
7.2908591854
 11
2.9114275158
 21
7.2908591854
  0
LINE
  5
3F5
100
AcDbEntity
  8
0
100
AcDbLine
 62
7
  6
CONTINUOUS
 10
2.9114275158
 20
7.3031497145
 11
2.7234275158
 21
7.3031497145
  0
LINE
  5
3F6
100
AcDbEntity
  8
0
100
AcDbLine
 62
7
  6
CONTINUOUS
 10
2.7234275158
 20
7.3041777929
 11
2.9114275158
 21
7.3041777929
  0
LINE
  5
3F7
100
AcDbEntity
  8
0
100
AcDbLine
 62
7
  6
CONTINUOUS
 10
2.9114275158
 20
7.3194377067
 11
2.7234275158
 21
7.3194377067
  0
LINE
  5
3F8
100
AcDbEntity
  8
0
100
AcDbLine
 62
7
  6
CONTINUOUS
 10
2.7234275158
 20
7.3206848542
 11
2.9114275158
 21
7.3206848542
  0
LINE
  5
3F9
100
AcDbEntity
  8
0
100
AcDbLine
 62
7
  6
CONTINUOUS
 10
2.9814275158
 20
7.3280784998
 11
3.0178798656
 21
7.3280784998
  0
LINE
  5
3FA
100
AcDbEntity
  8
0
100
AcDbLine
 62
7
  6
CONTINUOUS
 10
2.9114275158
 20
7.3388459983
 11
2.7234275158
 21
7.3388459983
  0
LINE
  5
3FB
100
AcDbEntity
  8
0
100
AcDbLine
 62
7
  6
CONTINUOUS
 10
2.7234275158
 20
7.3403066448
 11
2.9114275158
 21
7.3403066448
  0
LINE
  5
3FC
100
AcDbEntity
  8
0
100
AcDbLine
 62
7
  6
CONTINUOUS
 10
2.9114275158
 20
7.361287907
 11
2.7234275158
 21
7.361287907
  0
LINE
  5
3FD
100
AcDbEntity
  8
0
100
AcDbLine
 62
7
  6
CONTINUOUS
 10
2.7234275158
 20
7.3629555291
 11
2.9114275158
 21
7.3629555291
  0
LINE
  5
3FE
100
AcDbEntity
  8
0
100
AcDbLine
 62
7
  6
CONTINUOUS
 10
5.5735019478
 20
7.3680784998
 11
5.5454275158
 21
7.3680784998
  0
LINE
  5
3FF
100
AcDbEntity
  8
0
100
AcDbLine
 62
7
  6
CONTINUOUS
 10
5.4304275158
 20
7.3680784998
 11
5.3854275158
 21
7.3680784998
  0
LINE
  5
400
100
AcDbEntity
  8
0
100
AcDbLine
 62
7
  6
CONTINUOUS
 10
2.9114275158
 20
7.386663202
 11
2.7234275158
 21
7.386663202
  0
LINE
  5
401
100
AcDbEntity
  8
0
100
AcDbLine
 62
7
  6
CONTINUOUS
 10
2.7234275158
 20
7.3885303516
 11
2.9114275158
 21
7.3885303516
  0
LINE
  5
402
100
AcDbEntity
  8
0
100
AcDbLine
 62
9
  6
CONTINUOUS
 10
6.9338499253
 20
7.3930784998
 11
6.1838499253
 21
7.3930784998
  0
LINE
  5
403
100
AcDbEntity
  8
0
100
AcDbLine
 62
7
  6
CONTINUOUS
 10
2.9114275158
 20
7.4148585511
 11
2.7234275158
 21
7.4148585511
  0
LINE
  5
404
100
AcDbEntity
  8
0
100
AcDbLine
 62
7
  6
CONTINUOUS
 10
2.7234275158
 20
7.4169168889
 11
2.9114275158
 21
7.4169168889
  0
LINE
  5
405
100
AcDbEntity
  8
0
100
AcDbLine
 62
7
  6
CONTINUOUS
 10
4.969972343
 20
7.4330784998
 11
5.3704275158
 21
7.4330784998
  0
LINE
  5
406
100
AcDbEntity
  8
0
100
AcDbLine
 62
7
  6
CONTINUOUS
 10
2.9114275158
 20
7.4457480268
 11
2.7234275158
 21
7.4457480268
  0
LINE
  5
407
100
AcDbEntity
  8
0
100
AcDbLine
 62
7
  6
CONTINUOUS
 10
2.7234275158
 20
7.44798836
 11
2.9114275158
 21
7.44798836
  0
LINE
  5
408
100
AcDbEntity
  8
0
100
AcDbLine
 62
7
  6
CONTINUOUS
 10
2.9114275158
 20
7.4791936693
 11
2.7234275158
 21
7.4791936693
  0
LINE
  5
409
100
AcDbEntity
  8
0
100
AcDbLine
 62
7
  6
CONTINUOUS
 10
2.7234275158
 20
7.4816059919
 11
2.9114275158
 21
7.4816059919
  0
LINE
  5
40A
100
AcDbEntity
  8
0
100
AcDbLine
 62
7
  6
CONTINUOUS
 10
2.9478249636
 20
7.5144964322
 11
2.6870300679
 21
7.5144964322
  0
LINE
  5
40B
100
AcDbEntity
  8
0
100
AcDbLine
 62
7
  6
CONTINUOUS
 10
2.9114275158
 20
7.5150461024
 11
2.7234275158
 21
7.5150461024
  0
LINE
  5
40C
100
AcDbEntity
  8
0
100
AcDbLine
 62
7
  6
CONTINUOUS
 10
2.7234275158
 20
7.5176196404
 11
2.9114275158
 21
7.5176196404
  0
LINE
  5
40D
100
AcDbEntity
  8
0
100
AcDbLine
 62
7
  6
CONTINUOUS
 10
2.9478249636
 20
7.5503999184
 11
2.6870300679
 21
7.5503999184
  0
LINE
  5
40E
100
AcDbEntity
  8
0
100
AcDbLine
 62
7
  6
CONTINUOUS
 10
2.9114275158
 20
7.5531452002
 11
2.7234275158
 21
7.5531452002
  0
LINE
  5
40F
100
AcDbEntity
  8
0
100
AcDbLine
 62
7
  6
CONTINUOUS
 10
2.7234275158
 20
7.5558684596
 11
2.9114275158
 21
7.5558684596
  0
LINE
  5
410
100
AcDbEntity
  8
0
100
AcDbLine
 62
7
  6
CONTINUOUS
 10
11.4824666554
 20
10.1274184998
 11
11.4824666554
 21
10.2024184998
  0
LINE
  5
411
100
AcDbEntity
  8
0
100
AcDbLine
 62
7
  6
CONTINUOUS
 10
11.4828508457
 20
9.8724184998
 11
11.4828508457
 21
9.9474184998
  0
LWPOLYLINE
  5
412
100
AcDbEntity
  8
0
100
AcDbPolyline
 62
7
  6
CONTINUOUS
 90
7
 70
0
 10
19.3699760978
 20
9.7984199693
 10
19.442769458
 20
9.8205447068
 10
19.5068822107
 20
9.8614125843
 10
19.5576060123
 20
9.917971124
 10
19.5913658012
 20
9.9863988007
 10
19.6053831826
 20
10.0610598986
 10
19.602161801
 20
10.1194558884
  0
LINE
  5
413
100
AcDbEntity
  8
0
100
AcDbLine
 62
7
  6
CONTINUOUS
 10
2.9478249636
 20
7.5883921707
 11
2.6870300679
 21
7.5883921707
  0
LINE
  5
414
100
AcDbEntity
  8
0
100
AcDbLine
 62
7
  6
CONTINUOUS
 10
2.9114275158
 20
7.593320803
 11
2.7234275158
 21
7.593320803
  0
LINE
  5
415
100
AcDbEntity
  8
0
100
AcDbLine
 62
7
  6
CONTINUOUS
 10
2.7234275158
 20
7.596181621
 11
2.9114275158
 21
7.596181621
  0
LINE
  5
416
100
AcDbEntity
  8
0
100
AcDbLine
 62
7
  6
CONTINUOUS
 10
2.9478249636
 20
7.6283035064
 11
2.6870300679
 21
7.6283035064
  0
LINE
  5
417
100
AcDbEntity
  8
0
100
AcDbLine
 62
7
  6
CONTINUOUS
 10
2.9114275158
 20
7.6353934768
 11
2.7234275158
 21
7.6353934768
  0
LINE
  5
418
100
AcDbEntity
  8
0
100
AcDbLine
 62
7
  6
CONTINUOUS
 10
2.7234275158
 20
7.6383790763
 11
2.9114275158
 21
7.6383790763
  0
LINE
  5
419
100
AcDbEntity
  8
0
100
AcDbLine
 62
9
  6
CONTINUOUS
 10
7.0730437205
 20
7.6484889587
 11
7.172931201
 21
7.6484894587
  0
LINE
  5
41A
100
AcDbEntity
  8
0
100
AcDbLine
 62
7
  6
CONTINUOUS
 10
2.9478249636
 20
7.6699556718
 11
2.6870300679
 21
7.6699556718
  0
LINE
  5
41B
100
AcDbEntity
  8
0
100
AcDbLine
 62
7
  6
CONTINUOUS
 10
2.9114275158
 20
7.6791753148
 11
2.7234275158
 21
7.6791753148
  0
LINE
  5
41C
100
AcDbEntity
  8
0
100
AcDbLine
 62
7
  6
CONTINUOUS
 10
2.7234275158
 20
7.6822723614
 11
2.9114275158
 21
7.6822723614
  0
LINE
  5
41D
100
AcDbEntity
  8
0
100
AcDbLine
 62
7
  6
CONTINUOUS
 10
7.1467172009
 20
7.6930784998
 11
7.1016856425
 21
7.6930784998
  0
LINE
  5
41E
100
AcDbEntity
  8
0
100
AcDbLine
 62
7
  6
CONTINUOUS
 10
3.4444275158
 20
7.6980784998
 11
3.83108937
 21
7.6980784998
  0
LINE
  5
41F
100
AcDbEntity
  8
0
100
AcDbLine
 62
7
  6
CONTINUOUS
 10
2.9478249636
 20
7.7131626383
 11
2.6870300679
 21
7.7131626383
  0
LINE
  5
420
100
AcDbEntity
  8
0
100
AcDbLine
 62
7
  6
CONTINUOUS
 10
2.9114275158
 20
7.7244707767
 11
2.7234275158
 21
7.7244707767
  0
LINE
  5
421
100
AcDbEntity
  8
0
100
AcDbLine
 62
7
  6
CONTINUOUS
 10
2.7234275158
 20
7.7276654383
 11
2.9114275158
 21
7.7276654383
  0
LINE
  5
422
100
AcDbEntity
  8
0
100
AcDbLine
 62
7
  6
CONTINUOUS
 10
2.9478249636
 20
7.7577314331
 11
2.6870300679
 21
7.7577314331
  0
LINE
  5
423
100
AcDbEntity
  8
0
100
AcDbLine
 62
7
  6
CONTINUOUS
 10
5.7984275158
 20
7.7705784998
 11
5.7804275158
 21
7.7705784998
  0
LINE
  5
424
100
AcDbEntity
  8
0
100
AcDbLine
 62
7
  6
CONTINUOUS
 10
2.9114275158
 20
7.771077562
 11
2.7234275158
 21
7.771077562
  0
LINE
  5
425
100
AcDbEntity
  8
0
100
AcDbLine
 62
7
  6
CONTINUOUS
 10
2.7234275158
 20
7.7743555703
 11
2.9114275158
 21
7.7743555703
  0
LINE
  5
426
100
AcDbEntity
  8
0
100
AcDbLine
 62
7
  6
CONTINUOUS
 10
2.9478249636
 20
7.803463001
 11
2.6870300679
 21
7.803463001
  0
LINE
  5
427
100
AcDbEntity
  8
0
100
AcDbLine
 62
7
  6
CONTINUOUS
 10
2.9114275158
 20
7.8187875134
 11
2.7234275158
 21
7.8187875134
  0
LINE
  5
428
100
AcDbEntity
  8
0
100
AcDbLine
 62
7
  6
CONTINUOUS
 10
2.7234275158
 20
7.8221342282
 11
2.9114275158
 21
7.8221342282
  0
LINE
  5
429
100
AcDbEntity
  8
0
100
AcDbLine
 62
7
  6
CONTINUOUS
 10
3.3012605146
 20
7.8305784998
 11
3.4214275158
 21
7.8305784998
  0
LINE
  5
42A
100
AcDbEntity
  8
0
100
AcDbLine
 62
7
  6
CONTINUOUS
 10
2.9478249636
 20
7.8501530939
 11
2.6870300679
 21
7.8501530939
  0
LINE
  5
42B
100
AcDbEntity
  8
0
100
AcDbLine
 62
7
  6
CONTINUOUS
 10
3.4214275158
 20
7.8630784998
 11
3.4444275158
 21
7.8630784998
  0
LINE
  5
42C
100
AcDbEntity
  8
0
100
AcDbLine
 62
7
  6
CONTINUOUS
 10
2.9114275158
 20
7.8673875467
 11
2.7234275158
 21
7.8673875467
  0
LINE
  5
42D
100
AcDbEntity
  8
0
100
AcDbLine
 62
7
  6
CONTINUOUS
 10
2.7234275158
 20
7.8707880207
 11
2.9114275158
 21
7.8707880207
  0
LINE
  5
42E
100
AcDbEntity
  8
0
100
AcDbLine
 62
7
  6
CONTINUOUS
 10
2.9478249636
 20
7.8975931824
 11
2.6870300679
 21
7.8975931824
  0
LINE
  5
42F
100
AcDbEntity
  8
0
100
AcDbLine
 62
7
  6
CONTINUOUS
 10
2.9114275158
 20
7.9166606024
 11
2.7234275158
 21
7.9166606024
  0
LINE
  5
430
100
AcDbEntity
  8
0
100
AcDbLine
 62
7
  6
CONTINUOUS
 10
2.7234275158
 20
7.9200996483
 11
2.9114275158
 21
7.9200996483
  0
LINE
  5
431
100
AcDbEntity
  8
0
100
AcDbLine
 62
7
  6
CONTINUOUS
 10
2.9478249636
 20
7.9455713876
 11
2.6870300679
 21
7.9455713876
  0
LINE
  5
432
100
AcDbEntity
  8
0
100
AcDbLine
 62
7
  6
CONTINUOUS
 10
2.9114275158
 20
7.9663866151
 11
2.7234275158
 21
7.9663866151
  0
LINE
  5
433
100
AcDbEntity
  8
0
100
AcDbLine
 62
7
  6
CONTINUOUS
 10
2.7234275158
 20
7.9698488732
 11
2.9114275158
 21
7.9698488732
  0
LINE
  5
434
100
AcDbEntity
  8
0
100
AcDbLine
 62
7
  6
CONTINUOUS
 10
2.9478249636
 20
7.9938734271
 11
2.6870300679
 21
7.9938734271
  0
LINE
  5
435
100
AcDbEntity
  8
0
100
AcDbLine
 62
7
  6
CONTINUOUS
 10
2.9114275158
 20
8.0163434963
 11
2.7234275158
 21
8.0163434963
  0
LINE
  5
436
100
AcDbEntity
  8
0
100
AcDbLine
 62
7
  6
CONTINUOUS
 10
2.7234275158
 20
8.0198135033
 11
2.9114275158
 21
8.0198135033
  0
LINE
  5
437
100
AcDbEntity
  8
0
100
AcDbLine
 62
7
  6
CONTINUOUS
 10
2.9478249636
 20
8.0422835724
 11
2.6870300679
 21
8.0422835724
  0
LINE
  5
438
100
AcDbEntity
  8
0
100
AcDbLine
 62
7
  6
CONTINUOUS
 10
2.9114275158
 20
8.0663081264
 11
2.7234275158
 21
8.0663081264
  0
LINE
  5
439
100
AcDbEntity
  8
0
100
AcDbLine
 62
7
  6
CONTINUOUS
 10
2.7234275158
 20
8.0697703844
 11
2.9114275158
 21
8.0697703844
  0
LINE
  5
43A
100
AcDbEntity
  8
0
100
AcDbLine
 62
7
  6
CONTINUOUS
 10
2.9478249636
 20
8.090585612
 11
2.6870300679
 21
8.090585612
  0
LINE
  5
43B
100
AcDbEntity
  8
0
100
AcDbLine
 62
7
  6
CONTINUOUS
 10
2.9114275158
 20
8.1160573513
 11
2.7234275158
 21
8.1160573513
  0
LINE
  5
43C
100
AcDbEntity
  8
0
100
AcDbLine
 62
7
  6
CONTINUOUS
 10
2.7234275158
 20
8.1194963971
 11
2.9114275158
 21
8.1194963971
  0
LINE
  5
43D
100
AcDbEntity
  8
0
100
AcDbLine
 62
7
  6
CONTINUOUS
 10
2.9478249636
 20
8.1385638171
 11
2.6870300679
 21
8.1385638171
  0
LINE
  5
43E
100
AcDbEntity
  8
0
100
AcDbLine
 62
7
  6
CONTINUOUS
 10
11.8824666554
 20
8.1724184998
 11
11.8824666554
 21
8.2224184998
  0
LINE
  5
43F
100
AcDbEntity
  8
0
100
AcDbLine
 62
7
  6
CONTINUOUS
 10
11.8824666554
 20
8.3224184998
 11
11.8824666554
 21
8.3724184998
  0
LINE
  5
440
100
AcDbEntity
  8
0
100
AcDbLine
 62
7
  6
CONTINUOUS
 10
11.9324666554
 20
10.2124184998
 11
11.9324666554
 21
10.2024184998
  0
LINE
  5
441
100
AcDbEntity
  8
0
100
AcDbLine
 62
7
  6
CONTINUOUS
 10
11.9324666554
 20
8.3724184998
 11
11.9324666554
 21
9.4924184998
  0
LWPOLYLINE
  5
442
100
AcDbEntity
  8
0
100
AcDbPolyline
 62
7
  6
CONTINUOUS
 90
3
 70
0
 10
13.0324666554
 20
8.7774186005
 10
13.1097825726
 20
8.7898810937
 10
13.6161569043
 20
8.8714482035
  0
LINE
  5
443
100
AcDbEntity
  8
0
100
AcDbLine
 62
7
  6
CONTINUOUS
 10
7.1627069525
 20
7.8317539729
 11
11.9324666554
 21
8.6001987731
  0
LINE
  5
444
100
AcDbEntity
  8
0
100
AcDbLine
 62
7
  6
CONTINUOUS
 10
13.0324666554
 20
8.7774171935
 11
13.3955056382
 21
8.8359055527
  0
LINE
  5
445
100
AcDbEntity
  8
0
100
AcDbLine
 62
7
  6
CONTINUOUS
 10
13.6161569043
 20
8.8714482035
 11
17.488284436
 21
9.4952841266
  0
LINE
  5
446
100
AcDbEntity
  8
0
100
AcDbLine
 62
7
  6
CONTINUOUS
 10
17.4633498078
 20
9.4912663874
 11
18.1099111975
 21
9.5954273772
  0
LWPOLYLINE
  5
447
100
AcDbEntity
  8
0
100
AcDbPolyline
 62
7
  6
CONTINUOUS
 90
8
 70
0
 10
17.856199726
 20
9.5545560421
 10
18.1943321472
 20
9.6090270655
 10
18.5002309751
 20
9.6583093543
 10
18.7713878145
 20
9.7019997827
 10
19.0052199178
 20
9.7396731925
 10
19.1934690164
 20
9.76999954
 10
19.322195594
 20
9.7907421566
 10
19.3699760978
 20
9.7984199693
  0
LINE
  5
448
100
AcDbEntity
  8
0
100
AcDbLine
 62
9
  6
CONTINUOUS
 10
13.0324666554
 20
9.06102771
 11
19.602161801
 21
10.1194558884
  0
LINE
  5
449
100
AcDbEntity
  8
0
100
AcDbLine
 62
7
  6
CONTINUOUS
 10
2.9114275158
 20
8.1653689788
 11
2.7234275158
 21
8.1653689788
  0
LINE
  5
44A
100
AcDbEntity
  8
0
100
AcDbLine
 62
7
  6
CONTINUOUS
 10
2.7234275158
 20
8.1687694528
 11
2.9114275158
 21
8.1687694528
  0
LINE
  5
44B
100
AcDbEntity
  8
0
100
AcDbLine
 62
9
  6
CONTINUOUS
 10
11.9352453502
 20
8.1700705196
 11
13.0296879606
 21
8.1700705196
  0
LINE
  5
44C
100
AcDbEntity
  8
0
100
AcDbLine
 62
7
  6
CONTINUOUS
 10
11.8824718599
 20
8.1724184998
 11
13.0824614508
 21
8.1724184998
  0
LINE
  5
44D
100
AcDbEntity
  8
0
100
AcDbLine
 62
7
  6
CONTINUOUS
 10
3.4214275158
 20
8.1730784998
 11
3.4444275158
 21
8.1730784998
  0
LINE
  5
44E
100
AcDbEntity
  8
0
100
AcDbLine
 62
7
  6
CONTINUOUS
 10
2.9478249636
 20
8.1860039056
 11
2.6870300679
 21
8.1860039056
  0
LINE
  5
44F
100
AcDbEntity
  8
0
100
AcDbLine
 62
7
  6
CONTINUOUS
 10
3.3012605146
 20
8.2055784998
 11
3.4214275158
 21
8.2055784998
  0
LINE
  5
450
100
AcDbEntity
  8
0
100
AcDbLine
 62
7
  6
CONTINUOUS
 10
2.9114275158
 20
8.2140227714
 11
2.7234275158
 21
8.2140227714
  0
LINE
  5
451
100
AcDbEntity
  8
0
100
AcDbLine
 62
7
  6
CONTINUOUS
 10
2.7234275158
 20
8.2173694862
 11
2.9114275158
 21
8.2173694862
  0
LINE
  5
452
100
AcDbEntity
  8
0
100
AcDbLine
 62
7
  6
CONTINUOUS
 10
13.0824666554
 20
8.2224184998
 11
11.8824666554
 21
8.2224184998
  0
LINE
  5
453
100
AcDbEntity
  8
0
100
AcDbLine
 62
7
  6
CONTINUOUS
 10
2.9478249636
 20
8.2326939985
 11
2.6870300679
 21
8.2326939985
  0
LINE
  5
454
100
AcDbEntity
  8
0
100
AcDbLine
 62
7
  6
CONTINUOUS
 10
2.9114275158
 20
8.2618014292
 11
2.7234275158
 21
8.2618014292
  0
LINE
  5
455
100
AcDbEntity
  8
0
100
AcDbLine
 62
7
  6
CONTINUOUS
 10
2.7234275158
 20
8.2650794376
 11
2.9114275158
 21
8.2650794376
  0
LINE
  5
456
100
AcDbEntity
  8
0
100
AcDbLine
 62
7
  6
CONTINUOUS
 10
5.7984275158
 20
8.2655784998
 11
5.7804275158
 21
8.2655784998
  0
LINE
  5
457
100
AcDbEntity
  8
0
100
AcDbLine
 62
7
  6
CONTINUOUS
 10
2.9478249636
 20
8.2784255665
 11
2.6870300679
 21
8.2784255665
  0
LINE
  5
458
100
AcDbEntity
  8
0
100
AcDbLine
 62
7
  6
CONTINUOUS
 10
2.9114275158
 20
8.3084915613
 11
2.7234275158
 21
8.3084915613
  0
LINE
  5
459
100
AcDbEntity
  8
0
100
AcDbLine
 62
7
  6
CONTINUOUS
 10
2.7234275158
 20
8.3116862228
 11
2.9114275158
 21
8.3116862228
  0
LINE
  5
45A
100
AcDbEntity
  8
0
100
AcDbLine
 62
7
  6
CONTINUOUS
 10
11.8824666554
 20
8.3224184998
 11
13.0824666554
 21
8.3224184998
  0
LINE
  5
45B
100
AcDbEntity
  8
0
100
AcDbLine
 62
7
  6
CONTINUOUS
 10
2.9478249636
 20
8.3229943612
 11
2.6870300679
 21
8.3229943612
  0
LINE
  5
45C
100
AcDbEntity
  8
0
100
AcDbLine
 62
7
  6
CONTINUOUS
 10
3.4444275158
 20
8.3380784998
 11
3.8310843516
 21
8.3380784998
  0
LINE
  5
45D
100
AcDbEntity
  8
0
100
AcDbLine
 62
7
  6
CONTINUOUS
 10
7.1016856425
 20
8.3430784998
 11
7.1467172009
 21
8.3430784998
  0
LINE
  5
45E
100
AcDbEntity
  8
0
100
AcDbLine
 62
7
  6
CONTINUOUS
 10
2.9114275158
 20
8.3538846381
 11
2.7234275158
 21
8.3538846381
  0
LINE
  5
45F
100
AcDbEntity
  8
0
100
AcDbLine
 62
7
  6
CONTINUOUS
 10
2.7234275158
 20
8.3569816847
 11
2.9114275158
 21
8.3569816847
  0
LINE
  5
460
100
AcDbEntity
  8
0
100
AcDbLine
 62
7
  6
CONTINUOUS
 10
2.9478249636
 20
8.3662013277
 11
2.6870300679
 21
8.3662013277
  0
LINE
  5
461
100
AcDbEntity
  8
0
100
AcDbLine
 62
7
  6
CONTINUOUS
 10
13.0824614508
 20
8.3724184998
 11
11.8824718599
 21
8.3724184998
  0
LINE
  5
462
100
AcDbEntity
  8
0
100
AcDbLine
 62
9
  6
CONTINUOUS
 10
7.172931201
 20
8.3876675409
 11
7.0730437421
 21
8.3876680145
  0
LINE
  5
463
100
AcDbEntity
  8
0
100
AcDbLine
 62
7
  6
CONTINUOUS
 10
2.9114275158
 20
8.3977779232
 11
2.7234275158
 21
8.3977779232
  0
LINE
  5
464
100
AcDbEntity
  8
0
100
AcDbLine
 62
7
  6
CONTINUOUS
 10
2.7234275158
 20
8.4007635227
 11
2.9114275158
 21
8.4007635227
  0
LINE
  5
465
100
AcDbEntity
  8
0
100
AcDbLine
 62
7
  6
CONTINUOUS
 10
2.9478249636
 20
8.4078534932
 11
2.6870300679
 21
8.4078534932
  0
LINE
  5
466
100
AcDbEntity
  8
0
100
AcDbLine
 62
7
  6
CONTINUOUS
 10
2.9114275158
 20
8.4399753785
 11
2.7234275158
 21
8.4399753785
  0
LINE
  5
467
100
AcDbEntity
  8
0
100
AcDbLine
 62
7
  6
CONTINUOUS
 10
2.7234275158
 20
8.4428361965
 11
2.9114275158
 21
8.4428361965
  0
LINE
  5
468
100
AcDbEntity
  8
0
100
AcDbLine
 62
7
  6
CONTINUOUS
 10
2.9478249636
 20
8.4477648289
 11
2.6870300679
 21
8.4477648289
  0
LINE
  5
469
100
AcDbEntity
  8
0
100
AcDbLine
 62
7
  6
CONTINUOUS
 10
2.9114275158
 20
8.48028854
 11
2.7234275158
 21
8.48028854
  0
LINE
  5
46A
100
AcDbEntity
  8
0
100
AcDbLine
 62
7
  6
CONTINUOUS
 10
2.7234275158
 20
8.4830117993
 11
2.9114275158
 21
8.4830117993
  0
LINE
  5
46B
100
AcDbEntity
  8
0
100
AcDbLine
 62
7
  6
CONTINUOUS
 10
2.9478249636
 20
8.4857570811
 11
2.6870300679
 21
8.4857570811
  0
LINE
  5
46C
100
AcDbEntity
  8
0
100
AcDbLine
 62
7
  6
CONTINUOUS
 10
2.9114275158
 20
8.5185373592
 11
2.7234275158
 21
8.5185373592
  0
LINE
  5
46D
100
AcDbEntity
  8
0
100
AcDbLine
 62
7
  6
CONTINUOUS
 10
2.7234275158
 20
8.5211108972
 11
2.9114275158
 21
8.5211108972
  0
LINE
  5
46E
100
AcDbEntity
  8
0
100
AcDbLine
 62
7
  6
CONTINUOUS
 10
2.9478249636
 20
8.5216605673
 11
2.6870300679
 21
8.5216605673
  0
LINE
  5
46F
100
AcDbEntity
  8
0
100
AcDbLine
 62
7
  6
CONTINUOUS
 10
2.9114275158
 20
8.5545510076
 11
2.7234275158
 21
8.5545510076
  0
LINE
  5
470
100
AcDbEntity
  8
0
100
AcDbLine
 62
7
  6
CONTINUOUS
 10
2.7234275158
 20
8.5569633302
 11
2.9114275158
 21
8.5569633302
  0
LINE
  5
471
100
AcDbEntity
  8
0
100
AcDbLine
 62
7
  6
CONTINUOUS
 10
2.9114275158
 20
8.5881686396
 11
2.7234275158
 21
8.5881686396
  0
LINE
  5
472
100
AcDbEntity
  8
0
100
AcDbLine
 62
7
  6
CONTINUOUS
 10
2.7234275158
 20
8.5904089728
 11
2.9114275158
 21
8.5904089728
  0
LINE
  5
473
100
AcDbEntity
  8
0
100
AcDbLine
 62
7
  6
CONTINUOUS
 10
4.9699481362
 20
8.6030784998
 11
5.3704275158
 21
8.6030784998
  0
LINE
  5
474
100
AcDbEntity
  8
0
100
AcDbLine
 62
7
  6
CONTINUOUS
 10
2.9114275158
 20
8.6192401106
 11
2.7234275158
 21
8.6192401106
  0
LINE
  5
475
100
AcDbEntity
  8
0
100
AcDbLine
 62
7
  6
CONTINUOUS
 10
2.7234275158
 20
8.6212984485
 11
2.9114275158
 21
8.6212984485
  0
LINE
  5
476
100
AcDbEntity
  8
0
100
AcDbLine
 62
7
  6
CONTINUOUS
 10
2.9114275158
 20
8.647626648
 11
2.7234275158
 21
8.647626648
  0
LINE
  5
477
100
AcDbEntity
  8
0
100
AcDbLine
 62
7
  6
CONTINUOUS
 10
2.7234275158
 20
8.6494937975
 11
2.9114275158
 21
8.6494937975
  0
LINE
  5
478
100
AcDbEntity
  8
0
100
AcDbLine
 62
7
  6
CONTINUOUS
 10
5.5735019478
 20
8.6680784998
 11
5.5454275158
 21
8.6680784998
  0
LINE
  5
479
100
AcDbEntity
  8
0
100
AcDbLine
 62
7
  6
CONTINUOUS
 10
5.4304275158
 20
8.6680784998
 11
5.3854275158
 21
8.6680784998
  0
LINE
  5
47A
100
AcDbEntity
  8
0
100
AcDbLine
 62
7
  6
CONTINUOUS
 10
2.9114275158
 20
8.6732014705
 11
2.7234275158
 21
8.6732014705
  0
LINE
  5
47B
100
AcDbEntity
  8
0
100
AcDbLine
 62
7
  6
CONTINUOUS
 10
2.7234275158
 20
8.6748690925
 11
2.9114275158
 21
8.6748690925
  0
LINE
  5
47C
100
AcDbEntity
  8
0
100
AcDbLine
 62
7
  6
CONTINUOUS
 10
2.9114275158
 20
8.6958503547
 11
2.7234275158
 21
8.6958503547
  0
LINE
  5
47D
100
AcDbEntity
  8
0
100
AcDbLine
 62
7
  6
CONTINUOUS
 10
4.1689275158
 20
8.6960784998
 11
4.8439275158
 21
8.6960784998
  0
LINE
  5
47E
100
AcDbEntity
  8
0
100
AcDbLine
 62
7
  6
CONTINUOUS
 10
2.7234275158
 20
8.6973110013
 11
2.9114275158
 21
8.6973110013
  0
LINE
  5
47F
100
AcDbEntity
  8
0
100
AcDbLine
 62
7
  6
CONTINUOUS
 10
2.9814275158
 20
8.7080784998
 11
3.0178798656
 21
8.7080784998
  0
LINE
  5
480
100
AcDbEntity
  8
0
100
AcDbLine
 62
7
  6
CONTINUOUS
 10
2.9114275158
 20
8.7154721453
 11
2.7234275158
 21
8.7154721453
  0
LINE
  5
481
100
AcDbEntity
  8
0
100
AcDbLine
 62
7
  6
CONTINUOUS
 10
2.7234275158
 20
8.7167192928
 11
2.9114275158
 21
8.7167192928
  0
LINE
  5
482
100
AcDbEntity
  8
0
100
AcDbLine
 62
7
  6
CONTINUOUS
 10
2.9114275158
 20
8.7319792067
 11
2.7234275158
 21
8.7319792067
  0
LINE
  5
483
100
AcDbEntity
  8
0
100
AcDbLine
 62
7
  6
CONTINUOUS
 10
2.7234275158
 20
8.733007285
 11
2.9114275158
 21
8.733007285
  0
LINE
  5
484
100
AcDbEntity
  8
0
100
AcDbLine
 62
7
  6
CONTINUOUS
 10
2.9114275158
 20
8.7452978141
 11
2.7234275158
 21
8.7452978141
  0
LINE
  5
485
100
AcDbEntity
  8
0
100
AcDbLine
 62
7
  6
CONTINUOUS
 10
2.7234275158
 20
8.7461022317
 11
2.9114275158
 21
8.7461022317
  0
LINE
  5
486
100
AcDbEntity
  8
0
100
AcDbLine
 62
7
  6
CONTINUOUS
 10
2.9114275158
 20
8.7553684836
 11
2.7234275158
 21
8.7553684836
  0
LINE
  5
487
100
AcDbEntity
  8
0
100
AcDbLine
 62
7
  6
CONTINUOUS
 10
2.7234275158
 20
8.7559456476
 11
2.9114275158
 21
8.7559456476
  0
LINE
  5
488
100
AcDbEntity
  8
0
100
AcDbLine
 62
7
  6
CONTINUOUS
 10
2.9114275158
 20
8.762146237
 11
2.7234275158
 21
8.762146237
  0
LINE
  5
489
100
AcDbEntity
  8
0
100
AcDbLine
 62
7
  6
CONTINUOUS
 10
2.7234275158
 20
8.7624935697
 11
2.9114275158
 21
8.7624935697
  0
LINE
  5
48A
100
AcDbEntity
  8
0
100
AcDbLine
 62
7
  6
CONTINUOUS
 10
2.9114275158
 20
8.7656008033
 11
2.7234275158
 21
8.7656008033
  0
LINE
  5
48B
100
AcDbEntity
  8
0
100
AcDbLine
 62
7
  6
CONTINUOUS
 10
19.2809048933
 20
10.3513279727
 11
19.2099451501
 21
10.3398764966
  0
LINE
  5
48C
100
AcDbEntity
  8
0
100
AcDbLine
 62
7
  6
CONTINUOUS
 10
13.5270477617
 20
9.4243249856
 11
13.0324666554
 21
9.3446308294
  0
LINE
  5
48D
100
AcDbEntity
  8
0
100
AcDbLine
 62
7
  6
CONTINUOUS
 10
18.0208374311
 20
10.1483079435
 11
17.3742780745
 21
10.0441372822
  0
LINE
  5
48E
100
AcDbEntity
  8
0
100
AcDbLine
 62
7
  6
CONTINUOUS
 10
7.1653351682
 20
8.3993984314
 11
11.9324666554
 21
9.167419806
  0
LINE
  5
48F
100
AcDbEntity
  8
0
100
AcDbLine
 62
7
  6
CONTINUOUS
 10
13.0324666554
 20
9.3446382264
 11
13.3064236044
 21
9.388774788
  0
LINE
  5
490
100
AcDbEntity
  8
0
100
AcDbLine
 62
7
  6
CONTINUOUS
 10
17.3991960097
 20
10.0481511726
 11
13.5270477617
 21
9.4243249856
  0
LWPOLYLINE
  5
491
100
AcDbEntity
  8
0
100
AcDbPolyline
 62
7
  6
CONTINUOUS
 90
7
 70
0
 10
19.233121899
 20
10.3436097677
 10
19.1043918986
 20
10.3228741591
 10
18.9161413566
 20
10.2925435322
 10
18.682306931
 20
10.2548722846
 10
18.4111466161
 20
10.211191268
 10
18.1052458484
 20
10.1619079584
 10
17.7671128069
 20
10.107427439
  0
LINE
  5
492
100
AcDbEntity
  8
0
100
AcDbLine
 62
7
  6
CONTINUOUS
 10
3.9014275158
 20
9.0424750939
 11
5.1114275158
 21
9.0424750939
  0
LINE
  5
493
100
AcDbEntity
  8
0
100
AcDbLine
 62
7
  6
CONTINUOUS
 10
13.0324666554
 20
10.2124184998
 11
13.0324666554
 21
10.2024184998
  0
LINE
  5
494
100
AcDbEntity
  8
0
100
AcDbLine
 62
7
  6
CONTINUOUS
 10
13.0324666554
 20
8.3724184998
 11
13.0324666554
 21
9.4924184998
  0
LINE
  5
495
100
AcDbEntity
  8
0
100
AcDbLine
 62
7
  6
CONTINUOUS
 10
13.0824666554
 20
8.1724184998
 11
13.0824666554
 21
8.2224184998
  0
LINE
  5
496
100
AcDbEntity
  8
0
100
AcDbLine
 62
7
  6
CONTINUOUS
 10
13.0824666554
 20
8.3224184998
 11
13.0824666554
 21
8.3724184998
  0
LINE
  5
497
100
AcDbEntity
  8
0
100
AcDbLine
 62
7
  6
CONTINUOUS
 10
13.4820824651
 20
9.8724184998
 11
13.4820824651
 21
9.9474184998
  0
LINE
  5
498
100
AcDbEntity
  8
0
100
AcDbLine
 62
7
  6
CONTINUOUS
 10
13.4824666554
 20
10.1274184998
 11
13.4824666554
 21
10.2024184998
  0
LINE
  5
499
100
AcDbEntity
  8
0
100
AcDbLine
 62
9
  6
CONTINUOUS
 10
13.0324666554
 20
9.4924184998
 11
11.9324666554
 21
9.4924184998
  0
LINE
  5
49A
100
AcDbEntity
  8
0
100
AcDbLine
 62
7
  6
CONTINUOUS
 10
3.8314275158
 20
9.6624184998
 11
5.1814275158
 21
9.6624184998
  0
LINE
  5
49B
100
AcDbEntity
  8
0
100
AcDbLine
 62
7
  6
CONTINUOUS
 10
5.1814275158
 20
9.7136092979
 11
3.8314275158
 21
9.7136092979
  0
LINE
  5
49C
100
AcDbEntity
  8
0
100
AcDbLine
 62
7
  6
CONTINUOUS
 10
3.8314275158
 20
9.860586541
 11
5.1814275158
 21
9.860586541
  0
LINE
  5
49D
100
AcDbEntity
  8
0
100
AcDbLine
 62
7
  6
CONTINUOUS
 10
11.4828508457
 20
9.8724184998
 11
13.4820824651
 21
9.8724184998
  0
LINE
  5
49E
100
AcDbEntity
  8
0
100
AcDbLine
 62
7
  6
CONTINUOUS
 10
5.1814275158
 20
9.9117773391
 11
3.8314275158
 21
9.9117773391
  0
LINE
  5
49F
100
AcDbEntity
  8
0
100
AcDbLine
 62
7
  6
CONTINUOUS
 10
13.4820824651
 20
9.9474184998
 11
11.4828508457
 21
9.9474184998
  0
LINE
  5
4A0
100
AcDbEntity
  8
0
100
AcDbLine
 62
7
  6
CONTINUOUS
 10
3.4314275158
 20
10.0024184998
 11
5.5814275158
 21
10.0024184998
  0
LINE
  5
4A1
100
AcDbEntity
  8
0
100
AcDbLine
 62
7
  6
CONTINUOUS
 10
5.5814275158
 20
10.0499184998
 11
3.4314275158
 21
10.0499184998
  0
LINE
  5
4A2
100
AcDbEntity
  8
0
100
AcDbLine
 62
7
  6
CONTINUOUS
 10
11.4824666554
 20
10.1274184998
 11
13.4824666554
 21
10.1274184998
  0
LINE
  5
4A3
100
AcDbEntity
  8
0
100
AcDbLine
 62
9
  6
CONTINUOUS
 10
3.3189275158
 20
10.1624184998
 11
5.6939275158
 21
10.1624184998
  0
LINE
  5
4A4
100
AcDbEntity
  8
0
100
AcDbLine
 62
7
  6
CONTINUOUS
 10
13.4824666554
 20
10.2024184998
 11
11.4824666554
 21
10.2024184998
  0
LINE
  5
4A5
100
AcDbEntity
  8
0
100
AcDbLine
 62
7
  6
CONTINUOUS
 10
5.6939275158
 20
10.2024184998
 11
3.3189275158
 21
10.2024184998
  0
LINE
  5
4A6
100
AcDbEntity
  8
0
100
AcDbLine
 62
7
  6
CONTINUOUS
 10
13.0324666554
 20
10.2124184998
 11
11.9324666554
 21
10.2124184998
  0
LWPOLYLINE
  5
4A7
100
AcDbEntity
  8
0
100
AcDbPolyline
 62
7
  6
CONTINUOUS
 90
37
 70
0
 10
19.602161801
 20
10.1194558884
 10
19.5998012039
 20
10.1322173032
 10
19.5960764884
 20
10.1477953598
 10
19.5915227885
 20
10.1629670581
 10
19.5861916694
 20
10.177671506
 10
19.5801368916
 20
10.1918617085
 10
19.5734115759
 20
10.2055039128
 10
19.5660657777
 20
10.2185763379
 10
19.5581445653
 20
10.2310674476
 10
19.5496866461
 20
10.2429739258
 10
19.5407235386
 20
10.254298502
 10
19.5312793046
 20
10.2650477017
 10
19.5214045274
 20
10.2751966963
 10
19.5111677695
 20
10.2847112098
 10
19.500619633
 20
10.2935827629
 10
19.4898088088
 20
10.3018081438
 10
19.4787816573
 20
10.3093887653
 10
19.4675819304
 20
10.3163300186
 10
19.4562506194
 20
10.3226406491
 10
19.4448259112
 20
10.3283321742
 10
19.4333432334
 20
10.3334183579
 10
19.4218361666
 20
10.3379144583
 10
19.4103483714
 20
10.3418333004
 10
19.3989271622
 20
10.3451896388
 10
19.3876171588
 20
10.3480024568
 10
19.3764607637
 20
10.3502942998
 10
19.3654980244
 20
10.3520908926
 10
19.3547666029
 20
10.3534207603
 10
19.344309193
 20
10.3543143811
 10
19.3341811153
 20
10.3548049753
 10
19.3244368015
 20
10.3549306471
 10
19.3151300732
 20
10.354734018
 10
19.3063507332
 20
10.354264377
 10
19.2982239725
 20
10.3535825619
 10
19.2909377236
 20
10.3527678531
 10
19.2853314381
 20
10.3520090042
 10
19.2827830317
 20
10.3516258912
  0
ARC
  5
4A8
100
AcDbEntity
  8
0
100
AcDbCircle
 62
7
  6
CONTINUOUS
 10
2.7823592966
 20
2.4074289453
 40
5.1079571237
100
AcDbArc
 50
90.6610504259
 51
91.0693667652
  0
ARC
  5
4A9
100
AcDbEntity
  8
0
100
AcDbCircle
 62
7
  6
CONTINUOUS
 10
2.8584550046
 20
2.8020332591
 40
4.7133105295
100
AcDbArc
 50
88.9135389417
 51
89.3560438671
  0
ARC
  5
4AA
100
AcDbEntity
  8
0
100
AcDbCircle
 62
7
  6
CONTINUOUS
 10
4.4888499253
 20
5.0736224716
 40
0.08
100
AcDbArc
 50
112.8632234308
 51
177.7285491583
  0
ARC
  5
4AB
100
AcDbEntity
  8
0
100
AcDbCircle
 62
9
  6
CONTINUOUS
 10
4.754450278
 20
4.679143929
 40
0.0137317703
100
AcDbArc
 50
231.4691225602
 51
242.1702989359
  0
ARC
  5
4AC
100
AcDbEntity
  8
0
100
AcDbCircle
 62
7
  6
CONTINUOUS
 10
4.2038499253
 20
5.5018680746
 40
0.45
100
AcDbArc
 50
321.6210152008
 51
360.0
  0
ARC
  5
4AD
100
AcDbEntity
  8
0
100
AcDbCircle
 62
7
  6
CONTINUOUS
 10
4.3606341717
 20
5.3776960162
 40
0.25
100
AcDbArc
 50
292.8632234306
 51
321.6210152008
  0
ARC
  5
4AE
100
AcDbEntity
  8
0
100
AcDbCircle
 62
7
  6
CONTINUOUS
 10
4.7288499253
 20
5.6849169021
 40
0.075
100
AcDbArc
 50
114.0000000002
 51
180.0
  0
ARC
  5
4AF
100
AcDbEntity
  8
0
100
AcDbCircle
 62
7
  6
CONTINUOUS
 10
4.8576971049
 20
4.5612351784
 40
0.3728022678
100
AcDbArc
 50
94.069677108
 51
102.1874714621
  0
ARC
  5
4B0
100
AcDbEntity
  8
0
100
AcDbCircle
 62
7
  6
CONTINUOUS
 10
4.8576974359
 20
4.5612548386
 40
0.3727826446
100
AcDbArc
 50
94.0699423519
 51
102.1881542434
  0
ARC
  5
4B1
100
AcDbEntity
  8
0
100
AcDbCircle
 62
7
  6
CONTINUOUS
 10
4.8575384084
 20
4.5628577975
 40
0.3711724801
100
AcDbArc
 50
90.2600132456
 51
94.0630178572
  0
ARC
  5
4B2
100
AcDbEntity
  8
0
100
AcDbCircle
 62
7
  6
CONTINUOUS
 10
4.8575387653
 20
4.5628763565
 40
0.371153957
100
AcDbArc
 50
90.1922635134
 51
94.0632758743
  0
ARC
  5
4B3
100
AcDbEntity
  8
0
100
AcDbCircle
 62
7
  6
CONTINUOUS
 10
4.8575303225
 20
4.5797897053
 40
0.3542410468
100
AcDbArc
 50
89.2769881235
 51
89.9998238927
  0
ARC
  5
4B4
100
AcDbEntity
  8
0
100
AcDbCircle
 62
7
  6
CONTINUOUS
 10
4.8575308485
 20
4.5798152867
 40
0.354215467
100
AcDbArc
 50
89.2770198414
 51
89.9999092511
  0
ARC
  5
4B5
100
AcDbEntity
  8
0
100
AcDbCircle
 62
7
  6
CONTINUOUS
 10
4.9812277062
 20
4.6520518237
 40
0.2910406943
100
AcDbArc
 50
72.5547036526
 51
72.8900231283
  0
ARC
  5
4B6
100
AcDbEntity
  8
0
100
AcDbCircle
 62
9
  6
CONTINUOUS
 10
4.8718012636
 20
5.1062550603
 40
0.5173450787
100
AcDbArc
 50
326.9352133148
 51
327.3051127485
  0
ARC
  5
4B7
100
AcDbEntity
  8
0
100
AcDbCircle
 62
7
  6
CONTINUOUS
 10
4.8841458843
 20
5.1082598449
 40
0.514252569
100
AcDbArc
 50
326.028968188
 51
326.6758966823
  0
ARC
  5
4B8
100
AcDbEntity
  8
0
100
AcDbCircle
 62
7
  6
CONTINUOUS
 10
4.9488670262
 20
5.0465065826
 40
0.4293702326
100
AcDbArc
 50
242.1130790669
 51
244.2558294622
  0
ARC
  5
4B9
100
AcDbEntity
  8
0
100
AcDbCircle
 62
9
  6
CONTINUOUS
 10
4.8552475752
 20
5.0936613855
 40
0.4267984869
100
AcDbArc
 50
322.1925624674
 51
322.544089549
  0
ARC
  5
4BA
100
AcDbEntity
  8
0
100
AcDbCircle
 62
9
  6
CONTINUOUS
 10
4.8563662118
 20
5.09279361
 40
0.4253827249
100
AcDbArc
 50
321.8736132395
 51
322.19254537
  0
ARC
  5
4BB
100
AcDbEntity
  8
0
100
AcDbCircle
 62
9
  6
CONTINUOUS
 10
4.9402608453
 20
5.0037925708
 40
0.3851770247
100
AcDbArc
 50
276.4110282727
 51
279.0037944957
  0
ARC
  5
4BC
100
AcDbEntity
  8
0
100
AcDbCircle
 62
9
  6
CONTINUOUS
 10
4.9403024868
 20
5.0033712436
 40
0.3847536827
100
AcDbArc
 50
271.3738320846
 51
276.4118469152
  0
ARC
  5
4BD
100
AcDbEntity
  8
0
100
AcDbCircle
 62
9
  6
CONTINUOUS
 10
4.9403115639
 20
5.0030811375
 40
0.3844634423
100
AcDbArc
 50
270.7201936232
 51
271.3735162892
  0
ARC
  5
4BE
100
AcDbEntity
  8
0
100
AcDbCircle
 62
9
  6
CONTINUOUS
 10
4.940312297
 20
5.00304513
 40
0.3844274275
100
AcDbArc
 50
270.0115926064
 51
271.3735356248
  0
ARC
  5
4BF
100
AcDbEntity
  8
0
100
AcDbCircle
 62
9
  6
CONTINUOUS
 10
4.9403127033
 20
5.0029923795
 40
0.384374677
100
AcDbArc
 50
270.0115587419
 51
270.7201900973
  0
ARC
  5
4C0
100
AcDbEntity
  8
0
100
AcDbCircle
 62
7
  6
CONTINUOUS
 10
5.062670442
 20
4.9037872246
 40
0.0196850394
100
AcDbArc
 50
314.9999999999
 51
334.5973246504
  0
ARC
  5
4C1
100
AcDbEntity
  8
0
100
AcDbCircle
 62
7
  6
CONTINUOUS
 10
4.93668619
 20
4.9037872246
 40
0.0196850394
100
AcDbArc
 50
180.0
 51
225.0000000001
  0
ARC
  5
4C2
100
AcDbEntity
  8
0
100
AcDbCircle
 62
7
  6
CONTINUOUS
 10
4.9448400003
 20
4.8956334143
 40
0.0196850394
100
AcDbArc
 50
225.0011432902
 51
270.0
  0
ARC
  5
4C3
100
AcDbEntity
  8
0
100
AcDbCircle
 62
7
  6
CONTINUOUS
 10
5.0545166317
 20
4.8956334143
 40
0.0196850394
100
AcDbArc
 50
270.0
 51
314.9988567098
  0
ARC
  5
4C4
100
AcDbEntity
  8
0
100
AcDbCircle
 62
7
  6
CONTINUOUS
 10
5.0979427775
 20
4.9037872246
 40
0.0196850394
100
AcDbArc
 50
180.0
 51
224.9999999997
  0
ARC
  5
4C5
100
AcDbEntity
  8
0
100
AcDbCircle
 62
7
  6
CONTINUOUS
 10
5.1060965878
 20
4.8956334143
 40
0.0196850394
100
AcDbArc
 50
225.00114329
 51
270.0
  0
ARC
  5
4C6
100
AcDbEntity
  8
0
100
AcDbCircle
 62
7
  6
CONTINUOUS
 10
5.1200363497
 20
4.8622400564
 40
0.0196850394
100
AcDbArc
 50
180.0
 51
224.9999999998
  0
ARC
  5
4C7
100
AcDbEntity
  8
0
100
AcDbCircle
 62
7
  6
CONTINUOUS
 10
5.12819016
 20
4.8540862461
 40
0.0196850394
100
AcDbArc
 50
225.0013272051
 51
270.0
  0
ARC
  5
4C8
100
AcDbEntity
  8
0
100
AcDbCircle
 62
7
  6
CONTINUOUS
 10
4.8898383813
 20
4.8956334143
 40
0.0196850394
100
AcDbArc
 50
225.0011432902
 51
270.001006738
  0
ARC
  5
4C9
100
AcDbEntity
  8
0
100
AcDbCircle
 62
7
  6
CONTINUOUS
 10
4.881684571
 20
4.9037872246
 40
0.0196850394
100
AcDbArc
 50
180.0
 51
225.0024588144
  0
ARC
  5
4CA
100
AcDbEntity
  8
0
100
AcDbCircle
 62
7
  6
CONTINUOUS
 10
5.1720782679
 20
4.7801359326
 40
0.1641888444
100
AcDbArc
 50
69.7608399028
 51
69.9780853206
  0
ARC
  5
4CB
100
AcDbEntity
  8
0
100
AcDbCircle
 62
7
  6
CONTINUOUS
 10
5.2239270295
 20
4.9037872246
 40
0.0196850394
100
AcDbArc
 50
315.0000000003
 51
360.0
  0
ARC
  5
4CC
100
AcDbEntity
  8
0
100
AcDbCircle
 62
7
  6
CONTINUOUS
 10
5.2157732192
 20
4.8956334143
 40
0.0196850394
100
AcDbArc
 50
270.0
 51
314.99885671
  0
ARC
  5
4CD
100
AcDbEntity
  8
0
100
AcDbCircle
 62
7
  6
CONTINUOUS
 10
5.3544649636
 20
4.9037872246
 40
0.0196850394
100
AcDbArc
 50
180.0
 51
224.9999999998
  0
ARC
  5
4CE
100
AcDbEntity
  8
0
100
AcDbCircle
 62
7
  6
CONTINUOUS
 10
5.3626187739
 20
4.8956334143
 40
0.0196850394
100
AcDbArc
 50
225.0011432895
 51
270.0
  0
ARC
  5
4CF
100
AcDbEntity
  8
0
100
AcDbCircle
 62
7
  6
CONTINUOUS
 10
5.2142447441
 20
4.8540862461
 40
0.0196850394
100
AcDbArc
 50
270.0
 51
282.7092229253
  0
ARC
  5
4D0
100
AcDbEntity
  8
0
100
AcDbCircle
 62
7
  6
CONTINUOUS
 10
5.3972864904
 20
4.8622400564
 40
0.0196850394
100
AcDbArc
 50
180.0
 51
224.9999999999
  0
ARC
  5
4D1
100
AcDbEntity
  8
0
100
AcDbCircle
 62
7
  6
CONTINUOUS
 10
5.4054403007
 20
4.8540862461
 40
0.0196850394
100
AcDbArc
 50
225.0013272058
 51
270.0
  0
ARC
  5
4D2
100
AcDbEntity
  8
0
100
AcDbCircle
 62
7
  6
CONTINUOUS
 10
5.308809604
 20
4.8540862461
 40
0.0196850394
100
AcDbArc
 50
270.0
 51
314.9986727946
  0
ARC
  5
4D3
100
AcDbEntity
  8
0
100
AcDbCircle
 62
7
  6
CONTINUOUS
 10
5.3169634143
 20
4.8622400564
 40
0.0196850394
100
AcDbArc
 50
315.0000000002
 51
360.0
  0
ARC
  5
4D4
100
AcDbEntity
  8
0
100
AcDbCircle
 62
7
  6
CONTINUOUS
 10
5.2146012096
 20
4.8622400564
 40
0.0196850394
100
AcDbArc
 50
180.0
 51
224.9999999998
  0
ARC
  5
4D5
100
AcDbEntity
  8
0
100
AcDbCircle
 62
7
  6
CONTINUOUS
 10
5.2227550198
 20
4.8540862461
 40
0.0196850394
100
AcDbArc
 50
225.0013272053
 51
270.0
  0
ARC
  5
4D6
100
AcDbEntity
  8
0
100
AcDbCircle
 62
7
  6
CONTINUOUS
 10
5.2980718347
 20
4.8370870305
 40
0.0078740157
100
AcDbArc
 50
200.3751729783
 51
259.8531132105
  0
ARC
  5
4D7
100
AcDbEntity
  8
0
100
AcDbCircle
 62
7
  6
CONTINUOUS
 10
4.9188499253
 20
5.8735007988
 40
0.02
100
AcDbArc
 50
294.0000000012
 51
360.0
  0
ARC
  5
4D8
100
AcDbEntity
  8
0
100
AcDbCircle
 62
7
  6
CONTINUOUS
 10
4.9588499253
 20
5.9074892314
 40
0.02
100
AcDbArc
 50
102.4577510794
 51
180.0
  0
ARC
  5
4D9
100
AcDbEntity
  8
0
100
AcDbCircle
 62
9
  6
CONTINUOUS
 10
7.6993901307
 20
2.524853441
 40
2.2649535611
100
AcDbArc
 50
97.1880215873
 51
97.3165989558
  0
ARC
  5
4DA
100
AcDbEntity
  8
0
100
AcDbCircle
 62
9
  6
CONTINUOUS
 10
5.4997239915
 20
3.0304071504
 40
1.7555505812
100
AcDbArc
 50
82.3876824811
 51
82.5256594316
  0
ARC
  5
4DB
100
AcDbEntity
  8
0
100
AcDbCircle
 62
9
  6
CONTINUOUS
 10
5.5371412551
 20
3.5395600137
 40
1.2339461798
100
AcDbArc
 50
80.9380704965
 51
81.0597620154
  0
ARC
  5
4DC
100
AcDbEntity
  8
0
100
AcDbCircle
 62
7
  6
CONTINUOUS
 10
5.9960871544
 20
4.5984526264
 40
0.3115871096
100
AcDbArc
 50
88.8102006204
 51
89.9931356118
  0
ARC
  5
4DD
100
AcDbEntity
  8
0
100
AcDbCircle
 62
7
  6
CONTINUOUS
 10
6.0083910809
 20
4.6303672584
 40
0.2786790932
100
AcDbArc
 50
79.5767978335
 51
80.6135101857
  0
ARC
  5
4DE
100
AcDbEntity
  8
0
100
AcDbCircle
 62
7
  6
CONTINUOUS
 10
5.663632985
 20
4.6717996085
 40
0.2382401306
100
AcDbArc
 50
88.7184356219
 51
89.987966584
  0
ARC
  5
4DF
100
AcDbEntity
  8
0
100
AcDbCircle
 62
7
  6
CONTINUOUS
 10
5.4357898811
 20
4.6703428643
 40
0.2322759995
100
AcDbArc
 50
74.2838736113
 51
74.5026483343
  0
ARC
  5
4E0
100
AcDbEntity
  8
0
100
AcDbCircle
 62
7
  6
CONTINUOUS
 10
5.8314996333
 20
4.7099391982
 40
0.0393700787
100
AcDbArc
 50
20.0
 51
28.762807137
  0
ARC
  5
4E1
100
AcDbEntity
  8
0
100
AcDbCircle
 62
7
  6
CONTINUOUS
 10
6.0807345592
 20
4.6324870176
 40
0.0196850394
100
AcDbArc
 50
225.0025651903
 51
270.0
  0
ARC
  5
4E2
100
AcDbEntity
  8
0
100
AcDbCircle
 62
7
  6
CONTINUOUS
 10
6.0447418992
 20
4.6128019782
 40
0.0196850394
100
AcDbArc
 50
44.999999999
 51
89.9960710504
  0
ARC
  5
4E3
100
AcDbEntity
  8
0
100
AcDbCircle
 62
7
  6
CONTINUOUS
 10
5.9883178456
 20
4.6324870176
 40
0.0196850394
100
AcDbArc
 50
225.0025651318
 51
270.0
  0
ARC
  5
4E4
100
AcDbEntity
  8
0
100
AcDbCircle
 62
7
  6
CONTINUOUS
 10
5.9523251856
 20
4.6128019782
 40
0.0196850394
100
AcDbArc
 50
44.9999999999
 51
89.9960818712
  0
ARC
  5
4E5
100
AcDbEntity
  8
0
100
AcDbCircle
 62
7
  6
CONTINUOUS
 10
5.9153702973
 20
4.6521720569
 40
0.0196850394
100
AcDbArc
 50
200.0000948198
 51
270.0
  0
ARC
  5
4E6
100
AcDbEntity
  8
0
100
AcDbCircle
 62
7
  6
CONTINUOUS
 10
5.6112180949
 20
4.7297755238
 40
0.0118110236
100
AcDbArc
 50
225.0002531655
 51
270.0
  0
ARC
  5
4E7
100
AcDbEntity
  8
0
100
AcDbCircle
 62
7
  6
CONTINUOUS
 10
5.7515657378
 20
4.7297755238
 40
0.0118110236
100
AcDbArc
 50
270.0
 51
284.6898599032
  0
ARC
  5
4E8
100
AcDbEntity
  8
0
100
AcDbCircle
 62
7
  6
CONTINUOUS
 10
5.6589881054
 20
4.7297755238
 40
0.0118110236
100
AcDbArc
 50
225.0002531646
 51
270.0
  0
ARC
  5
4E9
100
AcDbEntity
  8
0
100
AcDbCircle
 62
7
  6
CONTINUOUS
 10
5.8500452806
 20
4.7297755238
 40
0.0118110236
100
AcDbArc
 50
270.0
 51
314.9997441386
  0
ARC
  5
4EA
100
AcDbEntity
  8
0
100
AcDbCircle
 62
7
  6
CONTINUOUS
 10
5.7574676482
 20
4.7297755238
 40
0.0118110236
100
AcDbArc
 50
225.0002558629
 51
270.0
  0
ARC
  5
4EB
100
AcDbEntity
  8
0
100
AcDbCircle
 62
9
  6
CONTINUOUS
 10
5.746526352
 20
4.8407036713
 40
0.0670141119
100
AcDbArc
 50
254.1248809713
 51
254.479093525
  0
ARC
  5
4EC
100
AcDbEntity
  8
0
100
AcDbCircle
 62
7
  6
CONTINUOUS
 10
5.4804492156
 20
4.9037872246
 40
0.0196850394
100
AcDbArc
 50
315.0000000002
 51
360.0
  0
ARC
  5
4ED
100
AcDbEntity
  8
0
100
AcDbCircle
 62
7
  6
CONTINUOUS
 10
5.4722954053
 20
4.8956334143
 40
0.0196850394
100
AcDbArc
 50
270.0
 51
314.9988567095
  0
ARC
  5
4EE
100
AcDbEntity
  8
0
100
AcDbCircle
 62
7
  6
CONTINUOUS
 10
5.8147554372
 20
4.9037872246
 40
0.0196850394
100
AcDbArc
 50
315.0000000002
 51
360.0
  0
ARC
  5
4EF
100
AcDbEntity
  8
0
100
AcDbCircle
 62
7
  6
CONTINUOUS
 10
5.6887711852
 20
4.9037872246
 40
0.0196850394
100
AcDbArc
 50
180.0
 51
224.9999999998
  0
ARC
  5
4F0
100
AcDbEntity
  8
0
100
AcDbCircle
 62
7
  6
CONTINUOUS
 10
5.6969249955
 20
4.8956334143
 40
0.0196850394
100
AcDbArc
 50
225.0011432897
 51
270.0
  0
ARC
  5
4F1
100
AcDbEntity
  8
0
100
AcDbCircle
 62
7
  6
CONTINUOUS
 10
5.8066016269
 20
4.8956334143
 40
0.0196850394
100
AcDbArc
 50
270.0
 51
314.9988567103
  0
ARC
  5
4F2
100
AcDbEntity
  8
0
100
AcDbCircle
 62
7
  6
CONTINUOUS
 10
6.0780790258
 20
4.9037872246
 40
0.0196850394
100
AcDbArc
 50
180.0
 51
224.9999999998
  0
ARC
  5
4F3
100
AcDbEntity
  8
0
100
AcDbCircle
 62
7
  6
CONTINUOUS
 10
6.0862328361
 20
4.8956334143
 40
0.0196850394
100
AcDbArc
 50
225.0011432896
 51
270.0
  0
ARC
  5
4F4
100
AcDbEntity
  8
0
100
AcDbCircle
 62
7
  6
CONTINUOUS
 10
5.4996486951
 20
4.8622400564
 40
0.0196850394
100
AcDbArc
 50
315.0000000001
 51
360.0
  0
ARC
  5
4F5
100
AcDbEntity
  8
0
100
AcDbCircle
 62
7
  6
CONTINUOUS
 10
5.4914948848
 20
4.8540862461
 40
0.0196850394
100
AcDbArc
 50
270.0
 51
314.998672795
  0
ARC
  5
4F6
100
AcDbEntity
  8
0
100
AcDbCircle
 62
7
  6
CONTINUOUS
 10
5.9720626804
 20
4.8622400564
 40
0.0196850394
100
AcDbArc
 50
180.0
 51
224.9999999996
  0
ARC
  5
4F7
100
AcDbEntity
  8
0
100
AcDbCircle
 62
7
  6
CONTINUOUS
 10
6.0744248852
 20
4.8622400564
 40
0.0196850394
100
AcDbArc
 50
315.0000000004
 51
360.0
  0
ARC
  5
4F8
100
AcDbEntity
  8
0
100
AcDbCircle
 62
7
  6
CONTINUOUS
 10
6.0662710749
 20
4.8540862461
 40
0.0196850394
100
AcDbArc
 50
270.0
 51
314.9986727934
  0
ARC
  5
4F9
100
AcDbEntity
  8
0
100
AcDbCircle
 62
7
  6
CONTINUOUS
 10
5.9802164907
 20
4.8540862461
 40
0.0196850394
100
AcDbArc
 50
225.0013272065
 51
270.0
  0
ARC
  5
4FA
100
AcDbEntity
  8
0
100
AcDbCircle
 62
7
  6
CONTINUOUS
 10
5.7498508867
 20
4.8540862461
 40
0.0196850394
100
AcDbArc
 50
270.0
 51
314.9986727883
  0
ARC
  5
4FB
100
AcDbEntity
  8
0
100
AcDbCircle
 62
7
  6
CONTINUOUS
 10
5.7580046969
 20
4.8622400564
 40
0.0196850394
100
AcDbArc
 50
315.0000000001
 51
360.0
  0
ARC
  5
4FC
100
AcDbEntity
  8
0
100
AcDbCircle
 62
7
  6
CONTINUOUS
 10
5.6556424922
 20
4.8622400564
 40
0.0196850394
100
AcDbArc
 50
180.0
 51
224.9999999999
  0
ARC
  5
4FD
100
AcDbEntity
  8
0
100
AcDbCircle
 62
7
  6
CONTINUOUS
 10
5.6637963025
 20
4.8540862461
 40
0.0196850394
100
AcDbArc
 50
225.0013272118
 51
270.0
  0
ARC
  5
4FE
100
AcDbEntity
  8
0
100
AcDbCircle
 62
9
  6
CONTINUOUS
 10
5.5750945623
 20
4.7690277553
 40
0.0118719934
100
AcDbArc
 50
0.0026129954
 51
20.6649644513
  0
ARC
  5
4FF
100
AcDbEntity
  8
0
100
AcDbCircle
 62
7
  6
CONTINUOUS
 10
5.598451793
 20
4.7425418258
 40
0.0118110236
100
AcDbArc
 50
180.0
 51
225.0000000007
  0
ARC
  5
500
100
AcDbEntity
  8
0
100
AcDbCircle
 62
7
  6
CONTINUOUS
 10
5.6462218035
 20
4.7425418258
 40
0.0118110236
100
AcDbArc
 50
180.0
 51
225.0000000003
  0
ARC
  5
501
100
AcDbEntity
  8
0
100
AcDbCircle
 62
7
  6
CONTINUOUS
 10
5.8628115825
 20
4.7425418258
 40
0.0118110236
100
AcDbArc
 50
314.9999999999
 51
360.0
  0
ARC
  5
502
100
AcDbEntity
  8
0
100
AcDbCircle
 62
7
  6
CONTINUOUS
 10
5.7447013463
 20
4.7425418258
 40
0.0118110236
100
AcDbArc
 50
180.0
 51
225.0
  0
ARC
  5
503
100
AcDbEntity
  8
0
100
AcDbCircle
 62
9
  6
CONTINUOUS
 10
5.5751899446
 20
4.769076712
 40
0.0117648074
100
AcDbArc
 50
20.6058143979
 51
81.995353124
  0
ARC
  5
504
100
AcDbEntity
  8
0
100
AcDbCircle
 62
7
  6
CONTINUOUS
 10
6.3669124233
 20
4.5687603153
 40
0.3412794185
100
AcDbArc
 50
89.7139472839
 51
89.9996082306
  0
ARC
  5
505
100
AcDbEntity
  8
0
100
AcDbCircle
 62
7
  6
CONTINUOUS
 10
6.727732941
 20
4.6324870176
 40
0.0196850394
100
AcDbArc
 50
270.0
 51
280.6595944687
  0
ARC
  5
506
100
AcDbEntity
  8
0
100
AcDbCircle
 62
7
  6
CONTINUOUS
 10
6.7348707803
 20
4.6324870176
 40
0.0196850394
100
AcDbArc
 50
225.0025651903
 51
270.0
  0
ARC
  5
507
100
AcDbEntity
  8
0
100
AcDbCircle
 62
7
  6
CONTINUOUS
 10
6.6988781203
 20
4.6128019782
 40
0.0196850394
100
AcDbArc
 50
44.999999999
 51
89.9960710504
  0
ARC
  5
508
100
AcDbEntity
  8
0
100
AcDbCircle
 62
7
  6
CONTINUOUS
 10
6.6059427537
 20
4.6324870176
 40
0.0196850394
100
AcDbArc
 50
270.0
 51
314.9974348679
  0
ARC
  5
509
100
AcDbEntity
  8
0
100
AcDbCircle
 62
7
  6
CONTINUOUS
 10
6.3899669097
 20
4.6324870176
 40
0.0196850394
100
AcDbArc
 50
225.0025651318
 51
270.0
  0
ARC
  5
50A
100
AcDbEntity
  8
0
100
AcDbCircle
 62
7
  6
CONTINUOUS
 10
6.6419354137
 20
4.6128019782
 40
0.0196850394
100
AcDbArc
 50
90.0039181288
 51
135.0000000001
  0
ARC
  5
50B
100
AcDbEntity
  8
0
100
AcDbCircle
 62
7
  6
CONTINUOUS
 10
6.3539742498
 20
4.6128019782
 40
0.0196850394
100
AcDbArc
 50
44.9999999999
 51
89.9960818715
  0
ARC
  5
50C
100
AcDbEntity
  8
0
100
AcDbCircle
 62
7
  6
CONTINUOUS
 10
6.2967104032
 20
4.6324870176
 40
0.0196850394
100
AcDbArc
 50
270.0
 51
314.9974348101
  0
ARC
  5
50D
100
AcDbEntity
  8
0
100
AcDbCircle
 62
7
  6
CONTINUOUS
 10
6.3327030631
 20
4.6128019782
 40
0.0196850394
100
AcDbArc
 50
90.0039289499
 51
135.000000001
  0
ARC
  5
50E
100
AcDbEntity
  8
0
100
AcDbCircle
 62
7
  6
CONTINUOUS
 10
6.3828290704
 20
4.6324870176
 40
0.0196850394
100
AcDbArc
 50
270.0
 51
280.6595944996
  0
ARC
  5
50F
100
AcDbEntity
  8
0
100
AcDbCircle
 62
7
  6
CONTINUOUS
 10
6.4091501147
 20
4.7297755238
 40
0.0118110236
100
AcDbArc
 50
270.0
 51
314.9997468354
  0
ARC
  5
510
100
AcDbEntity
  8
0
100
AcDbCircle
 62
7
  6
CONTINUOUS
 10
6.3165724824
 20
4.7297755238
 40
0.0118110236
100
AcDbArc
 50
225.0002531647
 51
270.0
  0
ARC
  5
511
100
AcDbEntity
  8
0
100
AcDbCircle
 62
7
  6
CONTINUOUS
 10
6.6288422774
 20
4.7297755238
 40
0.0118110236
100
AcDbArc
 50
270.0
 51
314.9997468341
  0
ARC
  5
512
100
AcDbEntity
  8
0
100
AcDbCircle
 62
7
  6
CONTINUOUS
 10
6.536264645
 20
4.7297755238
 40
0.0118110236
100
AcDbArc
 50
225.0002531647
 51
270.0
  0
ARC
  5
513
100
AcDbEntity
  8
0
100
AcDbCircle
 62
9
  6
CONTINUOUS
 10
6.6423737188
 20
4.8200763721
 40
0.0560588685
100
AcDbArc
 50
284.8318839772
 51
286.0923629905
  0
ARC
  5
514
100
AcDbEntity
  8
0
100
AcDbCircle
 62
9
  6
CONTINUOUS
 10
6.4255623201
 20
4.8158016028
 40
0.0534306274
100
AcDbArc
 50
282.7411408278
 51
284.4505092155
  0
ARC
  5
515
100
AcDbEntity
  8
0
100
AcDbCircle
 62
7
  6
CONTINUOUS
 10
6.2040632777
 20
4.9037872246
 40
0.0196850394
100
AcDbArc
 50
315.0000000002
 51
360.0
  0
ARC
  5
516
100
AcDbEntity
  8
0
100
AcDbCircle
 62
7
  6
CONTINUOUS
 10
6.1959094675
 20
4.8956334143
 40
0.0196850394
100
AcDbArc
 50
270.0
 51
314.9988567095
  0
ARC
  5
517
100
AcDbEntity
  8
0
100
AcDbCircle
 62
7
  6
CONTINUOUS
 10
6.6218420513
 20
4.9037872246
 40
0.0196850394
100
AcDbArc
 50
315.0000000003
 51
360.0
  0
ARC
  5
518
100
AcDbEntity
  8
0
100
AcDbCircle
 62
7
  6
CONTINUOUS
 10
6.4958577994
 20
4.9037872246
 40
0.0196850394
100
AcDbArc
 50
180.0
 51
224.9999999997
  0
ARC
  5
519
100
AcDbEntity
  8
0
100
AcDbCircle
 62
7
  6
CONTINUOUS
 10
6.5040116096
 20
4.8956334143
 40
0.0196850394
100
AcDbArc
 50
225.0011432902
 51
270.0
  0
ARC
  5
51A
100
AcDbEntity
  8
0
100
AcDbCircle
 62
7
  6
CONTINUOUS
 10
6.613688241
 20
4.8956334143
 40
0.0196850394
100
AcDbArc
 50
270.0
 51
314.9988567098
  0
ARC
  5
51B
100
AcDbEntity
  8
0
100
AcDbCircle
 62
7
  6
CONTINUOUS
 10
6.4191919366
 20
4.8540862461
 40
0.0196850394
100
AcDbArc
 50
270.0
 51
314.998672795
  0
ARC
  5
51C
100
AcDbEntity
  8
0
100
AcDbCircle
 62
7
  6
CONTINUOUS
 10
6.4273457469
 20
4.8622400564
 40
0.0196850394
100
AcDbArc
 50
315.0000000001
 51
360.0
  0
ARC
  5
51D
100
AcDbEntity
  8
0
100
AcDbCircle
 62
7
  6
CONTINUOUS
 10
6.3249835421
 20
4.8622400564
 40
0.0196850394
100
AcDbArc
 50
180.0
 51
224.9999999999
  0
ARC
  5
51E
100
AcDbEntity
  8
0
100
AcDbCircle
 62
7
  6
CONTINUOUS
 10
6.3331373524
 20
4.8540862461
 40
0.0196850394
100
AcDbArc
 50
225.0013272053
 51
270.0
  0
ARC
  5
51F
100
AcDbEntity
  8
0
100
AcDbCircle
 62
7
  6
CONTINUOUS
 10
6.6985079141
 20
4.8540862461
 40
0.0196850394
100
AcDbArc
 50
225.0013272051
 51
270.0
  0
ARC
  5
520
100
AcDbEntity
  8
0
100
AcDbCircle
 62
7
  6
CONTINUOUS
 10
6.6903541038
 20
4.8622400564
 40
0.0196850394
100
AcDbArc
 50
180.0
 51
224.9999999998
  0
ARC
  5
521
100
AcDbEntity
  8
0
100
AcDbCircle
 62
7
  6
CONTINUOUS
 10
6.4219164167
 20
4.7425418258
 40
0.0118110236
100
AcDbArc
 50
315.0000000004
 51
360.0
  0
ARC
  5
522
100
AcDbEntity
  8
0
100
AcDbCircle
 62
7
  6
CONTINUOUS
 10
6.3038061804
 20
4.7425418258
 40
0.0118110236
100
AcDbArc
 50
180.0
 51
224.9999999996
  0
ARC
  5
523
100
AcDbEntity
  8
0
100
AcDbCircle
 62
7
  6
CONTINUOUS
 10
6.6416085793
 20
4.7425418258
 40
0.0118110236
100
AcDbArc
 50
314.9999999996
 51
360.0
  0
ARC
  5
524
100
AcDbEntity
  8
0
100
AcDbCircle
 62
7
  6
CONTINUOUS
 10
6.5234983431
 20
4.7425418258
 40
0.0118110236
100
AcDbArc
 50
180.0
 51
225.0000000004
  0
ARC
  5
525
100
AcDbEntity
  8
0
100
AcDbCircle
 62
7
  6
CONTINUOUS
 10
6.7417823131
 20
4.7425418258
 40
0.0118110236
100
AcDbArc
 50
180.0
 51
225.0000000006
  0
ARC
  5
526
100
AcDbEntity
  8
0
100
AcDbCircle
 62
7
  6
CONTINUOUS
 10
6.1348499253
 20
6.6436224716
 40
0.06
100
AcDbArc
 50
180.0
 51
270.0
  0
ARC
  5
527
100
AcDbEntity
  8
0
100
AcDbCircle
 62
7
  6
CONTINUOUS
 10
6.7507872248
 20
4.5682853139
 40
0.3417544199
100
AcDbArc
 50
90.0003572662
 51
90.3847572355
  0
ARC
  5
528
100
AcDbEntity
  8
0
100
AcDbCircle
 62
7
  6
CONTINUOUS
 10
7.1216365685
 20
4.5975475729
 40
0.312492167
100
AcDbArc
 50
90.0112215036
 51
90.8821195163
  0
ARC
  5
529
100
AcDbEntity
  8
0
100
AcDbCircle
 62
7
  6
CONTINUOUS
 10
7.1080542021
 20
4.6375729583
 40
0.2713662439
100
AcDbArc
 50
99.4755185356
 51
100.4351524351
  0
ARC
  5
52A
100
AcDbEntity
  8
0
100
AcDbCircle
 62
7
  6
CONTINUOUS
 10
7.2862002174
 20
4.7099391982
 40
0.0393700787
100
AcDbArc
 50
117.4883173629
 51
160.0
  0
ARC
  5
52B
100
AcDbEntity
  8
0
100
AcDbCircle
 62
7
  6
CONTINUOUS
 10
7.1293820051
 20
4.6324870176
 40
0.0196850394
100
AcDbArc
 50
270.0
 51
314.9974348682
  0
ARC
  5
52C
100
AcDbEntity
  8
0
100
AcDbCircle
 62
7
  6
CONTINUOUS
 10
7.165374665
 20
4.6128019782
 40
0.0196850394
100
AcDbArc
 50
90.0039181288
 51
135.0000000001
  0
ARC
  5
52D
100
AcDbEntity
  8
0
100
AcDbCircle
 62
7
  6
CONTINUOUS
 10
6.9508466243
 20
4.6324870176
 40
0.0196850394
100
AcDbArc
 50
270.0
 51
314.9974348101
  0
ARC
  5
52E
100
AcDbEntity
  8
0
100
AcDbCircle
 62
7
  6
CONTINUOUS
 10
6.9868392842
 20
4.6128019782
 40
0.0196850394
100
AcDbArc
 50
90.0039289499
 51
135.000000001
  0
ARC
  5
52F
100
AcDbEntity
  8
0
100
AcDbCircle
 62
7
  6
CONTINUOUS
 10
7.2023295534
 20
4.6521720569
 40
0.0196850394
100
AcDbArc
 50
270.0
 51
339.9999051803
  0
ARC
  5
530
100
AcDbEntity
  8
0
100
AcDbCircle
 62
7
  6
CONTINUOUS
 10
7.2833269926
 20
4.7297755238
 40
0.0118110236
100
AcDbArc
 50
270.0
 51
292.4997467748
  0
ARC
  5
531
100
AcDbEntity
  8
0
100
AcDbCircle
 62
7
  6
CONTINUOUS
 10
6.8471262474
 20
4.7297755238
 40
0.0118110236
100
AcDbArc
 50
270.0
 51
314.999746836
  0
ARC
  5
532
100
AcDbEntity
  8
0
100
AcDbCircle
 62
7
  6
CONTINUOUS
 10
6.754548615
 20
4.7297755238
 40
0.0118110236
100
AcDbArc
 50
225.0002531659
 51
270.0
  0
ARC
  5
533
100
AcDbEntity
  8
0
100
AcDbCircle
 62
7
  6
CONTINUOUS
 10
7.385354123
 20
4.7297755238
 40
0.0118110236
100
AcDbArc
 50
270.0
 51
314.9997468355
  0
ARC
  5
534
100
AcDbEntity
  8
0
100
AcDbCircle
 62
7
  6
CONTINUOUS
 10
7.2927764907
 20
4.7297755238
 40
0.0118110236
100
AcDbArc
 50
225.0002531656
 51
270.0
  0
ARC
  5
535
100
AcDbEntity
  8
0
100
AcDbCircle
 62
9
  6
CONTINUOUS
 10
6.8586073273
 20
4.824621752
 40
0.0585440147
100
AcDbArc
 50
286.0765992528
 51
286.8705220384
  0
ARC
  5
536
100
AcDbEntity
  8
0
100
AcDbCircle
 62
9
  6
CONTINUOUS
 10
6.8602356088
 20
4.8192132251
 40
0.0528957123
100
AcDbArc
 50
286.8828734216
 51
287.1788174235
  0
ARC
  5
537
100
AcDbEntity
  8
0
100
AcDbCircle
 62
7
  6
CONTINUOUS
 10
7.0396208249
 20
4.9037872246
 40
0.0196850394
100
AcDbArc
 50
314.9999999999
 51
360.0
  0
ARC
  5
538
100
AcDbEntity
  8
0
100
AcDbCircle
 62
7
  6
CONTINUOUS
 10
6.913636573
 20
4.9037872246
 40
0.0196850394
100
AcDbArc
 50
180.0
 51
225.0000000001
  0
ARC
  5
539
100
AcDbEntity
  8
0
100
AcDbCircle
 62
7
  6
CONTINUOUS
 10
6.9217903832
 20
4.8956334143
 40
0.0196850394
100
AcDbArc
 50
225.0011432902
 51
270.0
  0
ARC
  5
53A
100
AcDbEntity
  8
0
100
AcDbCircle
 62
7
  6
CONTINUOUS
 10
7.0314670146
 20
4.8956334143
 40
0.0196850394
100
AcDbArc
 50
270.0
 51
314.9988567098
  0
ARC
  5
53B
100
AcDbEntity
  8
0
100
AcDbCircle
 62
7
  6
CONTINUOUS
 10
7.3029444135
 20
4.9037872246
 40
0.0196850394
100
AcDbArc
 50
180.0
 51
224.9999999997
  0
ARC
  5
53C
100
AcDbEntity
  8
0
100
AcDbCircle
 62
7
  6
CONTINUOUS
 10
7.3110982238
 20
4.8956334143
 40
0.0196850394
100
AcDbArc
 50
225.00114329
 51
270.0
  0
ARC
  5
53D
100
AcDbEntity
  8
0
100
AcDbCircle
 62
7
  6
CONTINUOUS
 10
7.3596951537
 20
4.8622400564
 40
0.0196850394
100
AcDbArc
 50
180.0
 51
224.9999999999
  0
ARC
  5
53E
100
AcDbEntity
  8
0
100
AcDbCircle
 62
7
  6
CONTINUOUS
 10
7.367848964
 20
4.8540862461
 40
0.0196850394
100
AcDbArc
 50
225.0013272058
 51
270.0
  0
ARC
  5
53F
100
AcDbEntity
  8
0
100
AcDbCircle
 62
7
  6
CONTINUOUS
 10
7.13748336
 20
4.8540862461
 40
0.0196850394
100
AcDbArc
 50
270.0
 51
314.9986727946
  0
ARC
  5
540
100
AcDbEntity
  8
0
100
AcDbCircle
 62
7
  6
CONTINUOUS
 10
7.1456371702
 20
4.8622400564
 40
0.0196850394
100
AcDbArc
 50
315.0000000002
 51
360.0
  0
ARC
  5
541
100
AcDbEntity
  8
0
100
AcDbCircle
 62
7
  6
CONTINUOUS
 10
7.0432749655
 20
4.8622400564
 40
0.0196850394
100
AcDbArc
 50
180.0
 51
224.9999999998
  0
ARC
  5
542
100
AcDbEntity
  8
0
100
AcDbCircle
 62
7
  6
CONTINUOUS
 10
7.0514287758
 20
4.8540862461
 40
0.0196850394
100
AcDbArc
 50
225.0013272053
 51
270.0
  0
ARC
  5
543
100
AcDbEntity
  8
0
100
AcDbCircle
 62
7
  6
CONTINUOUS
 10
6.7845624983
 20
4.8540862461
 40
0.0196850394
100
AcDbArc
 50
270.0
 51
314.9986727949
  0
ARC
  5
544
100
AcDbEntity
  8
0
100
AcDbCircle
 62
7
  6
CONTINUOUS
 10
6.7927163085
 20
4.8622400564
 40
0.0196850394
100
AcDbArc
 50
315.0000000002
 51
360.0
  0
ARC
  5
545
100
AcDbEntity
  8
0
100
AcDbCircle
 62
7
  6
CONTINUOUS
 10
6.8598925494
 20
4.7425418258
 40
0.0118110236
100
AcDbArc
 50
314.9999999994
 51
360.0
  0
ARC
  5
546
100
AcDbEntity
  8
0
100
AcDbCircle
 62
7
  6
CONTINUOUS
 10
7.398120425
 20
4.7425418258
 40
0.0118110236
100
AcDbArc
 50
314.9999999998
 51
360.0
  0
ARC
  5
547
100
AcDbEntity
  8
0
100
AcDbCircle
 62
7
  6
CONTINUOUS
 10
7.2800101887
 20
4.7425418258
 40
0.0118110236
100
AcDbArc
 50
180.0
 51
225.0000000002
  0
ARC
  5
548
100
AcDbEntity
  8
0
100
AcDbCircle
 62
7
  6
CONTINUOUS
 10
7.4541645653
 20
4.663072246
 40
0.246967532
100
AcDbArc
 50
90.0342742198
 51
91.2588008814
  0
ARC
  5
549
100
AcDbEntity
  8
0
100
AcDbCircle
 62
7
  6
CONTINUOUS
 10
7.6797735774
 20
4.6780173558
 40
0.2243095539
100
AcDbArc
 50
105.5086731636
 51
105.9119768456
  0
ARC
  5
54A
100
AcDbEntity
  8
0
100
AcDbCircle
 62
7
  6
CONTINUOUS
 10
7.4733613361
 20
4.7297755238
 40
0.0118110236
100
AcDbArc
 50
270.0
 51
314.9997468347
  0
ARC
  5
54B
100
AcDbEntity
  8
0
100
AcDbCircle
 62
7
  6
CONTINUOUS
 10
7.509788706
 20
4.7297755238
 40
0.0118110236
100
AcDbArc
 50
270.0
 51
314.9997468346
  0
ARC
  5
54C
100
AcDbEntity
  8
0
100
AcDbCircle
 62
9
  6
CONTINUOUS
 10
7.5461669291
 20
4.7690196474
 40
0.0118680643
100
AcDbArc
 50
159.2858967565
 51
164.9315695889
  0
ARC
  5
54D
100
AcDbEntity
  8
0
100
AcDbCircle
 62
9
  6
CONTINUOUS
 10
7.5461144819
 20
4.7690349944
 40
0.0118150243
100
AcDbArc
 50
176.2091034957
 51
180.0328207074
  0
ARC
  5
54E
100
AcDbEntity
  8
0
100
AcDbCircle
 62
9
  6
CONTINUOUS
 10
7.5461120657
 20
4.7690329048
 40
0.0118116509
100
AcDbArc
 50
132.6354792336
 51
155.5624792121
  0
ARC
  5
54F
100
AcDbEntity
  8
0
100
AcDbCircle
 62
7
  6
CONTINUOUS
 10
7.486127638
 20
4.7425418258
 40
0.0118110236
100
AcDbArc
 50
314.9999999998
 51
360.0
  0
ARC
  5
550
100
AcDbEntity
  8
0
100
AcDbCircle
 62
7
  6
CONTINUOUS
 10
7.5225550079
 20
4.7425418258
 40
0.0118110236
100
AcDbArc
 50
315.0000000005
 51
360.0
  0
ARC
  5
551
100
AcDbEntity
  8
0
100
AcDbCircle
 62
9
  6
CONTINUOUS
 10
7.5460808282
 20
4.7690323801
 40
0.0117816181
100
AcDbArc
 50
164.8825056591
 51
176.185597009
  0
ARC
  5
552
100
AcDbEntity
  8
0
100
AcDbCircle
 62
9
  6
CONTINUOUS
 10
7.5460867533
 20
4.7690831776
 40
0.0117543813
100
AcDbArc
 50
97.8830174272
 51
132.6402287808
  0
ARC
  5
553
100
AcDbEntity
  8
0
100
AcDbCircle
 62
9
  6
CONTINUOUS
 10
7.5460322373
 20
4.7690665598
 40
0.0117254868
100
AcDbArc
 50
155.5613660511
 51
159.267517256
  0
ARC
  5
554
100
AcDbEntity
  8
0
100
AcDbCircle
 62
7
  6
CONTINUOUS
 10
7.4289286655
 20
4.9037872246
 40
0.0196850394
100
AcDbArc
 50
315.0000000003
 51
360.0
  0
ARC
  5
555
100
AcDbEntity
  8
0
100
AcDbCircle
 62
7
  6
CONTINUOUS
 10
7.4207748552
 20
4.8956334143
 40
0.0196850394
100
AcDbArc
 50
270.0
 51
314.99885671
  0
ARC
  5
556
100
AcDbEntity
  8
0
100
AcDbCircle
 62
7
  6
CONTINUOUS
 10
7.6372506351
 20
4.9037872246
 40
0.0196850394
100
AcDbArc
 50
180.0
 51
224.9999999998
  0
ARC
  5
557
100
AcDbEntity
  8
0
100
AcDbCircle
 62
7
  6
CONTINUOUS
 10
7.6454044454
 20
4.8956334143
 40
0.0196850394
100
AcDbArc
 50
225.0011432895
 51
270.0
  0
ARC
  5
558
100
AcDbEntity
  8
0
100
AcDbCircle
 62
7
  6
CONTINUOUS
 10
7.4620573585
 20
4.8622400564
 40
0.0196850394
100
AcDbArc
 50
315.0000000001
 51
360.0
  0
ARC
  5
559
100
AcDbEntity
  8
0
100
AcDbCircle
 62
7
  6
CONTINUOUS
 10
7.4539035482
 20
4.8540862461
 40
0.0196850394
100
AcDbArc
 50
270.0
 51
314.998672795
  0
ARC
  5
55A
100
AcDbEntity
  8
0
100
AcDbCircle
 62
7
  6
CONTINUOUS
 10
7.71225955
 20
4.8540862461
 40
0.0196850394
100
AcDbArc
 50
270.0
 51
314.9986727883
  0
ARC
  5
55B
100
AcDbEntity
  8
0
100
AcDbCircle
 62
7
  6
CONTINUOUS
 10
7.7204133603
 20
4.8622400564
 40
0.0196850394
100
AcDbArc
 50
315.0000000001
 51
360.0
  0
ARC
  5
55C
100
AcDbEntity
  8
0
100
AcDbCircle
 62
7
  6
CONTINUOUS
 10
7.6180511556
 20
4.8622400564
 40
0.0196850394
100
AcDbArc
 50
180.0
 51
224.9999999999
  0
ARC
  5
55D
100
AcDbEntity
  8
0
100
AcDbCircle
 62
7
  6
CONTINUOUS
 10
7.6262049658
 20
4.8540862461
 40
0.0196850394
100
AcDbArc
 50
225.0013272118
 51
270.0
  0
ARC
  5
55E
100
AcDbEntity
  8
0
100
AcDbCircle
 62
7
  6
CONTINUOUS
 10
7.7632348871
 20
4.9037872246
 40
0.0196850394
100
AcDbArc
 50
315.0000000002
 51
360.0
  0
ARC
  5
55F
100
AcDbEntity
  8
0
100
AcDbCircle
 62
7
  6
CONTINUOUS
 10
7.7550810768
 20
4.8956334143
 40
0.0196850394
100
AcDbArc
 50
270.0
 51
314.9988567094
  0
ARC
  5
560
100
AcDbEntity
  8
0
100
AcDbCircle
 62
7
  6
CONTINUOUS
 10
8.0197570732
 20
4.9037872246
 40
0.0196850394
100
AcDbArc
 50
315.0000000002
 51
360.0
  0
ARC
  5
561
100
AcDbEntity
  8
0
100
AcDbCircle
 62
7
  6
CONTINUOUS
 10
8.0116032629
 20
4.8956334143
 40
0.0196850394
100
AcDbArc
 50
270.0
 51
314.9989630351
  0
ARC
  5
562
100
AcDbEntity
  8
0
100
AcDbCircle
 62
7
  6
CONTINUOUS
 10
7.9019266315
 20
4.8956334143
 40
0.0196850394
100
AcDbArc
 50
225.0010369649
 51
270.0
  0
ARC
  5
563
100
AcDbEntity
  8
0
100
AcDbCircle
 62
7
  6
CONTINUOUS
 10
7.8937728212
 20
4.9037872246
 40
0.0196850394
100
AcDbArc
 50
180.0
 51
224.9999999998
  0
ARC
  5
564
100
AcDbEntity
  8
0
100
AcDbCircle
 62
7
  6
CONTINUOUS
 10
7.9034551066
 20
4.8540862461
 40
0.0196850394
100
AcDbArc
 50
257.2907770745
 51
270.0
  0
ARC
  5
565
100
AcDbEntity
  8
0
100
AcDbCircle
 62
7
  6
CONTINUOUS
 10
7.997663501
 20
4.8622400564
 40
0.0196850394
100
AcDbArc
 50
315.0000000001
 51
360.0
  0
ARC
  5
566
100
AcDbEntity
  8
0
100
AcDbCircle
 62
7
  6
CONTINUOUS
 10
7.9895096907
 20
4.8540862461
 40
0.0196850394
100
AcDbArc
 50
270.0
 51
314.998672795
  0
ARC
  5
567
100
AcDbEntity
  8
0
100
AcDbCircle
 62
7
  6
CONTINUOUS
 10
7.8088902467
 20
4.8540862461
 40
0.0196850394
100
AcDbArc
 50
225.0013272065
 51
270.0
  0
ARC
  5
568
100
AcDbEntity
  8
0
100
AcDbCircle
 62
7
  6
CONTINUOUS
 10
7.8949448308
 20
4.8540862461
 40
0.0196850394
100
AcDbArc
 50
270.0
 51
314.9986727934
  0
ARC
  5
569
100
AcDbEntity
  8
0
100
AcDbCircle
 62
7
  6
CONTINUOUS
 10
7.9030986411
 20
4.8622400564
 40
0.0196850394
100
AcDbArc
 50
315.0000000004
 51
360.0
  0
ARC
  5
56A
100
AcDbEntity
  8
0
100
AcDbCircle
 62
7
  6
CONTINUOUS
 10
7.8007364364
 20
4.8622400564
 40
0.0196850394
100
AcDbArc
 50
180.0
 51
224.9999999996
  0
ARC
  5
56B
100
AcDbEntity
  8
0
100
AcDbCircle
 62
7
  6
CONTINUOUS
 10
8.0550294087
 20
4.9037872246
 40
0.0196850394
100
AcDbArc
 50
205.4025424871
 51
224.9999999998
  0
ARC
  5
56C
100
AcDbEntity
  8
0
100
AcDbCircle
 62
7
  6
CONTINUOUS
 10
8.063183219
 20
4.8956334143
 40
0.0196850394
100
AcDbArc
 50
225.0011432896
 51
270.0
  0
ARC
  5
56D
100
AcDbEntity
  8
0
100
AcDbCircle
 62
7
  6
CONTINUOUS
 10
7.819628016
 20
4.8370870305
 40
0.0078740157
100
AcDbArc
 50
280.1468867895
 51
339.6248379632
  0
ARC
  5
56E
100
AcDbEntity
  8
0
100
AcDbCircle
 62
7
  6
CONTINUOUS
 10
6.9828499253
 20
6.6436224716
 40
0.06
100
AcDbArc
 50
270.0
 51
360.0
  0
ARC
  5
56F
100
AcDbEntity
  8
0
100
AcDbCircle
 62
7
  6
CONTINUOUS
 10
2.7795055965
 20
6.9160688255
 40
1.641852468
100
AcDbArc
 50
91.9573393195
 51
93.2288302753
  0
ARC
  5
570
100
AcDbEntity
  8
0
100
AcDbCircle
 62
7
  6
CONTINUOUS
 10
2.8553494829
 20
6.9160698806
 40
1.6418514119
100
AcDbArc
 50
86.7711693158
 51
88.0426610895
  0
ARC
  5
571
100
AcDbEntity
  8
0
100
AcDbCircle
 62
7
  6
CONTINUOUS
 10
2.8174275158
 20
7.4547681549
 40
0.2072348154
100
AcDbArc
 50
308.9930106382
 51
322.3139892221
  0
ARC
  5
572
100
AcDbEntity
  8
0
100
AcDbCircle
 62
7
  6
CONTINUOUS
 10
2.8174275158
 20
7.4547681549
 40
0.2072348154
100
AcDbArc
 50
214.3962040358
 51
231.0069893618
  0
ARC
  5
573
100
AcDbEntity
  8
0
100
AcDbCircle
 62
7
  6
CONTINUOUS
 10
2.8096544476
 20
7.4612143514
 40
0.2064229443
100
AcDbArc
 50
244.4854148339
 51
245.309293457
  0
ARC
  5
574
100
AcDbEntity
  8
0
100
AcDbCircle
 62
7
  6
CONTINUOUS
 10
2.8252780814
 20
7.4610489428
 40
0.2062402859
100
AcDbArc
 50
294.6903404264
 51
295.5148750979
  0
ARC
  5
575
100
AcDbEntity
  8
0
100
AcDbCircle
 62
7
  6
CONTINUOUS
 10
2.8248867942
 20
7.4526241163
 40
0.1996452491
100
AcDbArc
 50
226.3296315021
 51
227.8510117883
  0
ARC
  5
576
100
AcDbEntity
  8
0
100
AcDbCircle
 62
7
  6
CONTINUOUS
 10
2.8101313073
 20
7.4524486701
 40
0.1994057434
100
AcDbArc
 50
312.1479976061
 51
313.6712864287
  0
ARC
  5
577
100
AcDbEntity
  8
0
100
AcDbCircle
 62
7
  6
CONTINUOUS
 10
2.8114870473
 20
7.4487957075
 40
0.1989098091
100
AcDbArc
 50
239.6424374738
 51
243.2781089577
  0
ARC
  5
578
100
AcDbEntity
  8
0
100
AcDbCircle
 62
7
  6
CONTINUOUS
 10
2.8236316952
 20
7.4483108254
 40
0.1983581331
100
AcDbArc
 50
296.7167926805
 51
300.3626861805
  0
ARC
  5
579
100
AcDbEntity
  8
0
100
AcDbCircle
 62
7
  6
CONTINUOUS
 10
2.8192028429
 20
7.4453659238
 40
0.1963499275
100
AcDbArc
 50
227.689419166
 51
228.5927907922
  0
ARC
  5
57A
100
AcDbEntity
  8
0
100
AcDbCircle
 62
7
  6
CONTINUOUS
 10
2.8156947642
 20
7.4453183893
 40
0.1962861157
100
AcDbArc
 50
311.4070133854
 51
312.3107305663
  0
ARC
  5
57B
100
AcDbEntity
  8
0
100
AcDbCircle
 62
7
  6
CONTINUOUS
 10
2.8100234684
 20
7.4462501981
 40
0.1959736353
100
AcDbArc
 50
237.3228769455
 51
239.6355428735
  0
ARC
  5
57C
100
AcDbEntity
  8
0
100
AcDbCircle
 62
7
  6
CONTINUOUS
 10
2.8249335894
 20
7.4460847819
 40
0.195779336
100
AcDbArc
 50
300.3632340821
 51
302.4118347736
  0
ARC
  5
57D
100
AcDbEntity
  8
0
100
AcDbCircle
 62
7
  6
CONTINUOUS
 10
2.814471701
 20
7.4437342049
 40
0.1956519009
100
AcDbArc
 50
241.8112937279
 51
242.2679271424
  0
ARC
  5
57E
100
AcDbEntity
  8
0
100
AcDbCircle
 62
7
  6
CONTINUOUS
 10
2.8203836134
 20
7.4437336666
 40
0.1956512929
100
AcDbArc
 50
297.7320729015
 51
298.1887450148
  0
ARC
  5
57F
100
AcDbEntity
  8
0
100
AcDbCircle
 62
7
  6
CONTINUOUS
 10
2.8090321274
 20
7.4446908425
 40
0.1941258554
100
AcDbArc
 50
235.3849300901
 51
237.3206737056
  0
ARC
  5
580
100
AcDbEntity
  8
0
100
AcDbCircle
 62
7
  6
CONTINUOUS
 10
2.8259245087
 20
7.4445364586
 40
0.193941081
100
AcDbArc
 50
302.4098707869
 51
304.6162439427
  0
ARC
  5
581
100
AcDbEntity
  8
0
100
AcDbCircle
 62
7
  6
CONTINUOUS
 10
2.8135873793
 20
7.4422185248
 40
0.1938982628
100
AcDbArc
 50
229.5490199061
 51
241.830047428
  0
ARC
  5
582
100
AcDbEntity
  8
0
100
AcDbCircle
 62
7
  6
CONTINUOUS
 10
2.8212677302
 20
7.4422184112
 40
0.1938981258
100
AcDbArc
 50
298.169985709
 51
310.4509660676
  0
ARC
  5
583
100
AcDbEntity
  8
0
100
AcDbCircle
 62
7
  6
CONTINUOUS
 10
2.8210347322
 20
7.4481373809
 40
0.1937338672
100
AcDbArc
 50
227.805187816
 51
239.7468722428
  0
ARC
  5
584
100
AcDbEntity
  8
0
100
AcDbCircle
 62
7
  6
CONTINUOUS
 10
2.8138203607
 20
7.4481372985
 40
0.1937337651
100
AcDbArc
 50
300.2531243729
 51
312.1947316407
  0
ARC
  5
585
100
AcDbEntity
  8
0
100
AcDbCircle
 62
7
  6
CONTINUOUS
 10
2.8174821663
 20
7.4432998452
 40
0.1936622596
100
AcDbArc
 50
228.5703171567
 51
240.9440613705
  0
ARC
  5
586
100
AcDbEntity
  8
0
100
AcDbCircle
 62
7
  6
CONTINUOUS
 10
2.817372928
 20
7.4432997571
 40
0.1936621521
100
AcDbArc
 50
299.0559350632
 51
311.4296336065
  0
ARC
  5
587
100
AcDbEntity
  8
0
100
AcDbCircle
 62
7
  6
CONTINUOUS
 10
2.8217381731
 20
7.4416163255
 40
0.1931347426
100
AcDbArc
 50
310.4606498852
 51
310.7563457071
  0
ARC
  5
588
100
AcDbEntity
  8
0
100
AcDbCircle
 62
7
  6
CONTINUOUS
 10
2.8131159693
 20
7.4416152939
 40
0.1931333806
100
AcDbArc
 50
229.2436543238
 51
229.5393339034
  0
ARC
  5
589
100
AcDbEntity
  8
0
100
AcDbCircle
 62
7
  6
CONTINUOUS
 10
2.8078542791
 20
7.4429866546
 40
0.1920542421
100
AcDbArc
 50
231.0151384692
 51
235.3853096974
  0
ARC
  5
58A
100
AcDbEntity
  8
0
100
AcDbCircle
 62
7
  6
CONTINUOUS
 10
2.8270009792
 20
7.4429863487
 40
0.1920538617
100
AcDbArc
 50
304.6146549231
 51
308.9848663726
  0
ARC
  5
58B
100
AcDbEntity
  8
0
100
AcDbCircle
 62
7
  6
CONTINUOUS
 10
2.8272799294
 20
7.4426134901
 40
0.1915885433
100
AcDbArc
 50
304.6093406588
 51
308.9901714853
  0
ARC
  5
58C
100
AcDbEntity
  8
0
100
AcDbCircle
 62
7
  6
CONTINUOUS
 10
2.807574974
 20
7.4426133253
 40
0.1915883345
100
AcDbArc
 50
231.0098272885
 51
235.3906312663
  0
ARC
  5
58D
100
AcDbEntity
  8
0
100
AcDbCircle
 62
7
  6
CONTINUOUS
 10
3.0178798656
 20
7.4054679252
 40
0.0773894254
100
AcDbArc
 50
270.0
 51
355.7940350803
  0
ARC
  5
58E
100
AcDbEntity
  8
0
100
AcDbCircle
 62
7
  6
CONTINUOUS
 10
2.8232129403
 20
7.9894090333
 40
0.1947767732
100
AcDbArc
 50
225.6392217202
 51
239.1824069626
  0
ARC
  5
58F
100
AcDbEntity
  8
0
100
AcDbCircle
 62
7
  6
CONTINUOUS
 10
2.811642162
 20
7.9894089415
 40
0.1947766581
100
AcDbArc
 50
300.8175890163
 51
314.360782301
  0
ARC
  5
590
100
AcDbEntity
  8
0
100
AcDbCircle
 62
7
  6
CONTINUOUS
 10
2.8116421733
 20
8.0467480727
 40
0.1947766398
100
AcDbArc
 50
45.6392170596
 51
59.1824116231
  0
ARC
  5
591
100
AcDbEntity
  8
0
100
AcDbCircle
 62
7
  6
CONTINUOUS
 10
2.8232128125
 20
8.0467481321
 40
0.1947765653
100
AcDbArc
 50
120.8175857752
 51
134.360785542
  0
ARC
  5
592
100
AcDbEntity
  8
0
100
AcDbCircle
 62
7
  6
CONTINUOUS
 10
2.8115993401
 20
8.1430136313
 40
0.1943201072
100
AcDbArc
 50
230.1296988567
 51
243.0157700052
  0
ARC
  5
593
100
AcDbEntity
  8
0
100
AcDbCircle
 62
7
  6
CONTINUOUS
 10
2.8232557561
 20
8.1430135334
 40
0.1943199906
100
AcDbArc
 50
296.9842261132
 51
309.8703050249
  0
ARC
  5
594
100
AcDbEntity
  8
0
100
AcDbCircle
 62
7
  6
CONTINUOUS
 10
2.8232557654
 20
7.8931434802
 40
0.1943199739
100
AcDbArc
 50
50.1296944191
 51
63.0157744428
  0
ARC
  5
595
100
AcDbEntity
  8
0
100
AcDbCircle
 62
7
  6
CONTINUOUS
 10
2.8115992241
 20
7.893143544
 40
0.1943198979
100
AcDbArc
 50
116.9842230275
 51
129.8703081106
  0
ARC
  5
596
100
AcDbEntity
  8
0
100
AcDbCircle
 62
7
  6
CONTINUOUS
 10
2.8194955101
 20
8.0393479166
 40
0.1940141696
100
AcDbArc
 50
226.9401700612
 51
240.3197195692
  0
ARC
  5
597
100
AcDbEntity
  8
0
100
AcDbCircle
 62
7
  6
CONTINUOUS
 10
2.8153595902
 20
8.0393478232
 40
0.1940140545
100
AcDbArc
 50
299.6802764413
 51
313.0598339284
  0
ARC
  5
598
100
AcDbEntity
  8
0
100
AcDbCircle
 62
7
  6
CONTINUOUS
 10
2.8153596008
 20
7.9968091908
 40
0.1940140367
100
AcDbArc
 50
46.9401654561
 51
60.3197241742
  0
ARC
  5
599
100
AcDbEntity
  8
0
100
AcDbCircle
 62
7
  6
CONTINUOUS
 10
2.8194953862
 20
7.9968092513
 40
0.194013962
100
AcDbArc
 50
119.6802732389
 51
133.0598371307
  0
ARC
  5
59A
100
AcDbEntity
  8
0
100
AcDbCircle
 62
7
  6
CONTINUOUS
 10
2.8156011451
 20
8.0905503845
 40
0.1937767567
100
AcDbArc
 50
228.4325691867
 51
241.5970713416
  0
ARC
  5
59B
100
AcDbEntity
  8
0
100
AcDbCircle
 62
7
  6
CONTINUOUS
 10
2.8192539532
 20
8.0905502892
 40
0.193776641
100
AcDbArc
 50
298.4029247141
 51
311.5674347577
  0
ARC
  5
59C
100
AcDbEntity
  8
0
100
AcDbCircle
 62
7
  6
CONTINUOUS
 10
2.8192539632
 20
7.9456067246
 40
0.1937766238
100
AcDbArc
 50
48.4325646546
 51
61.5970758737
  0
ARC
  5
59D
100
AcDbEntity
  8
0
100
AcDbCircle
 62
7
  6
CONTINUOUS
 10
2.815601025
 20
7.9456067866
 40
0.1937765487
100
AcDbArc
 50
118.4029215625
 51
131.5674379092
  0
ARC
  5
59E
100
AcDbEntity
  8
0
100
AcDbCircle
 62
7
  6
CONTINUOUS
 10
3.3012605146
 20
8.323688736
 40
0.1181102362
100
AcDbArc
 50
206.5595867095
 51
270.0
  0
ARC
  5
59F
100
AcDbEntity
  8
0
100
AcDbCircle
 62
7
  6
CONTINUOUS
 10
3.3012605146
 20
7.7124682636
 40
0.1181102362
100
AcDbArc
 50
90.0
 51
153.4404132905
  0
ARC
  5
5A0
100
AcDbEntity
  8
0
100
AcDbCircle
 62
7
  6
CONTINUOUS
 10
2.8553494866
 20
9.1200870358
 40
1.6418513287
100
AcDbArc
 50
271.9573388783
 51
273.2288307165
  0
ARC
  5
5A1
100
AcDbEntity
  8
0
100
AcDbCircle
 62
7
  6
CONTINUOUS
 10
2.7795055129
 20
9.1200863278
 40
1.6418506199
100
AcDbArc
 50
266.7711690091
 51
268.0426613961
  0
ARC
  5
5A2
100
AcDbEntity
  8
0
100
AcDbCircle
 62
7
  6
CONTINUOUS
 10
3.4264275158
 20
9.0524316578
 40
0.95
100
AcDbArc
 50
64.7660229465
 51
89.6984418735
  0
ARC
  5
5A3
100
AcDbEntity
  8
0
100
AcDbCircle
 62
7
  6
CONTINUOUS
 10
2.8174275158
 20
8.5813888446
 40
0.2072348154
100
AcDbArc
 50
37.6860107779
 51
51.0069893618
  0
ARC
  5
5A4
100
AcDbEntity
  8
0
100
AcDbCircle
 62
7
  6
CONTINUOUS
 10
2.8174275158
 20
8.5813888446
 40
0.2072348154
100
AcDbArc
 50
128.9930106382
 51
145.6037959642
  0
ARC
  5
5A5
100
AcDbEntity
  8
0
100
AcDbCircle
 62
7
  6
CONTINUOUS
 10
2.8252009627
 20
8.5749434726
 40
0.206422037
100
AcDbArc
 50
64.4854141401
 51
65.3092933924
  0
ARC
  5
5A6
100
AcDbEntity
  8
0
100
AcDbCircle
 62
7
  6
CONTINUOUS
 10
2.8095765876
 20
8.5751088472
 40
0.2062394163
100
AcDbArc
 50
114.6903406158
 51
115.5148745796
  0
ARC
  5
5A7
100
AcDbEntity
  8
0
100
AcDbCircle
 62
7
  6
CONTINUOUS
 10
2.8099683072
 20
8.5835329558
 40
0.1996451484
100
AcDbArc
 50
46.3296316119
 51
47.8510090807
  0
ARC
  5
5A8
100
AcDbEntity
  8
0
100
AcDbCircle
 62
7
  6
CONTINUOUS
 10
2.824723583
 20
8.5837084751
 40
0.1994055405
100
AcDbArc
 50
132.1479985752
 51
133.6712859686
  0
ARC
  5
5A9
100
AcDbEntity
  8
0
100
AcDbCircle
 62
7
  6
CONTINUOUS
 10
2.8233680568
 20
8.5873614725
 40
0.1989096153
100
AcDbArc
 50
59.6423619056
 51
63.2781063347
  0
ARC
  5
5AA
100
AcDbEntity
  8
0
100
AcDbCircle
 62
7
  6
CONTINUOUS
 10
2.8112234659
 20
8.587845988
 40
0.1983583575
100
AcDbArc
 50
116.7167989275
 51
120.3626235094
  0
ARC
  5
5AB
100
AcDbEntity
  8
0
100
AcDbCircle
 62
7
  6
CONTINUOUS
 10
2.8156522933
 20
8.5907911905
 40
0.1963497721
100
AcDbArc
 50
47.6894192055
 51
48.5927892519
  0
ARC
  5
5AC
100
AcDbEntity
  8
0
100
AcDbCircle
 62
7
  6
CONTINUOUS
 10
2.8191600582
 20
8.5908388393
 40
0.1962858055
100
AcDbArc
 50
131.407013697
 51
132.3107304001
  0
ARC
  5
5AD
100
AcDbEntity
  8
0
100
AcDbCircle
 62
7
  6
CONTINUOUS
 10
2.8247827045
 20
8.5898248386
 40
0.1960690516
100
AcDbArc
 50
57.5896894623
 51
59.6352628816
  0
ARC
  5
5AE
100
AcDbEntity
  8
0
100
AcDbCircle
 62
7
  6
CONTINUOUS
 10
2.8203828919
 20
8.5924219599
 40
0.1956528439
100
AcDbArc
 50
61.8112938821
 51
62.2679271774
  0
ARC
  5
5AF
100
AcDbEntity
  8
0
100
AcDbCircle
 62
7
  6
CONTINUOUS
 10
2.8144718459
 20
8.592422519
 40
0.1956522124
100
AcDbArc
 50
117.7320728648
 51
118.1887443209
  0
ARC
  5
5B0
100
AcDbEntity
  8
0
100
AcDbCircle
 62
7
  6
CONTINUOUS
 10
2.8098530749
 20
8.5901846524
 40
0.195647763
100
AcDbArc
 50
120.3625338693
 51
122.6790522489
  0
ARC
  5
5B1
100
AcDbEntity
  8
0
100
AcDbCircle
 62
7
  6
CONTINUOUS
 10
2.825747844
 20
8.5913536815
 40
0.1942610601
100
AcDbArc
 50
55.3855863847
 51
57.5883250352
  0
ARC
  5
5B2
100
AcDbEntity
  8
0
100
AcDbCircle
 62
7
  6
CONTINUOUS
 10
2.8212677336
 20
8.5939385943
 40
0.193898119
100
AcDbArc
 50
49.5490144841
 51
61.830049854
  0
ARC
  5
5B3
100
AcDbEntity
  8
0
100
AcDbCircle
 62
7
  6
CONTINUOUS
 10
2.813587246
 20
8.5939386696
 40
0.193898028
100
AcDbArc
 50
118.1699841519
 51
130.4509698942
  0
ARC
  5
5B4
100
AcDbEntity
  8
0
100
AcDbCircle
 62
7
  6
CONTINUOUS
 10
2.8088757151
 20
8.5917011367
 40
0.1938436173
100
AcDbArc
 50
122.6779135471
 51
124.6164759163
  0
ARC
  5
5B5
100
AcDbEntity
  8
0
100
AcDbCircle
 62
7
  6
CONTINUOUS
 10
2.8138204273
 20
8.5880197936
 40
0.1937336516
100
AcDbArc
 50
47.8051774044
 51
59.7468788594
  0
ARC
  5
5B6
100
AcDbEntity
  8
0
100
AcDbCircle
 62
7
  6
CONTINUOUS
 10
2.8210345649
 20
8.5880198466
 40
0.1937335859
100
AcDbArc
 50
120.2531189812
 51
132.1947403977
  0
ARC
  5
5B7
100
AcDbEntity
  8
0
100
AcDbCircle
 62
7
  6
CONTINUOUS
 10
2.8173729693
 20
8.5928573018
 40
0.1936620802
100
AcDbArc
 50
48.5703090533
 51
60.9440670977
  0
ARC
  5
5B8
100
AcDbEntity
  8
0
100
AcDbCircle
 62
7
  6
CONTINUOUS
 10
2.8174820227
 20
8.5928573572
 40
0.1936620125
100
AcDbArc
 50
119.0559306512
 51
131.4296400727
  0
ARC
  5
5B9
100
AcDbEntity
  8
0
100
AcDbCircle
 62
7
  6
CONTINUOUS
 10
2.8131165814
 20
8.5945409955
 40
0.1931343182
100
AcDbArc
 50
130.4606498976
 51
130.7563456951
  0
ARC
  5
5BA
100
AcDbEntity
  8
0
100
AcDbCircle
 62
7
  6
CONTINUOUS
 10
2.8217391951
 20
8.5945418597
 40
0.1931331773
100
AcDbArc
 50
49.2436543326
 51
49.5393334124
  0
ARC
  5
5BB
100
AcDbEntity
  8
0
100
AcDbCircle
 62
7
  6
CONTINUOUS
 10
2.8078542791
 20
8.593170345
 40
0.1920542421
100
AcDbArc
 50
124.6146903026
 51
128.9848615308
  0
ARC
  5
5BC
100
AcDbEntity
  8
0
100
AcDbCircle
 62
7
  6
CONTINUOUS
 10
2.8270009792
 20
8.5931706509
 40
0.1920538617
100
AcDbArc
 50
51.0151336274
 51
55.3853450769
  0
ARC
  5
5BD
100
AcDbEntity
  8
0
100
AcDbCircle
 62
7
  6
CONTINUOUS
 10
2.8272799294
 20
8.5935435094
 40
0.1915885433
100
AcDbArc
 50
51.0098285147
 51
55.3906593412
  0
ARC
  5
5BE
100
AcDbEntity
  8
0
100
AcDbCircle
 62
7
  6
CONTINUOUS
 10
2.807574974
 20
8.5935436742
 40
0.1915883345
100
AcDbArc
 50
124.6093687336
 51
128.9901727115
  0
ARC
  5
5BF
100
AcDbEntity
  8
0
100
AcDbCircle
 62
7
  6
CONTINUOUS
 10
3.0178798656
 20
8.6306890743
 40
0.0773894254
100
AcDbArc
 50
4.2059649197
 51
90.0
  0
ARC
  5
5C0
100
AcDbEntity
  8
0
100
AcDbCircle
 62
7
  6
CONTINUOUS
 10
4.5446681948
 20
7.7822834852
 40
1.9
100
AcDbArc
 50
282.4577510794
 51
320.8853497804
  0
ARC
  5
5C1
100
AcDbEntity
  8
0
100
AcDbCircle
 62
7
  6
CONTINUOUS
 10
3.8719102778
 20
8.0180784998
 40
1.383
100
AcDbArc
 50
152.3877707052
 51
207.6122292948
  0
ARC
  5
5C2
100
AcDbEntity
  8
0
100
AcDbCircle
 62
7
  6
CONTINUOUS
 10
4.0702233791
 20
7.3280784998
 40
0.9777958633
100
AcDbArc
 50
153.4404133863
 51
175.7940350803
  0
ARC
  5
5C3
100
AcDbEntity
  8
0
100
AcDbCircle
 62
7
  6
CONTINUOUS
 10
4.5064275158
 20
8.0180784998
 40
0.748
100
AcDbArc
 50
114.9959032868
 51
65.0148257073
  0
CIRCLE
  5
5C4
100
AcDbEntity
  8
0
100
AcDbCircle
 62
7
  6
CONTINUOUS
 10
4.5064275158
 20
8.0180784998
 40
0.0625
  0
ARC
  5
5C5
100
AcDbEntity
  8
0
100
AcDbCircle
 62
7
  6
CONTINUOUS
 10
4.0702233791
 20
8.7080784998
 40
0.9777958633
100
AcDbArc
 50
184.2059649197
 51
206.5595866137
  0
ARC
  5
5C6
100
AcDbEntity
  8
0
100
AcDbCircle
 62
7
  6
CONTINUOUS
 10
3.8108960197
 20
8.6960784998
 40
0.3580314961
100
AcDbArc
 50
0.0
 51
75.3532405435
  0
ARC
  5
5C7
100
AcDbEntity
  8
0
100
AcDbCircle
 62
7
  6
CONTINUOUS
 10
3.9132775158
 20
9.7870979194
 40
0.11
100
AcDbArc
 50
138.0810742221
 51
221.9189257779
  0
ARC
  5
5C8
100
AcDbEntity
  8
0
100
AcDbCircle
 62
7
  6
CONTINUOUS
 10
2.8524956648
 20
13.6287327035
 40
5.1079617735
100
AcDbArc
 50
270.6610506118
 51
271.0693665794
  0
ARC
  5
5C9
100
AcDbEntity
  8
0
100
AcDbCircle
 62
7
  6
CONTINUOUS
 10
2.7764000255
 20
13.2341236386
 40
4.7133104277
100
AcDbArc
 50
268.913538937
 51
269.3560438719
  0
ARC
  5
5CA
100
AcDbEntity
  8
0
100
AcDbCircle
 62
7
  6
CONTINUOUS
 10
3.4314275158
 20
10.1624184998
 40
0.1125
100
AcDbArc
 50
180.0
 51
270.0
  0
ARC
  5
5CB
100
AcDbEntity
  8
0
100
AcDbCircle
 62
7
  6
CONTINUOUS
 10
5.8187037545
 20
7.8988352859
 40
0.28
100
AcDbArc
 50
252.6348238736
 51
279.152146034
  0
ARC
  5
5CC
100
AcDbEntity
  8
0
100
AcDbCircle
 62
9
  6
CONTINUOUS
 10
5.8301195117
 20
7.9004003352
 40
0.2798677201
100
AcDbArc
 50
251.0937639824
 51
254.780584515
  0
ARC
  5
5CD
100
AcDbEntity
  8
0
100
AcDbCircle
 62
9
  6
CONTINUOUS
 10
5.8297591906
 20
7.8991137372
 40
0.2785184256
100
AcDbArc
 50
273.1350003676
 51
276.388308653
  0
ARC
  5
5CE
100
AcDbEntity
  8
0
100
AcDbCircle
 62
9
  6
CONTINUOUS
 10
5.8296822041
 20
7.8987799757
 40
0.2781893901
100
AcDbArc
 50
254.7798841779
 51
273.1545921473
  0
ARC
  5
5CF
100
AcDbEntity
  8
0
100
AcDbCircle
 62
7
  6
CONTINUOUS
 10
5.4879275158
 20
7.3852176363
 40
0.06
100
AcDbArc
 50
196.5978421359
 51
343.4021578641
  0
ARC
  5
5D0
100
AcDbEntity
  8
0
100
AcDbCircle
 62
7
  6
CONTINUOUS
 10
6.0635576832
 20
6.7785747958
 40
0.06
100
AcDbArc
 50
314.0731757112
 51
341.9999999995
  0
ARC
  5
5D1
100
AcDbEntity
  8
0
100
AcDbCircle
 62
7
  6
CONTINUOUS
 10
5.7504275081
 20
7.6813448286
 40
0.0300000095
100
AcDbArc
 50
297.7403974847
 51
359.9995275662
  0
ARC
  5
5D2
100
AcDbEntity
  8
0
100
AcDbCircle
 62
7
  6
CONTINUOUS
 10
5.5735022714
 20
7.3980788468
 40
0.0300000095
100
AcDbArc
 50
269.9995058875
 51
341.9125892481
  0
ARC
  5
5D3
100
AcDbEntity
  8
0
100
AcDbCircle
 62
7
  6
CONTINUOUS
 10
5.3854275158
 20
7.3830784998
 40
0.015
100
AcDbArc
 50
179.9999724438
 51
270.0
  0
ARC
  5
5D4
100
AcDbEntity
  8
0
100
AcDbCircle
 62
7
  6
CONTINUOUS
 10
5.5864275158
 20
9.0524316578
 40
0.95
100
AcDbArc
 50
90.3015581265
 51
115.2339770535
  0
ARC
  5
5D5
100
AcDbEntity
  8
0
100
AcDbCircle
 62
7
  6
CONTINUOUS
 10
5.2019590119
 20
8.6960784998
 40
0.3580314961
100
AcDbArc
 50
104.6467594565
 51
180.0
  0
ARC
  5
5D6
100
AcDbEntity
  8
0
100
AcDbCircle
 62
7
  6
CONTINUOUS
 10
5.0995775158
 20
9.7870979194
 40
0.11
100
AcDbArc
 50
318.0810742221
 51
41.9189257779
  0
ARC
  5
5D7
100
AcDbEntity
  8
0
100
AcDbCircle
 62
7
  6
CONTINUOUS
 10
5.4879275158
 20
8.6509393633
 40
0.06
100
AcDbArc
 50
16.5978421359
 51
163.4021578641
  0
ARC
  5
5D8
100
AcDbEntity
  8
0
100
AcDbCircle
 62
7
  6
CONTINUOUS
 10
5.5735022682
 20
8.6380781525
 40
0.0300000097
100
AcDbArc
 50
18.0874092894
 51
90.0004881181
  0
ARC
  5
5D9
100
AcDbEntity
  8
0
100
AcDbCircle
 62
7
  6
CONTINUOUS
 10
5.7504275081
 20
8.3548121708
 40
0.0300000095
100
AcDbArc
 50
0.000472453
 51
62.2596025699
  0
ARC
  5
5DA
100
AcDbEntity
  8
0
100
AcDbCircle
 62
7
  6
CONTINUOUS
 10
5.3854275158
 20
8.6530784998
 40
0.015
100
AcDbArc
 50
90.0
 51
180.0000275562
  0
ARC
  5
5DB
100
AcDbEntity
  8
0
100
AcDbCircle
 62
7
  6
CONTINUOUS
 10
6.5588499253
 20
7.1687853516
 40
2.5590551181
100
AcDbArc
 50
264.5049555658
 51
265.9886462846
  0
ARC
  5
5DC
100
AcDbEntity
  8
0
100
AcDbCircle
 62
7
  6
CONTINUOUS
 10
6.5588499253
 20
7.1687853516
 40
2.5590551181
100
AcDbArc
 50
267.3528405073
 51
273.7405671051
  0
ARC
  5
5DD
100
AcDbEntity
  8
0
100
AcDbCircle
 62
7
  6
CONTINUOUS
 10
6.1748499253
 20
6.6636224716
 40
0.1
100
AcDbArc
 50
134.0731757116
 51
180.0
  0
ARC
  5
5DE
100
AcDbEntity
  8
0
100
AcDbCircle
 62
7
  6
CONTINUOUS
 10
6.1238499253
 20
6.9377997853
 40
0.06
100
AcDbArc
 50
311.8102714498
 51
360.0
  0
ARC
  5
5DF
100
AcDbEntity
  8
0
100
AcDbCircle
 62
7
  6
CONTINUOUS
 10
6.5088499253
 20
8.0180784998
 40
0.76
100
AcDbArc
 50
304.0867832536
 51
330.902230147
  0
ARC
  5
5E0
100
AcDbEntity
  8
0
100
AcDbCircle
 62
7
  6
CONTINUOUS
 10
6.5088499253
 20
8.0180784998
 40
0.76
100
AcDbArc
 50
200.8095735777
 51
244.6277684861
  0
ARC
  5
5E1
100
AcDbEntity
  8
0
100
AcDbCircle
 62
7
  6
CONTINUOUS
 10
6.5088499253
 20
8.0180784998
 40
0.76
100
AcDbArc
 50
29.097769853
 51
159.1904264223
  0
ARC
  5
5E2
100
AcDbEntity
  8
0
100
AcDbCircle
 62
7
  6
CONTINUOUS
 10
6.5588499253
 20
8.0180784998
 40
0.635
100
AcDbArc
 50
306.3469686567
 51
233.6530313433
  0
ARC
  5
5E3
100
AcDbEntity
  8
0
100
AcDbCircle
 62
9
  6
CONTINUOUS
 10
6.5588499253
 20
8.0180784998
 40
0.595
100
AcDbArc
 50
309.2952412839
 51
230.7088924639
  0
ARC
  5
5E4
100
AcDbEntity
  8
0
100
AcDbCircle
 62
9
  6
CONTINUOUS
 10
6.5088499253
 20
8.0180784998
 40
0.5878559417
100
AcDbArc
 50
157.0858472358
 51
203.2452202835
  0
ARC
  5
5E5
100
AcDbEntity
  8
0
100
AcDbCircle
 62
9
  6
CONTINUOUS
 10
6.5588499253
 20
8.0180784998
 40
0.580618532
100
AcDbArc
 50
310.4589933101
 51
229.5498721844
  0
ARC
  5
5E6
100
AcDbEntity
  8
0
100
AcDbCircle
 62
9
  6
CONTINUOUS
 10
6.5588499253
 20
8.0180784998
 40
0.5339897743
100
AcDbArc
 50
314.8821753819
 51
225.1793641955
  0
ARC
  5
5E7
100
AcDbEntity
  8
0
100
AcDbCircle
 62
7
  6
CONTINUOUS
 10
6.5588499253
 20
8.0180784998
 40
0.3900431149
100
AcDbArc
 50
344.7994138529
 51
195.2053897471
  0
ARC
  5
5E8
100
AcDbEntity
  8
0
100
AcDbCircle
 62
7
  6
CONTINUOUS
 10
6.5588499253
 20
8.0180784998
 40
0.375
100
AcDbArc
 50
0.0
 51
180.0
  0
ARC
  5
5E9
100
AcDbEntity
  8
0
100
AcDbCircle
 62
7
  6
CONTINUOUS
 10
6.9428499253
 20
6.6636224716
 40
0.1
100
AcDbArc
 50
0.0
 51
45.9268242884
  0
ARC
  5
5EA
100
AcDbEntity
  8
0
100
AcDbCircle
 62
7
  6
CONTINUOUS
 10
7.0541421675
 20
6.7785747958
 40
0.06
100
AcDbArc
 50
198.0000000005
 51
225.9268242888
  0
ARC
  5
5EB
100
AcDbEntity
  8
0
100
AcDbCircle
 62
7
  6
CONTINUOUS
 10
6.9938499253
 20
6.9377997853
 40
0.06
100
AcDbArc
 50
180.0
 51
228.1897285506
  0
ARC
  5
5EC
100
AcDbEntity
  8
0
100
AcDbCircle
 62
7
  6
CONTINUOUS
 10
7.1467174665
 20
7.6630784998
 40
0.03
100
AcDbArc
 50
330.902230147
 51
90.0
  0
ARC
  5
5ED
100
AcDbEntity
  8
0
100
AcDbCircle
 62
7
  6
CONTINUOUS
 10
7.1467174665
 20
8.3730784998
 40
0.03
100
AcDbArc
 50
270.0
 51
29.0977698531
  0
ARC
  5
5EE
100
AcDbEntity
  8
0
100
AcDbCircle
 62
7
  6
CONTINUOUS
 10
6.5588499253
 20
11.8816245024
 40
7.1691060898
100
AcDbArc
 50
260.6768182412
 51
262.1369697736
  0
ARC
  5
5EF
100
AcDbEntity
  8
0
100
AcDbCircle
 62
7
  6
CONTINUOUS
 10
6.5588499254
 20
11.8816245023
 40
7.1691060898
100
AcDbArc
 50
277.8955430007
 51
279.3231817588
  0
ARC
  5
5F0
100
AcDbEntity
  8
0
100
AcDbCircle
 62
7
  6
CONTINUOUS
 10
6.5588499251
 20
11.8816598131
 40
7.1643816812
100
AcDbArc
 50
284.2898330323
 51
284.9326914327
  0
ARC
  5
5F1
100
AcDbEntity
  8
0
100
AcDbCircle
 62
7
  6
CONTINUOUS
 10
6.5588499251
 20
11.8816598131
 40
7.1643816812
100
AcDbArc
 50
255.0673085672
 51
255.7101669717
  0
ARC
  5
5F2
100
AcDbEntity
  8
0
100
AcDbCircle
 62
7
  6
CONTINUOUS
 10
5.5814275158
 20
10.1624184998
 40
0.1125
100
AcDbArc
 50
270.0
 51
360.0
  0
ARC
  5
5F3
100
AcDbEntity
  8
0
100
AcDbCircle
 62
9
  6
CONTINUOUS
 10
8.1393311434
 20
-0.3277224129
 40
5.1430675324
100
AcDbArc
 50
96.7688932791
 51
97.0796370255
  0
ARC
  5
5F4
100
AcDbEntity
  8
0
100
AcDbCircle
 62
7
  6
CONTINUOUS
 10
8.9138499253
 20
5.5018680746
 40
0.45
100
AcDbArc
 50
180.0
 51
218.3789847992
  0
ARC
  5
5F5
100
AcDbEntity
  8
0
100
AcDbCircle
 62
7
  6
CONTINUOUS
 10
8.1310798719
 20
4.6693238058
 40
0.2729490053
100
AcDbArc
 50
107.1008469879
 51
107.500653292
  0
ARC
  5
5F6
100
AcDbEntity
  8
0
100
AcDbCircle
 62
7
  6
CONTINUOUS
 10
8.757065679
 20
5.3776960162
 40
0.25
100
AcDbArc
 50
218.3789847992
 51
247.1367765694
  0
ARC
  5
5F7
100
AcDbEntity
  8
0
100
AcDbCircle
 62
7
  6
CONTINUOUS
 10
8.6288499253
 20
5.0736224716
 40
0.08
100
AcDbArc
 50
2.2714508417
 51
67.1367765692
  0
ARC
  5
5F8
100
AcDbEntity
  8
0
100
AcDbCircle
 62
7
  6
CONTINUOUS
 10
8.3888499253
 20
5.6849169021
 40
0.075
100
AcDbArc
 50
0.0
 51
65.9999999998
  0
ARC
  5
5F9
100
AcDbEntity
  8
0
100
AcDbCircle
 62
7
  6
CONTINUOUS
 10
8.1988499253
 20
5.8735007988
 40
0.02
100
AcDbArc
 50
180.0
 51
245.9999999988
  0
ARC
  5
5FA
100
AcDbEntity
  8
0
100
AcDbCircle
 62
7
  6
CONTINUOUS
 10
8.1588499253
 20
5.9074892314
 40
0.02
100
AcDbArc
 50
0.0
 51
77.5422489206
  0
ARC
  5
5FB
100
AcDbEntity
  8
0
100
AcDbCircle
 62
7
  6
CONTINUOUS
 10
8.2278614694
 20
4.8956334143
 40
0.0196850394
100
AcDbArc
 50
269.998993262
 51
314.9988567098
  0
ARC
  5
5FC
100
AcDbEntity
  8
0
100
AcDbCircle
 62
7
  6
CONTINUOUS
 10
8.2360152797
 20
4.9037872246
 40
0.0196850394
100
AcDbArc
 50
314.9975411856
 51
360.0
  0
ARC
  5
5FD
100
AcDbEntity
  8
0
100
AcDbCircle
 62
7
  6
CONTINUOUS
 10
8.1810136607
 20
4.9037872246
 40
0.0196850394
100
AcDbArc
 50
315.0000000002
 51
360.0
  0
ARC
  5
5FE
100
AcDbEntity
  8
0
100
AcDbCircle
 62
7
  6
CONTINUOUS
 10
8.1728598504
 20
4.8956334143
 40
0.0196850394
100
AcDbArc
 50
270.0
 51
314.9988567095
  0
ARC
  5
5FF
100
AcDbEntity
  8
0
100
AcDbCircle
 62
7
  6
CONTINUOUS
 10
8.5730316559
 20
7.7822834852
 40
1.9
100
AcDbArc
 50
219.1146502196
 51
257.5422489206
  0
ARC
  5
600
100
AcDbEntity
  8
0
100
AcDbCircle
 62
7
  6
CONTINUOUS
 10
12.4824666554
 20
8.8204925696
 40
0.85
100
AcDbArc
 50
229.9250028206
 51
310.0749971794
  0
ARC
  5
601
100
AcDbEntity
  8
0
100
AcDbCircle
 62
7
  6
CONTINUOUS
 10
12.4824666554
 20
8.9724184998
 40
0.555
100
AcDbArc
 50
172.7582990785
 51
187.2417009215
  0
ARC
  5
602
100
AcDbEntity
  8
0
100
AcDbCircle
 62
7
  6
CONTINUOUS
 10
12.4824666554
 20
8.9724184998
 40
0.555
100
AcDbArc
 50
352.7582990785
 51
7.2417009215
  0
ARC
  5
603
100
AcDbEntity
  8
0
100
AcDbCircle
 62
7
  6
CONTINUOUS
 10
13.4124666554
 20
9.4924184998
 40
0.38
100
AcDbArc
 50
90.0000014446
 51
180.0
  0
ARC
  5
604
100
AcDbEntity
  8
0
100
AcDbCircle
 62
7
  6
CONTINUOUS
 10
11.5524666554
 20
9.4924184998
 40
0.38
100
AcDbArc
 50
0.0
 51
89.9999985554
  0
ARC
  5
605
100
AcDbEntity
  8
0
100
AcDbCircle
 62
7
  6
CONTINUOUS
 10
11.5764666554
 20
10.0376187225
 40
0.13
100
AcDbArc
 50
136.3091047207
 51
223.935478063
  0
ARC
  5
606
100
AcDbEntity
  8
0
100
AcDbCircle
 62
7
  6
CONTINUOUS
 10
13.3884666554
 20
10.0376187225
 40
0.13
100
AcDbArc
 50
316.064521937
 51
43.6908952793
  0
ARC
  5
607
100
AcDbEntity
  8
0
100
AcDbCircle
 62
7
  6
CONTINUOUS
 10
13.0624666554
 20
8.2724184998
 40
0.0538516481
100
AcDbArc
 50
291.8014094864
 51
68.1985905136
  0
ARC
  5
608
100
AcDbEntity
  8
0
100
AcDbCircle
 62
7
  6
CONTINUOUS
 10
11.9024666554
 20
8.2724184998
 40
0.0538516481
100
AcDbArc
 50
111.8014094864
 51
248.1985905136
  0
ARC
  5
609
100
AcDbEntity
  8
0
100
AcDbCircle
 62
7
  6
CONTINUOUS
 10
11.9288074474
 20
8.1624184998
 40
0.01
100
AcDbArc
 50
49.9250023802
 51
89.9999497573
  0
ARC
  5
60A
100
AcDbEntity
  8
0
100
AcDbCircle
 62
7
  6
CONTINUOUS
 10
13.0361258634
 20
8.1624184998
 40
0.01
100
AcDbArc
 50
90.0000502427
 51
130.0749976198
  0
SPLINE
  5
60B
100
AcDbEntity
  8
0
100
AcDbSpline
 62
7
  6
CONTINUOUS
 70
0
 71
3
 72
23
 73
19
 74
0
 42
0.0000001
 43
0.0000001
 44
0.0000000001
 40
0.0
 40
0.0
 40
0.0
 40
0.0
 40
0.0882295107
 40
0.1726761888
 40
0.2533819971
 40
0.3303950134
 40
0.4037705749
 40
0.4735726703
 40
0.5398756353
 40
0.6027662147
 40
0.6623460597
 40
0.7187347293
 40
0.7720732457
 40
0.8225282134
 40
0.870296418
 40
0.9156096625
 40
0.9587393512
 40
1.0
 40
1.0
 40
1.0
 40
1.0
 10
5.6020202577
 20
7.3887646812
 30
0.0
 10
5.6049252825
 20
7.3976597734
 30
0.0
 10
5.6107771811
 20
7.4150149167
 30
0.0
 10
5.6199036205
 20
7.4402931851
 30
0.0
 10
5.629185294
 20
7.464243729
 30
0.0
 10
5.638622233
 20
7.4868666798
 30
0.0
 10
5.6482145612
 20
7.5081623688
 30
0.0
 10
5.6579624548
 20
7.5281311344
 30
0.0
 10
5.6678661828
 20
7.546773371
 30
0.0
 10
5.6779261376
 20
7.5640895108
 30
0.0
 10
5.688142878
 20
7.5800800082
 30
0.0
 10
5.6985171868
 20
7.5947453033
 30
0.0
 10
5.7090501088
 20
7.6080857448
 30
0.0
 10
5.7197430637
 20
7.6201015065
 30
0.0
 10
5.7305976385
 20
7.6307923059
 30
0.0
 10
5.7416162888
 20
7.6401575477
 30
0.0
 10
5.7527994853
 20
7.6481947615
 30
0.0
 10
5.7605185734
 20
7.6527556131
 30
0.0
 10
5.7643916268
 20
7.6547925314
 30
0.0
  0
SPLINE
  5
60C
100
AcDbEntity
  8
0
100
AcDbSpline
 62
7
  6
CONTINUOUS
 70
0
 71
3
 72
23
 73
19
 74
0
 42
0.0000001
 43
0.0000001
 44
0.0000000001
 40
0.0
 40
0.0
 40
0.0
 40
0.0
 40
0.0882295107
 40
0.1726761889
 40
0.2533819972
 40
0.3303950135
 40
0.403770575
 40
0.4735726704
 40
0.5398756354
 40
0.6027662148
 40
0.6623460598
 40
0.7187347293
 40
0.7720732457
 40
0.8225282135
 40
0.870296418
 40
0.9156096625
 40
0.9587393512
 40
1.0
 40
1.0
 40
1.0
 40
1.0
 10
5.6020202576
 20
8.6473923182
 30
0.0
 10
5.6049252824
 20
8.638497226
 30
0.0
 10
5.6107771809
 20
8.6211420827
 30
0.0
 10
5.6199036204
 20
8.5958638143
 30
0.0
 10
5.6291852938
 20
8.5719132704
 30
0.0
 10
5.6386222329
 20
8.5492903196
 30
0.0
 10
5.6482145611
 20
8.5279946306
 30
0.0
 10
5.6579624547
 20
8.5080258651
 30
0.0
 10
5.6678661827
 20
8.4893836285
 30
0.0
 10
5.6779261375
 20
8.4720674886
 30
0.0
 10
5.6881428779
 20
8.4560769913
 30
0.0
 10
5.6985171868
 20
8.4414116961
 30
0.0
 10
5.7090501087
 20
8.4280712547
 30
0.0
 10
5.7197430636
 20
8.416055493
 30
0.0
 10
5.7305976385
 20
8.4053646936
 30
0.0
 10
5.7416162887
 20
8.3959994518
 30
0.0
 10
5.7527994853
 20
8.387962238
 30
0.0
 10
5.7605185734
 20
8.3834013864
 30
0.0
 10
5.7643916268
 20
8.3813644682
 30
0.0
  0
SPLINE
  5
60D
100
AcDbEntity
  8
0
100
AcDbSpline
 62
7
  6
CONTINUOUS
 70
0
 71
3
 72
13
 73
9
 74
0
 42
0.0000001
 43
0.0000001
 44
0.0000000001
 40
0.0
 40
0.0
 40
0.0
 40
0.0
 40
0.2922613194
 40
0.5637532668
 40
0.687883327
 40
0.8026318554
 40
0.9069695918
 40
1.0
 40
1.0
 40
1.0
 40
1.0
 10
6.7507850938
 20
4.9100397338
 30
0.0
 10
6.7556119903
 20
4.9100397338
 30
0.0
 10
6.7649239447
 20
4.9098444116
 30
0.0
 10
6.7762649672
 20
4.9090878507
 30
0.0
 10
6.7846446313
 20
4.9081653025
 30
0.0
 10
6.7902571672
 20
4.9073623715
 30
0.0
 10
6.7953298503
 20
4.9064386476
 30
0.0
 10
6.7985082722
 20
4.9057070639
 30
0.0
 10
6.7999938742
 20
4.9053150186
 30
0.0
  0
SPLINE
  5
60E
100
AcDbEntity
  8
0
100
AcDbSpline
 62
7
  6
CONTINUOUS
 70
0
 71
3
 72
15
 73
11
 74
0
 42
0.0000001
 43
0.0000001
 44
0.0000000001
 40
0.0
 40
0.0
 40
0.0
 40
0.0
 40
0.1938829291
 40
0.3668117484
 40
0.5186127296
 40
0.6494193352
 40
0.7600324932
 40
0.8524382113
 40
0.9303218176
 40
1.0
 40
1.0
 40
1.0
 40
1.0
 10
6.7999938742
 20
4.9053150186
 30
0.0
 10
6.8009503618
 20
4.9050626048
 30
0.0
 10
6.8027505186
 20
4.9045475724
 30
0.0
 10
6.8052536058
 20
4.9036849033
 30
0.0
 10
6.8073972651
 20
4.902780894
 30
0.0
 10
6.8091729769
 20
4.9018396238
 30
0.0
 10
6.8105752219
 20
4.900862927
 30
0.0
 10
6.8116025088
 20
4.8998497702
 30
0.0
 10
6.8122487442
 20
4.8987899056
 30
0.0
 10
6.8124013756
 20
4.8980315546
 30
0.0
 10
6.8124010636
 20
4.8976760416
 30
0.0
  0
SPLINE
  5
60F
100
AcDbEntity
  8
0
100
AcDbSpline
 62
7
  6
CONTINUOUS
 70
0
 71
3
 72
9
 73
5
 74
0
 42
0.0000001
 43
0.0000001
 44
0.0000000001
 40
0.0
 40
0.0
 40
0.0
 40
0.0
 40
0.5342875577
 40
1.0
 40
1.0
 40
1.0
 40
1.0
 10
7.9024385023
 20
4.9386971458
 30
0.0
 10
7.8998590195
 20
4.9379159619
 30
0.0
 10
7.8950477463
 20
4.9363981513
 30
0.0
 10
7.8902837276
 20
4.9347357385
 30
0.0
 10
7.8880835348
 20
4.9339122406
 30
0.0
  0
SPLINE
  5
610
100
AcDbEntity
  8
0
100
AcDbSpline
 62
7
  6
CONTINUOUS
 70
0
 71
3
 72
17
 73
13
 74
0
 42
0.0000001
 43
0.0000001
 44
0.0000000001
 40
0.0
 40
0.0
 40
0.0
 40
0.0
 40
0.2061288879
 40
0.3897894718
 40
0.5501514981
 40
0.6865066558
 40
0.7984941048
 40
0.8454573332
 40
0.8865444417
 40
0.9219918072
 40
0.9522151311
 40
1.0
 40
1.0
 40
1.0
 40
1.0
 10
7.8880835348
 20
4.9339122406
 30
0.0
 10
7.8870161913
 20
4.9335127506
 30
0.0
 10
7.8850060824
 20
4.9327348617
 30
0.0
 10
7.882202097
 20
4.9315547775
 30
0.0
 10
7.8797936083
 20
4.9304331439
 30
0.0
 10
7.8777955715
 20
4.9293754839
 30
0.0
 10
7.8764090591
 20
4.9285082415
 30
0.0
 10
7.8755266947
 20
4.9278399555
 30
0.0
 10
7.8750139437
 20
4.927388375
 30
0.0
 10
7.8746101064
 20
4.9269546791
 30
0.0
 10
7.8742465496
 20
4.9264457772
 30
0.0
 10
7.8740876705
 20
4.9260182605
 30
0.0
 10
7.8740876652
 20
4.9257540652
 30
0.0
  0
LINE
  5
611
100
AcDbEntity
  8
0
100
AcDbLine
 62
7
  6
CONTINUOUS
 10
6.8939525782
 20
4.9374145209
 11
6.8941463149
 21
4.9386998495
  0
SPLINE
  5
612
100
AcDbEntity
  8
0
100
AcDbSpline
 62
7
  6
CONTINUOUS
 70
0
 71
3
 72
13
 73
9
 74
0
 42
0.0000001
 43
0.0000001
 44
0.0000000001
 40
0.0
 40
0.0
 40
0.0
 40
0.0
 40
0.0912119759
 40
0.1879427515
 40
0.2930671585
 40
0.4087181824
 40
0.6768720806
 40
1.0
 40
1.0
 40
1.0
 40
1.0
 10
7.2832602294
 20
4.9327815394
 30
0.0
 10
7.283260091
 20
4.9330141613
 30
0.0
 10
7.2833106607
 20
4.9334946293
 30
0.0
 10
7.2835298038
 20
4.9342130653
 30
0.0
 10
7.2838903943
 20
4.934941511
 30
0.0
 10
7.2845911686
 20
4.9359765433
 30
0.0
 10
7.2858482161
 20
4.9372848368
 30
0.0
 10
7.2870410529
 20
4.9382127703
 30
0.0
 10
7.2877144629
 20
4.9386877848
 30
0.0
  0
SPLINE
  5
613
100
AcDbEntity
  8
0
100
AcDbSpline
 62
7
  6
CONTINUOUS
 70
0
 71
3
 72
16
 73
12
 74
0
 42
0.0000001
 43
0.0000001
 44
0.0000000001
 40
0.0
 40
0.0
 40
0.0
 40
0.0
 40
0.0604278865
 40
0.0952922045
 40
0.1342357589
 40
0.2261015876
 40
0.3384185179
 40
0.4720844236
 40
0.6272229932
 40
0.8034048272
 40
1.0
 40
1.0
 40
1.0
 40
1.0
 10
7.6175666451
 20
4.9288095464
 30
0.0
 10
7.6175660589
 20
4.9291660923
 30
0.0
 10
7.6177060977
 20
4.9297307062
 30
0.0
 10
7.6180785849
 20
4.9304302209
 30
0.0
 10
7.6186493088
 20
4.9312275254
 30
0.0
 10
7.6196697998
 20
4.932246808
 30
0.0
 10
7.621254912
 20
4.9334605962
 30
0.0
 10
7.6232600879
 20
4.9347227819
 30
0.0
 10
7.6256751043
 20
4.9360276346
 30
0.0
 10
7.6284877611
 20
4.9373685075
 30
0.0
 10
7.6305101046
 20
4.938234786
 30
0.0
 10
7.631583423
 20
4.9386747266
 30
0.0
  0
SPLINE
  5
614
100
AcDbEntity
  8
0
100
AcDbSpline
 62
7
  6
CONTINUOUS
 70
0
 71
3
 72
16
 73
12
 74
0
 42
0.0000001
 43
0.0000001
 44
0.0000000001
 40
0.0
 40
0.0
 40
0.0
 40
0.0
 40
0.0326569394
 40
0.066163428
 40
0.1402944359
 40
0.2300833135
 40
0.3396034374
 40
0.4709433553
 40
0.6248511139
 40
0.8013116568
 40
1.0
 40
1.0
 40
1.0
 40
1.0
 10
5.9523779876
 20
4.9012592248
 30
0.0
 10
5.9523778425
 20
4.9014262744
 30
0.0
 10
5.9524130657
 20
4.9017658305
 30
0.0
 10
5.952635075
 20
4.9024531482
 30
0.0
 10
5.9532224292
 20
4.9032994705
 30
0.0
 10
5.9543010523
 20
4.9042042189
 30
0.0
 10
5.9557696384
 20
4.9050551057
 30
0.0
 10
5.9576293713
 20
4.9058504317
 30
0.0
 10
5.9598746863
 20
4.9065897571
 30
0.0
 10
5.9624958034
 20
4.9072688947
 30
0.0
 10
5.9643761791
 20
4.907655765
 30
0.0
 10
5.9653754776
 20
4.9078411462
 30
0.0
  0
SPLINE
  5
615
100
AcDbEntity
  8
0
100
AcDbSpline
 62
7
  6
CONTINUOUS
 70
0
 71
3
 72
11
 73
7
 74
0
 42
0.0000001
 43
0.0000001
 44
0.0000000001
 40
0.0
 40
0.0
 40
0.0
 40
0.0
 40
0.2060584878
 40
0.4443702875
 40
0.7109991533
 40
1.0
 40
1.0
 40
1.0
 40
1.0
 10
5.9653754776
 20
4.9078411462
 30
0.0
 10
5.9674598334
 20
4.908227818
 30
0.0
 10
5.9719880091
 20
4.9088833089
 30
0.0
 10
5.9792744245
 20
4.9095503175
 30
0.0
 10
5.9874344928
 20
4.9099538796
 30
0.0
 10
5.9931512596
 20
4.9100397338
 30
0.0
 10
5.9961244845
 20
4.9100397338
 30
0.0
  0
SPLINE
  5
616
100
AcDbEntity
  8
0
100
AcDbSpline
 62
7
  6
CONTINUOUS
 70
0
 71
3
 72
11
 73
7
 74
0
 42
0.0000001
 43
0.0000001
 44
0.0000000001
 40
0.0
 40
0.0
 40
0.0
 40
0.0
 40
0.2885076622
 40
0.5549217022
 40
0.7933781846
 40
1.0
 40
1.0
 40
1.0
 40
1.0
 10
7.1215753663
 20
4.9100397338
 30
0.0
 10
7.1245245122
 20
4.9100397338
 30
0.0
 10
7.1301974289
 20
4.9099551708
 30
0.0
 10
7.1382996224
 20
4.9095580431
 30
0.0
 10
7.1455449917
 20
4.9089017977
 30
0.0
 10
7.1500523061
 20
4.9082570273
 30
0.0
 10
7.1521299144
 20
4.9078768661
 30
0.0
  0
SPLINE
  5
617
100
AcDbEntity
  8
0
100
AcDbSpline
 62
7
  6
CONTINUOUS
 70
0
 71
3
 72
16
 73
12
 74
0
 42
0.0000001
 43
0.0000001
 44
0.0000000001
 40
0.0
 40
0.0
 40
0.0
 40
0.0
 40
0.1989288818
 40
0.3756121375
 40
0.5296916078
 40
0.6611177809
 40
0.7706286869
 40
0.8602922221
 40
0.9341696315
 40
0.9675136273
 40
1.0
 40
1.0
 40
1.0
 40
1.0
 10
7.1521299144
 20
4.9078768661
 30
0.0
 10
7.1531437147
 20
4.9076913607
 30
0.0
 10
7.1550515372
 20
4.9073038306
 30
0.0
 10
7.1577113215
 20
4.9066224227
 30
0.0
 10
7.1599900822
 20
4.9058798384
 30
0.0
 10
7.1618776307
 20
4.9050804218
 30
0.0
 10
7.1633683604
 20
4.904224935
 30
0.0
 10
7.1644635045
 20
4.903315076
 30
0.0
 10
7.1650606818
 20
4.9024627323
 30
0.0
 10
7.1652862101
 20
4.9017699514
 30
0.0
 10
7.1653220084
 20
4.901427764
 30
0.0
 10
7.1653218898
 20
4.9012594551
 30
0.0
  0
SPLINE
  5
618
100
AcDbEntity
  8
0
100
AcDbSpline
 62
7
  6
CONTINUOUS
 70
0
 71
3
 72
15
 73
11
 74
0
 42
0.0000001
 43
0.0000001
 44
0.0000000001
 40
0.0
 40
0.0
 40
0.0
 40
0.0
 40
0.1446870914
 40
0.2889591088
 40
0.4297416837
 40
0.5645244252
 40
0.6909618176
 40
0.806904425
 40
0.9104046012
 40
1.0
 40
1.0
 40
1.0
 40
1.0
 10
6.3686162748
 20
4.9100354806
 30
0.0
 10
6.3718741249
 20
4.9100192377
 30
0.0
 10
6.3783803445
 20
4.9098951195
 30
0.0
 10
6.3880476001
 20
4.9094486068
 30
0.0
 10
6.3974763021
 20
4.9087480399
 30
0.0
 10
6.4064810144
 20
4.9078116198
 30
0.0
 10
6.4148963069
 20
4.9066569641
 30
0.0
 10
6.4225697263
 20
4.9053117987
 30
0.0
 10
6.429364595
 20
4.9038003037
 30
0.0
 10
6.4335521141
 20
4.9026149187
 30
0.0
 10
6.4354678133
 20
4.9019824577
 30
0.0
  0
SPLINE
  5
619
100
AcDbEntity
  8
0
100
AcDbSpline
 62
7
  6
CONTINUOUS
 70
0
 71
3
 72
15
 73
11
 74
0
 42
0.0000001
 43
0.0000001
 44
0.0000000001
 40
0.0
 40
0.0
 40
0.0
 40
0.0
 40
0.1915598663
 40
0.3629761965
 40
0.5140850661
 40
0.6450014523
 40
0.756409392
 40
0.8501007255
 40
0.9294058687
 40
1.0
 40
1.0
 40
1.0
 40
1.0
 10
6.4354678133
 20
4.9019824577
 30
0.0
 10
6.4363600863
 20
4.9016878772
 30
0.0
 10
6.4380397177
 20
4.9010948337
 30
0.0
 10
6.4403714582
 20
4.9001310199
 30
0.0
 10
6.4423684824
 20
4.8991470791
 30
0.0
 10
6.444023024
 20
4.8981476237
 30
0.0
 10
6.4453295206
 20
4.8971346556
 30
0.0
 10
6.4462855772
 20
4.8961071047
 30
0.0
 10
6.4468857205
 20
4.8950574294
 30
0.0
 10
6.4470306619
 20
4.8943180345
 30
0.0
 10
6.4470307764
 20
4.8939717549
 30
0.0
  0
SPLINE
  5
61A
100
AcDbEntity
  8
0
100
AcDbSpline
 62
7
  6
CONTINUOUS
 70
0
 71
3
 72
12
 73
8
 74
0
 42
0.0000001
 43
0.0000001
 44
0.0000000001
 40
0.0
 40
0.0
 40
0.0
 40
0.0
 40
0.2663769331
 40
0.5352260219
 40
0.7861208484
 40
0.8987813454
 40
1.0
 40
1.0
 40
1.0
 40
1.0
 10
5.2437632287
 20
4.9050693897
 30
0.0
 10
5.2503459961
 20
4.904015147
 30
0.0
 10
5.2635480474
 20
4.9017409896
 30
0.0
 10
5.2828649363
 20
4.8980019277
 30
0.0
 10
5.2983405387
 20
4.8946756687
 30
0.0
 10
5.3096591875
 20
4.8919925686
 30
0.0
 10
5.3148472331
 20
4.8906732965
 30
0.0
 10
5.3172952919
 20
4.8900220073
 30
0.0
  0
SPLINE
  5
61B
100
AcDbEntity
  8
0
100
AcDbSpline
 62
7
  6
CONTINUOUS
 70
0
 71
3
 72
14
 73
10
 74
0
 42
0.0000001
 43
0.0000001
 44
0.0000000001
 40
0.0
 40
0.0
 40
0.0
 40
0.0
 40
0.3491819851
 40
0.5008265106
 40
0.6360270401
 40
0.7540083341
 40
0.8542464552
 40
0.9363321635
 40
1.0
 40
1.0
 40
1.0
 40
1.0
 10
5.3172952919
 20
4.8900220073
 30
0.0
 10
5.3194722112
 20
4.8894428528
 30
0.0
 10
5.3225869763
 20
4.8885823836
 30
0.0
 10
5.3265153114
 20
4.8873969507
 30
0.0
 10
5.3290009623
 20
4.8865949284
 30
0.0
 10
5.3311530887
 20
4.885841432
 30
0.0
 10
5.3329603424
 20
4.88514179
 30
0.0
 10
5.3344124932
 20
4.8845008768
 30
0.0
 10
5.33524617
 20
4.8840617327
 30
0.0
 10
5.3355946906
 20
4.8838443948
 30
0.0
  0
SPLINE
  5
61C
100
AcDbEntity
  8
0
100
AcDbSpline
 62
7
  6
CONTINUOUS
 70
0
 71
3
 72
11
 73
7
 74
0
 42
0.0000001
 43
0.0000001
 44
0.0000000001
 40
0.0
 40
0.0
 40
0.0
 40
0.0
 40
0.3512603248
 40
0.6287922437
 40
0.8395401491
 40
1.0
 40
1.0
 40
1.0
 40
1.0
 10
5.3355946906
 20
4.8838443948
 30
0.0
 10
5.3357525951
 20
4.8837459254
 30
0.0
 10
5.3360296074
 20
4.8835599048
 30
0.0
 10
5.3363679729
 20
4.8832688218
 30
0.0
 10
5.3365848359
 20
4.8829986057
 30
0.0
 10
5.3366483304
 20
4.8828032955
 30
0.0
 10
5.3366484199
 20
4.8827182867
 30
0.0
  0
SPLINE
  5
61D
100
AcDbEntity
  8
0
100
AcDbSpline
 62
7
  6
CONTINUOUS
 70
0
 71
3
 72
9
 73
5
 74
0
 42
0.0000001
 43
0.0000001
 44
0.0000000001
 40
0.0
 40
0.0
 40
0.0
 40
0.0
 40
0.5325373741
 40
1.0
 40
1.0
 40
1.0
 40
1.0
 10
7.4540168298
 20
4.9100397338
 30
0.0
 10
7.4563743611
 20
4.9100397338
 30
0.0
 10
7.4608017354
 20
4.9099686758
 30
0.0
 10
7.4652235875
 20
4.9097159185
 30
0.0
 10
7.467285177
 20
4.9095357552
 30
0.0
  0
SPLINE
  5
61E
100
AcDbEntity
  8
0
100
AcDbSpline
 62
7
  6
CONTINUOUS
 70
0
 71
3
 72
17
 73
13
 74
0
 42
0.0000001
 43
0.0000001
 44
0.0000000001
 40
0.0
 40
0.0
 40
0.0
 40
0.0
 40
0.207064847
 40
0.3899499927
 40
0.5481205481
 40
0.6813001629
 40
0.7899262791
 40
0.8757017309
 40
0.9112251366
 40
0.942870085
 40
0.9719089515
 40
1.0
 40
1.0
 40
1.0
 40
1.0
 10
7.467285177
 20
4.9095357552
 30
0.0
 10
7.4683913453
 20
4.9094390867
 30
0.0
 10
7.4704718085
 20
4.9092226303
 30
0.0
 10
7.4733805848
 20
4.9087920205
 30
0.0
 10
7.4758731184
 20
4.9082798621
 30
0.0
 10
7.4779386796
 20
4.9076895563
 30
0.0
 10
7.4795684418
 20
4.9070251657
 30
0.0
 10
7.4806290394
 20
4.9063731861
 30
0.0
 10
7.4812199392
 20
4.90579942
 30
0.0
 10
7.4815204762
 20
4.9053755655
 30
0.0
 10
7.4817025861
 20
4.9049306972
 30
0.0
 10
7.4817419935
 20
4.9046227331
 30
0.0
 10
7.4817418463
 20
4.9044720951
 30
0.0
  0
SPLINE
  5
61F
100
AcDbEntity
  8
0
100
AcDbSpline
 62
7
  6
CONTINUOUS
 70
0
 71
3
 72
11
 73
7
 74
0
 42
0.0000001
 43
0.0000001
 44
0.0000000001
 40
0.0
 40
0.0
 40
0.0
 40
0.0
 40
0.2510262293
 40
0.5070822157
 40
0.7594859896
 40
1.0
 40
1.0
 40
1.0
 40
1.0
 10
6.0025570813
 20
4.9099725567
 30
0.0
 10
6.0068683744
 20
4.9098843951
 30
0.0
 10
6.0155745813
 20
4.9095404135
 30
0.0
 10
6.0285880991
 20
4.9085783159
 30
0.0
 10
6.0413821278
 20
4.9071964168
 30
0.0
 10
6.0497655417
 20
4.9059891811
 30
0.0
 10
6.0538417813
 20
4.9053150186
 30
0.0
  0
SPLINE
  5
620
100
AcDbEntity
  8
0
100
AcDbSpline
 62
7
  6
CONTINUOUS
 70
0
 71
3
 72
17
 73
13
 74
0
 42
0.0000001
 43
0.0000001
 44
0.0000000001
 40
0.0
 40
0.0
 40
0.0
 40
0.0
 40
0.0285539183
 40
0.058010192
 40
0.0899913849
 40
0.1257564849
 40
0.2117511343
 40
0.3203171998
 40
0.4532386917
 40
0.6110249216
 40
0.7934446256
 40
1.0
 40
1.0
 40
1.0
 40
1.0
 10
5.6359578531
 20
4.9044729903
 30
0.0
 10
5.6359577156
 20
4.9046204754
 30
0.0
 10
5.6359953959
 20
4.9049216167
 30
0.0
 10
5.6361696641
 20
4.9053572509
 30
0.0
 10
5.6364574318
 20
4.9057729374
 30
0.0
 10
5.6370226118
 20
4.9063355117
 30
0.0
 10
5.6380383123
 20
4.9069770586
 30
0.0
 10
5.6396010947
 20
4.9076329724
 30
0.0
 10
5.6415820656
 20
4.9082182593
 30
0.0
 10
5.6439734052
 20
4.90872909
 30
0.0
 10
5.6467652578
 20
4.9091623321
 30
0.0
 10
5.6487627979
 20
4.9093830376
 30
0.0
 10
5.6498250463
 20
4.9094824363
 30
0.0
  0
SPLINE
  5
621
100
AcDbEntity
  8
0
100
AcDbSpline
 62
7
  6
CONTINUOUS
 70
0
 71
3
 72
9
 73
5
 74
0
 42
0.0000001
 43
0.0000001
 44
0.0000000001
 40
0.0
 40
0.0
 40
0.0
 40
0.0
 40
0.4652513186
 40
1.0
 40
1.0
 40
1.0
 40
1.0
 10
5.6498250463
 20
4.9094824363
 30
0.0
 10
5.6519671297
 20
4.9096828793
 30
0.0
 10
5.6565855089
 20
4.909962032
 30
0.0
 10
5.6612102062
 20
4.9100397338
 30
0.0
 10
5.6636830209
 20
4.9100397338
 30
0.0
  0
SPLINE
  5
622
100
AcDbEntity
  8
0
100
AcDbSpline
 62
7
  6
CONTINUOUS
 70
0
 71
3
 72
19
 73
15
 74
0
 42
0.0000001
 43
0.0000001
 44
0.0000000001
 40
0.0
 40
0.0
 40
0.0
 40
0.0
 40
0.2080846467
 40
0.394475112
 40
0.557571589
 40
0.6959686978
 40
0.7556282124
 40
0.8088242851
 40
0.8555246263
 40
0.8957590665
 40
0.9296901343
 40
0.9577299612
 40
0.9806709304
 40
1.0
 40
1.0
 40
1.0
 40
1.0
 10
5.4987068047
 20
4.8939353523
 30
0.0
 10
5.5002523128
 20
4.8935004195
 30
0.0
 10
5.5031736613
 20
4.892644969
 30
0.0
 10
5.5072694537
 20
4.8913265074
 30
0.0
 10
5.510812732
 20
4.890053046
 30
0.0
 10
5.5133920123
 20
4.8889940161
 30
0.0
 10
5.5151457601
 20
4.8881668259
 30
0.0
 10
5.5162369702
 20
4.8875959059
 30
0.0
 10
5.5171679097
 20
4.8870447495
 30
0.0
 10
5.5179361997
 20
4.8865143656
 30
0.0
 10
5.5185405789
 20
4.8860052447
 30
0.0
 10
5.5189812306
 20
4.8855164565
 30
0.0
 10
5.5192592279
 20
4.8850446687
 30
0.0
 10
5.5193318072
 20
4.8847178701
 30
0.0
 10
5.5193321013
 20
4.884568731
 30
0.0
  0
SPLINE
  5
623
100
AcDbEntity
  8
0
100
AcDbSpline
 62
7
  6
CONTINUOUS
 70
0
 71
3
 72
15
 73
11
 74
0
 42
0.0000001
 43
0.0000001
 44
0.0000000001
 40
0.0
 40
0.0
 40
0.0
 40
0.0
 40
0.0702028496
 40
0.1484769408
 40
0.2410828815
 40
0.3517226567
 40
0.4824096471
 40
0.6339587245
 40
0.8065358279
 40
1.0
 40
1.0
 40
1.0
 40
1.0
 10
6.3052985572
 20
4.8976761627
 30
0.0
 10
6.3052984188
 20
4.8980271394
 30
0.0
 10
6.3054472948
 20
4.8987746484
 30
0.0
 10
6.3060768654
 20
4.8998216596
 30
0.0
 10
6.3070788708
 20
4.9008235044
 30
0.0
 10
6.3084470459
 20
4.9017898283
 30
0.0
 10
6.3101798979
 20
4.9027218481
 30
0.0
 10
6.3122720941
 20
4.9036179798
 30
0.0
 10
6.3147156435
 20
4.9044740476
 30
0.0
 10
6.3164735146
 20
4.9049857702
 30
0.0
 10
6.3174076179
 20
4.9052366903
 30
0.0
  0
SPLINE
  5
624
100
AcDbEntity
  8
0
100
AcDbSpline
 62
7
  6
CONTINUOUS
 70
0
 71
3
 72
13
 73
9
 74
0
 42
0.0000001
 43
0.0000001
 44
0.0000000001
 40
0.0
 40
0.0
 40
0.0
 40
0.0
 40
0.0924907214
 40
0.1964714635
 40
0.3110432031
 40
0.4351635588
 40
0.7070258308
 40
1.0
 40
1.0
 40
1.0
 40
1.0
 10
6.3174076179
 20
4.9052366903
 30
0.0
 10
6.3188920503
 20
4.9056354405
 30
0.0
 10
6.3220733263
 20
4.9063790519
 30
0.0
 10
6.3271579265
 20
4.9073170607
 30
0.0
 10
6.332795176
 20
4.9081328808
 30
0.0
 10
6.341228962
 20
4.9090714793
 30
0.0
 10
6.3526580233
 20
4.9098412985
 30
0.0
 10
6.3620459688
 20
4.9100397338
 30
0.0
 10
6.3669147569
 20
4.9100397338
 30
0.0
  0
SPLINE
  5
625
100
AcDbEntity
  8
0
100
AcDbSpline
 62
7
  6
CONTINUOUS
 70
0
 71
3
 72
11
 73
7
 74
0
 42
0.0000001
 43
0.0000001
 44
0.0000000001
 40
0.0
 40
0.0
 40
0.0
 40
0.0
 40
0.2405312915
 40
0.493471978
 40
0.749824464
 40
1.0
 40
1.0
 40
1.0
 40
1.0
 10
7.063380217
 20
4.9052366903
 30
0.0
 10
7.0676269845
 20
4.9059463707
 30
0.0
 10
7.0763723447
 20
4.907210299
 30
0.0
 10
7.0897210465
 20
4.9086393865
 30
0.0
 10
7.1032839264
 20
4.9096110945
 30
0.0
 10
7.1123478956
 20
4.9099340283
 30
0.0
 10
7.1168256636
 20
4.910002705
 30
0.0
  0
SPLINE
  5
626
100
AcDbEntity
  8
0
100
AcDbSpline
 62
7
  6
CONTINUOUS
 70
0
 71
3
 72
19
 73
15
 74
0
 42
0.0000001
 43
0.0000001
 44
0.0000000001
 40
0.0
 40
0.0
 40
0.0
 40
0.0
 40
0.0195786486
 40
0.0427113388
 40
0.0708773601
 40
0.1048779763
 40
0.1451302023
 40
0.1918007035
 40
0.2449327117
 40
0.3045064579
 40
0.4427131472
 40
0.6056399137
 40
0.7919175783
 40
1.0
 40
1.0
 40
1.0
 40
1.0
 10
7.5983676968
 20
4.8845693769
 30
0.0
 10
7.598367927
 20
4.8847155827
 30
0.0
 10
7.5984372716
 20
4.8850352591
 30
0.0
 10
7.5987046114
 20
4.8854977906
 30
0.0
 10
7.5991291022
 20
4.8859765662
 30
0.0
 10
7.5997115754
 20
4.8864747235
 30
0.0
 10
7.6004520838
 20
4.8869932444
 30
0.0
 10
7.6013493481
 20
4.8875318428
 30
0.0
 10
7.60240123
 20
4.8880895685
 30
0.0
 10
7.604092223
 20
4.8888976105
 30
0.0
 10
7.6065808665
 20
4.8899325019
 30
0.0
 10
7.6100017382
 20
4.8911779646
 30
0.0
 10
7.6139588672
 20
4.8924685181
 30
0.0
 10
7.6167824828
 20
4.8933062164
 30
0.0
 10
7.6182768139
 20
4.8937322697
 30
0.0
  0
LINE
  5
627
100
AcDbEntity
  8
0
100
AcDbLine
 62
7
  6
CONTINUOUS
 10
6.2235538856
 20
4.9386998733
 11
6.223747586
 21
4.9374157006
  0
SPLINE
  5
628
100
AcDbEntity
  8
0
100
AcDbSpline
 62
7
  6
CONTINUOUS
 70
0
 71
3
 72
13
 73
9
 74
0
 42
0.0000001
 43
0.0000001
 44
0.0000000001
 40
0.0
 40
0.0
 40
0.0
 40
0.0
 40
0.3230480168
 40
0.5911187175
 40
0.7067504021
 40
0.8118878805
 40
0.9086830308
 40
1.0
 40
1.0
 40
1.0
 40
1.0
 10
5.8299887927
 20
4.9386862222
 30
0.0
 10
5.8306617593
 20
4.938211566
 30
0.0
 10
5.8318538448
 20
4.9372844467
 30
0.0
 10
5.8331100687
 20
4.9359770854
 30
0.0
 10
5.8338101524
 20
4.9349425135
 30
0.0
 10
5.8341702534
 20
4.9342140519
 30
0.0
 10
5.834389016
 20
4.9334953665
 30
0.0
 10
5.834439494
 20
4.9330146823
 30
0.0
 10
5.8344393556
 20
4.9327818958
 30
0.0
  0
SPLINE
  5
629
100
AcDbEntity
  8
0
100
AcDbSpline
 62
7
  6
CONTINUOUS
 70
0
 71
3
 72
16
 73
12
 74
0
 42
0.0000001
 43
0.0000001
 44
0.0000000001
 40
0.0
 40
0.0
 40
0.0
 40
0.0
 40
0.1965850165
 40
0.372745805
 40
0.5278656315
 40
0.6615384348
 40
0.7738999385
 40
0.8658156016
 40
0.9047728901
 40
0.9396354267
 40
1.0
 40
1.0
 40
1.0
 40
1.0
 10
5.4860903119
 20
4.9386862222
 30
0.0
 10
5.4871655725
 20
4.9382459782
 30
0.0
 10
5.4891915698
 20
4.9373792026
 30
0.0
 10
5.4920093474
 20
4.9360374452
 30
0.0
 10
5.4944287488
 20
4.9347312698
 30
0.0
 10
5.4964375088
 20
4.9334668188
 30
0.0
 10
5.4980255676
 20
4.9322502926
 30
0.0
 10
5.4990480997
 20
4.9312287047
 30
0.0
 10
5.4996200937
 20
4.9304298119
 30
0.0
 10
5.4999932425
 20
4.9297294857
 30
0.0
 10
5.5001337177
 20
4.9291643524
 30
0.0
 10
5.5001331594
 20
4.9288075743
 30
0.0
  0
LINE
  5
62A
100
AcDbEntity
  8
0
100
AcDbLine
 62
7
  6
CONTINUOUS
 10
5.215298626
 20
4.9386862222
 11
5.2282931681
 21
4.9344014881
  0
SPLINE
  5
62B
100
AcDbEntity
  8
0
100
AcDbSpline
 62
7
  6
CONTINUOUS
 70
0
 71
3
 72
17
 73
13
 74
0
 42
0.0000001
 43
0.0000001
 44
0.0000000001
 40
0.0
 40
0.0
 40
0.0
 40
0.0
 40
0.2064924669
 40
0.3905705809
 40
0.5513135521
 40
0.6879168163
 40
0.7999604651
 40
0.8468642398
 40
0.8878232876
 40
0.9230660815
 40
0.9530028849
 40
1.0
 40
1.0
 40
1.0
 40
1.0
 10
5.2288776833
 20
4.9341872326
 30
0.0
 10
5.2299995703
 20
4.9337735685
 30
0.0
 10
5.232113098
 20
4.932967713
 30
0.0
 10
5.2350626582
 20
4.9317450151
 30
0.0
 10
5.2375978011
 20
4.9305832166
 30
0.0
 10
5.2397018487
 20
4.9294888008
 30
0.0
 10
5.2411632422
 20
4.9285929366
 30
0.0
 10
5.2420940688
 20
4.9279032239
 30
0.0
 10
5.2426347266
 20
4.9274379501
 30
0.0
 10
5.2430606688
 20
4.9269913977
 30
0.0
 10
5.2434434197
 20
4.9264692449
 30
0.0
 10
5.2436122242
 20
4.926028233
 30
0.0
 10
5.2436121349
 20
4.9257560902
 30
0.0
  0
SPLINE
  5
62C
100
AcDbEntity
  8
0
100
AcDbSpline
 62
7
  6
CONTINUOUS
 70
0
 71
3
 72
10
 73
6
 74
0
 42
0.0000001
 43
0.0000001
 44
0.0000000001
 40
0.0
 40
0.0
 40
0.0
 40
0.0
 40
0.5494708469
 40
0.7889664534
 40
1.0
 40
1.0
 40
1.0
 40
1.0
 10
5.0360677407
 20
4.9386862222
 30
0.0
 10
5.0417363558
 20
4.9372452343
 30
0.0
 10
5.0498605895
 20
4.9351145224
 30
0.0
 10
5.0601086688
 20
4.9322355114
 30
0.0
 10
5.064706919
 20
4.9308725558
 30
0.0
 10
5.0668538437
 20
4.9302115805
 30
0.0
  0
SPLINE
  5
62D
100
AcDbEntity
  8
0
100
AcDbSpline
 62
7
  6
CONTINUOUS
 70
0
 71
3
 72
10
 73
6
 74
0
 42
0.0000001
 43
0.0000001
 44
0.0000000001
 40
0.0
 40
0.0
 40
0.0
 40
0.0
 40
0.5672503839
 40
0.801074318
 40
1.0
 40
1.0
 40
1.0
 40
1.0
 10
5.0684802782
 20
4.9297056989
 30
0.0
 10
5.0703725793
 20
4.929110806
 30
0.0
 10
5.0730368744
 20
4.9282434506
 30
0.0
 10
5.0763285374
 20
4.9270625539
 30
0.0
 10
5.0777397139
 20
4.926515277
 30
0.0
 10
5.0783830988
 20
4.9262508102
 30
0.0
  0
SPLINE
  5
62E
100
AcDbEntity
  8
0
100
AcDbSpline
 62
7
  6
CONTINUOUS
 70
0
 71
3
 72
16
 73
12
 74
0
 42
0.0000001
 43
0.0000001
 44
0.0000000001
 40
0.0
 40
0.0
 40
0.0
 40
0.0
 40
0.0712879302
 40
0.1510950708
 40
0.2450439256
 40
0.3564916436
 40
0.4194187236
 40
0.487292426
 40
0.6380632488
 40
0.8090065224
 40
1.0
 40
1.0
 40
1.0
 40
1.0
 10
6.6706691318
 20
4.8939715879
 30
0.0
 10
6.6706693059
 20
4.8943118524
 30
0.0
 10
6.6708086136
 20
4.8950370218
 30
0.0
 10
6.6713875591
 20
4.8960691079
 30
0.0
 10
6.6723115821
 20
4.8970799632
 30
0.0
 10
6.673320283
 20
4.8978757673
 30
0.0
 10
6.674285525
 20
4.8985129356
 30
0.0
 10
6.6754440796
 20
4.8991952188
 30
0.0
 10
6.6771081697
 20
4.9000296837
 30
0.0
 10
6.6793646676
 20
4.9009799898
 30
0.0
 10
6.6809908418
 20
4.9015654664
 30
0.0
 10
6.6818547784
 20
4.9018564737
 30
0.0
  0
SPLINE
  5
62F
100
AcDbEntity
  8
0
100
AcDbSpline
 62
7
  6
CONTINUOUS
 70
0
 71
3
 72
15
 73
11
 74
0
 42
0.0000001
 43
0.0000001
 44
0.0000000001
 40
0.0
 40
0.0
 40
0.0
 40
0.0
 40
0.0889351465
 40
0.1919440276
 40
0.3075833626
 40
0.4339187173
 40
0.5688044037
 40
0.7098817849
 40
0.8546329936
 40
1.0
 40
1.0
 40
1.0
 40
1.0
 10
6.6818547784
 20
4.9018564737
 30
0.0
 10
6.6837471064
 20
4.9024938831
 30
0.0
 10
6.6878921557
 20
4.9036890473
 30
0.0
 10
6.6946302312
 20
4.9052137098
 30
0.0
 10
6.7022582125
 20
4.9065724844
 30
0.0
 10
6.710640092
 20
4.907741694
 30
0.0
 10
6.7196237302
 20
4.9086941332
 30
0.0
 10
6.7290437486
 20
4.909411611
 30
0.0
 10
6.7387151355
 20
4.9098751031
 30
0.0
 10
6.7452285183
 20
4.9100101682
 30
0.0
 10
6.7484922653
 20
4.9100320282
 30
0.0
  0
SPLINE
  5
630
100
AcDbEntity
  8
0
100
AcDbSpline
 62
7
  6
CONTINUOUS
 70
0
 71
3
 72
10
 73
6
 74
0
 42
0.0000001
 43
0.0000001
 44
0.0000000001
 40
0.0
 40
0.0
 40
0.0
 40
0.0
 40
0.3703751084
 40
0.6488329567
 40
1.0
 40
1.0
 40
1.0
 40
1.0
 10
7.7810512895
 20
4.8827181402
 30
0.0
 10
7.7810514707
 20
4.8829039945
 30
0.0
 10
7.7812596333
 20
4.8832041076
 30
0.0
 10
7.7816303967
 20
4.8835280411
 30
0.0
 10
7.7818928314
 20
4.8837096448
 30
0.0
 10
7.7820413805
 20
4.8838044349
 30
0.0
  0
SPLINE
  5
631
100
AcDbEntity
  8
0
100
AcDbSpline
 62
7
  6
CONTINUOUS
 70
0
 71
3
 72
14
 73
10
 74
0
 42
0.0000001
 43
0.0000001
 44
0.0000000001
 40
0.0
 40
0.0
 40
0.0
 40
0.0
 40
0.0634260481
 40
0.1452666442
 40
0.2452979598
 40
0.3631449447
 40
0.4983109725
 40
0.6500549907
 40
1.0
 40
1.0
 40
1.0
 40
1.0
 10
7.7820413805
 20
4.8838044349
 30
0.0
 10
7.7823725587
 20
4.8840157617
 30
0.0
 10
7.7831669115
 20
4.884442628
 30
0.0
 10
7.7845533628
 20
4.8850649824
 30
0.0
 10
7.7862818405
 20
4.8857440415
 30
0.0
 10
7.7883430201
 20
4.8864750995
 30
0.0
 10
7.790726536
 20
4.8872531013
 30
0.0
 10
7.7944997462
 20
4.888403972
 30
0.0
 10
7.7974933418
 20
4.8892392464
 30
0.0
 10
7.7995865967
 20
4.8898018711
 30
0.0
  0
SPLINE
  5
632
100
AcDbEntity
  8
0
100
AcDbSpline
 62
7
  6
CONTINUOUS
 70
0
 71
3
 72
13
 73
9
 74
0
 42
0.0000001
 43
0.0000001
 44
0.0000000001
 40
0.0
 40
0.0
 40
0.0
 40
0.0
 40
0.1001696177
 40
0.2122111016
 40
0.3339298026
 40
0.4629149487
 40
0.7325585074
 40
1.0
 40
1.0
 40
1.0
 40
1.0
 10
7.7995865967
 20
4.8898018711
 30
0.0
 10
7.8020343115
 20
4.8904597676
 30
0.0
 10
7.8072358911
 20
4.8917939833
 30
0.0
 10
7.8154545955
 20
4.8937562181
 30
0.0
 10
7.8244121199
 20
4.8957595706
 30
0.0
 10
7.8372952618
 20
4.8984768224
 30
0.0
 10
7.8538419566
 20
4.901684888
 30
0.0
 10
7.8672349824
 20
4.9039968497
 30
0.0
 10
7.8739168404
 20
4.9050673149
 30
0.0
  0
SPLINE
  5
633
100
AcDbEntity
  8
0
100
AcDbSpline
 62
7
  6
CONTINUOUS
 70
0
 71
3
 72
10
 73
6
 74
0
 42
0.0000001
 43
0.0000001
 44
0.0000000001
 40
0.0
 40
0.0
 40
0.0
 40
0.0
 40
0.199320171
 40
0.433261014
 40
1.0
 40
1.0
 40
1.0
 40
1.0
 10
8.0392942142
 20
4.9262397238
 30
0.0
 10
8.03992609
 20
4.9265000219
 30
0.0
 10
8.0413107035
 20
4.9270388803
 30
0.0
 10
8.0445364814
 20
4.9282012127
 30
0.0
 10
8.0471464019
 20
4.9290545345
 30
0.0
 10
8.0489995549
 20
4.929638963
 30
0.0
  0
SPLINE
  5
634
100
AcDbEntity
  8
0
100
AcDbSpline
 62
7
  6
CONTINUOUS
 70
0
 71
3
 72
10
 73
6
 74
0
 42
0.0000001
 43
0.0000001
 44
0.0000000001
 40
0.0
 40
0.0
 40
0.0
 40
0.0
 40
0.2109264455
 40
0.4503882118
 40
1.0
 40
1.0
 40
1.0
 40
1.0
 10
8.050818001
 20
4.930205372
 30
0.0
 10
8.0529664081
 20
4.9308666993
 30
0.0
 10
8.0575690763
 20
4.9322294911
 30
0.0
 10
8.0678300673
 20
4.935109121
 30
0.0
 10
8.0759645775
 20
4.9372443011
 30
0.0
 10
8.0816412588
 20
4.9386877848
 30
0.0
  0
SPLINE
  5
635
100
AcDbEntity
  8
0
100
AcDbSpline
 62
9
  6
CONTINUOUS
 70
0
 71
3
 72
17
 73
13
 74
0
 42
0.0000001
 43
0.0000001
 44
0.0000000001
 40
0.0
 40
0.0
 40
0.0
 40
0.0
 40
0.0175353797
 40
0.037203131
 40
0.0613210378
 40
0.0911855187
 40
0.1705099614
 40
0.2779102328
 40
0.4143342799
 40
0.5802164811
 40
0.7755889943
 40
1.0
 40
1.0
 40
1.0
 40
1.0
 10
5.6344112427
 20
4.7684242617
 30
0.0
 10
5.6344113181
 20
4.7684489798
 30
0.0
 10
5.6344236882
 20
4.7685019856
 30
0.0
 10
5.634477004
 20
4.7685721672
 30
0.0
 10
5.6345605257
 20
4.7686351313
 30
0.0
 10
5.6347287642
 20
4.7687202268
 30
0.0
 10
5.6350233729
 20
4.7688068721
 30
0.0
 10
5.6354717849
 20
4.7688877205
 30
0.0
 10
5.6360462927
 20
4.7689508826
 30
0.0
 10
5.6367464807
 20
4.7689960493
 30
0.0
 10
5.6375717431
 20
4.7690225527
 30
0.0
 10
5.6381635018
 20
4.7690274756
 30
0.0
 10
5.6384798363
 20
4.7690273713
 30
0.0
  0
SPLINE
  5
636
100
AcDbEntity
  8
0
100
AcDbSpline
 62
9
  6
CONTINUOUS
 70
0
 71
3
 72
23
 73
19
 74
0
 42
0.0000001
 43
0.0000001
 44
0.0000000001
 40
0.0
 40
0.0
 40
0.0
 40
0.0
 40
0.2017014698
 40
0.3888134311
 40
0.4753706618
 40
0.5565219829
 40
0.6317584956
 40
0.7006405924
 40
0.7627655189
 40
0.8178215472
 40
0.8655622258
 40
0.9058483285
 40
0.9387244903
 40
0.9644856536
 40
0.9749772985
 40
0.9841416378
 40
0.9923220868
 40
1.0
 40
1.0
 40
1.0
 40
1.0
 10
6.8197757079
 20
4.7690282182
 30
0.0
 10
6.8233845681
 20
4.7690282233
 30
0.0
 10
6.8303416006
 20
4.7689439107
 30
0.0
 10
6.8388416806
 20
4.768605009
 30
0.0
 10
6.8451768309
 20
4.7681890375
 30
0.0
 10
6.8495084131
 20
4.7678221173
 30
0.0
 10
6.8535165944
 20
4.7673946428
 30
0.0
 10
6.8571752661
 20
4.7669101895
 30
0.0
 10
6.8604611488
 20
4.7663719519
 30
0.0
 10
6.863353819
 20
4.7657843803
 30
0.0
 10
6.8658357641
 20
4.7651521148
 30
0.0
 10
6.8678945211
 20
4.7644793895
 30
0.0
 10
6.8695196269
 20
4.7637722983
 30
0.0
 10
6.8705796055
 20
4.7631161223
 30
0.0
 10
6.871173817
 20
4.7625575704
 30
0.0
 10
6.8714751468
 20
4.7621570121
 30
0.0
 10
6.8716606648
 20
4.7617447131
 30
0.0
 10
6.8717033232
 20
4.7614596437
 30
0.0
 10
6.8717037289
 20
4.7613222704
 30
0.0
  0
SPLINE
  5
637
100
AcDbEntity
  8
0
100
AcDbSpline
 62
9
  6
CONTINUOUS
 70
0
 71
3
 72
16
 73
12
 74
0
 42
0.0000001
 43
0.0000001
 44
0.0000000001
 40
0.0
 40
0.0
 40
0.0
 40
0.0
 40
0.1904966612
 40
0.3671826061
 40
0.5228214242
 40
0.6538942622
 40
0.7612987481
 40
0.8560019523
 40
0.8985881635
 40
0.9369516537
 40
1.0
 40
1.0
 40
1.0
 40
1.0
 10
6.819775708
 20
4.7690282182
 30
0.0
 10
6.819775609
 20
4.7698091624
 30
0.0
 10
6.819815393
 20
4.7713147569
 30
0.0
 10
6.8199857945
 20
4.7734523207
 30
0.0
 10
6.8202444797
 20
4.7753354584
 30
0.0
 10
6.8205649096
 20
4.7769203684
 30
0.0
 10
6.8209344862
 20
4.7782366809
 30
0.0
 10
6.8212970459
 20
4.7791745748
 30
0.0
 10
6.8216348343
 20
4.7798126876
 30
0.0
 10
6.8219625707
 20
4.7803015703
 30
0.0
 10
6.8222682367
 20
4.78060715
 30
0.0
 10
6.8224976131
 20
4.7807262805
 30
0.0
  0
LINE
  5
638
100
AcDbEntity
  8
0
100
AcDbLine
 62
9
  6
CONTINUOUS
 10
6.7259834214
 20
4.7633280551
 11
6.7225384006
 21
4.764231175
  0
SPLINE
  5
639
100
AcDbEntity
  8
0
100
AcDbSpline
 62
9
  6
CONTINUOUS
 70
0
 71
3
 72
34
 73
30
 74
0
 42
0.0000001
 43
0.0000001
 44
0.0000000001
 40
0.0
 40
0.0
 40
0.0
 40
0.0
 40
0.0157068908
 40
0.0284538783
 40
0.0384518402
 40
0.0425497888
 40
0.0461538035
 40
0.0493944273
 40
0.0524521862
 40
0.0555435951
 40
0.0588821202
 40
0.0626424741
 40
0.0669510815
 40
0.0775066177
 40
0.0909052855
 40
0.1072570591
 40
0.1265849075
 40
0.1488521967
 40
0.1739780673
 40
0.2018679614
 40
0.265514152
 40
0.3388722938
 40
0.4208151832
 40
0.5097702503
 40
0.6040746163
 40
0.702047602
 40
0.8019383614
 40
0.9019174306
 40
1.0
 40
1.0
 40
1.0
 40
1.0
 10
6.7225384006
 20
4.764231175
 30
0.0
 10
6.7219759466
 20
4.7644091814
 30
0.0
 10
6.7209660101
 20
4.7647638842
 30
0.0
 10
6.7196552402
 20
4.7653752694
 30
0.0
 10
6.7188077744
 20
4.7659363687
 30
0.0
 10
6.7183361499
 20
4.7664082898
 30
0.0
 10
6.7180973524
 20
4.766745877
 30
0.0
 10
6.7179517854
 20
4.7670920944
 30
0.0
 10
6.7179043576
 20
4.767446162
 30
0.0
 10
6.7179578767
 20
4.76780296
 30
0.0
 10
6.7181099126
 20
4.7681579201
 30
0.0
 10
6.7183569253
 20
4.7685108488
 30
0.0
 10
6.7188454832
 20
4.7690145816
 30
0.0
 10
6.7197193621
 20
4.769630078
 30
0.0
 10
6.7210643549
 20
4.7703287954
 30
0.0
 10
6.7227713983
 20
4.7710299084
 30
0.0
 10
6.7248333541
 20
4.7717293735
 30
0.0
 10
6.7272420249
 20
4.7724237152
 30
0.0
 10
6.729985577
 20
4.7731099916
 30
0.0
 10
6.7342655433
 20
4.7740514339
 30
0.0
 10
6.7403604415
 20
4.7751625004
 30
0.0
 10
6.7484972006
 20
4.7763622755
 30
0.0
 10
6.7576075845
 20
4.7774510924
 30
0.0
 10
6.7675226472
 20
4.7784134799
 30
0.0
 10
6.7780546852
 20
4.7792303705
 30
0.0
 10
6.7890093434
 20
4.7798872731
 30
0.0
 10
6.8001864844
 20
4.7803689394
 30
0.0
 10
6.8113743885
 20
4.7806565137
 30
0.0
 10
6.8188136774
 20
4.7807231595
 30
0.0
 10
6.8224976521
 20
4.780724996
 30
0.0
  0
SPLINE
  5
63A
100
AcDbEntity
  8
0
100
AcDbSpline
 62
9
  6
CONTINUOUS
 70
0
 71
3
 72
20
 73
16
 74
0
 42
0.0000001
 43
0.0000001
 44
0.0000000001
 40
0.0
 40
0.0
 40
0.0
 40
0.0
 40
0.0436581718
 40
0.0957166127
 40
0.1551344681
 40
0.2207723167
 40
0.3655840106
 40
0.5191040169
 40
0.6698324925
 40
0.7406390129
 40
0.8066406231
 40
0.8666171277
 40
0.9194636865
 40
0.9641950568
 40
1.0
 40
1.0
 40
1.0
 40
1.0
 10
7.4089021493
 20
4.780724996
 30
0.0
 10
7.4067458128
 20
4.7807245506
 30
0.0
 10
7.4020182964
 20
4.7806374621
 30
0.0
 10
7.394361864
 20
4.7803291479
 30
0.0
 10
7.3856277663
 20
4.7798314578
 30
0.0
 10
7.3723311638
 20
4.7788970028
 30
0.0
 10
7.3544210673
 20
4.7773322818
 30
0.0
 10
7.3323622391
 20
4.7750110222
 30
0.0
 10
7.3139740159
 20
4.7727588815
 30
0.0
 10
7.2999041029
 20
4.7708261634
 30
0.0
 10
7.2902898238
 20
4.7693985147
 30
0.0
 10
7.2815702568
 20
4.7679896758
 30
0.0
 10
7.2739080534
 20
4.7666275331
 30
0.0
 10
7.2674470712
 20
4.7653383907
 30
0.0
 10
7.2635694556
 20
4.7644451391
 30
0.0
 10
7.2618581939
 20
4.7639990271
 30
0.0
  0
SPLINE
  5
63B
100
AcDbEntity
  8
0
100
AcDbSpline
 62
9
  6
CONTINUOUS
 70
0
 71
3
 72
25
 73
21
 74
0
 42
0.0000001
 43
0.0000001
 44
0.0000000001
 40
0.0
 40
0.0
 40
0.0
 40
0.0
 40
0.2179303744
 40
0.3068648273
 40
0.3822817786
 40
0.4441483954
 40
0.4926277433
 40
0.5283851925
 40
0.5420360087
 40
0.5534327261
 40
0.5634088825
 40
0.5731756831
 40
0.5840207596
 40
0.5969175706
 40
0.6309094638
 40
0.6775294073
 40
0.7375402806
 40
0.8112440505
 40
0.8987605244
 40
1.0
 40
1.0
 40
1.0
 40
1.0
 10
7.2618581939
 20
4.7639990271
 30
0.0
 10
7.2609399873
 20
4.7637596581
 30
0.0
 10
7.2596516175
 20
4.7634030083
 30
0.0
 10
7.2580694495
 20
4.7628848469
 30
0.0
 10
7.2571463001
 20
4.7625407099
 30
0.0
 10
7.2564046978
 20
4.7622154
 30
0.0
 10
7.2558464979
 20
4.7619096423
 30
0.0
 10
7.2555017297
 20
4.761652014
 30
0.0
 10
7.2553315342
 20
4.7614473738
 30
0.0
 10
7.2552615668
 20
4.761309837
 30
0.0
 10
7.255240913
 20
4.7611727424
 30
0.0
 10
7.2552742123
 20
4.7610403818
 30
0.0
 10
7.2553578881
 20
4.760918127
 30
0.0
 10
7.2555486497
 20
4.7607517902
 30
0.0
 10
7.2559193547
 20
4.760571733
 30
0.0
 10
7.2565046978
 20
4.7603913608
 30
0.0
 10
7.2572745465
 20
4.7602311915
 30
0.0
 10
7.2582279532
 20
4.7600921436
 30
0.0
 10
7.2593650597
 20
4.7599754394
 30
0.0
 10
7.2601849531
 20
4.7599171144
 30
0.0
 10
7.2606249696
 20
4.7598907
 30
0.0
  0
SPLINE
  5
63C
100
AcDbEntity
  8
0
100
AcDbSpline
 62
9
  6
CONTINUOUS
 70
0
 71
3
 72
19
 73
15
 74
0
 42
0.0000001
 43
0.0000001
 44
0.0000000001
 40
0.0
 40
0.0
 40
0.0
 40
0.0
 40
0.017268373
 40
0.0368883473
 40
0.0612086315
 40
0.0915202245
 40
0.1284624251
 40
0.1723305921
 40
0.2232658642
 40
0.2813291178
 40
0.4188608656
 40
0.5847991429
 40
0.7787883719
 40
1.0
 40
1.0
 40
1.0
 40
1.0
 10
5.7328934952
 20
4.7672824598
 30
0.0
 10
5.7328936744
 20
4.7673528381
 30
0.0
 10
5.7329305684
 20
4.7675047612
 30
0.0
 10
5.73308768
 20
4.7677048498
 30
0.0
 10
5.7333335008
 20
4.7678850034
 30
0.0
 10
5.7336691158
 20
4.7680509775
 30
0.0
 10
5.7340959184
 20
4.7682043541
 30
0.0
 10
5.7346144045
 20
4.7683454357
 30
0.0
 10
5.7352242734
 20
4.7684740196
 30
0.0
 10
5.7362158546
 20
4.7686376857
 30
0.0
 10
5.7376812882
 20
4.7687997344
 30
0.0
 10
5.7397046707
 20
4.7689334562
 30
0.0
 10
5.7420721594
 20
4.7690126219
 30
0.0
 10
5.7437644162
 20
4.7690275511
 30
0.0
 10
5.7446659799
 20
4.7690273711
 30
0.0
  0
LINE
  5
63D
100
AcDbEntity
  8
0
100
AcDbLine
 62
9
  6
CONTINUOUS
 10
7.4156218639
 20
4.7769820263
 11
7.4182108746
 21
4.7778417071
  0
SPLINE
  5
63E
100
AcDbEntity
  8
0
100
AcDbSpline
 62
9
  6
CONTINUOUS
 70
0
 71
3
 72
25
 73
21
 74
0
 42
0.0000001
 43
0.0000001
 44
0.0000000001
 40
0.0
 40
0.0
 40
0.0
 40
0.0
 40
0.05920963
 40
0.1064580456
 40
0.1422123764
 40
0.1561215629
 40
0.1677237289
 40
0.1775235605
 40
0.1863449761
 40
0.205192576
 40
0.2172796202
 40
0.2317784996
 40
0.2689618488
 40
0.3179583355
 40
0.3792832464
 40
0.4532159788
 40
0.5396580179
 40
0.6381149704
 40
0.748038508
 40
1.0
 40
1.0
 40
1.0
 40
1.0
 10
7.4182108746
 20
4.7778417071
 30
0.0
 10
7.4184753895
 20
4.7779450095
 30
0.0
 10
7.4189471143
 20
4.7781417551
 30
0.0
 10
7.4195551564
 20
4.7784515621
 30
0.0
 10
7.4199441242
 20
4.778711199
 30
0.0
 10
7.4201554541
 20
4.7789166723
 30
0.0
 10
7.4202559485
 20
4.7790544085
 30
0.0
 10
7.4203112835
 20
4.7791904873
 30
0.0
 10
7.4203198003
 20
4.7793746396
 30
0.0
 10
7.4202101207
 20
4.7795489182
 30
0.0
 10
7.4200400765
 20
4.7796842819
 30
0.0
 10
7.4197740368
 20
4.7798380109
 30
0.0
 10
7.4193182721
 20
4.7800043645
 30
0.0
 10
7.4186305442
 20
4.7801723847
 30
0.0
 10
7.4177584039
 20
4.7803187951
 30
0.0
 10
7.4167021497
 20
4.7804429058
 30
0.0
 10
7.4154647098
 20
4.78054404
 30
0.0
 10
7.414052824
 20
4.7806229437
 30
0.0
 10
7.4118463309
 20
4.7807022177
 30
0.0
 10
7.4101105607
 20
4.7807224154
 30
0.0
 10
7.4089021493
 20
4.780724996
 30
0.0
  0
SPLINE
  5
63F
100
AcDbEntity
  8
0
100
AcDbSpline
 62
9
  6
CONTINUOUS
 70
0
 71
3
 72
24
 73
20
 74
0
 42
0.0000001
 43
0.0000001
 44
0.0000000001
 40
0.0
 40
0.0
 40
0.0
 40
0.0
 40
0.1913270701
 40
0.3744852487
 40
0.4609081681
 40
0.5428680976
 40
0.6196173282
 40
0.6904340147
 40
0.7547559623
 40
0.8121082168
 40
0.8620429822
 40
0.904212909
 40
0.9385414471
 40
0.9528134832
 40
0.9652201876
 40
0.9758689508
 40
0.9849535096
 40
0.9928187407
 40
1.0
 40
1.0
 40
1.0
 40
1.0
 10
6.5844085433
 20
4.7690283468
 30
0.0
 10
6.588946164
 20
4.7690284738
 30
0.0
 10
6.5978281478
 20
4.7689020326
 30
0.0
 10
6.6087508363
 20
4.76842441
 30
0.0
 10
6.6170683951
 20
4.7678445219
 30
0.0
 10
6.6228599017
 20
4.7673329006
 30
0.0
 10
6.6282717128
 20
4.7667416123
 30
0.0
 10
6.6332531117
 20
4.7660749026
 30
0.0
 10
6.6377596274
 20
4.7653403527
 30
0.0
 10
6.6417523754
 20
4.7645465229
 30
0.0
 10
6.6451967457
 20
4.7637021233
 30
0.0
 10
6.6480623967
 20
4.7628132262
 30
0.0
 10
6.6500625063
 20
4.7620032832
 30
0.0
 10
6.6513395595
 20
4.7613200817
 30
0.0
 10
6.6520807277
 20
4.7608331108
 30
0.0
 10
6.6526649929
 20
4.7603397864
 30
0.0
 10
6.6530910106
 20
4.7598373821
 30
0.0
 10
6.6533550269
 20
4.7593224105
 30
0.0
 10
6.6534171731
 20
4.7589637481
 30
0.0
 10
6.6534177601
 20
4.7587934343
 30
0.0
  0
SPLINE
  5
640
100
AcDbEntity
  8
0
100
AcDbSpline
 62
9
  6
CONTINUOUS
 70
0
 71
3
 72
15
 73
11
 74
0
 42
0.0000001
 43
0.0000001
 44
0.0000000001
 40
0.0
 40
0.0
 40
0.0
 40
0.0
 40
0.3851292423
 40
0.5471007023
 40
0.6820094838
 40
0.7905277326
 40
0.8829646505
 40
0.955796052
 40
0.9819718164
 40
1.0
 40
1.0
 40
1.0
 40
1.0
 10
6.584408549
 20
4.7690282269
 30
0.0
 10
6.5844085287
 20
4.770530862
 30
0.0
 10
6.5844186556
 20
4.7726654814
 30
0.0
 10
6.5844542863
 20
4.7753262145
 30
0.0
 10
6.5844856074
 20
4.7769076252
 30
0.0
 10
6.5845213166
 20
4.7782176024
 30
0.0
 10
6.5845620079
 20
4.7792849933
 30
0.0
 10
6.5846016457
 20
4.7800311075
 30
0.0
 10
6.5846411293
 20
4.7804859583
 30
0.0
 10
6.5846621157
 20
4.7806573603
 30
0.0
 10
6.5846751483
 20
4.7807264819
 30
0.0
  0
SPLINE
  5
641
100
AcDbEntity
  8
0
100
AcDbSpline
 62
9
  6
CONTINUOUS
 70
0
 71
3
 72
24
 73
20
 74
0
 42
0.0000001
 43
0.0000001
 44
0.0000000001
 40
0.0
 40
0.0
 40
0.0
 40
0.0
 40
0.0075691138
 40
0.0156712123
 40
0.0247981265
 40
0.0353003547
 40
0.0474071751
 40
0.061249837
 40
0.0943879125
 40
0.1349948116
 40
0.183086961
 40
0.2385636236
 40
0.3011297813
 40
0.3703700943
 40
0.4458481744
 40
0.527114325
 40
0.6136463888
 40
0.8000407071
 40
1.0
 40
1.0
 40
1.0
 40
1.0
 10
6.2919978861
 20
4.7607909069
 30
0.0
 10
6.2919983735
 20
4.7609356451
 30
0.0
 10
6.2920445276
 20
4.7612367288
 30
0.0
 10
6.2922445848
 20
4.7616719399
 30
0.0
 10
6.2925697424
 20
4.7620951526
 30
0.0
 10
6.2930174082
 20
4.7625080548
 30
0.0
 10
6.2935871025
 20
4.7629121567
 30
0.0
 10
6.294568829
 20
4.7634741402
 30
0.0
 10
6.2961128698
 20
4.7641351176
 30
0.0
 10
6.2983308561
 20
4.7648535219
 30
0.0
 10
6.3010049502
 20
4.7655310232
 30
0.0
 10
6.3041196557
 20
4.7661609157
 30
0.0
 10
6.3076546837
 20
4.7667388781
 30
0.0
 10
6.3115844066
 20
4.7672608768
 30
0.0
 10
6.3158814223
 20
4.767722438
 30
0.0
 10
6.3205168132
 20
4.7681190593
 30
0.0
 10
6.3272752432
 20
4.7685678146
 30
0.0
 10
6.336311973
 20
4.7689360927
 30
0.0
 10
6.3437003538
 20
4.7690278032
 30
0.0
 10
6.3475240379
 20
4.7690273713
 30
0.0
  0
SPLINE
  5
642
100
AcDbEntity
  8
0
100
AcDbSpline
 62
9
  6
CONTINUOUS
 70
0
 71
3
 72
25
 73
21
 74
0
 42
0.0000001
 43
0.0000001
 44
0.0000000001
 40
0.0
 40
0.0
 40
0.0
 40
0.0
 40
0.0070824479
 40
0.0149118072
 40
0.0240180936
 40
0.0347346286
 40
0.0472592884
 40
0.0617055896
 40
0.078123796
 40
0.0965308646
 40
0.1392896649
 40
0.1898297741
 40
0.2477884545
 40
0.3127116356
 40
0.3840266173
 40
0.4610930189
 40
0.5431862374
 40
0.6295238297
 40
0.8115379187
 40
1.0
 40
1.0
 40
1.0
 40
1.0
 10
6.5116869177
 20
4.7582508383
 30
0.0
 10
6.5116887642
 20
4.7584277112
 30
0.0
 10
6.5117593273
 20
4.758801471
 30
0.0
 10
6.5120468307
 20
4.7593355272
 30
0.0
 10
6.5125050914
 20
4.7598577874
 30
0.0
 10
6.513131165
 20
4.7603722793
 30
0.0
 10
6.5139249811
 20
4.7608809843
 30
0.0
 10
6.5148861939
 20
4.7613835679
 30
0.0
 10
6.5160130857
 20
4.7618796732
 30
0.0
 10
6.5178260288
 20
4.7625655467
 30
0.0
 10
6.5204973778
 20
4.7633794027
 30
0.0
 10
6.5241695804
 20
4.7642709376
 30
0.0
 10
6.5284198149
 20
4.7651101782
 30
0.0
 10
6.533207909
 20
4.7658872937
 30
0.0
 10
6.5384886071
 20
4.7665943168
 30
0.0
 10
6.5442106688
 20
4.7672231552
 30
0.0
 10
6.5503181079
 20
4.7677673252
 30
0.0
 10
6.5590491535
 20
4.7683826325
 30
0.0
 10
6.5704486493
 20
4.7688923605
 30
0.0
 10
6.5797017333
 20
4.7690282372
 30
0.0
 10
6.5844085332
 20
4.7690282295
 30
0.0
  0
SPLINE
  5
643
100
AcDbEntity
  8
0
100
AcDbSpline
 62
9
  6
CONTINUOUS
 70
0
 71
3
 72
25
 73
21
 74
0
 42
0.0000001
 43
0.0000001
 44
0.0000000001
 40
0.0
 40
0.0
 40
0.0
 40
0.0
 40
0.17831291
 40
0.3563358239
 40
0.4425142765
 40
0.5253759393
 40
0.603873391
 40
0.6771026449
 40
0.7442350481
 40
0.8044630877
 40
0.8571502776
 40
0.9018288288
 40
0.9210429568
 40
0.9381227393
 40
0.953072551
 40
0.9659382227
 40
0.9768093162
 40
0.985855356
 40
0.9933953049
 40
1.0
 40
1.0
 40
1.0
 40
1.0
 10
6.3475228682
 20
4.7690283469
 30
0.0
 10
6.352790221
 20
4.769028498
 30
0.0
 10
6.3633169627
 20
4.7688474568
 30
0.0
 10
6.3763755657
 20
4.7682074974
 30
0.0
 10
6.3865997781
 20
4.7674439949
 30
0.0
 10
6.3938812363
 20
4.7667689016
 30
0.0
 10
6.4007677847
 20
4.7659920207
 30
0.0
 10
6.4071750339
 20
4.7651246236
 30
0.0
 10
6.4130253646
 20
4.7641797205
 30
0.0
 10
6.4182481149
 20
4.7631684308
 30
0.0
 10
6.4227813036
 20
4.7621036612
 30
0.0
 10
6.4260916675
 20
4.761144714
 30
0.0
 10
6.4283464657
 20
4.7603443727
 30
0.0
 10
6.4297476061
 20
4.7597695431
 30
0.0
 10
6.4309423586
 20
4.7591914438
 30
0.0
 10
6.4319291137
 20
4.7586117869
 30
0.0
 10
6.4327075981
 20
4.7580313616
 30
0.0
 10
6.4332778378
 20
4.7574480956
 30
0.0
 10
6.433638206
 20
4.7568557013
 30
0.0
 10
6.4337273539
 20
4.7564358408
 30
0.0
 10
6.4337278955
 20
4.7562407393
 30
0.0
  0
SPLINE
  5
644
100
AcDbEntity
  8
0
100
AcDbSpline
 62
9
  6
CONTINUOUS
 70
0
 71
3
 72
16
 73
12
 74
0
 42
0.0000001
 43
0.0000001
 44
0.0000000001
 40
0.0
 40
0.0
 40
0.0
 40
0.0
 40
0.3725940471
 40
0.5301389835
 40
0.6623199586
 40
0.7699638814
 40
0.8638269068
 40
0.9053798907
 40
0.9421469596
 40
0.9736609068
 40
1.0
 40
1.0
 40
1.0
 40
1.0
 10
6.3475228883
 20
4.7690282264
 30
0.0
 10
6.3475230443
 20
4.7705322232
 30
0.0
 10
6.3474386878
 20
4.7726743617
 30
0.0
 10
6.3471437278
 20
4.7753322895
 30
0.0
 10
6.3468845098
 20
4.7769161927
 30
0.0
 10
6.3465860206
 20
4.7782303813
 30
0.0
 10
6.3462929018
 20
4.7791689153
 30
0.0
 10
6.3460192996
 20
4.7798085163
 30
0.0
 10
6.3458076305
 20
4.7801991699
 30
0.0
 10
6.345582805
 20
4.7805094371
 30
0.0
 10
6.3454079644
 20
4.780669078
 30
0.0
 10
6.3453184737
 20
4.7807264818
 30
0.0
  0
LINE
  5
645
100
AcDbEntity
  8
0
100
AcDbLine
 62
9
  6
CONTINUOUS
 10
6.2884364318
 20
4.767940254
 11
6.2856720753
 21
4.7688370277
  0
SPLINE
  5
646
100
AcDbEntity
  8
0
100
AcDbSpline
 62
9
  6
CONTINUOUS
 70
0
 71
3
 72
28
 73
24
 74
0
 42
0.0000001
 43
0.0000001
 44
0.0000000001
 40
0.0
 40
0.0
 40
0.0
 40
0.0
 40
0.0206416144
 40
0.0384674859
 40
0.0535442522
 40
0.066006079
 40
0.0761215892
 40
0.084435616
 40
0.091915161
 40
0.099825311
 40
0.1092473426
 40
0.1208371102
 40
0.1349412026
 40
0.1517428358
 40
0.1713428862
 40
0.1937984881
 40
0.247237037
 40
0.3116090161
 40
0.3862473314
 40
0.470354841
 40
0.5630716545
 40
0.7706689367
 40
1.0
 40
1.0
 40
1.0
 40
1.0
 10
6.2856720753
 20
4.7688370277
 30
0.0
 10
6.2852015285
 20
4.7690089763
 30
0.0
 10
6.2843316399
 20
4.7693495101
 30
0.0
 10
6.2831530142
 20
4.7698995607
 30
0.0
 10
6.282197296
 20
4.7704498486
 30
0.0
 10
6.2814638717
 20
4.7710004959
 30
0.0
 10
6.2809512324
 20
4.7715554981
 30
0.0
 10
6.2806637251
 20
4.7721293836
 30
0.0
 10
6.2806349258
 20
4.7727229007
 30
0.0
 10
6.2808728494
 20
4.7732929779
 30
0.0
 10
6.2813394034
 20
4.7738272779
 30
0.0
 10
6.2820230564
 20
4.7743426133
 30
0.0
 10
6.2829264999
 20
4.7748447106
 30
0.0
 10
6.284051625
 20
4.7753345504
 30
0.0
 10
6.2853992104
 20
4.7758111439
 30
0.0
 10
6.2876237872
 20
4.7764644865
 30
0.0
 10
6.2909487072
 20
4.777209591
 30
0.0
 10
6.2955546811
 20
4.7779918854
 30
0.0
 10
6.3009255261
 20
4.7786919647
 30
0.0
 10
6.3069986701
 20
4.7793024636
 30
0.0
 10
6.3163023709
 20
4.7800128206
 30
0.0
 10
6.3291474088
 20
4.7805876906
 30
0.0
 10
6.3397524703
 20
4.7807222526
 30
0.0
 10
6.3453184192
 20
4.780724996
 30
0.0
  0
SPLINE
  5
647
100
AcDbEntity
  8
0
100
AcDbSpline
 62
9
  6
CONTINUOUS
 70
0
 71
3
 72
13
 73
9
 74
0
 42
0.0000001
 43
0.0000001
 44
0.0000000001
 40
0.0
 40
0.0
 40
0.0
 40
0.0
 40
0.087362479
 40
0.1800647189
 40
0.2818452778
 40
0.3955057775
 40
0.6654681322
 40
1.0
 40
1.0
 40
1.0
 40
1.0
 10
6.7299718219
 20
4.7557018735
 30
0.0
 10
6.7299721034
 20
4.7558172133
 30
0.0
 10
6.7300017864
 20
4.7560556497
 30
0.0
 10
6.7301292089
 20
4.7564078911
 30
0.0
 10
6.7303373695
 20
4.7567597052
 30
0.0
 10
6.730744457
 20
4.7572570994
 30
0.0
 10
6.731475107
 20
4.7578719685
 30
0.0
 10
6.7321557236
 20
4.7582917259
 30
0.0
 10
6.7325417276
 20
4.7585063631
 30
0.0
  0
SPLINE
  5
648
100
AcDbEntity
  8
0
100
AcDbSpline
 62
9
  6
CONTINUOUS
 70
0
 71
3
 72
18
 73
14
 74
0
 42
0.0000001
 43
0.0000001
 44
0.0000000001
 40
0.0
 40
0.0
 40
0.0
 40
0.0
 40
0.0272141228
 40
0.061010114
 40
0.1012367412
 40
0.1476597475
 40
0.1999681514
 40
0.2576914174
 40
0.3873025861
 40
0.531948664
 40
0.6861562871
 40
0.8441672082
 40
1.0
 40
1.0
 40
1.0
 40
1.0
 10
6.7325417276
 20
4.7585063631
 30
0.0
 10
6.733241797
 20
4.758895636
 30
0.0
 10
6.7348808341
 20
4.7596416232
 30
0.0
 10
6.737690784
 20
4.7606379022
 30
0.0
 10
6.7410990131
 20
4.7616204046
 30
0.0
 10
6.7450764404
 20
4.7625776935
 30
0.0
 10
6.7495893152
 20
4.7634984873
 30
0.0
 10
6.7565380129
 20
4.7647146948
 30
0.0
 10
6.7662207936
 20
4.7660517568
 30
0.0
 10
6.7787690858
 20
4.7673314102
 30
0.0
 10
6.7921841177
 20
4.7682907388
 30
0.0
 10
6.8059494763
 20
4.7688862387
 30
0.0
 10
6.8151875961
 20
4.7690278965
 30
0.0
 10
6.8197743668
 20
4.7690273714
 30
0.0
  0
SPLINE
  5
649
100
AcDbEntity
  8
0
100
AcDbSpline
 62
9
  6
CONTINUOUS
 70
0
 71
3
 72
32
 73
28
 74
0
 42
0.0000001
 43
0.0000001
 44
0.0000000001
 40
0.0
 40
0.0
 40
0.0
 40
0.0
 40
0.0531351088
 40
0.1164102125
 40
0.1882578699
 40
0.2667815881
 40
0.3499568696
 40
0.4356650589
 40
0.5217231246
 40
0.6059884398
 40
0.6863756102
 40
0.7608802334
 40
0.8277117304
 40
0.8577090482
 40
0.8851812757
 40
0.9099747471
 40
0.9319384309
 40
0.9509264257
 40
0.966832229
 40
0.9736135164
 40
0.9796083531
 40
0.9848167771
 40
0.9892445208
 40
0.9929079409
 40
0.995845082
 40
0.9981447042
 40
1.0
 40
1.0
 40
1.0
 40
1.0
 10
5.7446614635
 20
4.7690283477
 30
0.0
 10
5.7470023058
 20
4.7690284676
 30
0.0
 10
5.7521306189
 20
4.7689109808
 30
0.0
 10
5.7604144912
 20
4.7684980796
 30
0.0
 10
5.76980375
 20
4.7678343397
 30
0.0
 10
5.7800539243
 20
4.7669394127
 30
0.0
 10
5.7908974456
 20
4.7658335835
 30
0.0
 10
5.802055105
 20
4.7645466156
 30
0.0
 10
5.8132431249
 20
4.7631117003
 30
0.0
 10
5.8241795
 20
4.7615646884
 30
0.0
 10
5.8345909094
 20
4.7599469788
 30
0.0
 10
5.8442188634
 20
4.7582969644
 30
0.0
 10
5.8516346914
 20
4.7568871097
 30
0.0
 10
5.8569945615
 20
4.7557645016
 30
0.0
 10
5.8605308415
 20
4.7549710262
 30
0.0
 10
5.8637091755
 20
4.7542008316
 30
0.0
 10
5.8665093171
 20
4.7534592591
 30
0.0
 10
5.8689122903
 20
4.7527510274
 30
0.0
 10
5.8706533726
 20
4.7521659212
 30
0.0
 10
5.8718324036
 20
4.7517109291
 30
0.0
 10
5.8725610235
 20
4.7513991734
 30
0.0
 10
5.8731811891
 20
4.7510991108
 30
0.0
 10
5.8736920489
 20
4.7508111947
 30
0.0
 10
5.8740935169
 20
4.7505359513
 30
0.0
 10
5.8743858295
 20
4.7502721378
 30
0.0
 10
5.8745717857
 20
4.7500167544
 30
0.0
 10
5.8746214277
 20
4.7498334005
 30
0.0
 10
5.8746211387
 20
4.7497516668
 30
0.0
  0
SPLINE
  5
64A
100
AcDbEntity
  8
0
100
AcDbSpline
 62
9
  6
CONTINUOUS
 70
0
 71
3
 72
13
 73
9
 74
0
 42
0.0000001
 43
0.0000001
 44
0.0000000001
 40
0.0
 40
0.0
 40
0.0
 40
0.0
 40
0.2922037569
 40
0.5437675921
 40
0.6527621143
 40
0.7634674658
 40
0.8795815465
 40
1.0
 40
1.0
 40
1.0
 40
1.0
 10
5.7446614747
 20
4.7690282264
 30
0.0
 10
5.7446620877
 20
4.7705512231
 30
0.0
 10
5.7442034217
 20
4.7734089622
 30
0.0
 10
5.742602442
 20
4.776480032
 30
0.0
 10
5.7409621571
 20
4.7783206154
 30
0.0
 10
5.7395907735
 20
4.7794228232
 30
0.0
 10
5.7379847762
 20
4.7802816058
 30
0.0
 10
5.7367875683
 20
4.7806234038
 30
0.0
 10
5.7361684566
 20
4.7807264806
 30
0.0
  0
SPLINE
  5
64B
100
AcDbEntity
  8
0
100
AcDbSpline
 62
9
  6
CONTINUOUS
 70
0
 71
3
 72
28
 73
24
 74
0
 42
0.0000001
 43
0.0000001
 44
0.0000000001
 40
0.0
 40
0.0
 40
0.0
 40
0.0
 40
0.0845188109
 40
0.1556244808
 40
0.2133168986
 40
0.2577461282
 40
0.2751543303
 40
0.289552422
 40
0.3012475755
 40
0.3108125805
 40
0.3192667269
 40
0.3280277876
 40
0.3383897467
 40
0.3511703978
 40
0.3668139549
 40
0.3855643071
 40
0.4328848085
 40
0.4937900171
 40
0.5685761392
 40
0.6572538495
 40
0.7592231413
 40
0.8737300529
 40
1.0
 40
1.0
 40
1.0
 40
1.0
 10
5.7281952079
 20
4.7762454651
 30
0.0
 10
5.7276368075
 20
4.7764043106
 30
0.0
 10
5.7266124535
 20
4.7767105421
 30
0.0
 10
5.7252252307
 20
4.7771844112
 30
0.0
 10
5.7241221245
 20
4.7776316222
 30
0.0
 10
5.7233875003
 20
4.7780037484
 30
0.0
 10
5.7229531234
 20
4.778297577
 30
0.0
 10
5.7227258695
 20
4.7784930658
 30
0.0
 10
5.7225688149
 20
4.778683137
 30
0.0
 10
5.7224824596
 20
4.7788721821
 30
0.0
 10
5.7224768957
 20
4.7790619903
 30
0.0
 10
5.7225568207
 20
4.7792395386
 30
0.0
 10
5.7227102632
 20
4.7793996557
 30
0.0
 10
5.7229328269
 20
4.7795484196
 30
0.0
 10
5.723225916
 20
4.7796883662
 30
0.0
 10
5.7237545451
 20
4.7798789006
 30
0.0
 10
5.7246047256
 20
4.7800826724
 30
0.0
 10
5.7258465662
 20
4.7802808019
 30
0.0
 10
5.7273797439
 20
4.7804434746
 30
0.0
 10
5.7291988797
 20
4.7805692518
 30
0.0
 10
5.7312932365
 20
4.7806588641
 30
0.0
 10
5.733647036
 20
4.7807125781
 30
0.0
 10
5.73530094
 20
4.7807242361
 30
0.0
 10
5.7361682792
 20
4.780724996
 30
0.0
  0
SPLINE
  5
64C
100
AcDbEntity
  8
0
100
AcDbSpline
 62
9
  6
CONTINUOUS
 70
0
 71
3
 72
30
 73
26
 74
0
 42
0.0000001
 43
0.0000001
 44
0.0000000001
 40
0.0
 40
0.0
 40
0.0
 40
0.0
 40
0.0038929456
 40
0.0067978601
 40
0.0104668457
 40
0.0149361739
 40
0.0202196471
 40
0.0263214314
 40
0.0332406642
 40
0.0495081355
 40
0.0689358648
 40
0.0914096087
 40
0.1167929407
 40
0.1756012455
 40
0.2438517695
 40
0.3197838471
 40
0.4014389579
 40
0.4867150928
 40
0.5734051224
 40
0.6592466963
 40
0.7419775776
 40
0.8193942551
 40
0.8894170078
 40
0.9501597909
 40
1.0
 40
1.0
 40
1.0
 40
1.0
 10
7.2681987854
 20
4.7494598881
 30
0.0
 10
7.268198897
 20
4.7496338431
 30
0.0
 10
7.268395491
 20
4.7499143835
 30
0.0
 10
7.2687512853
 20
4.7502049489
 30
0.0
 10
7.2691705974
 20
4.7504724274
 30
0.0
 10
7.2697015653
 20
4.7507499821
 30
0.0
 10
7.2703476236
 20
4.7510422588
 30
0.0
 10
7.2711067769
 20
4.7513469182
 30
0.0
 10
7.2723370028
 20
4.751794086
 30
0.0
 10
7.2741521587
 20
4.7523717813
 30
0.0
 10
7.2766545237
 20
4.7530759354
 30
0.0
 10
7.2795685486
 20
4.753817338
 30
0.0
 10
7.2842098812
 20
4.7549025978
 30
0.0
 10
7.2908788124
 20
4.7562949128
 30
0.0
 10
7.2997957008
 20
4.7579599918
 30
0.0
 10
7.3097459172
 20
4.759645143
 30
0.0
 10
7.320470675
 20
4.7613058744
 30
0.0
 10
7.3316915677
 20
4.7628979148
 30
0.0
 10
7.3431162755
 20
4.7643791299
 30
0.0
 10
7.3544449502
 20
4.7657101748
 30
0.0
 10
7.365377384
 20
4.7668555388
 30
0.0
 10
7.3756207868
 20
4.7677845165
 30
0.0
 10
7.3848984244
 20
4.768473001
 30
0.0
 10
7.3929577608
 20
4.7689032364
 30
0.0
 10
7.3978989555
 20
4.7690282342
 30
0.0
 10
7.400126049
 20
4.7690282271
 30
0.0
  0
SPLINE
  5
64D
100
AcDbEntity
  8
0
100
AcDbSpline
 62
9
  6
CONTINUOUS
 70
0
 71
3
 72
16
 73
12
 74
0
 42
0.0000001
 43
0.0000001
 44
0.0000000001
 40
0.0
 40
0.0
 40
0.0
 40
0.0
 40
0.029149388
 40
0.0651532976
 40
0.107653667
 40
0.1562796456
 40
0.2698955006
 40
0.4014645847
 40
0.5459049674
 40
0.6976351206
 40
1.0
 40
1.0
 40
1.0
 40
1.0
 10
5.6384747295
 20
4.7690283469
 30
0.0
 10
5.6393597163
 20
4.7690284212
 30
0.0
 10
5.6413377294
 20
4.7689821747
 30
0.0
 10
5.6446024311
 20
4.7688235344
 30
0.0
 10
5.6484538205
 20
4.7685672679
 30
0.0
 10
5.6546501236
 20
4.7680705513
 30
0.0
 10
5.663529598
 20
4.767213353
 30
0.0
 10
5.6752869655
 20
4.765909663
 30
0.0
 10
5.6881772206
 20
4.764330489
 30
0.0
 10
5.7061913218
 20
4.7619407907
 30
0.0
 10
5.7198332631
 20
4.7599415761
 30
0.0
 10
5.7289016466
 20
4.7585149459
 30
0.0
  0
SPLINE
  5
64E
100
AcDbEntity
  8
0
100
AcDbSpline
 62
9
  6
CONTINUOUS
 70
0
 71
3
 72
13
 73
9
 74
0
 42
0.0000001
 43
0.0000001
 44
0.0000000001
 40
0.0
 40
0.0
 40
0.0
 40
0.0
 40
0.2791114628
 40
0.5257232784
 40
0.6356771153
 40
0.7496117132
 40
0.8715076395
 40
1.0
 40
1.0
 40
1.0
 40
1.0
 10
5.6384747363
 20
4.7690282264
 30
0.0
 10
5.6384754322
 20
4.7705568387
 30
0.0
 10
5.6379393944
 20
4.7734655398
 30
0.0
 10
5.6361171965
 20
4.7765137932
 30
0.0
 10
5.6342787703
 20
4.7783325409
 30
0.0
 10
5.6327258955
 20
4.7794327245
 30
0.0
 10
5.6309108706
 20
4.7802871992
 30
0.0
 10
5.6295702641
 20
4.7806239427
 30
0.0
 10
5.6288740594
 20
4.7807264818
 30
0.0
  0
LINE
  5
64F
100
AcDbEntity
  8
0
100
AcDbLine
 62
9
  6
CONTINUOUS
 10
5.6302680832
 20
4.7780625922
 11
5.6275765265
 21
4.7787117912
  0
SPLINE
  5
650
100
AcDbEntity
  8
0
100
AcDbSpline
 62
9
  6
CONTINUOUS
 70
0
 71
3
 72
24
 73
20
 74
0
 42
0.0000001
 43
0.0000001
 44
0.0000000001
 40
0.0
 40
0.0
 40
0.0
 40
0.0
 40
0.1026928028
 40
0.1915704431
 40
0.266566537
 40
0.3276672459
 40
0.374966664
 40
0.408853216
 40
0.4211767878
 40
0.4309410388
 40
0.4390816386
 40
0.4471509228
 40
0.4567598621
 40
0.4689412492
 40
0.502859482
 40
0.5508119608
 40
0.6130304528
 40
0.7795078872
 40
1.0
 40
1.0
 40
1.0
 40
1.0
 10
5.6275765265
 20
4.7787117912
 30
0.0
 10
5.6272889835
 20
4.7787874935
 30
0.0
 10
5.6267537987
 20
4.7789334086
 30
0.0
 10
5.6260141657
 20
4.7791544648
 30
0.0
 10
5.6253964818
 20
4.779361516
 30
0.0
 10
5.6249009082
 20
4.7795537617
 30
0.0
 10
5.6245290028
 20
4.7797308343
 30
0.0
 10
5.6242980815
 20
4.7798766171
 30
0.0
 10
5.6241833764
 20
4.7799922368
 30
0.0
 10
5.6241369784
 20
4.7800679655
 30
0.0
 10
5.6241245037
 20
4.7801449623
 30
0.0
 10
5.6241517607
 20
4.7802176775
 30
0.0
 10
5.6242128395
 20
4.7802809192
 30
0.0
 10
5.6243503747
 20
4.7803668127
 30
0.0
 10
5.6246112459
 20
4.7804534927
 30
0.0
 10
5.6250199943
 20
4.7805363049
 30
0.0
 10
5.6258154905
 20
4.7806368315
 30
0.0
 10
5.6271149683
 20
4.7807085339
 30
0.0
 10
5.6282354398
 20
4.7807240673
 30
0.0
 10
5.6288738616
 20
4.780724996
 30
0.0
  0
LINE
  5
651
100
AcDbEntity
  8
0
100
AcDbLine
 62
9
  6
CONTINUOUS
 10
7.4098496561
 20
4.7589564758
 11
7.4110878007
 21
4.7591451158
  0
SPLINE
  5
652
100
AcDbEntity
  8
0
100
AcDbSpline
 62
9
  6
CONTINUOUS
 70
0
 71
3
 72
16
 73
12
 74
0
 42
0.0000001
 43
0.0000001
 44
0.0000000001
 40
0.0
 40
0.0
 40
0.0
 40
0.0
 40
0.3163485199
 40
0.4706888952
 40
0.6151937598
 40
0.7447100228
 40
0.8545456421
 40
0.9007832306
 40
0.9406900392
 40
0.9738749474
 40
1.0
 40
1.0
 40
1.0
 40
1.0
 10
7.4110878007
 20
4.7591451158
 30
0.0
 10
7.4199016117
 20
4.7604844376
 30
0.0
 10
7.4330315731
 20
4.7623735048
 30
0.0
 10
7.4502191364
 20
4.7646436603
 30
0.0
 10
7.4622001214
 20
4.766121792
 30
0.0
 10
7.4729493399
 20
4.7673362502
 30
0.0
 10
7.4809580819
 20
4.7681363761
 30
0.0
 10
7.4864616606
 20
4.768599108
 30
0.0
 10
7.4898162112
 20
4.768836916
 30
0.0
 10
7.4926084627
 20
4.7689842544
 30
0.0
 10
7.4942797915
 20
4.7690276579
 30
0.0
 10
7.4950160193
 20
4.7690273713
 30
0.0
  0
SPLINE
  5
653
100
AcDbEntity
  8
0
100
AcDbSpline
 62
9
  6
CONTINUOUS
 70
0
 71
3
 72
18
 73
14
 74
0
 42
0.0000001
 43
0.0000001
 44
0.0000000001
 40
0.0
 40
0.0
 40
0.0
 40
0.0
 40
0.0144113819
 40
0.0361157882
 40
0.0650326711
 40
0.1010420441
 40
0.1439835397
 40
0.1936747533
 40
0.3123699361
 40
0.455023204
 40
0.6191315056
 40
0.8018382322
 40
1.0
 40
1.0
 40
1.0
 40
1.0
 10
5.5869665557
 20
4.7690282967
 30
0.0
 10
5.5871649093
 20
4.7690283001
 30
0.0
 10
5.5876617214
 20
4.7690027422
 30
0.0
 10
5.5885539764
 20
4.7689329145
 30
0.0
 10
5.5897409715
 20
4.7688188469
 30
0.0
 10
5.5912172914
 20
4.768661841
 30
0.0
 10
5.5929765577
 20
4.7684617443
 30
0.0
 10
5.5958647936
 20
4.7681177068
 30
0.0
 10
5.6001125544
 20
4.7675845624
 30
0.0
 10
5.6059190303
 20
4.7668256486
 30
0.0
 10
5.612595732
 20
4.7659270736
 30
0.0
 10
5.62002659
 20
4.7649044658
 30
0.0
 10
5.6252180165
 20
4.7641769436
 30
0.0
 10
5.6279186607
 20
4.7637956061
 30
0.0
  0
LINE
  5
654
100
AcDbEntity
  8
0
100
AcDbLine
 62
9
  6
CONTINUOUS
 10
5.6279186607
 20
4.7637956061
 11
5.6334532513
 21
4.7630102055
  0
LINE
  5
655
100
AcDbEntity
  8
0
100
AcDbLine
 62
9
  6
CONTINUOUS
 10
5.6334532513
 20
4.7630102055
 11
5.6342289128
 21
4.7628995337
  0
LINE
  5
656
100
AcDbEntity
  8
0
100
AcDbLine
 62
9
  6
CONTINUOUS
 10
7.4980456599
 20
4.7640310968
 11
7.4987309873
 21
4.7641302115
  0
SPLINE
  5
657
100
AcDbEntity
  8
0
100
AcDbSpline
 62
9
  6
CONTINUOUS
 70
0
 71
3
 72
20
 73
16
 74
0
 42
0.0000001
 43
0.0000001
 44
0.0000000001
 40
0.0
 40
0.0
 40
0.0
 40
0.0
 40
0.2086890032
 40
0.3986304043
 40
0.5668116599
 40
0.7106175826
 40
0.7725682524
 40
0.8275006162
 40
0.8752320521
 40
0.9155903726
 40
0.9484036421
 40
0.9735005025
 40
0.9907161406
 40
0.9963456758
 40
1.0
 40
1.0
 40
1.0
 40
1.0
 10
7.4987309873
 20
4.7641302115
 30
0.0
 10
7.5012026483
 20
4.7644875578
 30
0.0
 10
7.5059242616
 20
4.7651678475
 30
0.0
 10
7.512639079
 20
4.7661270235
 30
0.0
 10
7.5185865245
 20
4.7669674328
 30
0.0
 10
7.5230185868
 20
4.7675849882
 30
0.0
 10
7.5261093272
 20
4.7680086306
 30
0.0
 10
7.5280614897
 20
4.7682725705
 30
0.0
 10
7.5297581182
 20
4.7684979727
 30
0.0
 10
7.5311929428
 20
4.7686839639
 30
0.0
 10
7.5323598178
 20
4.7688301387
 30
0.0
 10
7.5332526396
 20
4.7689352101
 30
0.0
 10
7.5338232092
 20
4.7689963167
 30
0.0
 10
7.5341392742
 20
4.7690215999
 30
0.0
 10
7.5342503141
 20
4.7690274838
 30
0.0
 10
7.5342940449
 20
4.7690273713
 30
0.0
  0
SPLINE
  5
658
100
AcDbEntity
  8
0
100
AcDbSpline
 62
9
  6
CONTINUOUS
 70
0
 71
3
 72
26
 73
22
 74
0
 42
0.0000001
 43
0.0000001
 44
0.0000000001
 40
0.0
 40
0.0
 40
0.0
 40
0.0
 40
0.1108302549
 40
0.2074622688
 40
0.2900633467
 40
0.3589734935
 40
0.4146545305
 40
0.4578291464
 40
0.4751327536
 40
0.4899030287
 40
0.5136581109
 40
0.5245627195
 40
0.5361889994
 40
0.5494815992
 40
0.5650968643
 40
0.6047670424
 40
0.6570944914
 40
0.7226799364
 40
0.8016980148
 40
0.8941605261
 40
1.0
 40
1.0
 40
1.0
 40
1.0
 10
5.8816377406
 20
4.7599577428
 30
0.0
 10
5.8820834435
 20
4.7599877678
 30
0.0
 10
5.8829172082
 20
4.7600529422
 30
0.0
 10
5.8840796884
 20
4.760179728
 30
0.0
 10
5.8850691457
 20
4.7603277647
 30
0.0
 10
5.8858878718
 20
4.7604957494
 30
0.0
 10
5.886538311
 20
4.7606830262
 30
0.0
 10
5.8869722714
 20
4.7608646273
 30
0.0
 10
5.8872297752
 20
4.7610271512
 30
0.0
 10
5.8874010341
 20
4.7611725978
 30
0.0
 10
5.8875155859
 20
4.7613499368
 30
0.0
 10
5.8875256721
 20
4.7615399486
 30
0.0
 10
5.8874867805
 20
4.7616810732
 30
0.0
 10
5.8874044321
 20
4.7618236676
 30
0.0
 10
5.8872235282
 20
4.7620341174
 30
0.0
 10
5.8868762719
 20
4.7622998179
 30
0.0
 10
5.8863234001
 20
4.7626135698
 30
0.0
 10
5.8856010843
 20
4.7629447172
 30
0.0
 10
5.8847106868
 20
4.7632922094
 30
0.0
 10
5.8836531746
 20
4.7636550464
 30
0.0
 10
5.8828892987
 20
4.7638906569
 30
0.0
 10
5.8824802303
 20
4.7640116866
 30
0.0
  0
SPLINE
  5
659
100
AcDbEntity
  8
0
100
AcDbSpline
 62
9
  6
CONTINUOUS
 70
0
 71
3
 72
21
 73
17
 74
0
 42
0.0000001
 43
0.0000001
 44
0.0000000001
 40
0.0
 40
0.0
 40
0.0
 40
0.0
 40
0.0151305091
 40
0.0326420717
 40
0.0744104341
 40
0.1245124671
 40
0.1821579253
 40
0.2463192481
 40
0.3157617359
 40
0.4652712317
 40
0.6197417612
 40
0.7676033535
 40
0.83558062
 40
0.8977494735
 40
0.9527813118
 40
1.0
 40
1.0
 40
1.0
 40
1.0
 10
5.8824802303
 20
4.7640116866
 30
0.0
 10
5.8817669579
 20
4.76422272
 30
0.0
 10
5.8802191624
 20
4.7646476073
 30
0.0
 10
5.8766672047
 20
4.7655235367
 30
0.0
 10
5.8714081785
 20
4.7666507586
 30
0.0
 10
5.8641845514
 20
4.7680123007
 30
0.0
 10
5.8558505589
 20
4.7694180524
 30
0.0
 10
5.8465567868
 20
4.7708428287
 30
0.0
 10
5.8327736946
 20
4.7727797234
 30
0.0
 10
5.8145533877
 20
4.7750349838
 30
0.0
 10
5.7924603141
 20
4.7773523606
 30
0.0
 10
5.7743202538
 20
4.7789054526
 30
0.0
 10
5.760684424
 20
4.7798356975
 30
0.0
 10
5.7515941088
 20
4.7803342985
 30
0.0
 10
5.7435162823
 20
4.7806372241
 30
0.0
 10
5.7384896098
 20
4.7807204237
 30
0.0
 10
5.7361682792
 20
4.780724996
 30
0.0
  0
LINE
  5
65A
100
AcDbEntity
  8
0
100
AcDbLine
 62
9
  6
CONTINUOUS
 10
7.5426840173
 20
4.78038018
 11
7.5442864324
 21
4.7806458105
  0
LINE
  5
65B
100
AcDbEntity
  8
0
100
AcDbLine
 62
9
  6
CONTINUOUS
 10
7.5442864324
 20
4.7806458105
 11
7.5445328598
 21
4.780711634
  0
SPLINE
  5
65C
100
AcDbEntity
  8
0
100
AcDbSpline
 62
9
  6
CONTINUOUS
 70
0
 71
3
 72
9
 73
5
 74
0
 42
0.0000001
 43
0.0000001
 44
0.0000000001
 40
0.0
 40
0.0
 40
0.0
 40
0.0
 40
0.2082936304
 40
1.0
 40
1.0
 40
1.0
 40
1.0
 10
7.5445101644
 20
4.780722679
 30
0.0
 10
7.5445077236
 20
4.7807229758
 30
0.0
 10
7.5444959784
 20
4.7807241764
 30
0.0
 10
7.5444841756
 20
4.780724713
 30
0.0
 10
7.5444748343
 20
4.780724996
 30
0.0
  0
SPLINE
  5
65D
100
AcDbEntity
  8
0
100
AcDbSpline
 62
9
  6
CONTINUOUS
 70
0
 71
3
 72
31
 73
27
 74
0
 42
0.0000001
 43
0.0000001
 44
0.0000000001
 40
0.0
 40
0.0
 40
0.0
 40
0.0
 40
0.0251043365
 40
0.0472805219
 40
0.0665320932
 40
0.0828951429
 40
0.0964681971
 40
0.1074869655
 40
0.116431208
 40
0.1241942637
 40
0.1320991443
 40
0.1414184273
 40
0.152949822
 40
0.1671021725
 40
0.1840802413
 40
0.2039876553
 40
0.2268575116
 40
0.2526740656
 40
0.3129939399
 40
0.3845323005
 40
0.4665650929
 40
0.5582524723
 40
0.6586177572
 40
0.7665818221
 40
0.8808915455
 40
1.0
 40
1.0
 40
1.0
 40
1.0
 10
6.8758586144
 20
4.7686773163
 30
0.0
 10
6.8764243479
 20
4.7688522232
 30
0.0
 10
6.8774844352
 20
4.7691997025
 30
0.0
 10
6.8789528882
 20
4.7697551236
 30
0.0
 10
6.8801987015
 20
4.7703109029
 30
0.0
 10
6.8812195733
 20
4.7708654743
 30
0.0
 10
6.8820148869
 20
4.7714188605
 30
0.0
 10
6.8825855828
 20
4.7719735434
 30
0.0
 10
6.8829326133
 20
4.7725408427
 30
0.0
 10
6.8830259677
 20
4.7731333815
 30
0.0
 10
6.8828380084
 20
4.7737113444
 30
0.0
 10
6.882405832
 20
4.7742461682
 30
0.0
 10
6.8817518205
 20
4.7747569984
 30
0.0
 10
6.8808730565
 20
4.7752524604
 30
0.0
 10
6.8797682494
 20
4.7757342467
 30
0.0
 10
6.8784373615
 20
4.7762012094
 30
0.0
 10
6.8768828671
 20
4.7766521896
 30
0.0
 10
6.8743845042
 20
4.7772624253
 30
0.0
 10
6.8707277902
 20
4.7779538437
 30
0.0
 10
6.8657318528
 20
4.7786645712
 30
0.0
 10
6.8599790234
 20
4.7792835643
 30
0.0
 10
6.8535341132
 20
4.7798012535
 30
0.0
 10
6.8464687742
 20
4.7802110023
 30
0.0
 10
6.8388638268
 20
4.7805075166
 30
0.0
 10
6.8308130537
 20
4.7806863264
 30
0.0
 10
6.8253071508
 20
4.7807251368
 30
0.0
 10
6.8224976521
 20
4.780724996
 30
0.0
  0
SPLINE
  5
65E
100
AcDbEntity
  8
0
100
AcDbSpline
 62
9
  6
CONTINUOUS
 70
0
 71
3
 72
35
 73
31
 74
0
 42
0.0000001
 43
0.0000001
 44
0.0000000001
 40
0.0
 40
0.0
 40
0.0
 40
0.0
 40
0.0194360689
 40
0.0357837547
 40
0.0491226543
 40
0.0596264903
 40
0.0639332479
 40
0.0677130683
 40
0.0711002281
 40
0.0742836744
 40
0.0774931122
 40
0.0809572948
 40
0.084862045
 40
0.0893339032
 40
0.1002590002
 40
0.114095313
 40
0.1309686999
 40
0.1508989057
 40
0.1738487943
 40
0.1997586927
 40
0.2285491086
 40
0.26010692
 40
0.3310227782
 40
0.4113536334
 40
0.4996481545
 40
0.5942896934
 40
0.6935135396
 40
0.7954914549
 40
0.898336075
 40
1.0
 40
1.0
 40
1.0
 40
1.0
 10
6.4388955937
 20
4.7640613306
 30
0.0
 10
6.4395904533
 20
4.7642411998
 30
0.0
 10
6.440862464
 20
4.7646020229
 30
0.0
 10
6.4425725154
 20
4.7652141587
 30
0.0
 10
6.4439174837
 20
4.7658467313
 30
0.0
 10
6.4447915996
 20
4.7664240221
 30
0.0
 10
6.4452812559
 20
4.7669086252
 30
0.0
 10
6.4455299222
 20
4.7672548398
 30
0.0
 10
6.4456823994
 20
4.7676094227
 30
0.0
 10
6.4457334264
 20
4.7679717707
 30
0.0
 10
6.4456797235
 20
4.7683365417
 30
0.0
 10
6.4455236897
 20
4.7686986104
 30
0.0
 10
6.4452696944
 20
4.7690574904
 30
0.0
 10
6.4447694867
 20
4.7695683801
 30
0.0
 10
6.4438791591
 20
4.770191841
 30
0.0
 10
6.4425108907
 20
4.7708972988
 30
0.0
 10
6.4407764106
 20
4.771602013
 30
0.0
 10
6.438683008
 20
4.7723027284
 30
0.0
 10
6.4362383237
 20
4.7729961109
 30
0.0
 10
6.4334525818
 20
4.7736782982
 30
0.0
 10
6.4303374189
 20
4.7743456085
 30
0.0
 10
6.4255740568
 20
4.7752468569
 30
0.0
 10
6.4189032929
 20
4.7762941747
 30
0.0
 10
6.410125734
 20
4.7774010536
 30
0.0
 10
6.4004518504
 20
4.7783787041
 30
0.0
 10
6.3900642306
 20
4.7792078203
 30
0.0
 10
6.3791587
 20
4.7798745769
 30
0.0
 10
6.3679404524
 20
4.7803625044
 30
0.0
 10
6.3566252471
 20
4.7806519966
 30
0.0
 10
6.3490728044
 20
4.7807207079
 30
0.0
 10
6.3453184192
 20
4.780724996
 30
0.0
  0
SPLINE
  5
65F
100
AcDbEntity
  8
0
100
AcDbSpline
 62
9
  6
CONTINUOUS
 70
0
 71
3
 72
24
 73
20
 74
0
 42
0.0000001
 43
0.0000001
 44
0.0000000001
 40
0.0
 40
0.0
 40
0.0
 40
0.0
 40
0.0649281628
 40
0.1172146142
 40
0.1568379827
 40
0.1839506243
 40
0.1930557001
 40
0.1995956238
 40
0.2045729416
 40
0.2099828539
 40
0.2175067039
 40
0.2278583427
 40
0.2580142639
 40
0.3014724421
 40
0.3586161494
 40
0.429690799
 40
0.5148917227
 40
0.7283484305
 40
1.0
 40
1.0
 40
1.0
 40
1.0
 10
5.57682797
 20
4.780724996
 30
0.0
 10
5.5767890246
 20
4.7807245558
 30
0.0
 10
5.5767187374
 20
4.7807229955
 30
0.0
 10
5.576624713
 20
4.7807177567
 30
0.0
 10
5.5765538609
 20
4.7807096799
 30
0.0
 10
5.5765089208
 20
4.7807005001
 30
0.0
 10
5.5764853902
 20
4.7806902025
 30
0.0
 10
5.5764751995
 20
4.7806826642
 30
0.0
 10
5.5764712211
 20
4.7806724407
 30
0.0
 10
5.5764756978
 20
4.7806618813
 30
0.0
 10
5.5764857145
 20
4.7806520559
 30
0.0
 10
5.5765096638
 20
4.780635825
 30
0.0
 10
5.5765558043
 20
4.780615093
 30
0.0
 10
5.5766296427
 20
4.7805886835
 30
0.0
 10
5.5767283342
 20
4.7805590761
 30
0.0
 10
5.5768520408
 20
4.7805261072
 30
0.0
 10
5.5770675877
 20
4.7804737857
 30
0.0
 10
5.5774019827
 20
4.7804013778
 30
0.0
 10
5.5776874595
 20
4.7803449212
 30
0.0
 10
5.5778474875
 20
4.7803141837
 30
0.0
  0
LINE
  5
660
100
AcDbEntity
  8
0
100
AcDbLine
 62
9
  6
CONTINUOUS
 10
7.5006778353
 20
4.7755414036
 11
7.5054542765
 21
4.776133361
  0
LINE
  5
661
100
AcDbEntity
  8
0
100
AcDbLine
 62
9
  6
CONTINUOUS
 10
7.5331442328
 20
4.7794961131
 11
7.5444748343
 21
4.780724996
  0
LINE
  5
662
100
AcDbEntity
  8
0
100
AcDbLine
 62
9
  6
CONTINUOUS
 10
5.6324528608
 20
4.7745355572
 11
5.6274471831
 21
4.7751465092
  0
LINE
  5
663
100
AcDbEntity
  8
0
100
AcDbLine
 62
9
  6
CONTINUOUS
 10
5.6274471831
 20
4.7751465092
 11
5.5884578186
 21
4.7796746741
  0
LINE
  5
664
100
AcDbEntity
  8
0
100
AcDbLine
 62
9
  6
CONTINUOUS
 10
5.5884578186
 20
4.7796746741
 11
5.57682797
 21
4.780724996
  0
SPLINE
  5
665
100
AcDbEntity
  8
0
100
AcDbSpline
 62
9
  6
CONTINUOUS
 70
0
 71
3
 72
17
 73
13
 74
0
 42
0.0000001
 43
0.0000001
 44
0.0000000001
 40
0.0
 40
0.0
 40
0.0
 40
0.0
 40
0.2243992094
 40
0.4195580169
 40
0.5854234659
 40
0.7220527813
 40
0.8297160433
 40
0.8729228416
 40
0.9092960993
 40
0.9392200332
 40
0.9633886861
 40
1.0
 40
1.0
 40
1.0
 40
1.0
 10
7.495020823
 20
4.7690281309
 30
0.0
 10
7.4952475739
 20
4.7690281343
 30
0.0
 10
7.4956715516
 20
4.7690244735
 30
0.0
 10
7.4962628569
 20
4.7690052159
 30
0.0
 10
7.4967648294
 20
4.7689728723
 30
0.0
 10
7.4971769163
 20
4.7689275113
 30
0.0
 10
7.4974634379
 20
4.7688766686
 30
0.0
 10
7.4976459872
 20
4.7688262764
 30
0.0
 10
7.4977500221
 20
4.7687882596
 30
0.0
 10
7.4978318145
 20
4.7687462799
 30
0.0
 10
7.4979055474
 20
4.7686923195
 30
0.0
 10
7.4979388653
 20
4.7686319103
 30
0.0
 10
7.4979389579
 20
4.7685949154
 30
0.0
  0
SPLINE
  5
666
100
AcDbEntity
  8
0
100
AcDbSpline
 62
9
  6
CONTINUOUS
 70
0
 71
3
 72
26
 73
22
 74
0
 42
0.0000001
 43
0.0000001
 44
0.0000000001
 40
0.0
 40
0.0
 40
0.0
 40
0.0
 40
0.1173262232
 40
0.2192457487
 40
0.3056693701
 40
0.3765450493
 40
0.4319006185
 40
0.4538261008
 40
0.4719985288
 40
0.4865625813
 40
0.4978358952
 40
0.5065401411
 40
0.5140623953
 40
0.5323724589
 40
0.5617092272
 40
0.6037593896
 40
0.6585613703
 40
0.7257445116
 40
0.8048832813
 40
0.8961502418
 40
1.0
 40
1.0
 40
1.0
 40
1.0
 10
7.5047868592
 20
4.780724996
 30
0.0
 10
7.5050562111
 20
4.7807271072
 30
0.0
 10
7.5055595921
 20
4.7807274205
 30
0.0
 10
7.5062612725
 20
4.7807139069
 30
0.0
 10
7.5068558926
 20
4.78068671
 30
0.0
 10
7.5073424981
 20
4.7806459488
 30
0.0
 10
7.5076797641
 20
4.780598687
 30
0.0
 10
7.5078937658
 20
4.7805508283
 30
0.0
 10
7.5080140167
 20
4.7805144652
 30
0.0
 10
7.5081073294
 20
4.7804748049
 30
0.0
 10
7.5081742229
 20
4.7804313436
 30
0.0
 10
7.5082162987
 20
4.7803818879
 30
0.0
 10
7.5082316266
 20
4.7802997761
 30
0.0
 10
7.5081498801
 20
4.7801867156
 30
0.0
 10
7.5079820849
 20
4.7800723274
 30
0.0
 10
7.5077223356
 20
4.7799392932
 30
0.0
 10
7.5073740174
 20
4.7797971237
 30
0.0
 10
7.5069384596
 20
4.7796428505
 30
0.0
 10
7.506418383
 20
4.7794783684
 30
0.0
 10
7.5058133231
 20
4.7793038776
 30
0.0
 10
7.5053804238
 20
4.7791886325
 30
0.0
 10
7.5051495556
 20
4.7791290992
 30
0.0
  0
SPLINE
  5
667
100
AcDbEntity
  8
0
100
AcDbSpline
 62
9
  6
CONTINUOUS
 70
0
 71
3
 72
13
 73
9
 74
0
 42
0.0000001
 43
0.0000001
 44
0.0000000001
 40
0.0
 40
0.0
 40
0.0
 40
0.0
 40
0.2772334368
 40
0.5231622427
 40
0.6332658192
 40
0.7476690284
 40
0.870382421
 40
1.0
 40
1.0
 40
1.0
 40
1.0
 10
7.4950208229
 20
4.7690281309
 30
0.0
 10
7.4950201169
 20
4.7705576405
 30
0.0
 10
7.4955682427
 20
4.7734742493
 30
0.0
 10
7.4974233069
 20
4.7765185112
 30
0.0
 10
7.4992909287
 20
4.7783340527
 30
0.0
 10
7.500870795
 20
4.7794338898
 30
0.0
 10
7.5027169091
 20
4.7802877437
 30
0.0
 10
7.5040789628
 20
4.7806238212
 30
0.0
 10
7.5047866924
 20
4.7807262696
 30
0.0
  0
SPLINE
  5
668
100
AcDbEntity
  8
0
100
AcDbSpline
 62
9
  6
CONTINUOUS
 70
0
 71
3
 72
13
 73
9
 74
0
 42
0.0000001
 43
0.0000001
 44
0.0000000001
 40
0.0
 40
0.0
 40
0.0
 40
0.0
 40
0.2937849657
 40
0.5732722404
 40
0.7002907037
 40
0.8153179242
 40
0.9160300785
 40
1.0
 40
1.0
 40
1.0
 40
1.0
 10
7.4159859668
 20
4.7720064652
 30
0.0
 10
7.4238816297
 20
4.7730023239
 30
0.0
 10
7.4392985051
 20
4.7748684547
 30
0.0
 10
7.4581534615
 20
4.7769575243
 30
0.0
 10
7.472209718
 20
4.7783763723
 30
0.0
 10
7.4814543711
 20
4.7792404006
 30
0.0
 10
7.4895445497
 20
4.7799214876
 30
0.0
 10
7.4945347926
 20
4.7802793345
 30
0.0
 10
7.4968052722
 20
4.7804166134
 30
0.0
  0
LINE
  5
669
100
AcDbEntity
  8
0
100
AcDbLine
 62
9
  6
CONTINUOUS
 10
7.4968052722
 20
4.7804166134
 11
7.5047868592
 21
4.780724996
  0
LINE
  5
66A
100
AcDbEntity
  8
0
100
AcDbLine
 62
9
  6
CONTINUOUS
 10
5.7280898188
 20
4.7710411993
 11
5.7270394761
 21
4.771178702
  0
SPLINE
  5
66B
100
AcDbEntity
  8
0
100
AcDbSpline
 62
9
  6
CONTINUOUS
 70
0
 71
3
 72
13
 73
9
 74
0
 42
0.0000001
 43
0.0000001
 44
0.0000000001
 40
0.0
 40
0.0
 40
0.0
 40
0.0
 40
0.2820485561
 40
0.5593768917
 40
0.688180426
 40
0.8063325132
 40
0.9111871289
 40
1.0
 40
1.0
 40
1.0
 40
1.0
 10
5.7270394761
 20
4.771178702
 30
0.0
 10
5.7187320862
 20
4.7722637745
 30
0.0
 10
5.7022417774
 20
4.7743051979
 30
0.0
 10
5.6819252925
 20
4.7765697873
 30
0.0
 10
5.6664297135
 20
4.7781251134
 30
0.0
 10
5.656023254
 20
4.7790814862
 30
0.0
 10
5.6467916848
 20
4.7798366906
 30
0.0
 10
5.6410521389
 20
4.7802303894
 30
0.0
 10
5.6384183514
 20
4.780381036
 30
0.0
  0
LINE
  5
66C
100
AcDbEntity
  8
0
100
AcDbLine
 62
9
  6
CONTINUOUS
 10
5.6384183514
 20
4.780381036
 11
5.6288738616
 21
4.780724996
  0
SPLINE
  5
66D
100
AcDbEntity
  8
0
100
AcDbSpline
 62
9
  6
CONTINUOUS
 70
0
 71
3
 72
35
 73
31
 74
0
 42
0.0000001
 43
0.0000001
 44
0.0000000001
 40
0.0
 40
0.0
 40
0.0
 40
0.0
 40
0.2163991526
 40
0.3209728346
 40
0.4209302247
 40
0.5148015121
 40
0.6012019325
 40
0.6788422886
 40
0.7466557883
 40
0.7765796209
 40
0.8037305548
 40
0.8280391628
 40
0.8494466703
 40
0.8679235659
 40
0.8834987335
 40
0.8962626834
 40
0.9064261249
 40
0.9106788934
 40
0.9145029703
 40
0.9180427509
 40
0.921478532
 40
0.925006473
 40
0.9288083945
 40
0.9330307872
 40
0.937781335
 40
0.9431348896
 40
0.9491397419
 40
0.9632120887
 40
0.980147752
 40
1.0
 40
1.0
 40
1.0
 40
1.0
 10
6.5846751564
 20
4.7807249961
 30
0.0
 10
6.5778757405
 20
4.7807240226
 30
0.0
 10
6.5677894544
 20
4.7805686127
 30
0.0
 10
6.5545737778
 20
4.7800364245
 30
0.0
 10
6.5452129277
 20
4.7794932919
 30
0.0
 10
6.5364338265
 20
4.7788105384
 30
0.0
 10
6.5283696996
 20
4.7780011926
 30
0.0
 10
6.5211425767
 20
4.7770770687
 30
0.0
 10
6.5157015153
 20
4.7761943613
 30
0.0
 10
6.5118528815
 20
4.7754265054
 30
0.0
 10
6.5093597871
 20
4.7748560263
 30
0.0
 10
6.5071461424
 20
4.7742693507
 30
0.0
 10
6.505219751
 20
4.7736687998
 30
0.0
 10
6.5035870926
 20
4.773056585
 30
0.0
 10
6.5022512188
 20
4.7724352226
 30
0.0
 10
6.5012144388
 20
4.7718071389
 30
0.0
 10
6.5005607523
 20
4.7712447673
 30
0.0
 10
6.5002159215
 20
4.770784021
 30
0.0
 10
6.5000513809
 20
4.7704555754
 30
0.0
 10
6.4999672145
 20
4.7701236994
 30
0.0
 10
6.4999658463
 20
4.7697902824
 30
0.0
 10
6.5000473172
 20
4.7694587953
 30
0.0
 10
6.5002093088
 20
4.7691313024
 30
0.0
 10
6.5004496527
 20
4.7688077019
 30
0.0
 10
6.5007674474
 20
4.7684872304
 30
0.0
 10
6.5011623814
 20
4.7681693389
 30
0.0
 10
6.5018273371
 20
4.7677248188
 30
0.0
 10
6.5028613839
 20
4.7671860294
 30
0.0
 10
6.5043409961
 20
4.7665791244
 30
0.0
 10
6.5054378327
 20
4.7662118029
 30
0.0
 10
6.506033719
 20
4.7660273827
 30
0.0
  0
LINE
  5
66E
100
AcDbEntity
  8
0
100
AcDbLine
 62
9
  6
CONTINUOUS
 10
6.506033719
 20
4.7660273827
 11
6.508202002
 21
4.7654147669
  0
SPLINE
  5
66F
100
AcDbEntity
  8
0
100
AcDbSpline
 62
9
  6
CONTINUOUS
 70
0
 71
3
 72
31
 73
27
 74
0
 42
0.0000001
 43
0.0000001
 44
0.0000000001
 40
0.0
 40
0.0
 40
0.0
 40
0.0
 40
0.0220158798
 40
0.0411027714
 40
0.0572537421
 40
0.07052027
 40
0.0810916525
 40
0.0894584862
 40
0.0931193026
 40
0.0966460983
 40
0.1002364413
 40
0.1040779308
 40
0.1083240842
 40
0.113086904
 40
0.1244356719
 40
0.1385092751
 40
0.1554747
 40
0.1753991156
 40
0.1982812584
 40
0.2527782565
 40
0.3185033252
 40
0.3946033713
 40
0.4800505882
 40
0.5735669377
 40
0.7793798431
 40
1.0
 40
1.0
 40
1.0
 40
1.0
 10
6.6579124853
 20
4.7662141082
 30
0.0
 10
6.6585540429
 20
4.766399579
 30
0.0
 10
6.659745291
 20
4.76676943
 30
0.0
 10
6.661374425
 20
4.7673745014
 30
0.0
 10
6.6627137091
 20
4.7679878356
 30
0.0
 10
6.6637596876
 20
4.7686093148
 30
0.0
 10
6.6645125322
 20
4.7692400956
 30
0.0
 10
6.6649128378
 20
4.769815622
 30
0.0
 10
6.6650449995
 20
4.7702728488
 30
0.0
 10
6.6650586842
 20
4.770602783
 30
0.0
 10
6.6649909107
 20
4.7709313784
 30
0.0
 10
6.6648436444
 20
4.7712562369
 30
0.0
 10
6.6646193828
 20
4.7715772091
 30
0.0
 10
6.6641941693
 20
4.7720273761
 30
0.0
 10
6.6634523468
 20
4.7725744224
 30
0.0
 10
6.6623195511
 20
4.77318691
 30
0.0
 10
6.6608940869
 20
4.7737899863
 30
0.0
 10
6.6591791449
 20
4.7743814017
 30
0.0
 10
6.6563423182
 20
4.7752000683
 30
0.0
 10
6.6521021631
 20
4.7761462457
 30
0.0
 10
6.6462303984
 20
4.7771481554
 30
0.0
 10
6.6393947571
 20
4.7780540877
 30
0.0
 10
6.6316975811
 20
4.7788472027
 30
0.0
 10
6.6200614761
 20
4.7797699565
 30
0.0
 10
6.6043036748
 20
4.7805312101
 30
0.0
 10
6.5913674365
 20
4.7807174779
 30
0.0
 10
6.5846751564
 20
4.7807249961
 30
0.0
  0
SPLINE
  5
670
100
AcDbEntity
  8
0
100
AcDbSpline
 62
9
  6
CONTINUOUS
 70
0
 71
3
 72
19
 73
15
 74
0
 42
0.0000001
 43
0.0000001
 44
0.0000000001
 40
0.0
 40
0.0
 40
0.0
 40
0.0
 40
0.2217949457
 40
0.4159815496
 40
0.5820335841
 40
0.7195215003
 40
0.7774814993
 40
0.8282496738
 40
0.8718888456
 40
0.9085947542
 40
0.9387389611
 40
0.9629930767
 40
0.9826377304
 40
1.0
 40
1.0
 40
1.0
 40
1.0
 10
7.4001263965
 20
4.7690283467
 30
0.0
 10
7.4008792783
 20
4.7690283882
 30
0.0
 10
7.4022913861
 20
4.7690155872
 30
0.0
 10
7.4042662676
 20
4.7689495271
 30
0.0
 10
7.4059524557
 20
4.7688386969
 30
0.0
 10
7.4071729539
 20
4.7687042842
 30
0.0
 10
7.4079977788
 20
4.7685681212
 30
0.0
 10
7.4085040103
 20
4.7684610435
 30
0.0
 10
7.4089335667
 20
4.7683432695
 30
0.0
 10
7.4092865783
 20
4.7682149611
 30
0.0
 10
7.4095639916
 20
4.7680760406
 30
0.0
 10
7.4097673339
 20
4.767925266
 30
0.0
 10
7.4098972894
 20
4.7677577123
 30
0.0
 10
7.4099276931
 20
4.7676307553
 30
0.0
 10
7.4099278249
 20
4.7675718193
 30
0.0
  0
SPLINE
  5
671
100
AcDbEntity
  8
0
100
AcDbSpline
 62
9
  6
CONTINUOUS
 70
0
 71
3
 72
13
 73
9
 74
0
 42
0.0000001
 43
0.0000001
 44
0.0000000001
 40
0.0
 40
0.0
 40
0.0
 40
0.0
 40
0.2887839439
 40
0.5390200849
 40
0.6482498958
 40
0.7597934563
 40
0.8774324775
 40
1.0
 40
1.0
 40
1.0
 40
1.0
 10
7.4001263994
 20
4.7690282263
 30
0.0
 10
7.400125764
 20
4.7705525924
 30
0.0
 10
7.4006035657
 20
4.7734229527
 30
0.0
 10
7.4022610488
 20
4.7764888639
 30
0.0
 10
7.4039522778
 20
4.7783238376
 30
0.0
 10
7.405370056
 20
4.7794255814
 30
0.0
 10
7.4070295009
 20
4.780283212
 30
0.0
 10
7.4082632277
 20
4.7806235608
 30
0.0
 10
7.4089019702
 20
4.7807264819
 30
0.0
  0
SPLINE
  5
672
100
AcDbEntity
  8
0
100
AcDbSpline
 62
7
  6
CONTINUOUS
 70
0
 71
3
 72
9
 73
5
 74
0
 42
0.0000001
 43
0.0000001
 44
0.0000000001
 40
0.0
 40
0.0
 40
0.0
 40
0.0
 40
0.4892807237
 40
1.0
 40
1.0
 40
1.0
 40
1.0
 10
2.6870300679
 20
8.7408388286
 30
0.0
 10
2.6921680669
 20
8.7447113388
 30
0.0
 10
2.7030809093
 20
8.7520924622
 30
0.0
 10
2.7146790535
 20
8.7583416179
 30
0.0
 10
2.7207399071
 20
8.7612344527
 30
0.0
  0
SPLINE
  5
673
100
AcDbEntity
  8
0
100
AcDbSpline
 62
7
  6
CONTINUOUS
 70
0
 71
3
 72
9
 73
5
 74
0
 42
0.0000001
 43
0.0000001
 44
0.0000000001
 40
0.0
 40
0.0
 40
0.0
 40
0.0
 40
0.4866888858
 40
1.0
 40
1.0
 40
1.0
 40
1.0
 10
2.6870300679
 20
8.7359931817
 30
0.0
 10
2.6925683098
 20
8.7398392239
 30
0.0
 10
2.7043798945
 20
8.7471338075
 30
0.0
 10
2.7168792816
 20
8.7531717201
 30
0.0
 10
2.7234275158
 20
8.7559456476
 30
0.0
  0
SPLINE
  5
674
100
AcDbEntity
  8
0
100
AcDbSpline
 62
7
  6
CONTINUOUS
 70
0
 71
3
 72
9
 73
5
 74
0
 42
0.0000001
 43
0.0000001
 44
0.0000000001
 40
0.0
 40
0.0
 40
0.0
 40
0.0
 40
0.4848518977
 40
1.0
 40
1.0
 40
1.0
 40
1.0
 10
2.6870300679
 20
8.7279411534
 30
0.0
 10
2.6925504056
 20
8.7314305701
 30
0.0
 10
2.7043137599
 20
8.7380427119
 30
0.0
 10
2.7166608621
 20
8.7434825345
 30
0.0
 10
2.7231315618
 20
8.7459878804
 30
0.0
  0
LINE
  5
675
100
AcDbEntity
  8
0
100
AcDbLine
 62
7
  6
CONTINUOUS
 10
2.7231315618
 20
8.7459878804
 11
2.7234275158
 21
8.7461022317
  0
SPLINE
  5
676
100
AcDbEntity
  8
0
100
AcDbSpline
 62
7
  6
CONTINUOUS
 70
0
 71
3
 72
9
 73
5
 74
0
 42
0.0000001
 43
0.0000001
 44
0.0000000001
 40
0.0
 40
0.0
 40
0.0
 40
0.0
 40
0.2373004483
 40
1.0
 40
1.0
 40
1.0
 40
1.0
 10
2.6870300679
 20
8.7167187063
 30
0.0
 10
2.689750721
 20
8.7182611237
 30
0.0
 10
2.7013720739
 20
8.7244832847
 30
0.0
 10
2.7135831835
 20
8.7295864509
 30
0.0
 10
2.7230780309
 20
8.7328861277
 30
0.0
  0
LINE
  5
677
100
AcDbEntity
  8
0
100
AcDbLine
 62
7
  6
CONTINUOUS
 10
2.7230780309
 20
8.7328861277
 11
2.7234275158
 21
8.733007285
  0
SPLINE
  5
678
100
AcDbEntity
  8
0
100
AcDbSpline
 62
7
  6
CONTINUOUS
 70
0
 71
3
 72
9
 73
5
 74
0
 42
0.0000001
 43
0.0000001
 44
0.0000000001
 40
0.0
 40
0.0
 40
0.0
 40
0.0
 40
0.4809371627
 40
1.0
 40
1.0
 40
1.0
 40
1.0
 10
2.6870300679
 20
8.7023759624
 30
0.0
 10
2.6925887219
 20
8.7051509765
 30
0.0
 10
2.7044156207
 20
8.710392187
 30
0.0
 10
2.7166318927
 20
8.7146390037
 30
0.0
 10
2.7230434668
 20
8.7166020248
 30
0.0
  0
LINE
  5
679
100
AcDbEntity
  8
0
100
AcDbLine
 62
7
  6
CONTINUOUS
 10
2.7230434668
 20
8.7166020248
 11
2.7234275158
 21
8.7167192928
  0
SPLINE
  5
67A
100
AcDbEntity
  8
0
100
AcDbSpline
 62
7
  6
CONTINUOUS
 70
0
 71
3
 72
9
 73
5
 74
0
 42
0.0000001
 43
0.0000001
 44
0.0000000001
 40
0.0
 40
0.0
 40
0.0
 40
0.0
 40
0.4790301774
 40
1.0
 40
1.0
 40
1.0
 40
1.0
 10
2.6870300679
 20
8.6849769799
 30
0.0
 10
2.6926126022
 20
8.6873735031
 30
0.0
 10
2.7044783829
 20
8.6918909664
 30
0.0
 10
2.7166411745
 20
8.69552427
 30
0.0
 10
2.7230304553
 20
8.697206735
 30
0.0
  0
LINE
  5
67B
100
AcDbEntity
  8
0
100
AcDbLine
 62
7
  6
CONTINUOUS
 10
2.7230304553
 20
8.697206735
 11
2.7234275158
 21
8.6973110013
  0
SPLINE
  5
67C
100
AcDbEntity
  8
0
100
AcDbSpline
 62
7
  6
CONTINUOUS
 70
0
 71
3
 72
9
 73
5
 74
0
 42
0.0000001
 43
0.0000001
 44
0.0000000001
 40
0.0
 40
0.0
 40
0.0
 40
0.0
 40
0.4772408784
 40
1.0
 40
1.0
 40
1.0
 40
1.0
 10
2.6870300679
 20
8.6645994669
 30
0.0
 10
2.6926389071
 20
8.6666042766
 30
0.0
 10
2.704547519
 20
8.6703754974
 30
0.0
 10
2.7166679765
 20
8.6733874983
 30
0.0
 10
2.7230411117
 20
8.6747846139
 30
0.0
  0
LINE
  5
67D
100
AcDbEntity
  8
0
100
AcDbLine
 62
7
  6
CONTINUOUS
 10
2.7230411117
 20
8.6747846139
 11
2.7234275158
 21
8.6748690925
  0
SPLINE
  5
67E
100
AcDbEntity
  8
0
100
AcDbSpline
 62
7
  6
CONTINUOUS
 70
0
 71
3
 72
9
 73
5
 74
0
 42
0.0000001
 43
0.0000001
 44
0.0000000001
 40
0.0
 40
0.0
 40
0.0
 40
0.0
 40
0.4756416221
 40
1.0
 40
1.0
 40
1.0
 40
1.0
 10
2.6870300679
 20
8.6413344343
 30
0.0
 10
2.6926667209
 20
8.6429351828
 30
0.0
 10
2.70462122
 20
8.6459400939
 30
0.0
 10
2.716712844
 20
8.6483250169
 30
0.0
 10
2.7230768276
 20
8.6494328973
 30
0.0
  0
LINE
  5
67F
100
AcDbEntity
  8
0
100
AcDbLine
 62
7
  6
CONTINUOUS
 10
2.7230768276
 20
8.6494328973
 11
2.7234275158
 21
8.6494937975
  0
SPLINE
  5
680
100
AcDbEntity
  8
0
100
AcDbSpline
 62
7
  6
CONTINUOUS
 70
0
 71
3
 72
9
 73
5
 74
0
 42
0.0000001
 43
0.0000001
 44
0.0000000001
 40
0.0
 40
0.0
 40
0.0
 40
0.0
 40
0.4743066013
 40
1.0
 40
1.0
 40
1.0
 40
1.0
 10
2.6870300679
 20
8.6152857894
 30
0.0
 10
2.6926948581
 20
8.6164712741
 30
0.0
 10
2.7046971799
 20
8.6186924192
 30
0.0
 10
2.7167755539
 20
8.6204459109
 30
0.0
 10
2.7231380321
 20
8.6212614192
 30
0.0
  0
LINE
  5
681
100
AcDbEntity
  8
0
100
AcDbLine
 62
7
  6
CONTINUOUS
 10
2.7231380321
 20
8.6212614192
 11
2.7234275158
 21
8.6212984485
  0
SPLINE
  5
682
100
AcDbEntity
  8
0
100
AcDbSpline
 62
7
  6
CONTINUOUS
 70
0
 71
3
 72
9
 73
5
 74
0
 42
0.0000001
 43
0.0000001
 44
0.0000000001
 40
0.0
 40
0.0
 40
0.0
 40
0.0
 40
0.4731913946
 40
1.0
 40
1.0
 40
1.0
 40
1.0
 10
2.6870300679
 20
8.5865698718
 30
0.0
 10
2.6927525133
 20
8.5873345113
 30
0.0
 10
2.7048710013
 20
8.58876428
 30
0.0
 10
2.7170212837
 20
8.5898868093
 30
0.0
 10
2.7234275158
 20
8.5904089728
 30
0.0
  0
SPLINE
  5
683
100
AcDbEntity
  8
0
100
AcDbSpline
 62
7
  6
CONTINUOUS
 70
0
 71
3
 72
9
 73
5
 74
0
 42
0.0000001
 43
0.0000001
 44
0.0000000001
 40
0.0
 40
0.0
 40
0.0
 40
0.0
 40
0.5268088664
 40
1.0
 40
1.0
 40
1.0
 40
1.0
 10
2.9114275158
 20
8.5904089728
 30
0.0
 10
2.917833751
 20
8.589886809
 30
0.0
 10
2.9299840335
 20
8.5887642799
 30
0.0
 10
2.9421025214
 20
8.5873345109
 30
0.0
 10
2.9478249636
 20
8.5865698718
 30
0.0
  0
LINE
  5
684
100
AcDbEntity
  8
0
100
AcDbLine
 62
7
  6
CONTINUOUS
 10
2.9114275158
 20
8.6212984485
 11
2.9117170356
 21
8.6212614145
  0
SPLINE
  5
685
100
AcDbEntity
  8
0
100
AcDbSpline
 62
7
  6
CONTINUOUS
 70
0
 71
3
 72
9
 73
5
 74
0
 42
0.0000001
 43
0.0000001
 44
0.0000000001
 40
0.0
 40
0.0
 40
0.0
 40
0.0
 40
0.5256936407
 40
1.0
 40
1.0
 40
1.0
 40
1.0
 10
2.9117170356
 20
8.6212614145
 30
0.0
 10
2.9180795104
 20
8.6204459062
 30
0.0
 10
2.9301578723
 20
8.6186924161
 30
0.0
 10
2.942160182
 20
8.6164712723
 30
0.0
 10
2.9478249636
 20
8.6152857894
 30
0.0
  0
LINE
  5
686
100
AcDbEntity
  8
0
100
AcDbLine
 62
7
  6
CONTINUOUS
 10
2.9114275158
 20
8.6494937975
 11
2.9117782467
 21
8.6494328898
  0
SPLINE
  5
687
100
AcDbEntity
  8
0
100
AcDbSpline
 62
7
  6
CONTINUOUS
 70
0
 71
3
 72
9
 73
5
 74
0
 42
0.0000001
 43
0.0000001
 44
0.0000000001
 40
0.0
 40
0.0
 40
0.0
 40
0.0
 40
0.5243586166
 40
1.0
 40
1.0
 40
1.0
 40
1.0
 10
2.9117782467
 20
8.6494328898
 30
0.0
 10
2.9181422257
 20
8.6483250096
 30
0.0
 10
2.9302338354
 20
8.6459400889
 30
0.0
 10
2.9421883202
 20
8.6429351802
 30
0.0
 10
2.9478249636
 20
8.6413344343
 30
0.0
  0
LINE
  5
688
100
AcDbEntity
  8
0
100
AcDbLine
 62
7
  6
CONTINUOUS
 10
2.9114275158
 20
8.6748690925
 11
2.9118139656
 21
8.6747846039
  0
SPLINE
  5
689
100
AcDbEntity
  8
0
100
AcDbSpline
 62
7
  6
CONTINUOUS
 70
0
 71
3
 72
9
 73
5
 74
0
 42
0.0000001
 43
0.0000001
 44
0.0000000001
 40
0.0
 40
0.0
 40
0.0
 40
0.0
 40
0.5227593591
 40
1.0
 40
1.0
 40
1.0
 40
1.0
 10
2.9118139656
 20
8.6747846039
 30
0.0
 10
2.9181870955
 20
8.6733874885
 30
0.0
 10
2.9303075378
 20
8.6703754906
 30
0.0
 10
2.9422161343
 20
8.6666042731
 30
0.0
 10
2.9478249636
 20
8.6645994669
 30
0.0
  0
LINE
  5
68A
100
AcDbEntity
  8
0
100
AcDbLine
 62
7
  6
CONTINUOUS
 10
2.9114275158
 20
8.6973110013
 11
2.9118246216
 21
8.697206723
  0
SPLINE
  5
68B
100
AcDbEntity
  8
0
100
AcDbSpline
 62
7
  6
CONTINUOUS
 70
0
 71
3
 72
9
 73
5
 74
0
 42
0.0000001
 43
0.0000001
 44
0.0000000001
 40
0.0
 40
0.0
 40
0.0
 40
0.0
 40
0.5209700605
 40
1.0
 40
1.0
 40
1.0
 40
1.0
 10
2.9118246216
 20
8.697206723
 30
0.0
 10
2.9182138972
 20
8.6955242583
 30
0.0
 10
2.9303766736
 20
8.6918909584
 30
0.0
 10
2.9422424391
 20
8.687373499
 30
0.0
 10
2.9478249636
 20
8.6849769799
 30
0.0
  0
LINE
  5
68C
100
AcDbEntity
  8
0
100
AcDbLine
 62
7
  6
CONTINUOUS
 10
2.9114275158
 20
8.7167192928
 11
2.9118116069
 21
8.7166020119
  0
SPLINE
  5
68D
100
AcDbEntity
  8
0
100
AcDbSpline
 62
7
  6
CONTINUOUS
 70
0
 71
3
 72
9
 73
5
 74
0
 42
0.0000001
 43
0.0000001
 44
0.0000000001
 40
0.0
 40
0.0
 40
0.0
 40
0.0
 40
0.519063077
 40
1.0
 40
1.0
 40
1.0
 40
1.0
 10
2.9118116069
 20
8.7166020119
 30
0.0
 10
2.9182231763
 20
8.7146389911
 30
0.0
 10
2.9304394342
 20
8.7103921783
 30
0.0
 10
2.9422663187
 20
8.705150972
 30
0.0
 10
2.9478249636
 20
8.7023759624
 30
0.0
  0
LINE
  5
68E
100
AcDbEntity
  8
0
100
AcDbLine
 62
7
  6
CONTINUOUS
 10
2.9114275158
 20
8.733007285
 11
2.9117770373
 21
8.732886115
  0
SPLINE
  5
68F
100
AcDbEntity
  8
0
100
AcDbSpline
 62
7
  6
CONTINUOUS
 70
0
 71
3
 72
9
 73
5
 74
0
 42
0.0000001
 43
0.0000001
 44
0.0000000001
 40
0.0
 40
0.0
 40
0.0
 40
0.0
 40
0.2629287813
 40
1.0
 40
1.0
 40
1.0
 40
1.0
 10
2.9117770373
 20
8.732886115
 30
0.0
 10
2.9150502112
 20
8.7317486115
 30
0.0
 10
2.9274047236
 20
8.7271585378
 30
0.0
 10
2.9393745001
 20
8.7215095199
 30
0.0
 10
2.9478249636
 20
8.7167187063
 30
0.0
  0
LINE
  5
690
100
AcDbEntity
  8
0
100
AcDbLine
 62
7
  6
CONTINUOUS
 10
2.9114275158
 20
8.7461022317
 11
2.9117234993
 21
8.745987869
  0
SPLINE
  5
691
100
AcDbEntity
  8
0
100
AcDbSpline
 62
7
  6
CONTINUOUS
 70
0
 71
3
 72
9
 73
5
 74
0
 42
0.0000001
 43
0.0000001
 44
0.0000000001
 40
0.0
 40
0.0
 40
0.0
 40
0.0
 40
0.5151483467
 40
1.0
 40
1.0
 40
1.0
 40
1.0
 10
2.9117234993
 20
8.745987869
 30
0.0
 10
2.9181941967
 20
8.7434825229
 30
0.0
 10
2.9305412891
 20
8.7380427041
 30
0.0
 10
2.9423046331
 20
8.7314305656
 30
0.0
 10
2.9478249636
 20
8.7279411534
 30
0.0
  0
SPLINE
  5
692
100
AcDbEntity
  8
0
100
AcDbSpline
 62
7
  6
CONTINUOUS
 70
0
 71
3
 72
9
 73
5
 74
0
 42
0.0000001
 43
0.0000001
 44
0.0000000001
 40
0.0
 40
0.0
 40
0.0
 40
0.0
 40
0.5133113666
 40
1.0
 40
1.0
 40
1.0
 40
1.0
 10
2.9114275158
 20
8.7559456476
 30
0.0
 10
2.9179757532
 20
8.7531717188
 30
0.0
 10
2.9304751408
 20
8.7471338069
 30
0.0
 10
2.9422867246
 20
8.7398392219
 30
0.0
 10
2.9478249636
 20
8.7359931817
 30
0.0
  0
SPLINE
  5
693
100
AcDbEntity
  8
0
100
AcDbSpline
 62
7
  6
CONTINUOUS
 70
0
 71
3
 72
9
 73
5
 74
0
 42
0.0000001
 43
0.0000001
 44
0.0000000001
 40
0.0
 40
0.0
 40
0.0
 40
0.0
 40
0.5107194648
 40
1.0
 40
1.0
 40
1.0
 40
1.0
 10
2.9141153675
 20
8.7612343366
 30
0.0
 10
2.9201761782
 20
8.7583415123
 30
0.0
 10
2.9317742376
 20
8.7520923893
 30
0.0
 10
2.9426870017
 20
8.7447113109
 30
0.0
 10
2.9478249636
 20
8.7408388286
 30
0.0
  0
SPLINE
  5
694
100
AcDbEntity
  8
0
100
AcDbSpline
 62
7
  6
CONTINUOUS
 70
0
 71
3
 72
9
 73
5
 74
0
 42
0.0000001
 43
0.0000001
 44
0.0000000001
 40
0.0
 40
0.0
 40
0.0
 40
0.0
 40
0.5268088786
 40
1.0
 40
1.0
 40
1.0
 40
1.0
 10
2.7234275158
 20
7.4457480268
 30
0.0
 10
2.7170212804
 20
7.4462701906
 30
0.0
 10
2.7048709979
 20
7.4473927194
 30
0.0
 10
2.69275251
 20
7.4488224887
 30
0.0
 10
2.6870300679
 20
7.4495871277
 30
0.0
  0
LINE
  5
695
100
AcDbEntity
  8
0
100
AcDbLine
 62
7
  6
CONTINUOUS
 10
2.7234275158
 20
7.4148585511
 11
2.7231379945
 21
7.4148955852
  0
SPLINE
  5
696
100
AcDbEntity
  8
0
100
AcDbSpline
 62
7
  6
CONTINUOUS
 70
0
 71
3
 72
9
 73
5
 74
0
 42
0.0000001
 43
0.0000001
 44
0.0000000001
 40
0.0
 40
0.0
 40
0.0
 40
0.0
 40
0.5256936512
 40
1.0
 40
1.0
 40
1.0
 40
1.0
 10
2.7231379945
 20
7.4148955852
 30
0.0
 10
2.7167755198
 20
7.4157110935
 30
0.0
 10
2.7046971584
 20
7.4174645833
 30
0.0
 10
2.6926948492
 20
7.4196857273
 30
0.0
 10
2.6870300679
 20
7.4208712101
 30
0.0
  0
LINE
  5
697
100
AcDbEntity
  8
0
100
AcDbLine
 62
7
  6
CONTINUOUS
 10
2.7234275158
 20
7.386663202
 11
2.7230767831
 21
7.38672411
  0
SPLINE
  5
698
100
AcDbEntity
  8
0
100
AcDbSpline
 62
7
  6
CONTINUOUS
 70
0
 71
3
 72
9
 73
5
 74
0
 42
0.0000001
 43
0.0000001
 44
0.0000000001
 40
0.0
 40
0.0
 40
0.0
 40
0.0
 40
0.5243586263
 40
1.0
 40
1.0
 40
1.0
 40
1.0
 10
2.7230767831
 20
7.38672411
 30
0.0
 10
2.7167128044
 20
7.3878319902
 30
0.0
 10
2.7046211951
 20
7.3902169105
 30
0.0
 10
2.692666711
 20
7.3932218195
 30
0.0
 10
2.6870300679
 20
7.3948225652
 30
0.0
  0
LINE
  5
699
100
AcDbEntity
  8
0
100
AcDbLine
 62
7
  6
CONTINUOUS
 10
2.7234275158
 20
7.361287907
 11
2.7230410641
 21
7.3613723961
  0
SPLINE
  5
69A
100
AcDbEntity
  8
0
100
AcDbSpline
 62
7
  6
CONTINUOUS
 70
0
 71
3
 72
9
 73
5
 74
0
 42
0.0000001
 43
0.0000001
 44
0.0000000001
 40
0.0
 40
0.0
 40
0.0
 40
0.0
 40
0.5227593679
 40
1.0
 40
1.0
 40
1.0
 40
1.0
 10
2.7230410641
 20
7.3613723961
 30
0.0
 10
2.7166679344
 20
7.3627695114
 30
0.0
 10
2.7045474927
 20
7.3657815087
 30
0.0
 10
2.6926388969
 20
7.3695527266
 30
0.0
 10
2.6870300679
 20
7.3715575327
 30
0.0
  0
LINE
  5
69B
100
AcDbEntity
  8
0
100
AcDbLine
 62
7
  6
CONTINUOUS
 10
2.7234275158
 20
7.3388459983
 11
2.7230304082
 21
7.338950277
  0
SPLINE
  5
69C
100
AcDbEntity
  8
0
100
AcDbSpline
 62
7
  6
CONTINUOUS
 70
0
 71
3
 72
9
 73
5
 74
0
 42
0.0000001
 43
0.0000001
 44
0.0000000001
 40
0.0
 40
0.0
 40
0.0
 40
0.0
 40
0.5209700686
 40
1.0
 40
1.0
 40
1.0
 40
1.0
 10
2.7230304082
 20
7.338950277
 30
0.0
 10
2.7166411328
 20
7.3406327416
 30
0.0
 10
2.7044783568
 20
7.3442660409
 30
0.0
 10
2.6926125921
 20
7.3487835007
 30
0.0
 10
2.6870300679
 20
7.3511800197
 30
0.0
  0
LINE
  5
69D
100
AcDbEntity
  8
0
100
AcDbLine
 62
7
  6
CONTINUOUS
 10
2.7234275158
 20
7.3194377067
 11
2.723043423
 21
7.3195549882
  0
SPLINE
  5
69E
100
AcDbEntity
  8
0
100
AcDbSpline
 62
7
  6
CONTINUOUS
 70
0
 71
3
 72
9
 73
5
 74
0
 42
0.0000001
 43
0.0000001
 44
0.0000000001
 40
0.0
 40
0.0
 40
0.0
 40
0.0
 40
0.5190630843
 40
1.0
 40
1.0
 40
1.0
 40
1.0
 10
2.723043423
 20
7.3195549882
 30
0.0
 10
2.7166318538
 20
7.3215180089
 30
0.0
 10
2.7044155962
 20
7.3257648209
 30
0.0
 10
2.6925887125
 20
7.3310060277
 30
0.0
 10
2.6870300679
 20
7.3337810372
 30
0.0
  0
LINE
  5
69F
100
AcDbEntity
  8
0
100
AcDbLine
 62
7
  6
CONTINUOUS
 10
2.7234275158
 20
7.3031497145
 11
2.7230779928
 21
7.3032708851
  0
SPLINE
  5
6A0
100
AcDbEntity
  8
0
100
AcDbSpline
 62
7
  6
CONTINUOUS
 70
0
 71
3
 72
9
 73
5
 74
0
 42
0.0000001
 43
0.0000001
 44
0.0000000001
 40
0.0
 40
0.0
 40
0.0
 40
0.0
 40
0.2629287999
 40
1.0
 40
1.0
 40
1.0
 40
1.0
 10
2.7230779928
 20
7.3032708851
 30
0.0
 10
2.7198048188
 20
7.3044083886
 30
0.0
 10
2.7074503063
 20
7.3089984607
 30
0.0
 10
2.695480531
 20
7.3146474799
 30
0.0
 10
2.6870300679
 20
7.3194382933
 30
0.0
  0
LINE
  5
6A1
100
AcDbEntity
  8
0
100
AcDbLine
 62
7
  6
CONTINUOUS
 10
2.7234275158
 20
7.2900547679
 11
2.7231315311
 21
7.290169131
  0
SPLINE
  5
6A2
100
AcDbEntity
  8
0
100
AcDbSpline
 62
7
  6
CONTINUOUS
 70
0
 71
3
 72
9
 73
5
 74
0
 42
0.0000001
 43
0.0000001
 44
0.0000000001
 40
0.0
 40
0.0
 40
0.0
 40
0.0
 40
0.5151483526
 40
1.0
 40
1.0
 40
1.0
 40
1.0
 10
2.7231315311
 20
7.290169131
 30
0.0
 10
2.7166608339
 20
7.2926744771
 30
0.0
 10
2.7043137415
 20
7.298114295
 30
0.0
 10
2.6925503983
 20
7.3047264341
 30
0.0
 10
2.6870300679
 20
7.3082158461
 30
0.0
  0
SPLINE
  5
6A3
100
AcDbEntity
  8
0
100
AcDbSpline
 62
7
  6
CONTINUOUS
 70
0
 71
3
 72
9
 73
5
 74
0
 42
0.0000001
 43
0.0000001
 44
0.0000000001
 40
0.0
 40
0.0
 40
0.0
 40
0.0
 40
0.5133113724
 40
1.0
 40
1.0
 40
1.0
 40
1.0
 10
2.7234275158
 20
7.2802113519
 30
0.0
 10
2.7168792783
 20
7.2829852808
 30
0.0
 10
2.7043798902
 20
7.2890231918
 30
0.0
 10
2.6925683069
 20
7.2963177777
 30
0.0
 10
2.6870300679
 20
7.3001638179
 30
0.0
  0
SPLINE
  5
6A4
100
AcDbEntity
  8
0
100
AcDbSpline
 62
7
  6
CONTINUOUS
 70
0
 71
3
 72
9
 73
5
 74
0
 42
0.0000001
 43
0.0000001
 44
0.0000000001
 40
0.0
 40
0.0
 40
0.0
 40
0.0
 40
0.5107194627
 40
1.0
 40
1.0
 40
1.0
 40
1.0
 10
2.7207396543
 20
7.2749226675
 30
0.0
 10
2.7146788453
 20
7.2778154909
 30
0.0
 10
2.7030807892
 20
7.2840646127
 30
0.0
 10
2.6921680285
 20
7.2914456897
 30
0.0
 10
2.6870300679
 20
7.2953181709
 30
0.0
  0
SPLINE
  5
6A5
100
AcDbEntity
  8
0
100
AcDbSpline
 62
7
  6
CONTINUOUS
 70
0
 71
3
 72
9
 73
5
 74
0
 42
0.0000001
 43
0.0000001
 44
0.0000000001
 40
0.0
 40
0.0
 40
0.0
 40
0.0
 40
0.4731913755
 40
1.0
 40
1.0
 40
1.0
 40
1.0
 10
2.9478249636
 20
7.4495871277
 30
0.0
 10
2.9421025185
 20
7.4488224883
 30
0.0
 10
2.9299840306
 20
7.4473927193
 30
0.0
 10
2.9178337481
 20
7.4462701903
 30
0.0
 10
2.9114275158
 20
7.4457480268
 30
0.0
  0
SPLINE
  5
6A6
100
AcDbEntity
  8
0
100
AcDbSpline
 62
7
  6
CONTINUOUS
 70
0
 71
3
 72
9
 73
5
 74
0
 42
0.0000001
 43
0.0000001
 44
0.0000000001
 40
0.0
 40
0.0
 40
0.0
 40
0.0
 40
0.4743065844
 40
1.0
 40
1.0
 40
1.0
 40
1.0
 10
2.9478249636
 20
7.4208712101
 30
0.0
 10
2.942160174
 20
7.4196857255
 30
0.0
 10
2.930157853
 20
7.4174645801
 30
0.0
 10
2.9180794796
 20
7.4157110889
 30
0.0
 10
2.9117170015
 20
7.4148955807
 30
0.0
  0
LINE
  5
6A7
100
AcDbEntity
  8
0
100
AcDbLine
 62
7
  6
CONTINUOUS
 10
2.9117170015
 20
7.4148955807
 11
2.9114275158
 21
7.4148585511
  0
SPLINE
  5
6A8
100
AcDbEntity
  8
0
100
AcDbSpline
 62
7
  6
CONTINUOUS
 70
0
 71
3
 72
9
 73
5
 74
0
 42
0.0000001
 43
0.0000001
 44
0.0000000001
 40
0.0
 40
0.0
 40
0.0
 40
0.0
 40
0.4756416064
 40
1.0
 40
1.0
 40
1.0
 40
1.0
 10
2.9478249636
 20
7.3948225652
 30
0.0
 10
2.9421883113
 20
7.3932218169
 30
0.0
 10
2.9302338131
 20
7.3902169053
 30
0.0
 10
2.9181421898
 20
7.387831983
 30
0.0
 10
2.9117782064
 20
7.3867241027
 30
0.0
  0
LINE
  5
6A9
100
AcDbEntity
  8
0
100
AcDbLine
 62
7
  6
CONTINUOUS
 10
2.9117782064
 20
7.3867241027
 11
2.9114275158
 21
7.386663202
  0
SPLINE
  5
6AA
100
AcDbEntity
  8
0
100
AcDbSpline
 62
7
  6
CONTINUOUS
 70
0
 71
3
 72
9
 73
5
 74
0
 42
0.0000001
 43
0.0000001
 44
0.0000000001
 40
0.0
 40
0.0
 40
0.0
 40
0.0
 40
0.4772408639
 40
1.0
 40
1.0
 40
1.0
 40
1.0
 10
2.9478249636
 20
7.3715575327
 30
0.0
 10
2.942216125
 20
7.3695527232
 30
0.0
 10
2.9303075142
 20
7.3657815018
 30
0.0
 10
2.9181870573
 20
7.3627695017
 30
0.0
 10
2.9118139225
 20
7.3613723862
 30
0.0
  0
LINE
  5
6AB
100
AcDbEntity
  8
0
100
AcDbLine
 62
7
  6
CONTINUOUS
 10
2.9118139225
 20
7.3613723862
 11
2.9114275158
 21
7.361287907
  0
SPLINE
  5
6AC
100
AcDbEntity
  8
0
100
AcDbSpline
 62
7
  6
CONTINUOUS
 70
0
 71
3
 72
9
 73
5
 74
0
 42
0.0000001
 43
0.0000001
 44
0.0000000001
 40
0.0
 40
0.0
 40
0.0
 40
0.0
 40
0.4790301641
 40
1.0
 40
1.0
 40
1.0
 40
1.0
 10
2.9478249636
 20
7.3511800197
 30
0.0
 10
2.94224243
 20
7.3487834967
 30
0.0
 10
2.9303766504
 20
7.3442660327
 30
0.0
 10
2.9182138593
 20
7.3406327301
 30
0.0
 10
2.9118245788
 20
7.3389502653
 30
0.0
  0
LINE
  5
6AD
100
AcDbEntity
  8
0
100
AcDbLine
 62
7
  6
CONTINUOUS
 10
2.9118245788
 20
7.3389502653
 11
2.9114275158
 21
7.3388459983
  0
SPLINE
  5
6AE
100
AcDbEntity
  8
0
100
AcDbSpline
 62
7
  6
CONTINUOUS
 70
0
 71
3
 72
9
 73
5
 74
0
 42
0.0000001
 43
0.0000001
 44
0.0000000001
 40
0.0
 40
0.0
 40
0.0
 40
0.0
 40
0.4809371505
 40
1.0
 40
1.0
 40
1.0
 40
1.0
 10
2.9478249636
 20
7.3337810372
 30
0.0
 10
2.9422663101
 20
7.3310060233
 30
0.0
 10
2.9304394125
 20
7.3257648121
 30
0.0
 10
2.918223141
 20
7.3215179965
 30
0.0
 10
2.9118115672
 20
7.3195549755
 30
0.0
  0
LINE
  5
6AF
100
AcDbEntity
  8
0
100
AcDbLine
 62
7
  6
CONTINUOUS
 10
2.9118115672
 20
7.3195549755
 11
2.9114275158
 21
7.3194377067
  0
SPLINE
  5
6B0
100
AcDbEntity
  8
0
100
AcDbSpline
 62
7
  6
CONTINUOUS
 70
0
 71
3
 72
9
 73
5
 74
0
 42
0.0000001
 43
0.0000001
 44
0.0000000001
 40
0.0
 40
0.0
 40
0.0
 40
0.0
 40
0.2373004568
 40
1.0
 40
1.0
 40
1.0
 40
1.0
 10
2.9478249636
 20
7.3194382933
 30
0.0
 10
2.9451043106
 20
7.3178958759
 30
0.0
 10
2.9334829584
 20
7.3116737153
 30
0.0
 10
2.9212718495
 20
7.3065705492
 30
0.0
 10
2.9117770027
 20
7.3032708726
 30
0.0
  0
LINE
  5
6B1
100
AcDbEntity
  8
0
100
AcDbLine
 62
7
  6
CONTINUOUS
 10
2.9117770027
 20
7.3032708726
 11
2.9114275158
 21
7.3031497145
  0
SPLINE
  5
6B2
100
AcDbEntity
  8
0
100
AcDbSpline
 62
7
  6
CONTINUOUS
 70
0
 71
3
 72
9
 73
5
 74
0
 42
0.0000001
 43
0.0000001
 44
0.0000000001
 40
0.0
 40
0.0
 40
0.0
 40
0.0
 40
0.4848518876
 40
1.0
 40
1.0
 40
1.0
 40
1.0
 10
2.9478249636
 20
7.3082158461
 30
0.0
 10
2.9423046263
 20
7.3047264297
 30
0.0
 10
2.9305412732
 20
7.298114287
 30
0.0
 10
2.918194171
 20
7.2926744656
 30
0.0
 10
2.9117234714
 20
7.2901691198
 30
0.0
  0
LINE
  5
6B3
100
AcDbEntity
  8
0
100
AcDbLine
 62
7
  6
CONTINUOUS
 10
2.9117234714
 20
7.2901691198
 11
2.9114275158
 21
7.2900547679
  0
SPLINE
  5
6B4
100
AcDbEntity
  8
0
100
AcDbSpline
 62
7
  6
CONTINUOUS
 70
0
 71
3
 72
9
 73
5
 74
0
 42
0.0000001
 43
0.0000001
 44
0.0000000001
 40
0.0
 40
0.0
 40
0.0
 40
0.0
 40
0.486688876
 40
1.0
 40
1.0
 40
1.0
 40
1.0
 10
2.9478249636
 20
7.3001638179
 30
0.0
 10
2.9422867219
 20
7.2963177757
 30
0.0
 10
2.9304751379
 20
7.2890231909
 30
0.0
 10
2.9179757501
 20
7.2829852795
 30
0.0
 10
2.9114275158
 20
7.2802113519
 30
0.0
  0
SPLINE
  5
6B5
100
AcDbEntity
  8
0
100
AcDbSpline
 62
7
  6
CONTINUOUS
 70
0
 71
3
 72
9
 73
5
 74
0
 42
0.0000001
 43
0.0000001
 44
0.0000000001
 40
0.0
 40
0.0
 40
0.0
 40
0.0
 40
0.4892807238
 40
1.0
 40
1.0
 40
1.0
 40
1.0
 10
2.9478249636
 20
7.2953181709
 30
0.0
 10
2.9426869666
 20
7.2914456623
 30
0.0
 10
2.9317741291
 20
7.2840645405
 30
0.0
 10
2.9201759894
 20
7.277815387
 30
0.0
 10
2.9141151381
 20
7.2749225532
 30
0.0
  0
SPLINE
  5
6B6
100
AcDbEntity
  8
0
100
AcDbSpline
 62
7
  6
CONTINUOUS
 70
0
 71
3
 72
9
 73
5
 74
0
 42
0.0000001
 43
0.0000001
 44
0.0000000001
 40
0.0
 40
0.0
 40
0.0
 40
0.0
 40
0.4977606702
 40
1.0
 40
1.0
 40
1.0
 40
1.0
 10
2.9478249636
 20
8.6849769799
 30
0.0
 10
2.9424125021
 20
8.690721733
 30
0.0
 10
2.9308820012
 20
8.7016635559
 30
0.0
 10
2.9181125437
 20
8.7111439332
 30
0.0
 10
2.9114275158
 20
8.7154721453
 30
0.0
  0
SPLINE
  5
6B7
100
AcDbEntity
  8
0
100
AcDbSpline
 62
7
  6
CONTINUOUS
 70
0
 71
3
 72
9
 73
5
 74
0
 42
0.0000001
 43
0.0000001
 44
0.0000000001
 40
0.0
 40
0.0
 40
0.0
 40
0.0
 40
0.4968881348
 40
1.0
 40
1.0
 40
1.0
 40
1.0
 10
2.9478249636
 20
8.7023759624
 30
0.0
 10
2.9424032897
 20
8.7079621852
 30
0.0
 10
2.9308499719
 20
8.7186007114
 30
0.0
 10
2.9181009967
 20
8.7277848433
 30
0.0
 10
2.9114275158
 20
8.7319792067
 30
0.0
  0
SPLINE
  5
6B8
100
AcDbEntity
  8
0
100
AcDbSpline
 62
7
  6
CONTINUOUS
 70
0
 71
3
 72
9
 73
5
 74
0
 42
0.0000001
 43
0.0000001
 44
0.0000000001
 40
0.0
 40
0.0
 40
0.0
 40
0.0
 40
0.5006910833
 40
1.0
 40
1.0
 40
1.0
 40
1.0
 10
2.7234275158
 20
8.4399753785
 30
0.0
 10
2.7167216423
 20
8.4354020679
 30
0.0
 10
2.7039162351
 20
8.4253796535
 30
0.0
 10
2.6924264485
 20
8.413886713
 30
0.0
 10
2.6870300679
 20
8.4078534932
 30
0.0
  0
SPLINE
  5
6B9
100
AcDbEntity
  8
0
100
AcDbSpline
 62
7
  6
CONTINUOUS
 70
0
 71
3
 72
9
 73
5
 74
0
 42
0.0000001
 43
0.0000001
 44
0.0000000001
 40
0.0
 40
0.0
 40
0.0
 40
0.0
 40
0.4958668129
 40
1.0
 40
1.0
 40
1.0
 40
1.0
 10
2.9478249636
 20
8.7167187063
 30
0.0
 10
2.9423923634
 20
8.7221225399
 30
0.0
 10
2.9308124599
 20
8.7324117612
 30
0.0
 10
2.9180876573
 20
8.7412566504
 30
0.0
 10
2.9114275158
 20
8.7452978141
 30
0.0
  0
SPLINE
  5
6BA
100
AcDbEntity
  8
0
100
AcDbSpline
 62
7
  6
CONTINUOUS
 70
0
 71
3
 72
9
 73
5
 74
0
 42
0.0000001
 43
0.0000001
 44
0.0000000001
 40
0.0
 40
0.0
 40
0.0
 40
0.0
 40
0.4747640963
 40
1.0
 40
1.0
 40
1.0
 40
1.0
 10
2.6870300679
 20
8.4078534932
 30
0.0
 10
2.6927289969
 20
8.4064471762
 30
0.0
 10
2.7048144122
 20
8.4038116108
 30
0.0
 10
2.7170059558
 20
8.4017301506
 30
0.0
 10
2.7234275158
 20
8.4007635227
 30
0.0
  0
SPLINE
  5
6BB
100
AcDbEntity
  8
0
100
AcDbSpline
 62
7
  6
CONTINUOUS
 70
0
 71
3
 72
9
 73
5
 74
0
 42
0.0000001
 43
0.0000001
 44
0.0000000001
 40
0.0
 40
0.0
 40
0.0
 40
0.0
 40
0.5012038261
 40
1.0
 40
1.0
 40
1.0
 40
1.0
 10
2.7234275158
 20
8.3977779232
 30
0.0
 10
2.7167285939
 20
8.3932869079
 30
0.0
 10
2.7039350324
 20
8.3834464242
 30
0.0
 10
2.6924317345
 20
8.3721379393
 30
0.0
 10
2.6870300679
 20
8.3662013277
 30
0.0
  0
SPLINE
  5
6BC
100
AcDbEntity
  8
0
100
AcDbSpline
 62
7
  6
CONTINUOUS
 70
0
 71
3
 72
9
 73
5
 74
0
 42
0.0000001
 43
0.0000001
 44
0.0000000001
 40
0.0
 40
0.0
 40
0.0
 40
0.0
 40
0.4762235332
 40
1.0
 40
1.0
 40
1.0
 40
1.0
 10
2.6870300679
 20
8.3662013277
 30
0.0
 10
2.6927076972
 20
8.3643794187
 30
0.0
 10
2.7047617079
 20
8.3609583515
 30
0.0
 10
2.7169914615
 20
8.3582415037
 30
0.0
 10
2.7234275158
 20
8.3569816847
 30
0.0
  0
SPLINE
  5
6BD
100
AcDbEntity
  8
0
100
AcDbSpline
 62
7
  6
CONTINUOUS
 70
0
 71
3
 72
9
 73
5
 74
0
 42
0.0000001
 43
0.0000001
 44
0.0000000001
 40
0.0
 40
0.0
 40
0.0
 40
0.0
 40
0.5018582857
 40
1.0
 40
1.0
 40
1.0
 40
1.0
 10
2.7234275158
 20
8.3538846381
 30
0.0
 10
2.7167373944
 20
8.3494970069
 30
0.0
 10
2.7039590363
 20
8.3398851737
 30
0.0
 10
2.6924385359
 20
8.3288092527
 30
0.0
 10
2.6870300679
 20
8.3229943612
 30
0.0
  0
SPLINE
  5
6BE
100
AcDbEntity
  8
0
100
AcDbSpline
 62
7
  6
CONTINUOUS
 70
0
 71
3
 72
9
 73
5
 74
0
 42
0.0000001
 43
0.0000001
 44
0.0000000001
 40
0.0
 40
0.0
 40
0.0
 40
0.0
 40
0.4779270075
 40
1.0
 40
1.0
 40
1.0
 40
1.0
 10
2.6870300679
 20
8.3229943612
 30
0.0
 10
2.6926834501
 20
8.3207692844
 30
0.0
 10
2.704699982
 20
8.316582436
 30
0.0
 10
2.7169742056
 20
8.3132355673
 30
0.0
 10
2.7234275158
 20
8.3116862228
 30
0.0
  0
SPLINE
  5
6BF
100
AcDbEntity
  8
0
100
AcDbSpline
 62
7
  6
CONTINUOUS
 70
0
 71
3
 72
9
 73
5
 74
0
 42
0.0000001
 43
0.0000001
 44
0.0000000001
 40
0.0
 40
0.0
 40
0.0
 40
0.0
 40
0.5026573971
 40
1.0
 40
1.0
 40
1.0
 40
1.0
 10
2.7234275158
 20
8.3084915613
 30
0.0
 10
2.7167480315
 20
8.3042278005
 30
0.0
 10
2.703988362
 20
8.2948900587
 30
0.0
 10
2.6924469244
 20
8.2840940704
 30
0.0
 10
2.6870300679
 20
8.2784255665
 30
0.0
  0
SPLINE
  5
6C0
100
AcDbEntity
  8
0
100
AcDbSpline
 62
7
  6
CONTINUOUS
 70
0
 71
3
 72
9
 73
5
 74
0
 42
0.0000001
 43
0.0000001
 44
0.0000000001
 40
0.0
 40
0.0
 40
0.0
 40
0.0
 40
0.4797978105
 40
1.0
 40
1.0
 40
1.0
 40
1.0
 10
2.6870300679
 20
8.2784255665
 30
0.0
 10
2.6926575551
 20
8.2758115075
 30
0.0
 10
2.7046319642
 20
8.2708824889
 30
0.0
 10
2.7169548231
 20
8.2669135022
 30
0.0
 10
2.7234275158
 20
8.2650794376
 30
0.0
  0
SPLINE
  5
6C1
100
AcDbEntity
  8
0
100
AcDbSpline
 62
7
  6
CONTINUOUS
 70
0
 71
3
 72
9
 73
5
 74
0
 42
0.0000001
 43
0.0000001
 44
0.0000000001
 40
0.0
 40
0.0
 40
0.0
 40
0.0
 40
0.5036040318
 40
1.0
 40
1.0
 40
1.0
 40
1.0
 10
2.7234275158
 20
8.2618014292
 30
0.0
 10
2.7167604801
 20
8.2576812987
 30
0.0
 10
2.7040231212
 20
8.2486615314
 30
0.0
 10
2.6924569825
 20
8.238191969
 30
0.0
 10
2.6870300679
 20
8.2326939985
 30
0.0
  0
SPLINE
  5
6C2
100
AcDbEntity
  8
0
100
AcDbSpline
 62
7
  6
CONTINUOUS
 70
0
 71
3
 72
9
 73
5
 74
0
 42
0.0000001
 43
0.0000001
 44
0.0000000001
 40
0.0
 40
0.0
 40
0.0
 40
0.0
 40
0.4817628917
 40
1.0
 40
1.0
 40
1.0
 40
1.0
 10
2.6870300679
 20
8.2326939985
 30
0.0
 10
2.692631149
 20
8.2297065249
 30
0.0
 10
2.704560297
 20
8.224062406
 30
0.0
 10
2.7169339611
 20
8.2194822137
 30
0.0
 10
2.7234275158
 20
8.2173694862
 30
0.0
  0
SPLINE
  5
6C3
100
AcDbEntity
  8
0
100
AcDbSpline
 62
7
  6
CONTINUOUS
 70
0
 71
3
 72
9
 73
5
 74
0
 42
0.0000001
 43
0.0000001
 44
0.0000000001
 40
0.0
 40
0.0
 40
0.0
 40
0.0
 40
0.237964744
 40
1.0
 40
1.0
 40
1.0
 40
1.0
 10
2.6870300679
 20
8.1860039056
 30
0.0
 10
2.6897717373
 20
8.1843593138
 30
0.0
 10
2.7014651859
 20
8.1777373667
 30
0.0
 10
2.7138128732
 20
8.1722875268
 30
0.0
 10
2.7234275158
 20
8.1687694528
 30
0.0
  0
SPLINE
  5
6C4
100
AcDbEntity
  8
0
100
AcDbSpline
 62
7
  6
CONTINUOUS
 70
0
 71
3
 72
9
 73
5
 74
0
 42
0.0000001
 43
0.0000001
 44
0.0000000001
 40
0.0
 40
0.0
 40
0.0
 40
0.0
 40
0.4857271306
 40
1.0
 40
1.0
 40
1.0
 40
1.0
 10
2.6870300679
 20
8.1385638171
 30
0.0
 10
2.6925802176
 20
8.134880474
 30
0.0
 10
2.7044151822
 20
8.1278990502
 30
0.0
 10
2.7168902346
 20
8.1221428454
 30
0.0
 10
2.7234275158
 20
8.1194963971
 30
0.0
  0
SPLINE
  5
6C5
100
AcDbEntity
  8
0
100
AcDbSpline
 62
7
  6
CONTINUOUS
 70
0
 71
3
 72
9
 73
5
 74
0
 42
0.0000001
 43
0.0000001
 44
0.0000000001
 40
0.0
 40
0.0
 40
0.0
 40
0.0
 40
0.4876292509
 40
1.0
 40
1.0
 40
1.0
 40
1.0
 10
2.6870300679
 20
8.090585612
 30
0.0
 10
2.6925568293
 20
8.086581581
 30
0.0
 10
2.7043453691
 20
8.0789828443
 30
0.0
 10
2.7168684374
 20
8.0726690513
 30
0.0
 10
2.7234275158
 20
8.0697703844
 30
0.0
  0
SPLINE
  5
6C6
100
AcDbEntity
  8
0
100
AcDbSpline
 62
7
  6
CONTINUOUS
 70
0
 71
3
 72
9
 73
5
 74
0
 42
0.0000001
 43
0.0000001
 44
0.0000000001
 40
0.0
 40
0.0
 40
0.0
 40
0.0
 40
0.4894317011
 40
1.0
 40
1.0
 40
1.0
 40
1.0
 10
2.6870300679
 20
8.0422835724
 30
0.0
 10
2.6925352615
 20
8.0379780827
 30
0.0
 10
2.7042791446
 20
8.029799009
 30
0.0
 10
2.7168472708
 20
8.0229527163
 30
0.0
 10
2.7234275158
 20
8.0198135033
 30
0.0
  0
SPLINE
  5
6C7
100
AcDbEntity
  8
0
100
AcDbSpline
 62
7
  6
CONTINUOUS
 70
0
 71
3
 72
9
 73
5
 74
0
 42
0.0000001
 43
0.0000001
 44
0.0000000001
 40
0.0
 40
0.0
 40
0.0
 40
0.0
 40
0.5041334318
 40
1.0
 40
1.0
 40
1.0
 40
1.0
 10
2.7234275158
 20
8.7452978141
 30
0.0
 10
2.7167673711
 20
8.7412566485
 30
0.0
 10
2.704042568
 20
8.7324117597
 30
0.0
 10
2.6924626655
 20
8.7221225372
 30
0.0
 10
2.6870300679
 20
8.7167187063
 30
0.0
  0
SPLINE
  5
6C8
100
AcDbEntity
  8
0
100
AcDbSpline
 62
7
  6
CONTINUOUS
 70
0
 71
3
 72
9
 73
5
 74
0
 42
0.0000001
 43
0.0000001
 44
0.0000000001
 40
0.0
 40
0.0
 40
0.0
 40
0.0
 40
0.5031121095
 40
1.0
 40
1.0
 40
1.0
 40
1.0
 10
2.7234275158
 20
8.7319792067
 30
0.0
 10
2.7167540316
 20
8.7277848412
 30
0.0
 10
2.704005056
 20
8.7186007097
 30
0.0
 10
2.6924517392
 20
8.7079621825
 30
0.0
 10
2.6870300679
 20
8.7023759624
 30
0.0
  0
SPLINE
  5
6C9
100
AcDbEntity
  8
0
100
AcDbSpline
 62
7
  6
CONTINUOUS
 70
0
 71
3
 72
9
 73
5
 74
0
 42
0.0000001
 43
0.0000001
 44
0.0000000001
 40
0.0
 40
0.0
 40
0.0
 40
0.0
 40
0.5022395738
 40
1.0
 40
1.0
 40
1.0
 40
1.0
 10
2.7234275158
 20
8.7154721453
 30
0.0
 10
2.7167424846
 20
8.7111439311
 30
0.0
 10
2.7039730267
 20
8.7016635542
 30
0.0
 10
2.6924425268
 20
8.6907217302
 30
0.0
 10
2.6870300679
 20
8.6849769799
 30
0.0
  0
SPLINE
  5
6CA
100
AcDbEntity
  8
0
100
AcDbSpline
 62
7
  6
CONTINUOUS
 70
0
 71
3
 72
9
 73
5
 74
0
 42
0.0000001
 43
0.0000001
 44
0.0000000001
 40
0.0
 40
0.0
 40
0.0
 40
0.0
 40
0.5105685541
 40
1.0
 40
1.0
 40
1.0
 40
1.0
 10
2.7234275158
 20
8.0163434963
 30
0.0
 10
2.7168472675
 20
8.0132042816
 30
0.0
 10
2.7042791401
 20
8.0063579908
 30
0.0
 10
2.6925352586
 20
7.9981789146
 30
0.0
 10
2.6870300679
 20
7.9938734271
 30
0.0
  0
SPLINE
  5
6CB
100
AcDbEntity
  8
0
100
AcDbSpline
 62
7
  6
CONTINUOUS
 70
0
 71
3
 72
9
 73
5
 74
0
 42
0.0000001
 43
0.0000001
 44
0.0000000001
 40
0.0
 40
0.0
 40
0.0
 40
0.0
 40
0.5123710062
 40
1.0
 40
1.0
 40
1.0
 40
1.0
 10
2.7234275158
 20
7.9663866151
 30
0.0
 10
2.7168684341
 20
7.9634879468
 30
0.0
 10
2.7043453647
 20
7.9571741555
 30
0.0
 10
2.6925568264
 20
7.9495754165
 30
0.0
 10
2.6870300679
 20
7.9455713876
 30
0.0
  0
SPLINE
  5
6CC
100
AcDbEntity
  8
0
100
AcDbSpline
 62
7
  6
CONTINUOUS
 70
0
 71
3
 72
9
 73
5
 74
0
 42
0.0000001
 43
0.0000001
 44
0.0000000001
 40
0.0
 40
0.0
 40
0.0
 40
0.0
 40
0.5142731286
 40
1.0
 40
1.0
 40
1.0
 40
1.0
 10
2.7234275158
 20
7.9166606024
 30
0.0
 10
2.7168902313
 20
7.9140141528
 30
0.0
 10
2.704415178
 20
7.9082579497
 30
0.0
 10
2.6925802146
 20
7.9012765236
 30
0.0
 10
2.6870300679
 20
7.8975931824
 30
0.0
  0
SPLINE
  5
6CD
100
AcDbEntity
  8
0
100
AcDbSpline
 62
7
  6
CONTINUOUS
 70
0
 71
3
 72
9
 73
5
 74
0
 42
0.0000001
 43
0.0000001
 44
0.0000000001
 40
0.0
 40
0.0
 40
0.0
 40
0.0
 40
0.2623011397
 40
1.0
 40
1.0
 40
1.0
 40
1.0
 10
2.7234275158
 20
7.8673875467
 30
0.0
 10
2.7201180622
 20
7.8661765914
 30
0.0
 10
2.7076070173
 20
7.8612783153
 30
0.0
 10
2.6955292984
 20
7.8552513619
 30
0.0
 10
2.6870300679
 20
7.8501530939
 30
0.0
  0
SPLINE
  5
6CE
100
AcDbEntity
  8
0
100
AcDbSpline
 62
7
  6
CONTINUOUS
 70
0
 71
3
 72
9
 73
5
 74
0
 42
0.0000001
 43
0.0000001
 44
0.0000000001
 40
0.0
 40
0.0
 40
0.0
 40
0.0
 40
0.5182373719
 40
1.0
 40
1.0
 40
1.0
 40
1.0
 10
2.7234275158
 20
7.8187875134
 30
0.0
 10
2.7169339578
 20
7.8166747848
 30
0.0
 10
2.704560293
 20
7.8120945939
 30
0.0
 10
2.692631146
 20
7.806450473
 30
0.0
 10
2.6870300679
 20
7.803463001
 30
0.0
  0
SPLINE
  5
6CF
100
AcDbEntity
  8
0
100
AcDbSpline
 62
7
  6
CONTINUOUS
 70
0
 71
3
 72
9
 73
5
 74
0
 42
0.0000001
 43
0.0000001
 44
0.0000000001
 40
0.0
 40
0.0
 40
0.0
 40
0.0
 40
0.4963962159
 40
1.0
 40
1.0
 40
1.0
 40
1.0
 10
2.6870300679
 20
7.803463001
 30
0.0
 10
2.6924569851
 20
7.7979650278
 30
0.0
 10
2.7040231261
 20
7.7874954681
 30
0.0
 10
2.7167604834
 20
7.7784756988
 30
0.0
 10
2.7234275158
 20
7.7743555703
 30
0.0
  0
SPLINE
  5
6D0
100
AcDbEntity
  8
0
100
AcDbSpline
 62
7
  6
CONTINUOUS
 70
0
 71
3
 72
9
 73
5
 74
0
 42
0.0000001
 43
0.0000001
 44
0.0000000001
 40
0.0
 40
0.0
 40
0.0
 40
0.0
 40
0.5202024553
 40
1.0
 40
1.0
 40
1.0
 40
1.0
 10
2.7234275158
 20
7.771077562
 30
0.0
 10
2.7169548197
 20
7.7692434964
 30
0.0
 10
2.7046319604
 20
7.765274511
 30
0.0
 10
2.692657552
 20
7.7603454906
 30
0.0
 10
2.6870300679
 20
7.7577314331
 30
0.0
  0
SPLINE
  5
6D1
100
AcDbEntity
  8
0
100
AcDbSpline
 62
7
  6
CONTINUOUS
 70
0
 71
3
 72
9
 73
5
 74
0
 42
0.0000001
 43
0.0000001
 44
0.0000000001
 40
0.0
 40
0.0
 40
0.0
 40
0.0
 40
0.4973428496
 40
1.0
 40
1.0
 40
1.0
 40
1.0
 10
2.6870300679
 20
7.7577314331
 30
0.0
 10
2.692446927
 20
7.7520629263
 30
0.0
 10
2.703988367
 20
7.7412669407
 30
0.0
 10
2.7167480348
 20
7.7319291969
 30
0.0
 10
2.7234275158
 20
7.7276654383
 30
0.0
  0
SPLINE
  5
6D2
100
AcDbEntity
  8
0
100
AcDbSpline
 62
7
  6
CONTINUOUS
 70
0
 71
3
 72
9
 73
5
 74
0
 42
0.0000001
 43
0.0000001
 44
0.0000000001
 40
0.0
 40
0.0
 40
0.0
 40
0.0
 40
0.5220732603
 40
1.0
 40
1.0
 40
1.0
 40
1.0
 10
2.7234275158
 20
7.7244707767
 30
0.0
 10
2.7169742023
 20
7.7229214315
 30
0.0
 10
2.7046999783
 20
7.7195745639
 30
0.0
 10
2.692683447
 20
7.7153877139
 30
0.0
 10
2.6870300679
 20
7.7131626383
 30
0.0
  0
SPLINE
  5
6D3
100
AcDbEntity
  8
0
100
AcDbSpline
 62
7
  6
CONTINUOUS
 70
0
 71
3
 72
9
 73
5
 74
0
 42
0.0000001
 43
0.0000001
 44
0.0000000001
 40
0.0
 40
0.0
 40
0.0
 40
0.0
 40
0.4981419601
 40
1.0
 40
1.0
 40
1.0
 40
1.0
 10
2.6870300679
 20
7.7131626383
 30
0.0
 10
2.6924385385
 20
7.707347744
 30
0.0
 10
2.7039590414
 20
7.6962718256
 30
0.0
 10
2.7167373977
 20
7.6866599905
 30
0.0
 10
2.7234275158
 20
7.6822723614
 30
0.0
  0
SPLINE
  5
6D4
100
AcDbEntity
  8
0
100
AcDbSpline
 62
7
  6
CONTINUOUS
 70
0
 71
3
 72
9
 73
5
 74
0
 42
0.0000001
 43
0.0000001
 44
0.0000000001
 40
0.0
 40
0.0
 40
0.0
 40
0.0
 40
0.5237767366
 40
1.0
 40
1.0
 40
1.0
 40
1.0
 10
2.7234275158
 20
7.6791753148
 30
0.0
 10
2.7169914582
 20
7.6779154952
 30
0.0
 10
2.7047617043
 20
7.6751986484
 30
0.0
 10
2.692707694
 20
7.6717775798
 30
0.0
 10
2.6870300679
 20
7.6699556718
 30
0.0
  0
SPLINE
  5
6D5
100
AcDbEntity
  8
0
100
AcDbSpline
 62
7
  6
CONTINUOUS
 70
0
 71
3
 72
9
 73
5
 74
0
 42
0.0000001
 43
0.0000001
 44
0.0000000001
 40
0.0
 40
0.0
 40
0.0
 40
0.0
 40
0.498796418
 40
1.0
 40
1.0
 40
1.0
 40
1.0
 10
2.6870300679
 20
7.6699556718
 30
0.0
 10
2.6924317371
 20
7.6640190574
 30
0.0
 10
2.7039350375
 20
7.6527105752
 30
0.0
 10
2.7167285972
 20
7.6428700895
 30
0.0
 10
2.7234275158
 20
7.6383790763
 30
0.0
  0
SPLINE
  5
6D6
100
AcDbEntity
  8
0
100
AcDbSpline
 62
7
  6
CONTINUOUS
 70
0
 71
3
 72
9
 73
5
 74
0
 42
0.0000001
 43
0.0000001
 44
0.0000000001
 40
0.0
 40
0.0
 40
0.0
 40
0.0
 40
0.5252361751
 40
1.0
 40
1.0
 40
1.0
 40
1.0
 10
2.7234275158
 20
7.6353934768
 30
0.0
 10
2.7170059524
 20
7.6344268485
 30
0.0
 10
2.7048144087
 20
7.6323453891
 30
0.0
 10
2.6927289936
 20
7.6297098226
 30
0.0
 10
2.6870300679
 20
7.6283035064
 30
0.0
  0
SPLINE
  5
6D7
100
AcDbEntity
  8
0
100
AcDbSpline
 62
7
  6
CONTINUOUS
 70
0
 71
3
 72
9
 73
5
 74
0
 42
0.0000001
 43
0.0000001
 44
0.0000000001
 40
0.0
 40
0.0
 40
0.0
 40
0.0
 40
0.4993091613
 40
1.0
 40
1.0
 40
1.0
 40
1.0
 10
2.6870300679
 20
7.6283035064
 30
0.0
 10
2.6924264511
 20
7.6222702836
 30
0.0
 10
2.7039162402
 20
7.6107773458
 30
0.0
 10
2.7167216456
 20
7.6007549294
 30
0.0
 10
2.7234275158
 20
7.596181621
 30
0.0
  0
SPLINE
  5
6D8
100
AcDbEntity
  8
0
100
AcDbSpline
 62
7
  6
CONTINUOUS
 70
0
 71
3
 72
9
 73
5
 74
0
 42
0.0000001
 43
0.0000001
 44
0.0000000001
 40
0.0
 40
0.0
 40
0.0
 40
0.0
 40
0.5263777155
 40
1.0
 40
1.0
 40
1.0
 40
1.0
 10
2.7234275158
 20
7.593320803
 30
0.0
 10
2.7170171078
 20
7.5926500133
 30
0.0
 10
2.7048555061
 20
7.5912073141
 30
0.0
 10
2.6927460035
 20
7.5893726971
 30
0.0
 10
2.6870300679
 20
7.5883921707
 30
0.0
  0
SPLINE
  5
6D9
100
AcDbEntity
  8
0
100
AcDbSpline
 62
7
  6
CONTINUOUS
 70
0
 71
3
 72
9
 73
5
 74
0
 42
0.0000001
 43
0.0000001
 44
0.0000000001
 40
0.0
 40
0.0
 40
0.0
 40
0.0
 40
0.499682839
 40
1.0
 40
1.0
 40
1.0
 40
1.0
 10
2.6870300679
 20
7.5883921707
 30
0.0
 10
2.6924226221
 20
7.5822878103
 30
0.0
 10
2.7039025467
 20
7.5706591223
 30
0.0
 10
2.7167165477
 20
7.5605024976
 30
0.0
 10
2.7234275158
 20
7.5558684596
 30
0.0
  0
SPLINE
  5
6DA
100
AcDbEntity
  8
0
100
AcDbSpline
 62
7
  6
CONTINUOUS
 70
0
 71
3
 72
9
 73
5
 74
0
 42
0.0000001
 43
0.0000001
 44
0.0000000001
 40
0.0
 40
0.0
 40
0.0
 40
0.0
 40
0.5271381218
 40
1.0
 40
1.0
 40
1.0
 40
1.0
 10
2.7234275158
 20
7.5531452002
 30
0.0
 10
2.7170244518
 20
7.5527719938
 30
0.0
 10
2.7048828158
 20
7.5519699699
 30
0.0
 10
2.6927575091
 20
7.5509471777
 30
0.0
 10
2.6870300679
 20
7.5503999184
 30
0.0
  0
SPLINE
  5
6DB
100
AcDbEntity
  8
0
100
AcDbSpline
 62
7
  6
CONTINUOUS
 70
0
 71
3
 72
9
 73
5
 74
0
 42
0.0000001
 43
0.0000001
 44
0.0000000001
 40
0.0
 40
0.0
 40
0.0
 40
0.0
 40
0.4999195666
 40
1.0
 40
1.0
 40
1.0
 40
1.0
 10
2.6870300679
 20
7.5503999184
 30
0.0
 10
2.6924202066
 20
7.5442501591
 30
0.0
 10
2.7038938743
 20
7.5325348701
 30
0.0
 10
2.7167133042
 20
7.5222924919
 30
0.0
 10
2.7234275158
 20
7.5176196404
 30
0.0
  0
SPLINE
  5
6DC
100
AcDbEntity
  8
0
100
AcDbSpline
 62
7
  6
CONTINUOUS
 70
0
 71
3
 72
9
 73
5
 74
0
 42
0.0000001
 43
0.0000001
 44
0.0000000001
 40
0.0
 40
0.0
 40
0.0
 40
0.0
 40
0.5000207614
 40
1.0
 40
1.0
 40
1.0
 40
1.0
 10
2.6870300679
 20
7.5144964322
 30
0.0
 10
2.6924191764
 20
7.5083271852
 30
0.0
 10
2.7038901676
 20
7.4965747303
 30
0.0
 10
2.7167119143
 20
7.4862955177
 30
0.0
 10
2.7234275158
 20
7.4816059919
 30
0.0
  0
SPLINE
  5
6DD
100
AcDbEntity
  8
0
100
AcDbSpline
 62
7
  6
CONTINUOUS
 70
0
 71
3
 72
9
 73
5
 74
0
 42
0.0000001
 43
0.0000001
 44
0.0000000001
 40
0.0
 40
0.0
 40
0.0
 40
0.0
 40
0.4999870473
 40
1.0
 40
1.0
 40
1.0
 40
1.0
 10
2.6870300679
 20
7.4808420658
 30
0.0
 10
2.6924195194
 20
7.4746793168
 30
0.0
 10
2.7038914025
 20
7.4629392539
 30
0.0
 10
2.7167123776
 20
7.4526723249
 30
0.0
 10
2.7234275158
 20
7.44798836
 30
0.0
  0
SPLINE
  5
6DE
100
AcDbEntity
  8
0
100
AcDbSpline
 62
7
  6
CONTINUOUS
 70
0
 71
3
 72
9
 73
5
 74
0
 42
0.0000001
 43
0.0000001
 44
0.0000000001
 40
0.0
 40
0.0
 40
0.0
 40
0.0
 40
0.5015131614
 40
1.0
 40
1.0
 40
1.0
 40
1.0
 10
2.7234275158
 20
8.6958503547
 30
0.0
 10
2.7167327636
 20
8.6914084301
 30
0.0
 10
2.7039463764
 20
8.6816765052
 30
0.0
 10
2.6924349416
 20
8.6704783315
 30
0.0
 10
2.6870300679
 20
8.6645994669
 30
0.0
  0
SPLINE
  5
6DF
100
AcDbEntity
  8
0
100
AcDbSpline
 62
7
  6
CONTINUOUS
 70
0
 71
3
 72
9
 73
5
 74
0
 42
0.0000001
 43
0.0000001
 44
0.0000000001
 40
0.0
 40
0.0
 40
0.0
 40
0.0
 40
0.4998182152
 40
1.0
 40
1.0
 40
1.0
 40
1.0
 10
2.6870300679
 20
7.4495871277
 30
0.0
 10
2.6924212398
 20
7.4434568375
 30
0.0
 10
2.703897587
 20
7.4317786837
 30
0.0
 10
2.7167146941
 20
7.4215730901
 30
0.0
 10
2.7234275158
 20
7.4169168889
 30
0.0
  0
SPLINE
  5
6E0
100
AcDbEntity
  8
0
100
AcDbSpline
 62
7
  6
CONTINUOUS
 70
0
 71
3
 72
9
 73
5
 74
0
 42
0.0000001
 43
0.0000001
 44
0.0000000001
 40
0.0
 40
0.0
 40
0.0
 40
0.0
 40
0.4995132363
 40
1.0
 40
1.0
 40
1.0
 40
1.0
 10
2.6870300679
 20
7.4208712101
 30
0.0
 10
2.6924243576
 20
7.4147992157
 30
0.0
 10
2.7039087612
 20
7.4032322833
 30
0.0
 10
2.7167188648
 20
7.3931367454
 30
0.0
 10
2.7234275158
 20
7.3885303516
 30
0.0
  0
SPLINE
  5
6E1
100
AcDbEntity
  8
0
100
AcDbSpline
 62
7
  6
CONTINUOUS
 70
0
 71
3
 72
9
 73
5
 74
0
 42
0.0000001
 43
0.0000001
 44
0.0000000001
 40
0.0
 40
0.0
 40
0.0
 40
0.0
 40
0.4990703361
 40
1.0
 40
1.0
 40
1.0
 40
1.0
 10
2.6870300679
 20
7.3948225652
 30
0.0
 10
2.6924289087
 20
7.3888344832
 30
0.0
 10
2.7039250047
 20
7.3774277298
 30
0.0
 10
2.71672489
 20
7.3674903586
 30
0.0
 10
2.7234275158
 20
7.3629555291
 30
0.0
  0
SPLINE
  5
6E2
100
AcDbEntity
  8
0
100
AcDbSpline
 62
7
  6
CONTINUOUS
 70
0
 71
3
 72
9
 73
5
 74
0
 42
0.0000001
 43
0.0000001
 44
0.0000000001
 40
0.0
 40
0.0
 40
0.0
 40
0.0
 40
0.4984870839
 40
1.0
 40
1.0
 40
1.0
 40
1.0
 10
2.6870300679
 20
7.3715575327
 30
0.0
 10
2.6924349442
 20
7.3656786652
 30
0.0
 10
2.7039463814
 20
7.3544804941
 30
0.0
 10
2.7167327669
 20
7.3447485673
 30
0.0
 10
2.7234275158
 20
7.3403066448
 30
0.0
  0
SPLINE
  5
6E3
100
AcDbEntity
  8
0
100
AcDbSpline
 62
7
  6
CONTINUOUS
 70
0
 71
3
 72
9
 73
5
 74
0
 42
0.0000001
 43
0.0000001
 44
0.0000000001
 40
0.0
 40
0.0
 40
0.0
 40
0.0
 40
0.4977606724
 40
1.0
 40
1.0
 40
1.0
 40
1.0
 10
2.6870300679
 20
7.3511800197
 30
0.0
 10
2.6924425295
 20
7.3454352666
 30
0.0
 10
2.7039730317
 20
7.3344934451
 30
0.0
 10
2.7167424879
 20
7.3250130663
 30
0.0
 10
2.7234275158
 20
7.3206848542
 30
0.0
  0
SPLINE
  5
6E4
100
AcDbEntity
  8
0
100
AcDbSpline
 62
7
  6
CONTINUOUS
 70
0
 71
3
 72
9
 73
5
 74
0
 42
0.0000001
 43
0.0000001
 44
0.0000000001
 40
0.0
 40
0.0
 40
0.0
 40
0.0
 40
0.4968881376
 40
1.0
 40
1.0
 40
1.0
 40
1.0
 10
2.6870300679
 20
7.3337810372
 30
0.0
 10
2.6924517419
 20
7.3281948143
 30
0.0
 10
2.7040050609
 20
7.3175562897
 30
0.0
 10
2.7167540349
 20
7.3083721562
 30
0.0
 10
2.7234275158
 20
7.3041777929
 30
0.0
  0
SPLINE
  5
6E5
100
AcDbEntity
  8
0
100
AcDbSpline
 62
7
  6
CONTINUOUS
 70
0
 71
3
 72
9
 73
5
 74
0
 42
0.0000001
 43
0.0000001
 44
0.0000000001
 40
0.0
 40
0.0
 40
0.0
 40
0.0
 40
0.5009299114
 40
1.0
 40
1.0
 40
1.0
 40
1.0
 10
2.7234275158
 20
8.6732014705
 30
0.0
 10
2.7167248867
 20
8.6686666387
 30
0.0
 10
2.7039250003
 20
8.6587292686
 30
0.0
 10
2.692428906
 20
8.6473225134
 30
0.0
 10
2.6870300679
 20
8.6413344343
 30
0.0
  0
SPLINE
  5
6E6
100
AcDbEntity
  8
0
100
AcDbSpline
 62
7
  6
CONTINUOUS
 70
0
 71
3
 72
9
 73
5
 74
0
 42
0.0000001
 43
0.0000001
 44
0.0000000001
 40
0.0
 40
0.0
 40
0.0
 40
0.0
 40
0.4958668164
 40
1.0
 40
1.0
 40
1.0
 40
1.0
 10
2.6870300679
 20
7.3194382933
 30
0.0
 10
2.6924626682
 20
7.3140344596
 30
0.0
 10
2.7040425729
 20
7.3037452398
 30
0.0
 10
2.7167673744
 20
7.2949003491
 30
0.0
 10
2.7234275158
 20
7.2908591854
 30
0.0
  0
SPLINE
  5
6E7
100
AcDbEntity
  8
0
100
AcDbSpline
 62
7
  6
CONTINUOUS
 70
0
 71
3
 72
9
 73
5
 74
0
 42
0.0000001
 43
0.0000001
 44
0.0000000001
 40
0.0
 40
0.0
 40
0.0
 40
0.0
 40
0.500487008
 40
1.0
 40
1.0
 40
1.0
 40
1.0
 10
2.7234275158
 20
8.647626648
 30
0.0
 10
2.7167188615
 20
8.6430202519
 30
0.0
 10
2.7039087561
 20
8.6329247159
 30
0.0
 10
2.692424355
 20
8.6213577809
 30
0.0
 10
2.6870300679
 20
8.6152857894
 30
0.0
  0
SPLINE
  5
6E8
100
AcDbEntity
  8
0
100
AcDbSpline
 62
7
  6
CONTINUOUS
 70
0
 71
3
 72
9
 73
5
 74
0
 42
0.0000001
 43
0.0000001
 44
0.0000000001
 40
0.0
 40
0.0
 40
0.0
 40
0.0
 40
0.5001820287
 40
1.0
 40
1.0
 40
1.0
 40
1.0
 10
2.7234275158
 20
8.6192401106
 30
0.0
 10
2.7167146908
 20
8.6145839071
 30
0.0
 10
2.7038975818
 20
8.6043783155
 30
0.0
 10
2.6924212372
 20
8.5927001591
 30
0.0
 10
2.6870300679
 20
8.5865698718
 30
0.0
  0
SPLINE
  5
6E9
100
AcDbEntity
  8
0
100
AcDbSpline
 62
7
  6
CONTINUOUS
 70
0
 71
3
 72
9
 73
5
 74
0
 42
0.0000001
 43
0.0000001
 44
0.0000000001
 40
0.0
 40
0.0
 40
0.0
 40
0.0
 40
0.5000131965
 40
1.0
 40
1.0
 40
1.0
 40
1.0
 10
2.7234275158
 20
8.5881686396
 30
0.0
 10
2.7167123743
 20
8.5834846723
 30
0.0
 10
2.7038913973
 20
8.5732177453
 30
0.0
 10
2.6924195168
 20
8.5614776798
 30
0.0
 10
2.6870300679
 20
8.5553149337
 30
0.0
  0
SPLINE
  5
6EA
100
AcDbEntity
  8
0
100
AcDbSpline
 62
7
  6
CONTINUOUS
 70
0
 71
3
 72
9
 73
5
 74
0
 42
0.0000001
 43
0.0000001
 44
0.0000000001
 40
0.0
 40
0.0
 40
0.0
 40
0.0
 40
0.4999794823
 40
1.0
 40
1.0
 40
1.0
 40
1.0
 10
2.7234275158
 20
8.5545510076
 30
0.0
 10
2.716711911
 20
8.5498614796
 30
0.0
 10
2.7038901625
 20
8.5395822689
 30
0.0
 10
2.6924191738
 20
8.5278298114
 30
0.0
 10
2.6870300679
 20
8.5216605673
 30
0.0
  0
SPLINE
  5
6EB
100
AcDbEntity
  8
0
100
AcDbSpline
 62
7
  6
CONTINUOUS
 70
0
 71
3
 72
9
 73
5
 74
0
 42
0.0000001
 43
0.0000001
 44
0.0000000001
 40
0.0
 40
0.0
 40
0.0
 40
0.0
 40
0.5000806773
 40
1.0
 40
1.0
 40
1.0
 40
1.0
 10
2.7234275158
 20
8.5185373592
 30
0.0
 10
2.7167133009
 20
8.5138645054
 30
0.0
 10
2.7038938691
 20
8.5036221291
 30
0.0
 10
2.692420204
 20
8.4919068375
 30
0.0
 10
2.6870300679
 20
8.4857570811
 30
0.0
  0
SPLINE
  5
6EC
100
AcDbEntity
  8
0
100
AcDbSpline
 62
7
  6
CONTINUOUS
 70
0
 71
3
 72
9
 73
5
 74
0
 42
0.0000001
 43
0.0000001
 44
0.0000000001
 40
0.0
 40
0.0
 40
0.0
 40
0.0
 40
0.5105685497
 40
1.0
 40
1.0
 40
1.0
 40
1.0
 10
2.9114275158
 20
8.0198135033
 30
0.0
 10
2.918007764
 20
8.0229527179
 30
0.0
 10
2.9305758908
 20
8.0297990097
 30
0.0
 10
2.9423197729
 20
8.0379780849
 30
0.0
 10
2.9478249636
 20
8.0422835724
 30
0.0
  0
SPLINE
  5
6ED
100
AcDbEntity
  8
0
100
AcDbSpline
 62
7
  6
CONTINUOUS
 70
0
 71
3
 72
9
 73
5
 74
0
 42
0.0000001
 43
0.0000001
 44
0.0000000001
 40
0.0
 40
0.0
 40
0.0
 40
0.0
 40
0.4894316932
 40
1.0
 40
1.0
 40
1.0
 40
1.0
 10
2.9478249636
 20
7.9938734271
 30
0.0
 10
2.9423197702
 20
7.9981789168
 30
0.0
 10
2.930575888
 20
8.0063579919
 30
0.0
 10
2.9180077609
 20
8.0132042832
 30
0.0
 10
2.9114275158
 20
8.0163434963
 30
0.0
  0
SPLINE
  5
6EE
100
AcDbEntity
  8
0
100
AcDbSpline
 62
7
  6
CONTINUOUS
 70
0
 71
3
 72
9
 73
5
 74
0
 42
0.0000001
 43
0.0000001
 44
0.0000000001
 40
0.0
 40
0.0
 40
0.0
 40
0.0
 40
0.5123710009
 40
1.0
 40
1.0
 40
1.0
 40
1.0
 10
2.9114275158
 20
8.0697703844
 30
0.0
 10
2.9179865974
 20
8.0726690527
 30
0.0
 10
2.9305096662
 20
8.0789828449
 30
0.0
 10
2.9422982051
 20
8.086581583
 30
0.0
 10
2.9478249636
 20
8.090585612
 30
0.0
  0
SPLINE
  5
6EF
100
AcDbEntity
  8
0
100
AcDbSpline
 62
7
  6
CONTINUOUS
 70
0
 71
3
 72
9
 73
5
 74
0
 42
0.0000001
 43
0.0000001
 44
0.0000000001
 40
0.0
 40
0.0
 40
0.0
 40
0.0
 40
0.4876292418
 40
1.0
 40
1.0
 40
1.0
 40
1.0
 10
2.9478249636
 20
7.9455713876
 30
0.0
 10
2.9422982024
 20
7.9495754185
 30
0.0
 10
2.9305096633
 20
7.9571741565
 30
0.0
 10
2.9179865943
 20
7.9634879482
 30
0.0
 10
2.9114275158
 20
7.9663866151
 30
0.0
  0
SPLINE
  5
6F0
100
AcDbEntity
  8
0
100
AcDbSpline
 62
7
  6
CONTINUOUS
 70
0
 71
3
 72
9
 73
5
 74
0
 42
0.0000001
 43
0.0000001
 44
0.0000000001
 40
0.0
 40
0.0
 40
0.0
 40
0.0
 40
0.5142731224
 40
1.0
 40
1.0
 40
1.0
 40
1.0
 10
2.9114275158
 20
8.1194963971
 30
0.0
 10
2.9179648002
 20
8.1221428468
 30
0.0
 10
2.9304398531
 20
8.1278990507
 30
0.0
 10
2.9422748169
 20
8.1348804759
 30
0.0
 10
2.9478249636
 20
8.1385638171
 30
0.0
  0
SPLINE
  5
6F1
100
AcDbEntity
  8
0
100
AcDbSpline
 62
7
  6
CONTINUOUS
 70
0
 71
3
 72
9
 73
5
 74
0
 42
0.0000001
 43
0.0000001
 44
0.0000000001
 40
0.0
 40
0.0
 40
0.0
 40
0.0
 40
0.4857271202
 40
1.0
 40
1.0
 40
1.0
 40
1.0
 10
2.9478249636
 20
7.8975931824
 30
0.0
 10
2.9422748141
 20
7.9012765255
 30
0.0
 10
2.9304398502
 20
7.9082579506
 30
0.0
 10
2.9179647971
 20
7.914014154
 30
0.0
 10
2.9114275158
 20
7.9166606024
 30
0.0
  0
SPLINE
  5
6F2
100
AcDbEntity
  8
0
100
AcDbSpline
 62
7
  6
CONTINUOUS
 70
0
 71
3
 72
9
 73
5
 74
0
 42
0.0000001
 43
0.0000001
 44
0.0000000001
 40
0.0
 40
0.0
 40
0.0
 40
0.0
 40
0.262301122
 40
1.0
 40
1.0
 40
1.0
 40
1.0
 10
2.9114275158
 20
8.1687694528
 30
0.0
 10
2.9147369691
 20
8.169980408
 30
0.0
 10
2.9272480134
 20
8.1748786857
 30
0.0
 10
2.939325733
 20
8.1809056376
 30
0.0
 10
2.9478249636
 20
8.1860039056
 30
0.0
  0
SPLINE
  5
6F3
100
AcDbEntity
  8
0
100
AcDbSpline
 62
7
  6
CONTINUOUS
 70
0
 71
3
 72
9
 73
5
 74
0
 42
0.0000001
 43
0.0000001
 44
0.0000000001
 40
0.0
 40
0.0
 40
0.0
 40
0.0
 40
0.2379647519
 40
1.0
 40
1.0
 40
1.0
 40
1.0
 10
2.9478249636
 20
7.8501530939
 30
0.0
 10
2.9450832942
 20
7.8517976858
 30
0.0
 10
2.9333898456
 20
7.8584196329
 30
0.0
 10
2.9210421583
 20
7.8638694728
 30
0.0
 10
2.9114275158
 20
7.8673875467
 30
0.0
  0
SPLINE
  5
6F4
100
AcDbEntity
  8
0
100
AcDbSpline
 62
7
  6
CONTINUOUS
 70
0
 71
3
 72
9
 73
5
 74
0
 42
0.0000001
 43
0.0000001
 44
0.0000000001
 40
0.0
 40
0.0
 40
0.0
 40
0.0
 40
0.5182373638
 40
1.0
 40
1.0
 40
1.0
 40
1.0
 10
2.9114275158
 20
8.2173694862
 30
0.0
 10
2.9179210736
 20
8.2194822147
 30
0.0
 10
2.9302947382
 20
8.2240624064
 30
0.0
 10
2.9422238855
 20
8.2297065265
 30
0.0
 10
2.9478249636
 20
8.2326939985
 30
0.0
  0
SPLINE
  5
6F5
100
AcDbEntity
  8
0
100
AcDbSpline
 62
7
  6
CONTINUOUS
 70
0
 71
3
 72
9
 73
5
 74
0
 42
0.0000001
 43
0.0000001
 44
0.0000000001
 40
0.0
 40
0.0
 40
0.0
 40
0.0
 40
0.4817628785
 40
1.0
 40
1.0
 40
1.0
 40
1.0
 10
2.9478249636
 20
7.803463001
 30
0.0
 10
2.9422238827
 20
7.8064504746
 30
0.0
 10
2.9302947352
 20
7.8120945946
 30
0.0
 10
2.9179210706
 20
7.8166747858
 30
0.0
 10
2.9114275158
 20
7.8187875134
 30
0.0
  0
SPLINE
  5
6F6
100
AcDbEntity
  8
0
100
AcDbSpline
 62
7
  6
CONTINUOUS
 70
0
 71
3
 72
9
 73
5
 74
0
 42
0.0000001
 43
0.0000001
 44
0.0000000001
 40
0.0
 40
0.0
 40
0.0
 40
0.0
 40
0.4963962128
 40
1.0
 40
1.0
 40
1.0
 40
1.0
 10
2.9478249636
 20
8.2326939985
 30
0.0
 10
2.9423980465
 20
8.2381919717
 30
0.0
 10
2.9308319067
 20
8.2486615329
 30
0.0
 10
2.9180945482
 20
8.2576813007
 30
0.0
 10
2.9114275158
 20
8.2618014292
 30
0.0
  0
SPLINE
  5
6F7
100
AcDbEntity
  8
0
100
AcDbSpline
 62
7
  6
CONTINUOUS
 70
0
 71
3
 72
9
 73
5
 74
0
 42
0.0000001
 43
0.0000001
 44
0.0000000001
 40
0.0
 40
0.0
 40
0.0
 40
0.0
 40
0.5036040306
 40
1.0
 40
1.0
 40
1.0
 40
1.0
 10
2.9114275158
 20
7.7743555703
 30
0.0
 10
2.9180945514
 20
7.7784757008
 30
0.0
 10
2.9308319096
 20
7.7874954692
 30
0.0
 10
2.9423980491
 20
7.7979650305
 30
0.0
 10
2.9478249636
 20
7.803463001
 30
0.0
  0
SPLINE
  5
6F8
100
AcDbEntity
  8
0
100
AcDbSpline
 62
7
  6
CONTINUOUS
 70
0
 71
3
 72
9
 73
5
 74
0
 42
0.0000001
 43
0.0000001
 44
0.0000000001
 40
0.0
 40
0.0
 40
0.0
 40
0.0
 40
0.5202024462
 40
1.0
 40
1.0
 40
1.0
 40
1.0
 10
2.9114275158
 20
8.2650794376
 30
0.0
 10
2.9179002117
 20
8.2669135031
 30
0.0
 10
2.9302230709
 20
8.2708824892
 30
0.0
 10
2.9421974794
 20
8.2758115089
 30
0.0
 10
2.9478249636
 20
8.2784255665
 30
0.0
  0
SPLINE
  5
6F9
100
AcDbEntity
  8
0
100
AcDbSpline
 62
7
  6
CONTINUOUS
 70
0
 71
3
 72
9
 73
5
 74
0
 42
0.0000001
 43
0.0000001
 44
0.0000000001
 40
0.0
 40
0.0
 40
0.0
 40
0.0
 40
0.4973428471
 40
1.0
 40
1.0
 40
1.0
 40
1.0
 10
2.9478249636
 20
8.2784255665
 30
0.0
 10
2.9424081046
 20
8.2840940732
 30
0.0
 10
2.9308666659
 20
8.2948900604
 30
0.0
 10
2.9181069968
 20
8.3042278026
 30
0.0
 10
2.9114275158
 20
8.3084915613
 30
0.0
  0
SPLINE
  5
6FA
100
AcDbEntity
  8
0
100
AcDbSpline
 62
7
  6
CONTINUOUS
 70
0
 71
3
 72
9
 73
5
 74
0
 42
0.0000001
 43
0.0000001
 44
0.0000000001
 40
0.0
 40
0.0
 40
0.0
 40
0.0
 40
0.479797796
 40
1.0
 40
1.0
 40
1.0
 40
1.0
 10
2.9478249636
 20
7.7577314331
 30
0.0
 10
2.9421974766
 20
7.760345492
 30
0.0
 10
2.9302230679
 20
7.7652745116
 30
0.0
 10
2.9179002087
 20
7.7692434973
 30
0.0
 10
2.9114275158
 20
7.771077562
 30
0.0
  0
SPLINE
  5
6FB
100
AcDbEntity
  8
0
100
AcDbSpline
 62
7
  6
CONTINUOUS
 70
0
 71
3
 72
9
 73
5
 74
0
 42
0.0000001
 43
0.0000001
 44
0.0000000001
 40
0.0
 40
0.0
 40
0.0
 40
0.0
 40
0.5026573964
 40
1.0
 40
1.0
 40
1.0
 40
1.0
 10
2.9114275158
 20
7.7276654383
 30
0.0
 10
2.918107
 20
7.731929199
 30
0.0
 10
2.9308666687
 20
7.7412669419
 30
0.0
 10
2.9424081072
 20
7.7520629291
 30
0.0
 10
2.9478249636
 20
7.7577314331
 30
0.0
  0
SPLINE
  5
6FC
100
AcDbEntity
  8
0
100
AcDbSpline
 62
7
  6
CONTINUOUS
 70
0
 71
3
 72
9
 73
5
 74
0
 42
0.0000001
 43
0.0000001
 44
0.0000000001
 40
0.0
 40
0.0
 40
0.0
 40
0.0
 40
0.5220732503
 40
1.0
 40
1.0
 40
1.0
 40
1.0
 10
2.9114275158
 20
8.3116862228
 30
0.0
 10
2.9178808291
 20
8.313235568
 30
0.0
 10
2.9301550529
 20
8.3165824362
 30
0.0
 10
2.9421715845
 20
8.3207692856
 30
0.0
 10
2.9478249636
 20
8.3229943612
 30
0.0
  0
SPLINE
  5
6FD
100
AcDbEntity
  8
0
100
AcDbSpline
 62
7
  6
CONTINUOUS
 70
0
 71
3
 72
9
 73
5
 74
0
 42
0.0000001
 43
0.0000001
 44
0.0000000001
 40
0.0
 40
0.0
 40
0.0
 40
0.0
 40
0.4981419582
 40
1.0
 40
1.0
 40
1.0
 40
1.0
 10
2.9478249636
 20
8.3229943612
 30
0.0
 10
2.942416493
 20
8.3288092556
 30
0.0
 10
2.9308959915
 20
8.3398851754
 30
0.0
 10
2.9181176339
 20
8.349497009
 30
0.0
 10
2.9114275158
 20
8.3538846381
 30
0.0
  0
SPLINE
  5
6FE
100
AcDbEntity
  8
0
100
AcDbSpline
 62
7
  6
CONTINUOUS
 70
0
 71
3
 72
9
 73
5
 74
0
 42
0.0000001
 43
0.0000001
 44
0.0000000001
 40
0.0
 40
0.0
 40
0.0
 40
0.0
 40
0.4779269917
 40
1.0
 40
1.0
 40
1.0
 40
1.0
 10
2.9478249636
 20
7.7131626383
 30
0.0
 10
2.9421715816
 20
7.7153877151
 30
0.0
 10
2.93015505
 20
7.7195745644
 30
0.0
 10
2.9178808261
 20
7.7229214322
 30
0.0
 10
2.9114275158
 20
7.7244707767
 30
0.0
  0
SPLINE
  5
6FF
100
AcDbEntity
  8
0
100
AcDbSpline
 62
7
  6
CONTINUOUS
 70
0
 71
3
 72
9
 73
5
 74
0
 42
0.0000001
 43
0.0000001
 44
0.0000000001
 40
0.0
 40
0.0
 40
0.0
 40
0.0
 40
0.5018582854
 40
1.0
 40
1.0
 40
1.0
 40
1.0
 10
2.9114275158
 20
7.6822723614
 30
0.0
 10
2.9181176371
 20
7.6866599926
 30
0.0
 10
2.9308959944
 20
7.6962718269
 30
0.0
 10
2.9424164957
 20
7.7073477468
 30
0.0
 10
2.9478249636
 20
7.7131626383
 30
0.0
  0
SPLINE
  5
700
100
AcDbEntity
  8
0
100
AcDbSpline
 62
7
  6
CONTINUOUS
 70
0
 71
3
 72
9
 73
5
 74
0
 42
0.0000001
 43
0.0000001
 44
0.0000000001
 40
0.0
 40
0.0
 40
0.0
 40
0.0
 40
0.5237767258
 40
1.0
 40
1.0
 40
1.0
 40
1.0
 10
2.9114275158
 20
8.3569816847
 30
0.0
 10
2.9178635733
 20
8.3582415043
 30
0.0
 10
2.930093327
 20
8.3609583516
 30
0.0
 10
2.9421473375
 20
8.3643794197
 30
0.0
 10
2.9478249636
 20
8.3662013277
 30
0.0
  0
SPLINE
  5
701
100
AcDbEntity
  8
0
100
AcDbSpline
 62
7
  6
CONTINUOUS
 70
0
 71
3
 72
9
 73
5
 74
0
 42
0.0000001
 43
0.0000001
 44
0.0000000001
 40
0.0
 40
0.0
 40
0.0
 40
0.0
 40
0.4987964166
 40
1.0
 40
1.0
 40
1.0
 40
1.0
 10
2.9478249636
 20
8.3662013277
 30
0.0
 10
2.9424232944
 20
8.3721379421
 30
0.0
 10
2.9309199954
 20
8.3834464259
 30
0.0
 10
2.9181264344
 20
8.3932869101
 30
0.0
 10
2.9114275158
 20
8.3977779232
 30
0.0
  0
SPLINE
  5
702
100
AcDbEntity
  8
0
100
AcDbSpline
 62
7
  6
CONTINUOUS
 70
0
 71
3
 72
9
 73
5
 74
0
 42
0.0000001
 43
0.0000001
 44
0.0000000001
 40
0.0
 40
0.0
 40
0.0
 40
0.0
 40
0.4762235162
 40
1.0
 40
1.0
 40
1.0
 40
1.0
 10
2.9478249636
 20
7.6699556718
 30
0.0
 10
2.9421473346
 20
7.6717775808
 30
0.0
 10
2.9300933241
 20
7.6751986488
 30
0.0
 10
2.9178635703
 20
7.6779154959
 30
0.0
 10
2.9114275158
 20
7.6791753148
 30
0.0
  0
SPLINE
  5
703
100
AcDbEntity
  8
0
100
AcDbSpline
 62
7
  6
CONTINUOUS
 70
0
 71
3
 72
9
 73
5
 74
0
 42
0.0000001
 43
0.0000001
 44
0.0000000001
 40
0.0
 40
0.0
 40
0.0
 40
0.0
 40
0.5012038259
 40
1.0
 40
1.0
 40
1.0
 40
1.0
 10
2.9114275158
 20
7.6383790763
 30
0.0
 10
2.9181264377
 20
7.6428700917
 30
0.0
 10
2.9309199981
 20
7.6527105765
 30
0.0
 10
2.9424232971
 20
7.6640190603
 30
0.0
 10
2.9478249636
 20
7.6699556718
 30
0.0
  0
SPLINE
  5
704
100
AcDbEntity
  8
0
100
AcDbSpline
 62
7
  6
CONTINUOUS
 70
0
 71
3
 72
9
 73
5
 74
0
 42
0.0000001
 43
0.0000001
 44
0.0000000001
 40
0.0
 40
0.0
 40
0.0
 40
0.0
 40
0.5252361636
 40
1.0
 40
1.0
 40
1.0
 40
1.0
 10
2.9114275158
 20
8.4007635227
 30
0.0
 10
2.917849079
 20
8.401730151
 30
0.0
 10
2.9300406227
 20
8.4038116108
 30
0.0
 10
2.9421260378
 20
8.406447177
 30
0.0
 10
2.9478249636
 20
8.4078534932
 30
0.0
  0
SPLINE
  5
705
100
AcDbEntity
  8
0
100
AcDbSpline
 62
7
  6
CONTINUOUS
 70
0
 71
3
 72
9
 73
5
 74
0
 42
0.0000001
 43
0.0000001
 44
0.0000000001
 40
0.0
 40
0.0
 40
0.0
 40
0.0
 40
0.4993091602
 40
1.0
 40
1.0
 40
1.0
 40
1.0
 10
2.9478249636
 20
8.4078534932
 30
0.0
 10
2.9424285804
 20
8.413886716
 30
0.0
 10
2.9309387927
 20
8.4253796553
 30
0.0
 10
2.918133386
 20
8.4354020701
 30
0.0
 10
2.9114275158
 20
8.4399753785
 30
0.0
  0
SPLINE
  5
706
100
AcDbEntity
  8
0
100
AcDbSpline
 62
7
  6
CONTINUOUS
 70
0
 71
3
 72
9
 73
5
 74
0
 42
0.0000001
 43
0.0000001
 44
0.0000000001
 40
0.0
 40
0.0
 40
0.0
 40
0.0
 40
0.4747640783
 40
1.0
 40
1.0
 40
1.0
 40
1.0
 10
2.9478249636
 20
7.6283035064
 30
0.0
 10
2.9421260349
 20
7.6297098233
 30
0.0
 10
2.9300406197
 20
7.6323453893
 30
0.0
 10
2.917849076
 20
7.634426849
 30
0.0
 10
2.9114275158
 20
7.6353934768
 30
0.0
  0
SPLINE
  5
707
100
AcDbEntity
  8
0
100
AcDbSpline
 62
7
  6
CONTINUOUS
 70
0
 71
3
 72
9
 73
5
 74
0
 42
0.0000001
 43
0.0000001
 44
0.0000000001
 40
0.0
 40
0.0
 40
0.0
 40
0.0
 40
0.5006910835
 40
1.0
 40
1.0
 40
1.0
 40
1.0
 10
2.9114275158
 20
7.596181621
 30
0.0
 10
2.9181333893
 20
7.6007549317
 30
0.0
 10
2.9309387955
 20
7.6107773471
 30
0.0
 10
2.9424285831
 20
7.6222702865
 30
0.0
 10
2.9478249636
 20
7.6283035064
 30
0.0
  0
SPLINE
  5
708
100
AcDbEntity
  8
0
100
AcDbSpline
 62
7
  6
CONTINUOUS
 70
0
 71
3
 72
9
 73
5
 74
0
 42
0.0000001
 43
0.0000001
 44
0.0000000001
 40
0.0
 40
0.0
 40
0.0
 40
0.0
 40
0.5263777035
 40
1.0
 40
1.0
 40
1.0
 40
1.0
 10
2.9114275158
 20
8.4428361965
 30
0.0
 10
2.9178379236
 20
8.4435069863
 30
0.0
 10
2.9299995252
 20
8.4449496858
 30
0.0
 10
2.9421090279
 20
8.4467843024
 30
0.0
 10
2.9478249636
 20
8.4477648289
 30
0.0
  0
SPLINE
  5
709
100
AcDbEntity
  8
0
100
AcDbSpline
 62
7
  6
CONTINUOUS
 70
0
 71
3
 72
9
 73
5
 74
0
 42
0.0000001
 43
0.0000001
 44
0.0000000001
 40
0.0
 40
0.0
 40
0.0
 40
0.0
 40
0.4736225384
 40
1.0
 40
1.0
 40
1.0
 40
1.0
 10
2.9478249636
 20
7.5883921707
 30
0.0
 10
2.942109025
 20
7.5893726976
 30
0.0
 10
2.9299995223
 20
7.5912073142
 30
0.0
 10
2.9178379207
 20
7.5926500136
 30
0.0
 10
2.9114275158
 20
7.593320803
 30
0.0
  0
SPLINE
  5
70A
100
AcDbEntity
  8
0
100
AcDbSpline
 62
7
  6
CONTINUOUS
 70
0
 71
3
 72
9
 73
5
 74
0
 42
0.0000001
 43
0.0000001
 44
0.0000000001
 40
0.0
 40
0.0
 40
0.0
 40
0.0
 40
0.5003174055
 40
1.0
 40
1.0
 40
1.0
 40
1.0
 10
2.9114275158
 20
7.5558684596
 30
0.0
 10
2.9181384872
 20
7.5605024999
 30
0.0
 10
2.9309524891
 20
7.5706591237
 30
0.0
 10
2.9424324121
 20
7.5822878132
 30
0.0
 10
2.9478249636
 20
7.5883921707
 30
0.0
  0
SPLINE
  5
70B
100
AcDbEntity
  8
0
100
AcDbSpline
 62
7
  6
CONTINUOUS
 70
0
 71
3
 72
9
 73
5
 74
0
 42
0.0000001
 43
0.0000001
 44
0.0000000001
 40
0.0
 40
0.0
 40
0.0
 40
0.0
 40
0.4728621324
 40
1.0
 40
1.0
 40
1.0
 40
1.0
 10
2.9478249636
 20
7.5503999184
 30
0.0
 10
2.9420975194
 20
7.550947178
 30
0.0
 10
2.9299722127
 20
7.55196997
 30
0.0
 10
2.9178305767
 20
7.552771994
 30
0.0
 10
2.9114275158
 20
7.5531452002
 30
0.0
  0
SPLINE
  5
70C
100
AcDbEntity
  8
0
100
AcDbSpline
 62
7
  6
CONTINUOUS
 70
0
 71
3
 72
9
 73
5
 74
0
 42
0.0000001
 43
0.0000001
 44
0.0000000001
 40
0.0
 40
0.0
 40
0.0
 40
0.0
 40
0.5000806778
 40
1.0
 40
1.0
 40
1.0
 40
1.0
 10
2.9114275158
 20
7.5176196404
 30
0.0
 10
2.9181417307
 20
7.5222924942
 30
0.0
 10
2.9309611615
 20
7.5325348716
 30
0.0
 10
2.9424348276
 20
7.5442501621
 30
0.0
 10
2.9478249636
 20
7.5503999184
 30
0.0
  0
SPLINE
  5
70D
100
AcDbEntity
  8
0
100
AcDbSpline
 62
7
  6
CONTINUOUS
 70
0
 71
3
 72
9
 73
5
 74
0
 42
0.0000001
 43
0.0000001
 44
0.0000000001
 40
0.0
 40
0.0
 40
0.0
 40
0.0
 40
0.4999794829
 40
1.0
 40
1.0
 40
1.0
 40
1.0
 10
2.9114275158
 20
7.4816059919
 30
0.0
 10
2.9181431205
 20
7.48629552
 30
0.0
 10
2.9309648681
 20
7.4965747317
 30
0.0
 10
2.9424358578
 20
7.5083271882
 30
0.0
 10
2.9478249636
 20
7.5144964322
 30
0.0
  0
SPLINE
  5
70E
100
AcDbEntity
  8
0
100
AcDbSpline
 62
7
  6
CONTINUOUS
 70
0
 71
3
 72
9
 73
5
 74
0
 42
0.0000001
 43
0.0000001
 44
0.0000000001
 40
0.0
 40
0.0
 40
0.0
 40
0.0
 40
0.4996828382
 40
1.0
 40
1.0
 40
1.0
 40
1.0
 10
2.9478249636
 20
8.4477648289
 30
0.0
 10
2.9424324094
 20
8.4538691893
 30
0.0
 10
2.9309524863
 20
8.4654978788
 30
0.0
 10
2.9181384839
 20
8.4756545019
 30
0.0
 10
2.9114275158
 20
8.48028854
 30
0.0
  0
SPLINE
  5
70F
100
AcDbEntity
  8
0
100
AcDbSpline
 62
7
  6
CONTINUOUS
 70
0
 71
3
 72
9
 73
5
 74
0
 42
0.0000001
 43
0.0000001
 44
0.0000000001
 40
0.0
 40
0.0
 40
0.0
 40
0.0
 40
0.5000131971
 40
1.0
 40
1.0
 40
1.0
 40
1.0
 10
2.9114275158
 20
7.44798836
 30
0.0
 10
2.9181426573
 20
7.4526723272
 30
0.0
 10
2.9309636333
 20
7.4629392553
 30
0.0
 10
2.9424355148
 20
7.4746793198
 30
0.0
 10
2.9478249636
 20
7.4808420658
 30
0.0
  0
SPLINE
  5
710
100
AcDbEntity
  8
0
100
AcDbSpline
 62
7
  6
CONTINUOUS
 70
0
 71
3
 72
9
 73
5
 74
0
 42
0.0000001
 43
0.0000001
 44
0.0000000001
 40
0.0
 40
0.0
 40
0.0
 40
0.0
 40
0.5001820293
 40
1.0
 40
1.0
 40
1.0
 40
1.0
 10
2.9114275158
 20
7.4169168889
 30
0.0
 10
2.9181403407
 20
7.4215730924
 30
0.0
 10
2.9309574488
 20
7.4317786851
 30
0.0
 10
2.9424337944
 20
7.4434568405
 30
0.0
 10
2.9478249636
 20
7.4495871277
 30
0.0
  0
SPLINE
  5
711
100
AcDbEntity
  8
0
100
AcDbSpline
 62
7
  6
CONTINUOUS
 70
0
 71
3
 72
9
 73
5
 74
0
 42
0.0000001
 43
0.0000001
 44
0.0000000001
 40
0.0
 40
0.0
 40
0.0
 40
0.0
 40
0.5271381094
 40
1.0
 40
1.0
 40
1.0
 40
1.0
 10
2.9114275158
 20
8.4830117993
 30
0.0
 10
2.9178305797
 20
8.4833850057
 30
0.0
 10
2.9299722157
 20
8.4841870298
 30
0.0
 10
2.9420975223
 20
8.4852098219
 30
0.0
 10
2.9478249636
 20
8.4857570811
 30
0.0
  0
SPLINE
  5
712
100
AcDbEntity
  8
0
100
AcDbSpline
 62
7
  6
CONTINUOUS
 70
0
 71
3
 72
9
 73
5
 74
0
 42
0.0000001
 43
0.0000001
 44
0.0000000001
 40
0.0
 40
0.0
 40
0.0
 40
0.0
 40
0.5004870084
 40
1.0
 40
1.0
 40
1.0
 40
1.0
 10
2.9114275158
 20
7.3885303516
 30
0.0
 10
2.9181361701
 20
7.3931367477
 30
0.0
 10
2.9309462745
 20
7.4032322847
 30
0.0
 10
2.9424306766
 20
7.4147992187
 30
0.0
 10
2.9478249636
 20
7.4208712101
 30
0.0
  0
SPLINE
  5
713
100
AcDbEntity
  8
0
100
AcDbSpline
 62
7
  6
CONTINUOUS
 70
0
 71
3
 72
9
 73
5
 74
0
 42
0.0000001
 43
0.0000001
 44
0.0000000001
 40
0.0
 40
0.0
 40
0.0
 40
0.0
 40
0.4999195659
 40
1.0
 40
1.0
 40
1.0
 40
1.0
 10
2.9478249636
 20
8.4857570811
 30
0.0
 10
2.942434825
 20
8.4919068405
 30
0.0
 10
2.9309611587
 20
8.5036221309
 30
0.0
 10
2.9181417274
 20
8.5138645077
 30
0.0
 10
2.9114275158
 20
8.5185373592
 30
0.0
  0
SPLINE
  5
714
100
AcDbEntity
  8
0
100
AcDbSpline
 62
7
  6
CONTINUOUS
 70
0
 71
3
 72
9
 73
5
 74
0
 42
0.0000001
 43
0.0000001
 44
0.0000000001
 40
0.0
 40
0.0
 40
0.0
 40
0.0
 40
0.5009299124
 40
1.0
 40
1.0
 40
1.0
 40
1.0
 10
2.9114275158
 20
7.3629555291
 30
0.0
 10
2.9181301449
 20
7.3674903609
 30
0.0
 10
2.9309300313
 20
7.3774277309
 30
0.0
 10
2.9424261256
 20
7.3888344862
 30
0.0
 10
2.9478249636
 20
7.3948225652
 30
0.0
  0
SPLINE
  5
715
100
AcDbEntity
  8
0
100
AcDbSpline
 62
7
  6
CONTINUOUS
 70
0
 71
3
 72
9
 73
5
 74
0
 42
0.0000001
 43
0.0000001
 44
0.0000000001
 40
0.0
 40
0.0
 40
0.0
 40
0.0
 40
0.5015131613
 40
1.0
 40
1.0
 40
1.0
 40
1.0
 10
2.9114275158
 20
7.3403066448
 30
0.0
 10
2.918122268
 20
7.3447485695
 30
0.0
 10
2.9309086543
 20
7.3544804954
 30
0.0
 10
2.94242009
 20
7.365678668
 30
0.0
 10
2.9478249636
 20
7.3715575327
 30
0.0
  0
SPLINE
  5
716
100
AcDbEntity
  8
0
100
AcDbSpline
 62
7
  6
CONTINUOUS
 70
0
 71
3
 72
9
 73
5
 74
0
 42
0.0000001
 43
0.0000001
 44
0.0000000001
 40
0.0
 40
0.0
 40
0.0
 40
0.0
 40
0.5022395733
 40
1.0
 40
1.0
 40
1.0
 40
1.0
 10
2.9114275158
 20
7.3206848542
 30
0.0
 10
2.9181125469
 20
7.3250130684
 30
0.0
 10
2.930882004
 20
7.3344934464
 30
0.0
 10
2.9424125048
 20
7.3454352694
 30
0.0
 10
2.9478249636
 20
7.3511800197
 30
0.0
  0
SPLINE
  5
717
100
AcDbEntity
  8
0
100
AcDbSpline
 62
7
  6
CONTINUOUS
 70
0
 71
3
 72
9
 73
5
 74
0
 42
0.0000001
 43
0.0000001
 44
0.0000000001
 40
0.0
 40
0.0
 40
0.0
 40
0.0
 40
0.5000207608
 40
1.0
 40
1.0
 40
1.0
 40
1.0
 10
2.9478249636
 20
8.5216605673
 30
0.0
 10
2.9424358552
 20
8.5278298143
 30
0.0
 10
2.9309648653
 20
8.5395822708
 30
0.0
 10
2.9181431173
 20
8.5498614819
 30
0.0
 10
2.9114275158
 20
8.5545510076
 30
0.0
  0
SPLINE
  5
718
100
AcDbEntity
  8
0
100
AcDbSpline
 62
7
  6
CONTINUOUS
 70
0
 71
3
 72
9
 73
5
 74
0
 42
0.0000001
 43
0.0000001
 44
0.0000000001
 40
0.0
 40
0.0
 40
0.0
 40
0.0
 40
0.5031121086
 40
1.0
 40
1.0
 40
1.0
 40
1.0
 10
2.9114275158
 20
7.3041777929
 30
0.0
 10
2.918101
 20
7.3083721583
 30
0.0
 10
2.9308499747
 20
7.3175562908
 30
0.0
 10
2.9424032924
 20
7.3281948171
 30
0.0
 10
2.9478249636
 20
7.3337810372
 30
0.0
  0
SPLINE
  5
719
100
AcDbEntity
  8
0
100
AcDbSpline
 62
7
  6
CONTINUOUS
 70
0
 71
3
 72
9
 73
5
 74
0
 42
0.0000001
 43
0.0000001
 44
0.0000000001
 40
0.0
 40
0.0
 40
0.0
 40
0.0
 40
0.5041334305
 40
1.0
 40
1.0
 40
1.0
 40
1.0
 10
2.9114275158
 20
7.2908591854
 30
0.0
 10
2.9180876605
 20
7.2949003511
 30
0.0
 10
2.9308124627
 20
7.3037452409
 30
0.0
 10
2.9423923661
 20
7.3140344623
 30
0.0
 10
2.9478249636
 20
7.3194382933
 30
0.0
  0
SPLINE
  5
71A
100
AcDbEntity
  8
0
100
AcDbSpline
 62
7
  6
CONTINUOUS
 70
0
 71
3
 72
9
 73
5
 74
0
 42
0.0000001
 43
0.0000001
 44
0.0000000001
 40
0.0
 40
0.0
 40
0.0
 40
0.0
 40
0.4728621518
 40
1.0
 40
1.0
 40
1.0
 40
1.0
 10
2.6870300679
 20
8.4857570811
 30
0.0
 10
2.6927575124
 20
8.4852098216
 30
0.0
 10
2.7048828191
 20
8.4841870297
 30
0.0
 10
2.7170244551
 20
8.4833850056
 30
0.0
 10
2.7234275158
 20
8.4830117993
 30
0.0
  0
SPLINE
  5
71B
100
AcDbEntity
  8
0
100
AcDbSpline
 62
7
  6
CONTINUOUS
 70
0
 71
3
 72
9
 73
5
 74
0
 42
0.0000001
 43
0.0000001
 44
0.0000000001
 40
0.0
 40
0.0
 40
0.0
 40
0.0
 40
0.4999870467
 40
1.0
 40
1.0
 40
1.0
 40
1.0
 10
2.9478249636
 20
8.5553149337
 30
0.0
 10
2.9424355121
 20
8.5614776828
 30
0.0
 10
2.9309636305
 20
8.5732177472
 30
0.0
 10
2.918142654
 20
8.5834846746
 30
0.0
 10
2.9114275158
 20
8.5881686396
 30
0.0
  0
SPLINE
  5
71C
100
AcDbEntity
  8
0
100
AcDbSpline
 62
7
  6
CONTINUOUS
 70
0
 71
3
 72
9
 73
5
 74
0
 42
0.0000001
 43
0.0000001
 44
0.0000000001
 40
0.0
 40
0.0
 40
0.0
 40
0.0
 40
0.4998182145
 40
1.0
 40
1.0
 40
1.0
 40
1.0
 10
2.9478249636
 20
8.5865698718
 30
0.0
 10
2.9424337918
 20
8.5927001621
 30
0.0
 10
2.930957446
 20
8.6043783173
 30
0.0
 10
2.9181403375
 20
8.6145839094
 30
0.0
 10
2.9114275158
 20
8.6192401106
 30
0.0
  0
SPLINE
  5
71D
100
AcDbEntity
  8
0
100
AcDbSpline
 62
7
  6
CONTINUOUS
 70
0
 71
3
 72
9
 73
5
 74
0
 42
0.0000001
 43
0.0000001
 44
0.0000000001
 40
0.0
 40
0.0
 40
0.0
 40
0.0
 40
0.5003174051
 40
1.0
 40
1.0
 40
1.0
 40
1.0
 10
2.7234275158
 20
8.48028854
 30
0.0
 10
2.7167165444
 20
8.4756544997
 30
0.0
 10
2.7039025416
 20
8.4654978769
 30
0.0
 10
2.6924226195
 20
8.4538691863
 30
0.0
 10
2.6870300679
 20
8.4477648289
 30
0.0
  0
SPLINE
  5
71E
100
AcDbEntity
  8
0
100
AcDbSpline
 62
7
  6
CONTINUOUS
 70
0
 71
3
 72
9
 73
5
 74
0
 42
0.0000001
 43
0.0000001
 44
0.0000000001
 40
0.0
 40
0.0
 40
0.0
 40
0.0
 40
0.4995132353
 40
1.0
 40
1.0
 40
1.0
 40
1.0
 10
2.9478249636
 20
8.6152857894
 30
0.0
 10
2.942430674
 20
8.6213577838
 30
0.0
 10
2.9309462717
 20
8.6329247178
 30
0.0
 10
2.9181361668
 20
8.6430202541
 30
0.0
 10
2.9114275158
 20
8.647626648
 30
0.0
  0
SPLINE
  5
71F
100
AcDbEntity
  8
0
100
AcDbSpline
 62
7
  6
CONTINUOUS
 70
0
 71
3
 72
9
 73
5
 74
0
 42
0.0000001
 43
0.0000001
 44
0.0000000001
 40
0.0
 40
0.0
 40
0.0
 40
0.0
 40
0.4736225572
 40
1.0
 40
1.0
 40
1.0
 40
1.0
 10
2.6870300679
 20
8.4477648289
 30
0.0
 10
2.6927460068
 20
8.4467843019
 30
0.0
 10
2.7048555095
 20
8.4449496857
 30
0.0
 10
2.7170171111
 20
8.4435069859
 30
0.0
 10
2.7234275158
 20
8.4428361965
 30
0.0
  0
SPLINE
  5
720
100
AcDbEntity
  8
0
100
AcDbSpline
 62
7
  6
CONTINUOUS
 70
0
 71
3
 72
9
 73
5
 74
0
 42
0.0000001
 43
0.0000001
 44
0.0000000001
 40
0.0
 40
0.0
 40
0.0
 40
0.0
 40
0.4990703353
 40
1.0
 40
1.0
 40
1.0
 40
1.0
 10
2.9478249636
 20
8.6413344343
 30
0.0
 10
2.9424261229
 20
8.6473225164
 30
0.0
 10
2.9309300276
 20
8.6587292706
 30
0.0
 10
2.9181301415
 20
8.6686666409
 30
0.0
 10
2.9114275158
 20
8.6732014705
 30
0.0
  0
SPLINE
  5
721
100
AcDbEntity
  8
0
100
AcDbSpline
 62
7
  6
CONTINUOUS
 70
0
 71
3
 72
9
 73
5
 74
0
 42
0.0000001
 43
0.0000001
 44
0.0000000001
 40
0.0
 40
0.0
 40
0.0
 40
0.0
 40
0.4984870823
 40
1.0
 40
1.0
 40
1.0
 40
1.0
 10
2.9478249636
 20
8.6645994669
 30
0.0
 10
2.9424200873
 20
8.6704783344
 30
0.0
 10
2.9309086515
 20
8.6816765069
 30
0.0
 10
2.9181222647
 20
8.6914084322
 30
0.0
 10
2.9114275158
 20
8.6958503547
 30
0.0
  0
LINE
  5
722
100
AcDbEntity
  8
0
100
AcDbLine
 62
7
  6
CONTINUOUS
 10
4.9086306701
 20
4.875948375
 11
4.9087172613
 21
4.8545742868
  0
SPLINE
  5
723
100
AcDbEntity
  8
0
100
AcDbSpline
 62
7
  6
CONTINUOUS
 70
0
 71
3
 72
11
 73
7
 74
0
 42
0.0000001
 43
0.0000001
 44
0.0000000001
 40
0.0
 40
0.0
 40
0.0
 40
0.0
 40
0.2519148709
 40
0.502224629
 40
0.7514269423
 40
1.0
 40
1.0
 40
1.0
 40
1.0
 10
4.7623685051
 20
4.6597545733
 30
0.0
 10
4.7762987003
 20
4.6530377373
 30
0.0
 10
4.8048220369
 20
4.6411418179
 30
0.0
 10
4.8491956956
 20
4.628195551
 30
0.0
 10
4.8945441719
 20
4.6203639686
 30
0.0
 10
4.9251308895
 20
4.6186156953
 30
0.0
 10
4.9403907362
 20
4.6186172582
 30
0.0
  0
SPLINE
  5
724
100
AcDbEntity
  8
0
100
AcDbSpline
 62
7
  6
CONTINUOUS
 70
0
 71
3
 72
17
 73
13
 74
0
 42
0.0000001
 43
0.0000001
 44
0.0000000001
 40
0.0
 40
0.0
 40
0.0
 40
0.0
 40
0.1295673961
 40
0.2575659547
 40
0.3840706142
 40
0.4468167567
 40
0.5092308834
 40
0.633096455
 40
0.755966881
 40
0.8171583919
 40
0.8782232199
 40
1.0
 40
1.0
 40
1.0
 40
1.0
 10
5.3106259382
 20
4.8209090346
 30
0.0
 10
5.3002289768
 20
4.805478243
 30
0.0
 10
5.2778655246
 20
4.7759031641
 30
0.0
 10
5.2397856517
 20
4.735849085
 30
0.0
 10
5.2046855377
 20
4.7066215181
 30
0.0
 10
5.1749303039
 20
4.6860750241
 30
0.0
 10
5.1443039722
 20
4.6675740893
 30
0.0
 10
5.1042451938
 20
4.6481544939
 30
0.0
 10
5.0622147631
 20
4.6340049364
 30
0.0
 10
5.0279030739
 20
4.6260385989
 30
0.0
 10
4.9933066477
 20
4.6203441492
 30
0.0
 10
4.967008009
 20
4.6186159097
 30
0.0
 10
4.9495201704
 20
4.6186173136
 30
0.0
  0
SPLINE
  5
725
100
AcDbEntity
  8
0
100
AcDbSpline
 62
9
  6
CONTINUOUS
 70
0
 71
3
 72
23
 73
19
 74
0
 42
0.0000001
 43
0.0000001
 44
0.0000000001
 40
0.0
 40
0.0
 40
0.0
 40
0.0
 40
0.0592867691
 40
0.1200497502
 40
0.1821463985
 40
0.2455126867
 40
0.3100060114
 40
0.3753219279
 40
0.4410880736
 40
0.5069039423
 40
0.5723650514
 40
0.6370982605
 40
0.700785853
 40
0.7631978061
 40
0.8242147128
 40
0.8839152819
 40
0.9424777003
 40
1.0
 40
1.0
 40
1.0
 40
1.0
 10
4.7458796478
 20
4.7255706966
 30
0.0
 10
4.7429143545
 20
4.727139872
 30
0.0
 10
4.7371796095
 20
4.7308516379
 30
0.0
 10
4.7295181963
 20
4.7378091851
 30
0.0
 10
4.7229058336
 20
4.7460691115
 30
0.0
 10
4.7174970645
 20
4.755403128
 30
0.0
 10
4.7134292518
 20
4.765589063
 30
0.0
 10
4.71078206
 20
4.776371485
 30
0.0
 10
4.7096407075
 20
4.7874898671
 30
0.0
 10
4.7100127008
 20
4.7986685227
 30
0.0
 10
4.7119068824
 20
4.8096330473
 30
0.0
 10
4.7152605933
 20
4.8201176248
 30
0.0
 10
4.7200128701
 20
4.829857141
 30
0.0
 10
4.7260291917
 20
4.8386197875
 30
0.0
 10
4.7331817865
 20
4.8461784575
 30
0.0
 10
4.7412920994
 20
4.8523527193
 30
0.0
 10
4.7501608261
 20
4.8569609993
 30
0.0
 10
4.7564668893
 20
4.8589429233
 30
0.0
 10
4.7596486856
 20
4.8596295575
 30
0.0
  0
SPLINE
  5
726
100
AcDbEntity
  8
0
100
AcDbSpline
 62
9
  6
CONTINUOUS
 70
0
 71
3
 72
11
 73
7
 74
0
 42
0.0000001
 43
0.0000001
 44
0.0000000001
 40
0.0
 40
0.0
 40
0.0
 40
0.0
 40
0.2498664488
 40
0.4992234679
 40
0.7489731127
 40
1.0
 40
1.0
 40
1.0
 40
1.0
 10
4.7596486856
 20
4.8596295575
 30
0.0
 10
4.7719080171
 20
4.8622754814
 30
0.0
 10
4.7967525463
 20
4.8660664154
 30
0.0
 10
4.8344239789
 20
4.867119658
 30
0.0
 10
4.8719948618
 20
4.8635077419
 30
0.0
 10
4.8966040601
 20
4.8580422651
 30
0.0
 10
4.9087172613
 20
4.8545742868
 30
0.0
  0
SPLINE
  5
727
100
AcDbEntity
  8
0
100
AcDbSpline
 62
9
  6
CONTINUOUS
 70
0
 71
3
 72
17
 73
13
 74
0
 42
0.0000001
 43
0.0000001
 44
0.0000000001
 40
0.0
 40
0.0
 40
0.0
 40
0.0
 40
0.1315774512
 40
0.2609880766
 40
0.3882697624
 40
0.4511659546
 40
0.5135727015
 40
0.6369805223
 40
0.7588776753
 40
0.8194387974
 40
0.8798023257
 40
1.0
 40
1.0
 40
1.0
 40
1.0
 10
5.3053644726
 20
4.8239983078
 30
0.0
 10
5.2951422879
 20
4.8082964807
 30
0.0
 10
5.2731445799
 20
4.7782290565
 30
0.0
 10
5.2355882126
 20
4.7374999888
 30
0.0
 10
5.2009483564
 20
4.7078031365
 30
0.0
 10
5.1716101788
 20
4.6869628946
 30
0.0
 10
5.1415125709
 20
4.6682611743
 30
0.0
 10
5.1021944038
 20
4.6486431573
 30
0.0
 10
5.0609247885
 20
4.6343186034
 30
0.0
 10
5.0272795005
 20
4.626246232
 30
0.0
 10
4.9934176988
 20
4.6204610255
 30
0.0
 10
4.9676690756
 20
4.6186613445
 30
0.0
 10
4.9505534917
 20
4.6186171511
 30
0.0
  0
SPLINE
  5
728
100
AcDbEntity
  8
0
100
AcDbSpline
 62
9
  6
CONTINUOUS
 70
0
 71
3
 72
17
 73
13
 74
0
 42
0.0000001
 43
0.0000001
 44
0.0000000001
 40
0.0
 40
0.0
 40
0.0
 40
0.0
 40
0.0400731604
 40
0.0819175301
 40
0.1262091254
 40
0.1734779407
 40
0.2781714024
 40
0.3973810873
 40
0.5308766456
 40
0.6773812077
 40
0.8348507466
 40
1.0
 40
1.0
 40
1.0
 40
1.0
 10
4.7458962598
 20
4.6684019419
 30
0.0
 10
4.7452665103
 20
4.6689026877
 30
0.0
 10
4.7440655959
 20
4.6700392355
 30
0.0
 10
4.742515272
 20
4.6720546905
 30
0.0
 10
4.7411921113
 20
4.6743927279
 30
0.0
 10
4.7396901236
 20
4.6780447499
 30
0.0
 10
4.7384797313
 20
4.6833911451
 30
0.0
 10
4.7380409953
 20
4.690575173
 30
0.0
 10
4.738581819
 20
4.6985904063
 30
0.0
 10
4.7400811323
 20
4.7072581972
 30
0.0
 10
4.7425115661
 20
4.7163689172
 30
0.0
 10
4.7446651304
 20
4.7224853702
 30
0.0
 10
4.7458791637
 20
4.7255709076
 30
0.0
  0
LINE
  5
729
100
AcDbEntity
  8
0
100
AcDbLine
 62
7
  6
CONTINUOUS
 10
4.9086306706
 20
4.875948375
 11
4.9087172629
 21
4.8545738895
  0
SPLINE
  5
72A
100
AcDbEntity
  8
0
100
AcDbSpline
 62
7
  6
CONTINUOUS
 70
0
 71
3
 72
11
 73
7
 74
0
 42
0.0000001
 43
0.0000001
 44
0.0000000001
 40
0.0
 40
0.0
 40
0.0
 40
0.0
 40
0.2519148717
 40
0.5022246294
 40
0.7514269422
 40
1.0
 40
1.0
 40
1.0
 40
1.0
 10
4.7623685134
 20
4.659754593
 30
0.0
 10
4.7762987209
 20
4.6530377503
 30
0.0
 10
4.8048220833
 20
4.6411418201
 30
0.0
 10
4.8491957837
 20
4.6281955469
 30
0.0
 10
4.8945443029
 20
4.6203639683
 30
0.0
 10
4.9251310489
 20
4.6186157044
 30
0.0
 10
4.9403909093
 20
4.6186172737
 30
0.0
  0
SPLINE
  5
72B
100
AcDbEntity
  8
0
100
AcDbSpline
 62
7
  6
CONTINUOUS
 70
0
 71
3
 72
17
 73
13
 74
0
 42
0.0000001
 43
0.0000001
 44
0.0000000001
 40
0.0
 40
0.0
 40
0.0
 40
0.0
 40
0.1295673948
 40
0.2575659526
 40
0.3840706121
 40
0.4468167546
 40
0.5092308816
 40
0.6330964538
 40
0.7559668804
 40
0.8171583915
 40
0.8782232196
 40
1.0
 40
1.0
 40
1.0
 40
1.0
 10
5.3106259221
 20
4.8209090451
 30
0.0
 10
5.3002289655
 20
4.8054782593
 30
0.0
 10
5.277865524
 20
4.7759031911
 30
0.0
 10
5.23978567
 20
4.7358491246
 30
0.0
 10
5.2046855738
 20
4.7066215648
 30
0.0
 10
5.174930355
 20
4.686075074
 30
0.0
 10
5.1443040386
 20
4.6675741409
 30
0.0
 10
5.10424528
 20
4.6481545446
 30
0.0
 10
5.0622148693
 20
4.6340049819
 30
0.0
 10
5.0279031959
 20
4.6260386375
 30
0.0
 10
4.993306785
 20
4.6203441792
 30
0.0
 10
4.9670081572
 20
4.6186159313
 30
0.0
 10
4.9495203255
 20
4.6186173288
 30
0.0
  0
SPLINE
  5
72C
100
AcDbEntity
  8
0
100
AcDbSpline
 62
7
  6
CONTINUOUS
 70
0
 71
3
 72
28
 73
24
 74
0
 42
0.0000001
 43
0.0000001
 44
0.0000000001
 40
0.0
 40
0.0
 40
0.0
 40
0.0
 40
0.061441365
 40
0.0922519735
 40
0.1230999276
 40
0.1849046455
 40
0.2469758638
 40
0.2781521453
 40
0.3094071143
 40
0.3721119328
 40
0.4351085529
 40
0.4667163245
 40
0.4983668137
 40
0.5616984789
 40
0.6250182303
 40
0.6566551472
 40
0.6882445341
 40
0.7511956817
 40
0.8138419968
 40
0.8761646858
 40
0.9072409619
 40
0.9382565034
 40
1.0
 40
1.0
 40
1.0
 40
1.0
 10
4.778994767
 20
4.925637426
 30
0.0
 10
4.7723252916
 20
4.9241982233
 30
0.0
 10
4.7624709461
 20
4.9211737422
 30
0.0
 10
4.7499931714
 20
4.9155632613
 30
0.0
 10
4.7379865041
 20
4.9089138944
 30
0.0
 10
4.7240222974
 20
4.898766065
 30
0.0
 10
4.7118344174
 20
4.8864970756
 30
0.0
 10
4.7032827552
 20
4.8756184158
 30
0.0
 10
4.6955496122
 20
4.8640582589
 30
0.0
 10
4.6875267461
 20
4.8485069837
 30
0.0
 10
4.6818608183
 20
4.8319133653
 30
0.0
 10
4.6787845725
 20
4.8182239096
 30
0.0
 10
4.6766876987
 20
4.8043128165
 30
0.0
 10
4.6759377768
 20
4.7866866489
 30
0.0
 10
4.6776836311
 20
4.7691325888
 30
0.0
 10
4.680564804
 20
4.7553674612
 30
0.0
 10
4.6844099648
 20
4.741882905
 30
0.0
 10
4.691013907
 20
4.7256518589
 30
0.0
 10
4.7016682773
 20
4.7076220434
 30
0.0
 10
4.712685532
 20
4.6941499654
 30
0.0
 10
4.7226297672
 20
4.6845395557
 30
0.0
 10
4.7332524952
 20
4.6757906764
 30
0.0
 10
4.7419776461
 20
4.6702046191
 30
0.0
 10
4.7480379545
 20
4.6669976213
 30
0.0
  0
SPLINE
  5
72D
100
AcDbEntity
  8
0
100
AcDbSpline
 62
9
  6
CONTINUOUS
 70
0
 71
3
 72
21
 73
17
 74
0
 42
0.0000001
 43
0.0000001
 44
0.0000000001
 40
0.0
 40
0.0
 40
0.0
 40
0.0
 40
0.1308720875
 40
0.2588216463
 40
0.3218526328
 40
0.3842989296
 40
0.446245609
 40
0.5077923342
 40
0.5690511521
 40
0.6301417166
 40
0.6911866409
 40
0.7523074112
 40
0.8136362831
 40
0.8753080037
 40
0.9374199999
 40
1.0
 40
1.0
 40
1.0
 40
1.0
 10
5.1909938605
 20
4.8301630722
 30
0.0
 10
5.177586548
 20
4.813080353
 30
0.0
 10
5.148430209
 20
4.781268635
 30
0.0
 10
5.1062580486
 20
4.748082652
 30
0.0
 10
5.0701357408
 20
4.7264659661
 30
0.0
 10
5.0421350948
 20
4.7128400436
 30
0.0
 10
5.0132790407
 20
4.7018072722
 30
0.0
 10
4.9837424732
 20
4.6934455284
 30
0.0
 10
4.9537132844
 20
4.6877969647
 30
0.0
 10
4.9233773128
 20
4.6849102641
 30
0.0
 10
4.8929275664
 20
4.6847920868
 30
0.0
 10
4.86255395
 20
4.687448762
 30
0.0
 10
4.8324440037
 20
4.6928633742
 30
0.0
 10
4.8027832545
 20
4.7010037338
 30
0.0
 10
4.7737710304
 20
4.7118164459
 30
0.0
 10
4.7550577919
 20
4.7207139212
 30
0.0
 10
4.7458796249
 20
4.7255707105
 30
0.0
  0
SPLINE
  5
72E
100
AcDbEntity
  8
0
100
AcDbSpline
 62
9
  6
CONTINUOUS
 70
0
 71
3
 72
23
 73
19
 74
0
 42
0.0000001
 43
0.0000001
 44
0.0000000001
 40
0.0
 40
0.0
 40
0.0
 40
0.0
 40
0.0592867204
 40
0.1200496403
 40
0.1821462129
 40
0.2455124105
 40
0.3100056409
 40
0.3753214722
 40
0.4410875493
 40
0.5069033804
 40
0.5723644901
 40
0.637097737
 40
0.7007854022
 40
0.7631974802
 40
0.8242145378
 40
0.8839152324
 40
0.942477732
 40
1.0
 40
1.0
 40
1.0
 40
1.0
 10
4.7458796249
 20
4.7255707105
 30
0.0
 10
4.7429143626
 20
4.7271398679
 30
0.0
 10
4.7371796777
 20
4.7308515912
 30
0.0
 10
4.7295183381
 20
4.737809051
 30
0.0
 10
4.7229060207
 20
4.7460688625
 30
0.0
 10
4.7174972659
 20
4.7554027467
 30
0.0
 10
4.7134294349
 20
4.765588541
 30
0.0
 10
4.71078219
 20
4.7763708223
 30
0.0
 10
4.7096407489
 20
4.7874890731
 30
0.0
 10
4.7100126202
 20
4.7986676159
 30
0.0
 10
4.7119066485
 20
4.809632055
 30
0.0
 10
4.7152601807
 20
4.8201165816
 30
0.0
 10
4.7200122621
 20
4.8298560884
 30
0.0
 10
4.7260283725
 20
4.8386187746
 30
0.0
 10
4.7331807417
 20
4.8461775463
 30
0.0
 10
4.7412908448
 20
4.8523519518
 30
0.0
 10
4.7501593963
 20
4.8569603841
 30
0.0
 10
4.7564653911
 20
4.8589423479
 30
0.0
 10
4.7596471567
 20
4.8596289645
 30
0.0
  0
SPLINE
  5
72F
100
AcDbEntity
  8
0
100
AcDbSpline
 62
9
  6
CONTINUOUS
 70
0
 71
3
 72
11
 73
7
 74
0
 42
0.0000001
 43
0.0000001
 44
0.0000000001
 40
0.0
 40
0.0
 40
0.0
 40
0.0
 40
0.2498664019
 40
0.4992235292
 40
0.7489729704
 40
1.0
 40
1.0
 40
1.0
 40
1.0
 10
4.7596471567
 20
4.8596289645
 30
0.0
 10
4.77190659
 20
4.8622750686
 30
0.0
 10
4.7967513656
 20
4.8660663006
 30
0.0
 10
4.8344232136
 20
4.8671197737
 30
0.0
 10
4.871994527
 20
4.863507795
 30
0.0
 10
4.8966039606
 20
4.8580420514
 30
0.0
 10
4.9087172629
 20
4.8545738895
 30
0.0
  0
SPLINE
  5
730
100
AcDbEntity
  8
0
100
AcDbSpline
 62
9
  6
CONTINUOUS
 70
0
 71
3
 72
17
 73
13
 74
0
 42
0.0000001
 43
0.0000001
 44
0.0000000001
 40
0.0
 40
0.0
 40
0.0
 40
0.0
 40
0.1315774362
 40
0.2609880511
 40
0.388269733
 40
0.4511659261
 40
0.5135726749
 40
0.6369805032
 40
0.7588776583
 40
0.819438776
 40
0.8798023023
 40
1.0
 40
1.0
 40
1.0
 40
1.0
 10
5.3053644566
 20
4.8239982835
 30
0.0
 10
5.2951423053
 20
4.8082965097
 30
0.0
 10
5.2731446749
 20
4.7782291838
 30
0.0
 10
5.2355884546
 20
4.7375002319
 30
0.0
 10
5.2009487403
 20
4.7078034461
 30
0.0
 10
5.1716106855
 20
4.6869632335
 30
0.0
 10
5.1415132023
 20
4.6682615278
 30
0.0
 10
5.1021951988
 20
4.6486435006
 30
0.0
 10
5.0609257513
 20
4.6343188966
 30
0.0
 10
5.0272805957
 20
4.6262464581
 30
0.0
 10
4.9934189189
 20
4.6204611689
 30
0.0
 10
4.9676703828
 20
4.6186614105
 30
0.0
 10
4.9505548513
 20
4.6186171547
 30
0.0
  0
LINE
  5
731
100
AcDbEntity
  8
0
100
AcDbLine
 62
9
  6
CONTINUOUS
 10
4.9505548513
 20
4.6186171547
 11
4.9495675781
 21
4.6186158779
  0
SPLINE
  5
732
100
AcDbEntity
  8
0
100
AcDbSpline
 62
9
  6
CONTINUOUS
 70
0
 71
3
 72
16
 73
12
 74
0
 42
0.0000001
 43
0.0000001
 44
0.0000000001
 40
0.0
 40
0.0
 40
0.0
 40
0.0
 40
0.1202372318
 40
0.2413294077
 40
0.3636102319
 40
0.4873531963
 40
0.6127640007
 40
0.7399581527
 40
0.8042693916
 40
0.8690529358
 40
1.0
 40
1.0
 40
1.0
 40
1.0
 10
5.0005410015
 20
4.6233617057
 30
0.0
 10
5.0152656075
 20
4.6256947701
 30
0.0
 10
5.0445747273
 20
4.6320985803
 30
0.0
 10
5.0873243294
 20
4.6467051136
 30
0.0
 10
5.1285611704
 20
4.6662026524
 30
0.0
 10
5.1678664322
 20
4.6903780521
 30
0.0
 10
5.2048377881
 20
4.7189886988
 30
0.0
 10
5.2333042816
 20
4.7461837374
 30
0.0
 10
5.2545637982
 20
4.7698179703
 30
0.0
 10
5.2749148567
 20
4.7948392652
 30
0.0
 10
5.2888204072
 20
4.8147905099
 30
0.0
 10
5.2974621047
 20
4.8285358968
 30
0.0
  0
SPLINE
  5
733
100
AcDbEntity
  8
0
100
AcDbSpline
 62
9
  6
CONTINUOUS
 70
0
 71
3
 72
19
 73
15
 74
0
 42
0.0000001
 43
0.0000001
 44
0.0000000001
 40
0.0
 40
0.0
 40
0.0
 40
0.0
 40
0.0410766959
 40
0.0832415864
 40
0.1273940458
 40
0.1742935213
 40
0.2244934224
 40
0.2783662074
 40
0.3361050042
 40
0.3976989076
 40
0.5318367026
 40
0.6790614838
 40
0.836538695
 40
1.0
 40
1.0
 40
1.0
 40
1.0
 10
4.7789945851
 20
4.9256346609
 30
0.0
 10
4.7780014438
 20
4.9254192751
 30
0.0
 10
4.7760254245
 20
4.9247917376
 30
0.0
 10
4.7732304076
 20
4.9233016312
 30
0.0
 10
4.7706169213
 20
4.921269624
 30
0.0
 10
4.7682082536
 20
4.9187217281
 30
0.0
 10
4.7660172295
 20
4.9156852055
 30
0.0
 10
4.7640602632
 20
4.912184143
 30
0.0
 10
4.7623524362
 20
4.9082472784
 30
0.0
 10
4.7603631941
 20
4.9022935301
 30
0.0
 10
4.758633624
 20
4.8939556713
 30
0.0
 10
4.7577510894
 20
4.8831129272
 30
0.0
 10
4.7580398396
 20
4.8715154384
 30
0.0
 10
4.7589862481
 20
4.8636188512
 30
0.0
 10
4.7596488769
 20
4.8596295101
 30
0.0
  0
SPLINE
  5
734
100
AcDbEntity
  8
0
100
AcDbSpline
 62
7
  6
CONTINUOUS
 70
0
 71
3
 72
25
 73
21
 74
0
 42
0.0000001
 43
0.0000001
 44
0.0000000001
 40
0.0
 40
0.0
 40
0.0
 40
0.0
 40
0.0371329313
 40
0.071898901
 40
0.1050172291
 40
0.1370658205
 40
0.1993048953
 40
0.2599091251
 40
0.3195082742
 40
0.3785061627
 40
0.4958310111
 40
0.6137797304
 40
0.6735722291
 40
0.7342810628
 40
0.7962867863
 40
0.8601950604
 40
0.8931497425
 40
0.9271347451
 40
0.9625811286
 40
1.0
 40
1.0
 40
1.0
 40
1.0
 10
4.4091414958
 20
5.0768167535
 30
0.0
 10
4.4093659082
 20
5.0746390688
 30
0.0
 10
4.4099989832
 20
5.0704397524
 30
0.0
 10
4.4114998289
 20
5.0644247276
 30
0.0
 10
4.4134090915
 20
5.0588444392
 30
0.0
 10
4.4163274332
 20
5.0519193947
 30
0.0
 10
4.4204755258
 20
5.0437683398
 30
0.0
 10
4.4261794715
 20
5.0346358545
 30
0.0
 10
4.4324364141
 20
5.026111408
 30
0.0
 10
4.4414455619
 20
5.015500754
 30
0.0
 10
4.453955179
 20
5.0034179484
 30
0.0
 10
4.4677380109
 20
4.9927389248
 30
0.0
 10
4.4796151498
 20
4.9852009304
 30
0.0
 10
4.4890658461
 20
4.9800402636
 30
0.0
 10
4.4990680258
 20
4.9754336669
 30
0.0
 10
4.5078682409
 20
4.9721931173
 30
0.0
 10
4.5152655261
 20
4.9699952599
 30
0.0
 10
4.5211440755
 20
4.9686062605
 30
0.0
 10
4.5273634303
 20
4.9675734714
 30
0.0
 10
4.5316468735
 20
4.9671869562
 30
0.0
 10
4.5338499253
 20
4.9670714992
 30
0.0
  0
SPLINE
  5
735
100
AcDbEntity
  8
0
100
AcDbSpline
 62
7
  6
CONTINUOUS
 70
0
 71
3
 72
25
 73
21
 74
0
 42
0.0000001
 43
0.0000001
 44
0.0000000001
 40
0.0
 40
0.0
 40
0.0
 40
0.0
 40
0.0371329313
 40
0.071898901
 40
0.1050172291
 40
0.1370658205
 40
0.1993048953
 40
0.2599091251
 40
0.3195082742
 40
0.3785061627
 40
0.4958310111
 40
0.6137797304
 40
0.6735722291
 40
0.7342810628
 40
0.7962867863
 40
0.8601950604
 40
0.8931497425
 40
0.9271347451
 40
0.9625811286
 40
1.0
 40
1.0
 40
1.0
 40
1.0
 10
8.7085583549
 20
5.0768167535
 30
0.0
 10
8.7083339425
 20
5.0746390688
 30
0.0
 10
8.7077008675
 20
5.0704397524
 30
0.0
 10
8.7062000218
 20
5.0644247276
 30
0.0
 10
8.7042907592
 20
5.0588444392
 30
0.0
 10
8.7013724175
 20
5.0519193947
 30
0.0
 10
8.6972243248
 20
5.0437683398
 30
0.0
 10
8.6915203792
 20
5.0346358545
 30
0.0
 10
8.6852634366
 20
5.026111408
 30
0.0
 10
8.6762542888
 20
5.015500754
 30
0.0
 10
8.6637446717
 20
5.0034179484
 30
0.0
 10
8.6499618398
 20
4.9927389248
 30
0.0
 10
8.6380847009
 20
4.9852009304
 30
0.0
 10
8.6286340046
 20
4.9800402636
 30
0.0
 10
8.6186318249
 20
4.9754336669
 30
0.0
 10
8.6098316098
 20
4.9721931173
 30
0.0
 10
8.6024343246
 20
4.9699952599
 30
0.0
 10
8.5965557752
 20
4.9686062605
 30
0.0
 10
8.5903364203
 20
4.9675734714
 30
0.0
 10
8.5860529771
 20
4.9671869562
 30
0.0
 10
8.5838499253
 20
4.9670714992
 30
0.0
  0
SPLINE
  5
736
100
AcDbEntity
  8
0
100
AcDbSpline
 62
9
  6
CONTINUOUS
 70
0
 71
3
 72
23
 73
19
 74
0
 42
0.0000001
 43
0.0000001
 44
0.0000000001
 40
0.0
 40
0.0
 40
0.0
 40
0.0
 40
0.0314325635
 40
0.0436105017
 40
0.0577674628
 40
0.0739595609
 40
0.0922000989
 40
0.1124728347
 40
0.1347506772
 40
0.1851783539
 40
0.2431622272
 40
0.3082071258
 40
0.3796944357
 40
0.4569885815
 40
0.539400453
 40
0.6261757618
 40
0.8096759857
 40
1.0
 40
1.0
 40
1.0
 40
1.0
 10
8.7723659011
 20
8.6583033842
 30
0.0
 10
8.7753325407
 20
8.6587813325
 30
0.0
 10
8.7793461367
 20
8.6555158435
 30
0.0
 10
8.7827266117
 20
8.6513454298
 30
0.0
 10
8.7850526496
 20
8.6479653275
 30
0.0
 10
8.7874223973
 20
8.6439801735
 30
0.0
 10
8.7898754333
 20
8.6393556291
 30
0.0
 10
8.7923921733
 20
8.634117145
 30
0.0
 10
8.7959799677
 20
8.6259830614
 30
0.0
 10
8.8005411373
 20
8.6143463734
 30
0.0
 10
8.8059792737
 20
8.5986781922
 30
0.0
 10
8.8115314277
 20
8.5809284825
 30
0.0
 10
8.8171454847
 20
8.5612713134
 30
0.0
 10
8.8227617138
 20
8.5398936416
 30
0.0
 10
8.828325475
 20
8.5169955383
 30
0.0
 10
8.8357464808
 20
8.4841048013
 30
0.0
 10
8.8444475539
 20
8.4409342123
 30
0.0
 10
8.8505873993
 20
8.4057241794
 30
0.0
 10
8.8534813741
 20
8.3877611914
 30
0.0
  0
SPLINE
  5
737
100
AcDbEntity
  8
0
100
AcDbSpline
 62
9
  6
CONTINUOUS
 70
0
 71
3
 72
23
 73
19
 74
0
 42
0.0000001
 43
0.0000001
 44
0.0000000001
 40
0.0
 40
0.0
 40
0.0
 40
0.0
 40
0.1903240143
 40
0.3738242382
 40
0.460599547
 40
0.5430114185
 40
0.6203055643
 40
0.6917928742
 40
0.7568377728
 40
0.8148216461
 40
0.8652493228
 40
0.8875271653
 40
0.9077999011
 40
0.9260404391
 40
0.9422325372
 40
0.9563894983
 40
0.9685674365
 40
1.0
 40
1.0
 40
1.0
 40
1.0
 10
8.8534813741
 20
8.3877611914
 30
0.0
 10
8.856375349
 20
8.3697982034
 30
0.0
 10
8.8616043567
 20
8.3344414276
 30
0.0
 10
8.8669018505
 20
8.2907224959
 30
0.0
 10
8.8701861156
 20
8.2571652983
 30
0.0
 10
8.8720953301
 20
8.2336784196
 30
0.0
 10
8.8734772193
 20
8.2116185632
 30
0.0
 10
8.8743208234
 20
8.1911928376
 30
0.0
 10
8.874624135
 20
8.1725974992
 30
0.0
 10
8.8743819627
 20
8.1560141767
 30
0.0
 10
8.8737062392
 20
8.1435337852
 30
0.0
 10
8.8728545996
 20
8.1346844748
 30
0.0
 10
8.8721104188
 20
8.1289206314
 30
0.0
 10
8.8712339025
 20
8.1237596706
 30
0.0
 10
8.8702356512
 20
8.1192319062
 30
0.0
 10
8.8690888733
 20
8.1152923067
 30
0.0
 10
8.8671892188
 20
8.1102712237
 30
0.0
 10
8.8644042741
 20
8.1059104377
 30
0.0
 10
8.8614376344
 20
8.1054324894
 30
0.0
  0
ENDSEC
  0
SECTION
  2
OBJECTS
  0
DICTIONARY
  5
C
100
AcDbDictionary
280
0
281
1
  3
ACAD_GROUP
350
D
  3
ACAD_MLINESTYLE
350
17
  3
ACAD_LAYOUT
350
1A
  3
ACAD_PLOTSETTINGS
350
19
  3
ACAD_PLOTSTYLENAME
350
E
  0
DICTIONARY
  5
D
102
{ACAD_REACTORS
330
C
102
}
100
AcDbDictionary
280
0
281
1
  0
ACDBDICTIONARYWDFLT
  5
E
102
{ACAD_REACTORS
330
C
102
}
100
AcDbDictionary
281
1
  3
Normal
350
F
100
AcDbDictionaryWithDefault
340
F
  0
DICTIONARY
  5
17
102
{ACAD_REACTORS
330
C
102
}
100
AcDbDictionary
280
0
281
1
  3
Standard
350
18
  0
DICTIONARY
  5
19
102
{ACAD_REACTORS
330
C
102
}
100
AcDbDictionary
281
1
  0
DICTIONARY
  5
1A
102
{ACAD_REACTORS
330
C
102
}
100
AcDbDictionary
281
1
  3
Model
350
738
  3
Layout1
350
739
  0
ACDBPLACEHOLDER
  5
F
102
{ACAD_REACTORS
330
E
102
}
  0
MLINESTYLE
  5
18
102
{ACAD_REACTORS
330
17
102
}
100
AcDbMlineStyle
  2
STANDARD
 70
0
  3

 62
256
 51
90.0
 52
90.0
 71
2
 49
0.5
 62
256
  6
BYLAYER
 49
-0.5
 62
256
  6
BYLAYER
  0
LAYOUT
  5
738
102
{ACAD_REACTORS
330
1A
102
}
100
AcDbPlotSettings
  1

  2
none_device
  4
ANSI_C_(22.00_x_17.00_Inches)
  6

 40
0.0
 41
0.0
 42
0.0
 43
0.0
 44
558.8
 45
431.8
 46
0.0
 47
0.0
 48
0.0
 49
0.0
140
0.0
141
0.0
142
1.0
143
1.0
 70
1024
 72
0
 73
0
 74
0
  7

 75
0
147
1.0
148
0.0
149
0.0
100
AcDbLayout
  1
Model
 70
0
 71
0
 10
0.0
 20
0.0
 11
22.0
 21
17.0
 12
0.0
 22
0.0
 32
0.0
 14
0.0
 24
0.0
 34
0.0
 15
0.0
 25
0.0
 35
0.0
146
0.0
 13
0.0
 23
0.0
 33
0.0
 16
1.0
 26
0.0
 36
0.0
 17
0.0
 27
1.0
 37
0.0
 76
0
330
202
345
0
346
0
  0
LAYOUT
  5
739
102
{ACAD_REACTORS
330
1A
102
}
100
AcDbPlotSettings
  1

  2
none_device
  4
ANSI_C_(22.00_x_17.00_Inches)
  6

 40
0.0
 41
0.0
 42
0.0
 43
0.0
 44
558.8
 45
431.8
 46
0.0
 47
0.0
 48
0.0
 49
0.0
140
0.0
141
0.0
142
1.0
143
1.0
 70
0
 72
0
 73
0
 74
0
  7

 75
0
147
1.0
148
0.0
149
0.0
100
AcDbLayout
  1
Layout1
 70
0
 71
1
 10
0.0
 20
0.0
 11
22.0
 21
17.0
 12
0.0
 22
0.0
 32
0.0
 14
0.0
 24
0.0
 34
0.0
 15
0.0
 25
0.0
 35
0.0
146
0.0
 13
0.0
 23
0.0
 33
0.0
 16
1.0
 26
0.0
 36
0.0
 17
0.0
 27
1.0
 37
0.0
 76
0
330
203
345
0
346
0
  0
ENDSEC
  0
EOF
