999
DXF file: 280m_right.dxf
999
Pro/ENGINEER 2019352 by Parametric Technology Corporation
  0
SECTION
  2
HEADER
  9
$ACADVER
  1
AC1032
  9
$DWGCODEPAGE
  3
ANSI_1252
  9
$EXTMAX
 10
11.0
 20
8.5
 30
0.0
  9
$EXTMIN
 10
0.0
 20
0.0
 30
0.0
  9
$LIMMIN
 10
0.0
 20
0.0
  9
$LIMMAX
 10
11.0
 20
8.5
  9
$VIEWCTR
 10
5.5
 20
4.25
  9
$VIEWSIZE
 40
8.5
  9
$CLAYER
  8
0
  9
$LTSCALE
 40
0.605
  9
$CELTYPE
  6
BYLAYER
  9
$DIMSCALE
 40
1.0
  9
$DIMASZ
 40
0.1
  9
$DIMEXO
 40
0.0625
  9
$DIMDLI
 40
0.418
  9
$DIMEXE
 40
0.125
  9
$DIMCEN
 40
0.099
  9
$DIMLFAC
 40
1.0
  9
$DIMBLK
  1
_FILLED
  9
$DIMALT
 70
1
  9
$DIMALTD
 70
2
  9
$DIMALTTD
 70
2
  9
$DIMALTF
 40
25.4
  9
$DIMTXT
 40
0.08
  9
$DIMTOL
 70
1
  9
$DIMLIM
 70
0
  9
$DIMTFAC
 40
1.0
  9
$DIMTP
 40
0.001
  9
$DIMTM
 40
0.001
  9
$DIMGAP
 40
0.09
  9
$DIMDSEP
 70
46
  9
$AUNITS
 70
0
  9
$PDMODE
 70
3
  9
$PDSIZE
 40
0.3125
  9
$HANDSEED
  5
38A
  9
$TILEMODE
 70
1
  9
$MEASUREMENT
 70
0
  9
$INSUNITS
 70
1
  0
ENDSEC
  0
SECTION
  2
CLASSES
  0
CLASS
  1
ACDBDICTIONARYWDFLT
  2
AcDbDictionaryWithDefault
  3
AutoCAD 2000
 90
0
 91
1
280
0
281
0
  0
CLASS
  1
ACDBPLACEHOLDER
  2
AcDbPlaceHolder
  3
AutoCAD 2000
 90
0
 91
1
280
0
281
0
  0
CLASS
  1
LAYOUT
  2
AcDbLayout
  3
AutoCAD 2000
 90
0
 91
0
280
0
281
0
  0
ENDSEC
  0
SECTION
  2
TABLES
  0
TABLE
  2
VPORT
  5
8
100
AcDbSymbolTable
 70
2
  0
VPORT
  5
1F4
100
AcDbSymbolTableRecord
100
AcDbViewportTableRecord
  2
*ACTIVE
 70
0
 10
0.0
 20
0.0
 11
1.0
 21
1.0
 12
5.5
 22
4.25
 13
0.0
 23
0.0
 14
1.0
 24
1.0
 15
0.0
 25
0.0
 16
0.0
 26
0.0
 36
1.0
 17
0.0
 27
0.0
 37
0.0
 40
8.5
 41
1.2941176471
 42
50.0
 43
0.0
 44
0.0
 50
0.0
 51
0.0
 71
0
 72
100
 73
1
 74
1
 75
0
 76
0
 77
0
 78
0
  0
ENDTAB
  0
TABLE
  2
LTYPE
  5
5
100
AcDbSymbolTable
 70
6
  0
LTYPE
  5
14
100
AcDbSymbolTableRecord
100
AcDbLinetypeTableRecord
  2
BYBLOCK
 70
0
  3

 72
65
 73
0
 40
0.0
  0
LTYPE
  5
15
100
AcDbSymbolTableRecord
100
AcDbLinetypeTableRecord
  2
BYLAYER
 70
0
  3

 72
65
 73
0
 40
0.0
  0
LTYPE
  5
16
100
AcDbSymbolTableRecord
100
AcDbLinetypeTableRecord
  2
CONTINUOUS
 70
64
  3
Solid line
 72
65
 73
0
 40
0.0
  0
LTYPE
  5
1F5
100
AcDbSymbolTableRecord
100
AcDbLinetypeTableRecord
  2
CENTER
 70
64
  3
____ _ ____ _ ____ _ ____ _ ____ _ ____ _ ____
 72
65
 73
4
 40
0.6
 49
0.375
 74
0
 49
-0.075
 74
0
 49
0.075
 74
0
 49
-0.075
 74
0
  0
LTYPE
  5
1F6
100
AcDbSymbolTableRecord
100
AcDbLinetypeTableRecord
  2
HIDDEN
 70
64
  3
- - - - - - - - - - - - - - - - - - - -
 72
65
 73
2
 40
0.2
 49
0.1
 74
0
 49
-0.1
 74
0
  0
LTYPE
  5
1F7
100
AcDbSymbolTableRecord
100
AcDbLinetypeTableRecord
  2
PHANTOM
 70
64
  3
_____ _ _ _____ _ _ _____ _ _ _____
 72
65
 73
6
 40
0.8
 49
0.45
 74
0
 49
-0.05
 74
0
 49
0.1
 74
0
 49
-0.05
 74
0
 49
0.1
 74
0
 49
-0.05
 74
0
  0
LTYPE
  5
1F8
100
AcDbSymbolTableRecord
100
AcDbLinetypeTableRecord
  2
DOT
 70
64
  3
. . . . . . . . . . . . . . . . . . . .
 72
65
 73
2
 40
0.2
 49
0.1
 74
0
 49
-0.1
 74
0
  0
LTYPE
  5
1F9
100
AcDbSymbolTableRecord
100
AcDbLinetypeTableRecord
  2
DASHED
 70
64
  3
- - - - - - - - - - - - - - - - - - - -
 72
65
 73
2
 40
0.2
 49
0.1
 74
0
 49
-0.1
 74
0
  0
ENDTAB
  0
TABLE
  2
LAYER
  5
2
100
AcDbSymbolTable
 70
36
  0
LAYER
  5
10
100
AcDbSymbolTableRecord
100
AcDbLayerTableRecord
  2
0
 70
0
 62
7
  6
CONTINUOUS
370
-3
390
F
  0
LAYER
  5
1FA
100
AcDbSymbolTableRecord
100
AcDbLayerTableRecord
  2
DEFAULT_1
 70
0
 62
7
  6
CENTER
370
-3
390
F
  0
LAYER
  5
1FB
100
AcDbSymbolTableRecord
100
AcDbLayerTableRecord
  2
DEFAULT_2
 70
0
 62
8
  6
HIDDEN
370
-3
390
F
  0
LAYER
  5
1FC
100
AcDbSymbolTableRecord
100
AcDbLayerTableRecord
  2
DEFAULT_3
 70
0
 62
7
  6
PHANTOM
370
-3
390
F
  0
LAYER
  5
1FD
100
AcDbSymbolTableRecord
100
AcDbLayerTableRecord
  2
DEFAULT_COORDINATE_SYSTEM
 70
0
 62
7
  6
CONTINUOUS
370
-3
390
F
  0
LAYER
  5
1FE
100
AcDbSymbolTableRecord
100
AcDbLayerTableRecord
  2
DEFAULT_DATUM_AXES
 70
0
 62
7
  6
CONTINUOUS
370
-3
390
F
  0
LAYER
  5
1FF
100
AcDbSymbolTableRecord
100
AcDbLayerTableRecord
  2
DEFAULT_DATUM_PLANES
 70
0
 62
7
  6
CONTINUOUS
370
-3
390
F
  0
ENDTAB
  0
TABLE
  2
STYLE
  5
3
100
AcDbSymbolTable
 70
1
  0
STYLE
  5
11
100
AcDbSymbolTableRecord
100
AcDbTextStyleTableRecord
  2
STANDARD
 70
0
 40
0.0
 41
0.8
 50
0.0
 71
0
 42
0.2
  3
txt
  4

  0
STYLE
  5
200
100
AcDbSymbolTableRecord
100
AcDbTextStyleTableRecord
  2
TEXTSTYLE_1
 70
0
 40
0.0
 41
0.8
 50
0.0
 71
0
 42
0.2
  3
gdt
  4

  0
ENDTAB
  0
TABLE
  2
VIEW
  5
6
100
AcDbSymbolTable
 70
0
  0
ENDTAB
  0
TABLE
  2
UCS
  5
7
100
AcDbSymbolTable
 70
0
  0
ENDTAB
  0
TABLE
  2
APPID
  5
9
100
AcDbSymbolTable
 70
1
  0
APPID
  5
201
100
AcDbSymbolTableRecord
100
AcDbRegAppTableRecord
  2
ACAD
 70
0
  0
ENDTAB
  0
TABLE
  2
BLOCK_RECORD
  5
1
100
AcDbSymbolTable
 70
0
  0
BLOCK_RECORD
  5
202
100
AcDbSymbolTableRecord
100
AcDbBlockTableRecord
  2
*Model_Space
  0
BLOCK_RECORD
  5
203
100
AcDbSymbolTableRecord
100
AcDbBlockTableRecord
  2
*Paper_Space
  0
BLOCK_RECORD
  5
204
100
AcDbSymbolTableRecord
100
AcDbBlockTableRecord
  2
_FILLED
  0
ENDTAB
  0
TABLE
  2
DIMSTYLE
  5
A
100
AcDbSymbolTable
 70
1
100
AcDbDimStyleTable
 71
0
  0
DIMSTYLE
105
205
100
AcDbSymbolTableRecord
100
AcDbDimStyleTableRecord
  2
STANDARD
 70
0
  3

  4

 40
1.0
 41
0.1
 42
0.0625
 43
0.38
 44
0.125
 45
0.0
 46
0.0
 47
0.001
 48
0.001
140
0.08
141
0.09
142
0.0
143
25.4
144
1.0
145
0.0
146
1.0
147
0.09
 71
1.0
 72
0.0
 73
1
 74
1
 75
0
 76
0
 77
0
 78
4
 79
1
170
1
171
2
172
0
173
0
174
0
175
0
176
0
177
0
178
0
270
2
179
3
271
3
272
3
273
2
274
2
275
0
280
0
281
0
282
0
283
1
284
4
285
0
286
0
287
3
288
0
340
11
278
46
341
204
342
204
343
204
344
204
  0
ENDTAB
  0
ENDSEC
  0
SECTION
  2
BLOCKS
  0
BLOCK
  5
20
100
AcDbEntity
  8
0
100
AcDbBlockBegin
  2
*Model_Space
 70
0
 10
0.0
 20
0.0
 30
0.0
  3
*Model_Space
  1

  0
ENDBLK
  5
21
100
AcDbEntity
  8
0
100
AcDbBlockEnd
  0
BLOCK
  5
1C
100
AcDbEntity
  8
0
100
AcDbBlockBegin
  2
*Paper_Space
 70
0
 10
0.0
 20
0.0
 30
0.0
  3
*Paper_Space
  1

  0
ENDBLK
  5
1D
100
AcDbEntity
  8
0
100
AcDbBlockEnd
  0
BLOCK
  5
206
100
AcDbEntity
  8
0
100
AcDbBlockBegin
  2
_FILLED
 70
64
 10
0.0
 20
0.0
  3
_FILLED
  1

  0
SOLID
  5
207
100
AcDbEntity
  8
0
  6
BYBLOCK
 62
0
100
AcDbTrace
 10
0.0
 20
0.0
 11
-1.0
 21
0.2
 12
-1.0
 22
-0.2
 13
-1.0
 23
-0.2
  0
ENDBLK
  5
208
100
AcDbEntity
  8
0
  6
BYBLOCK
 62
0
100
AcDbBlockEnd
  0
ENDSEC
  0
SECTION
  2
ENTITIES
  0
MTEXT
  5
209
100
AcDbEntity
  8
0
100
AcDbMText
 62
2
  6
CONTINUOUS
  7
STANDARD
 71
3
 72
1
 10
5.0982394918
 20
0.7681403239
 30
0.0
 11
1.0
 21
0.0
 31
0.0
 73
2
 44
0.9
  1
SCALE 0.250
 40
0.08
 41
0.704
  0
LINE
  5
20A
100
AcDbEntity
  8
0
100
AcDbLine
 62
7
  6
CONTINUOUS
 10
0.0
 20
0.0
 11
0.0
 21
8.5
  0
LINE
  5
20B
100
AcDbEntity
  8
0
100
AcDbLine
 62
7
  6
CONTINUOUS
 10
0.0
 20
0.0
 11
11.0
 21
0.0
  0
LINE
  5
20C
100
AcDbEntity
  8
0
100
AcDbLine
 62
7
  6
CONTINUOUS
 10
0.0
 20
8.5
 11
11.0
 21
8.5
  0
LINE
  5
20D
100
AcDbEntity
  8
0
100
AcDbLine
 62
7
  6
CONTINUOUS
 10
11.0
 20
0.0
 11
11.0
 21
8.5
  0
LWPOLYLINE
  5
20E
100
AcDbEntity
  8
0
100
AcDbPolyline
 62
7
  6
CONTINUOUS
 90
195
 70
0
 10
5.098241136
 20
0.8630122336
 10
5.09864976
 20
0.8630134262
 10
5.0995273128
 20
0.8630240497
 10
5.1003978548
 20
0.8630454632
 10
5.101261184
 20
0.8630774062
 10
5.1021172518
 20
0.8631196231
 10
5.1029661625
 20
0.8631718726
 10
5.1038078055
 20
0.8632339072
 10
5.104642076
 20
0.8633054802
 10
5.1054690944
 20
0.8633863685
 10
5.1062887663
 20
0.863476335
 10
5.1071010024
 20
0.8635751435
 10
5.1079059375
 20
0.863682589
 10
5.1087034914
 20
0.8637984452
 10
5.1094935891
 20
0.8639224865
 10
5.1102763776
 20
0.8640545264
 10
5.1110517896
 20
0.864194349
 10
5.1118197626
 20
0.8643417397
 10
5.1125804542
 20
0.8644965301
 10
5.1133338086
 20
0.8646585152
 10
5.1140797744
 20
0.864827491
 10
5.1148185181
 20
0.8650033072
 10
5.1155499942
 20
0.8651857694
 10
5.1162741607
 20
0.8653746844
 10
5.1169911921
 20
0.8655699195
 10
5.1177010515
 20
0.8657712908
 10
5.1184037055
 20
0.8659786157
 10
5.1190993347
 20
0.8661917788
 10
5.1197879101
 20
0.8664106066
 10
5.1204694055
 20
0.8666349269
 10
5.1211440066
 20
0.866864641
 10
5.1218116908
 20
0.8670995856
 10
5.1224724386
 20
0.8673395986
 10
5.1231264392
 20
0.8675845977
 10
5.1237736759
 20
0.8678344294
 10
5.1244141345
 20
0.8680889416
 10
5.1250480066
 20
0.8683480676
 10
5.1256752899
 20
0.8686116675
 10
5.126295965
 20
0.8688795947
 10
5.1269101973
 20
0.8691517854
 10
5.1275179971
 20
0.8694281122
 10
5.1281193406
 20
0.869708433
 10
5.1287143419
 20
0.8699926711
 10
5.1293029995
 20
0.8702806989
 10
5.12988531
 20
0.8705723876
 10
5.1304613838
 20
0.8708676675
 10
5.1310312215
 20
0.8711664162
 10
5.1315948253
 20
0.8714685121
 10
5.1321523077
 20
0.8717738949
 10
5.1327036725
 20
0.8720824483
 10
5.1332489253
 20
0.872394057
 10
5.1337881799
 20
0.8727086696
 10
5.1343214431
 20
0.8730261757
 10
5.1348487234
 20
0.8733464661
 10
5.1353701353
 20
0.8736694981
 10
5.1358856884
 20
0.8739951671
 10
5.1363953932
 20
0.8743233697
 10
5.136899365
 20
0.8746540717
 10
5.1373976154
 20
0.8749871742
 10
5.1378901568
 20
0.8753225792
 10
5.1383771042
 20
0.8756602605
 10
5.1388584745
 20
0.8760001271
 10
5.1393342782
 20
0.876342084
 10
5.1398046183
 20
0.8766861041
 10
5.1402695138
 20
0.877032102
 10
5.1407289762
 20
0.877379987
 10
5.1411830959
 20
0.8777297294
 10
5.1416318895
 20
0.8780812453
 10
5.142075374
 20
0.8784344513
 10
5.1425136391
 20
0.8787893233
 10
5.1429467024
 20
0.8791457815
 10
5.1433745824
 20
0.8795037469
 10
5.1437973685
 20
0.8798632014
 10
5.1442150794
 20
0.8802240694
 10
5.1446277344
 20
0.8805862757
 10
5.1450354225
 20
0.8809498082
 10
5.1454381632
 20
0.8813145951
 10
5.1458359765
 20
0.8816805652
 10
5.1462289508
 20
0.8820477118
 10
5.146617106
 20
0.882415967
 10
5.1470004629
 20
0.8827852634
 10
5.1473791086
 20
0.8831555995
 10
5.1477530637
 20
0.883526911
 10
5.1481223492
 20
0.8838991343
 10
5.1484870512
 20
0.8842722728
 10
5.1488471906
 20
0.884646266
 10
5.1492027885
 20
0.8850210535
 10
5.1495539292
 20
0.8853966431
 10
5.1499006373
 20
0.8857729816
 10
5.1502429302
 20
0.8861500079
 10
5.1505808793
 20
0.8865277215
 10
5.1509145094
 20
0.8869060722
 10
5.1512438383
 20
0.8872850019
 10
5.1515689248
 20
0.8876645006
 10
5.1518897907
 20
0.8880445167
 10
5.1522064578
 20
0.8884249986
 10
5.1525189838
 20
0.8888059392
 10
5.1528273908
 20
0.8891872891
 10
5.1531317008
 20
0.8895689993
 10
5.1534319711
 20
0.8899510659
 10
5.1537282237
 20
0.8903334419
 10
5.154020481
 20
0.8907160808
 10
5.1543087994
 20
0.8910989816
 10
5.1545932011
 20
0.8914820996
 10
5.1548737084
 20
0.8918653905
 10
5.155150377
 20
0.8922488565
 10
5.155423229
 20
0.8926324549
 10
5.1556922868
 20
0.8930161436
 10
5.155957605
 20
0.8933999277
 10
5.1562192058
 20
0.8937837665
 10
5.1564771114
 20
0.8941676202
 10
5.1567313754
 20
0.8945514963
 10
5.1569820199
 20
0.8949353564
 10
5.1572290669
 20
0.8953191626
 10
5.1574725689
 20
0.8957029249
 10
5.1577125477
 20
0.896086607
 10
5.1579490253
 20
0.8964701728
 10
5.1581820529
 20
0.8968536348
 10
5.1584116527
 20
0.8972369598
 10
5.1586378457
 20
0.8976201122
 10
5.1588606799
 20
0.8980031035
 10
5.1590801787
 20
0.8983859048
 10
5.1592963613
 20
0.8987684796
 10
5.1595092682
 20
0.8991508301
 10
5.159718921
 20
0.8995329258
 10
5.1599253406
 20
0.8999147349
 10
5.1601285655
 20
0.9002962591
 10
5.1603286168
 20
0.9006774684
 10
5.1605255157
 20
0.9010583334
 10
5.1607193
 20
0.9014388575
 10
5.1609099906
 20
0.9018190122
 10
5.1610976086
 20
0.9021987694
 10
5.1612821912
 20
0.9025781342
 10
5.161463759
 20
0.9029570795
 10
5.1616423329
 20
0.9033355783
 10
5.1618179492
 20
0.9037136376
 10
5.1619906285
 20
0.9040912314
 10
5.1621603914
 20
0.9044683343
 10
5.1623272734
 20
0.9048449545
 10
5.1624912948
 20
0.9052210673
 10
5.162652476
 20
0.9055966486
 10
5.1628108516
 20
0.905971708
 10
5.1629664417
 20
0.9063462222
 10
5.1631192663
 20
0.9067201679
 10
5.1632693592
 20
0.9070935564
 10
5.1634167401
 20
0.9074663654
 10
5.1635614289
 20
0.9078385729
 10
5.1637034583
 20
0.9082101913
 10
5.1638428477
 20
0.9085811993
 10
5.1639796166
 20
0.9089515761
 10
5.1641137968
 20
0.9093213353
 10
5.1642454074
 20
0.9096904567
 10
5.1643744676
 20
0.9100589205
 10
5.164501008
 20
0.9104267409
 10
5.1646250512
 20
0.91079391
 10
5.164746612
 20
0.9111603979
 10
5.1648657095
 20
0.9115261868
 10
5.1649823707
 20
0.9118912836
 10
5.1650966061
 20
0.912255645
 10
5.1652084119
 20
0.9126191783
 10
5.1653178095
 20
0.9129818689
 10
5.1654248179
 20
0.9133436958
 10
5.1655294332
 20
0.9137045563
 10
5.1656316771
 20
0.9140644327
 10
5.1657315712
 20
0.914423308
 10
5.1658291146
 20
0.9147810804
 10
5.1659243303
 20
0.9151377325
 10
5.1660172415
 20
0.9154932478
 10
5.1661078501
 20
0.9158475253
 10
5.1661961804
 20
0.9162005484
 10
5.1662822571
 20
0.916552301
 10
5.1663660845
 20
0.9169026829
 10
5.1664476885
 20
0.9172516781
 10
5.1665270947
 20
0.9175992711
 10
5.1666043103
 20
0.9179453622
 10
5.1666793622
 20
0.9182899364
 10
5.1667522771
 20
0.9186329784
 10
5.1668230645
 20
0.918974388
 10
5.1668917525
 20
0.9193141516
 10
5.1669583689
 20
0.9196522539
 10
5.1670229246
 20
0.9199885918
 10
5.1670854493
 20
0.9203231541
 10
5.1671459713
 20
0.9206559245
 10
5.1672045028
 20
0.9209867923
 10
5.1672610829
 20
0.9213157986
 10
5.1673157321
 20
0.9216428764
 10
5.1673684388
 20
0.9219677527
 10
5.1674192788
 20
0.922290689
 10
5.1674682405
 20
0.9226113989
 10
5.1675151991
 20
0.9229287854
 10
5.1675602155
 20
0.9232429285
 10
5.1676033229
 20
0.9235537212
 10
5.1676443877
 20
0.9238597812
 10
5.1676834642
 20
0.9241610161
 10
5.1677558015
 20
0.9247480503
  0
LINE
  5
20F
100
AcDbEntity
  8
0
100
AcDbLine
 62
7
  6
CONTINUOUS
 10
4.7919303825
 20
7.7456160126
 11
4.8939206065
 21
7.7868227379
  0
LINE
  5
210
100
AcDbEntity
  8
0
100
AcDbLine
 62
7
  6
CONTINUOUS
 10
4.9085424175
 20
7.7873376593
 11
4.7810546375
 21
7.7358292527
  0
LINE
  5
211
100
AcDbEntity
  8
0
100
AcDbLine
 62
7
  6
CONTINUOUS
 10
4.7741474217
 20
7.7195568721
 11
4.9248147981
 21
7.7804304435
  0
LINE
  5
212
100
AcDbEntity
  8
0
100
AcDbLine
 62
7
  6
CONTINUOUS
 10
4.8102076741
 20
7.6303046155
 11
4.8074261225
 21
7.6291807958
  0
LINE
  5
213
100
AcDbEntity
  8
0
100
AcDbLine
 62
7
  6
CONTINUOUS
 10
4.8103512793
 20
7.6299491801
 11
4.8075697278
 21
7.6288253604
  0
LINE
  5
214
100
AcDbEntity
  8
0
100
AcDbLine
 62
7
  6
CONTINUOUS
 10
4.8104948845
 20
7.6295937447
 11
4.807713333
 21
7.6284699249
  0
LINE
  5
215
100
AcDbEntity
  8
0
100
AcDbLine
 62
7
  6
CONTINUOUS
 10
4.8106384898
 20
7.6292383093
 11
4.8078569382
 21
7.6281144895
  0
LINE
  5
216
100
AcDbEntity
  8
0
100
AcDbLine
 62
7
  6
CONTINUOUS
 10
4.810782095
 20
7.6288828739
 11
4.8080005434
 21
7.6277590541
  0
LINE
  5
217
100
AcDbEntity
  8
0
100
AcDbLine
 62
7
  6
CONTINUOUS
 10
4.8109257002
 20
7.6285274385
 11
4.8081441487
 21
7.6274036187
  0
LINE
  5
218
100
AcDbEntity
  8
0
100
AcDbLine
 62
7
  6
CONTINUOUS
 10
4.8110693054
 20
7.6281720031
 11
4.8082877539
 21
7.6270481833
  0
LINE
  5
219
100
AcDbEntity
  8
0
100
AcDbLine
 62
7
  6
CONTINUOUS
 10
4.8213709868
 20
7.6026744471
 11
4.8185894352
 21
7.6015506273
  0
LINE
  5
21A
100
AcDbEntity
  8
0
100
AcDbLine
 62
7
  6
CONTINUOUS
 10
4.8326835237
 20
7.5746749356
 11
4.8299019722
 21
7.5735511158
  0
LINE
  5
21B
100
AcDbEntity
  8
0
100
AcDbLine
 62
7
  6
CONTINUOUS
 10
4.832827129
 20
7.5743195002
 11
4.8300455774
 21
7.5731956804
  0
LINE
  5
21C
100
AcDbEntity
  8
0
100
AcDbLine
 62
7
  6
CONTINUOUS
 10
4.8329707342
 20
7.5739640648
 11
4.8301891826
 21
7.572840245
  0
LINE
  5
21D
100
AcDbEntity
  8
0
100
AcDbLine
 62
7
  6
CONTINUOUS
 10
4.8331143394
 20
7.5736086294
 11
4.8303327878
 21
7.5724848096
  0
LINE
  5
21E
100
AcDbEntity
  8
0
100
AcDbLine
 62
7
  6
CONTINUOUS
 10
4.8332579446
 20
7.573253194
 11
4.8304763931
 21
7.5721293742
  0
LINE
  5
21F
100
AcDbEntity
  8
0
100
AcDbLine
 62
7
  6
CONTINUOUS
 10
4.8334015499
 20
7.5728977586
 11
4.8306199983
 21
7.5717739388
  0
LINE
  5
220
100
AcDbEntity
  8
0
100
AcDbLine
 62
7
  6
CONTINUOUS
 10
4.8335451551
 20
7.5725423231
 11
4.8307636035
 21
7.5714185034
  0
LINE
  5
221
100
AcDbEntity
  8
0
100
AcDbLine
 62
7
  6
CONTINUOUS
 10
4.8438468364
 20
7.5470447671
 11
4.8410652848
 21
7.5459209474
  0
LINE
  5
222
100
AcDbEntity
  8
0
100
AcDbLine
 62
7
  6
CONTINUOUS
 10
4.8551593734
 20
7.5190452556
 11
4.8523778218
 21
7.5179214358
  0
LINE
  5
223
100
AcDbEntity
  8
0
100
AcDbLine
 62
7
  6
CONTINUOUS
 10
4.8553029786
 20
7.5186898202
 11
4.852521427
 21
7.5175660004
  0
LINE
  5
224
100
AcDbEntity
  8
0
100
AcDbLine
 62
7
  6
CONTINUOUS
 10
4.8554465838
 20
7.5183343848
 11
4.8526650323
 21
7.517210565
  0
LINE
  5
225
100
AcDbEntity
  8
0
100
AcDbLine
 62
7
  6
CONTINUOUS
 10
4.855590189
 20
7.5179789494
 11
4.8528086375
 21
7.5168551296
  0
LINE
  5
226
100
AcDbEntity
  8
0
100
AcDbLine
 62
7
  6
CONTINUOUS
 10
4.8557337943
 20
7.517623514
 11
4.8529522427
 21
7.5164996942
  0
LINE
  5
227
100
AcDbEntity
  8
0
100
AcDbLine
 62
7
  6
CONTINUOUS
 10
4.8558773995
 20
7.5172680786
 11
4.8530958479
 21
7.5161442588
  0
LINE
  5
228
100
AcDbEntity
  8
0
100
AcDbLine
 62
7
  6
CONTINUOUS
 10
4.8560210047
 20
7.5169126432
 11
4.8532394532
 21
7.5157888234
  0
LINE
  5
229
100
AcDbEntity
  8
0
100
AcDbLine
 62
7
  6
CONTINUOUS
 10
4.866322686
 20
7.4914150872
 11
4.8635411345
 21
7.4902912674
  0
LINE
  5
22A
100
AcDbEntity
  8
0
100
AcDbLine
 62
7
  6
CONTINUOUS
 10
4.877635223
 20
7.4634155757
 11
4.8748536714
 21
7.4622917559
  0
LINE
  5
22B
100
AcDbEntity
  8
0
100
AcDbLine
 62
7
  6
CONTINUOUS
 10
4.8777788282
 20
7.4630601403
 11
4.8749972767
 21
7.4619363205
  0
LINE
  5
22C
100
AcDbEntity
  8
0
100
AcDbLine
 62
7
  6
CONTINUOUS
 10
4.8779224335
 20
7.4627047048
 11
4.8751408819
 21
7.4615808851
  0
LINE
  5
22D
100
AcDbEntity
  8
0
100
AcDbLine
 62
7
  6
CONTINUOUS
 10
4.8780660387
 20
7.4623492694
 11
4.8752844871
 21
7.4612254497
  0
LINE
  5
22E
100
AcDbEntity
  8
0
100
AcDbLine
 62
7
  6
CONTINUOUS
 10
4.8782096439
 20
7.461993834
 11
4.8754280923
 21
7.4608700143
  0
LINE
  5
22F
100
AcDbEntity
  8
0
100
AcDbLine
 62
7
  6
CONTINUOUS
 10
4.8783532491
 20
7.4616383986
 11
4.8755716976
 21
7.4605145789
  0
LINE
  5
230
100
AcDbEntity
  8
0
100
AcDbLine
 62
7
  6
CONTINUOUS
 10
4.8784968544
 20
7.4612829632
 11
4.8757153028
 21
7.4601591434
  0
LINE
  5
231
100
AcDbEntity
  8
0
100
AcDbLine
 62
7
  6
CONTINUOUS
 10
4.8887985357
 20
7.4357854072
 11
4.8860169841
 21
7.4346615874
  0
LINE
  5
232
100
AcDbEntity
  8
0
100
AcDbLine
 62
7
  6
CONTINUOUS
 10
4.9001110726
 20
7.4077858957
 11
4.8973295211
 21
7.4066620759
  0
LINE
  5
233
100
AcDbEntity
  8
0
100
AcDbLine
 62
7
  6
CONTINUOUS
 10
4.9002546779
 20
7.4074304603
 11
4.8974731263
 21
7.4063066405
  0
LINE
  5
234
100
AcDbEntity
  8
0
100
AcDbLine
 62
7
  6
CONTINUOUS
 10
4.9003982831
 20
7.4070750249
 11
4.8976167315
 21
7.4059512051
  0
LINE
  5
235
100
AcDbEntity
  8
0
100
AcDbLine
 62
7
  6
CONTINUOUS
 10
4.9005418883
 20
7.4067195895
 11
4.8977603368
 21
7.4055957697
  0
LINE
  5
236
100
AcDbEntity
  8
0
100
AcDbLine
 62
7
  6
CONTINUOUS
 10
4.9006854935
 20
7.4063641541
 11
4.897903942
 21
7.4052403343
  0
LINE
  5
237
100
AcDbEntity
  8
0
100
AcDbLine
 62
7
  6
CONTINUOUS
 10
4.9008290988
 20
7.4060087187
 11
4.8980475472
 21
7.4048848989
  0
LINE
  5
238
100
AcDbEntity
  8
0
100
AcDbLine
 62
7
  6
CONTINUOUS
 10
4.900972704
 20
7.4056532833
 11
4.8981911524
 21
7.4045294635
  0
LINE
  5
239
100
AcDbEntity
  8
0
100
AcDbLine
 62
7
  6
CONTINUOUS
 10
4.9112743853
 20
7.3801557273
 11
4.9084928338
 21
7.3790319075
  0
LINE
  5
23A
100
AcDbEntity
  8
0
100
AcDbLine
 62
7
  6
CONTINUOUS
 10
4.9225869223
 20
7.3521562157
 11
4.9198053707
 21
7.351032396
  0
LINE
  5
23B
100
AcDbEntity
  8
0
100
AcDbLine
 62
7
  6
CONTINUOUS
 10
4.9227305275
 20
7.3518007803
 11
4.9199489759
 21
7.3506769606
  0
LINE
  5
23C
100
AcDbEntity
  8
0
100
AcDbLine
 62
7
  6
CONTINUOUS
 10
4.9228741327
 20
7.3514453449
 11
4.9200925812
 21
7.3503215252
  0
LINE
  5
23D
100
AcDbEntity
  8
0
100
AcDbLine
 62
7
  6
CONTINUOUS
 10
4.923017738
 20
7.3510899095
 11
4.9202361864
 21
7.3499660897
  0
LINE
  5
23E
100
AcDbEntity
  8
0
100
AcDbLine
 62
7
  6
CONTINUOUS
 10
4.9231613432
 20
7.3507344741
 11
4.9203797916
 21
7.3496106543
  0
LINE
  5
23F
100
AcDbEntity
  8
0
100
AcDbLine
 62
7
  6
CONTINUOUS
 10
4.9233049484
 20
7.3503790387
 11
4.9205233968
 21
7.3492552189
  0
LINE
  5
240
100
AcDbEntity
  8
0
100
AcDbLine
 62
7
  6
CONTINUOUS
 10
4.9234485536
 20
7.3500236033
 11
4.9206670021
 21
7.3488997835
  0
LINE
  5
241
100
AcDbEntity
  8
0
100
AcDbLine
 62
7
  6
CONTINUOUS
 10
4.933750235
 20
7.3245260473
 11
4.9309686834
 21
7.3234022275
  0
LINE
  5
242
100
AcDbEntity
  8
0
100
AcDbLine
 62
7
  6
CONTINUOUS
 10
4.9450627719
 20
7.2965265358
 11
4.9422812204
 21
7.295402716
  0
LINE
  5
243
100
AcDbEntity
  8
0
100
AcDbLine
 62
7
  6
CONTINUOUS
 10
4.9452063771
 20
7.2961711004
 11
4.9424248256
 21
7.2950472806
  0
LINE
  5
244
100
AcDbEntity
  8
0
100
AcDbLine
 62
7
  6
CONTINUOUS
 10
4.9453499824
 20
7.295815665
 11
4.9425684308
 21
7.2946918452
  0
LINE
  5
245
100
AcDbEntity
  8
0
100
AcDbLine
 62
7
  6
CONTINUOUS
 10
4.9454935876
 20
7.2954602296
 11
4.942712036
 21
7.2943364098
  0
LINE
  5
246
100
AcDbEntity
  8
0
100
AcDbLine
 62
7
  6
CONTINUOUS
 10
4.9456371928
 20
7.2951047942
 11
4.9428556413
 21
7.2939809744
  0
LINE
  5
247
100
AcDbEntity
  8
0
100
AcDbLine
 62
7
  6
CONTINUOUS
 10
4.945780798
 20
7.2947493588
 11
4.9429992465
 21
7.293625539
  0
LINE
  5
248
100
AcDbEntity
  8
0
100
AcDbLine
 62
7
  6
CONTINUOUS
 10
4.9459244033
 20
7.2943939234
 11
4.9431428517
 21
7.2932701036
  0
LINE
  5
249
100
AcDbEntity
  8
0
100
AcDbLine
 62
7
  6
CONTINUOUS
 10
4.9562260846
 20
7.2688963674
 11
4.953444533
 21
7.2677725476
  0
LINE
  5
24A
100
AcDbEntity
  8
0
100
AcDbLine
 62
7
  6
CONTINUOUS
 10
4.9675386216
 20
7.2408968558
 11
4.96475707
 21
7.239773036
  0
LINE
  5
24B
100
AcDbEntity
  8
0
100
AcDbLine
 62
7
  6
CONTINUOUS
 10
4.9676822268
 20
7.2405414204
 11
4.9649006752
 21
7.2394176006
  0
LINE
  5
24C
100
AcDbEntity
  8
0
100
AcDbLine
 62
7
  6
CONTINUOUS
 10
4.967825832
 20
7.240185985
 11
4.9650442804
 21
7.2390621652
  0
LINE
  5
24D
100
AcDbEntity
  8
0
100
AcDbLine
 62
7
  6
CONTINUOUS
 10
4.7977093573
 20
7.6198622941
 11
4.8074261225
 21
7.6291807958
  0
LINE
  5
24E
100
AcDbEntity
  8
0
100
AcDbLine
 62
7
  6
CONTINUOUS
 10
4.7978529625
 20
7.6195068587
 11
4.8075697278
 21
7.6288253604
  0
LINE
  5
24F
100
AcDbEntity
  8
0
100
AcDbLine
 62
7
  6
CONTINUOUS
 10
4.7979965678
 20
7.6191514233
 11
4.807713333
 21
7.6284699249
  0
LINE
  5
250
100
AcDbEntity
  8
0
100
AcDbLine
 62
7
  6
CONTINUOUS
 10
4.798140173
 20
7.6187959878
 11
4.8078569382
 21
7.6281144895
  0
LINE
  5
251
100
AcDbEntity
  8
0
100
AcDbLine
 62
7
  6
CONTINUOUS
 10
4.7982837782
 20
7.6184405524
 11
4.8080005434
 21
7.6277590541
  0
LINE
  5
252
100
AcDbEntity
  8
0
100
AcDbLine
 62
7
  6
CONTINUOUS
 10
4.7984273834
 20
7.618085117
 11
4.8081441487
 21
7.6274036187
  0
LINE
  5
253
100
AcDbEntity
  8
0
100
AcDbLine
 62
7
  6
CONTINUOUS
 10
4.7985709887
 20
7.6177296816
 11
4.8082877539
 21
7.6270481833
  0
LINE
  5
254
100
AcDbEntity
  8
0
100
AcDbLine
 62
7
  6
CONTINUOUS
 10
4.820185207
 20
7.5642326141
 11
4.8299019722
 21
7.5735511158
  0
LINE
  5
255
100
AcDbEntity
  8
0
100
AcDbLine
 62
7
  6
CONTINUOUS
 10
4.8203288122
 20
7.5638771787
 11
4.8300455774
 21
7.5731956804
  0
LINE
  5
256
100
AcDbEntity
  8
0
100
AcDbLine
 62
7
  6
CONTINUOUS
 10
4.8204724174
 20
7.5635217433
 11
4.8301891826
 21
7.572840245
  0
LINE
  5
257
100
AcDbEntity
  8
0
100
AcDbLine
 62
7
  6
CONTINUOUS
 10
4.8206160226
 20
7.5631663079
 11
4.8303327878
 21
7.5724848096
  0
LINE
  5
258
100
AcDbEntity
  8
0
100
AcDbLine
 62
7
  6
CONTINUOUS
 10
4.8207596279
 20
7.5628108725
 11
4.8304763931
 21
7.5721293742
  0
LINE
  5
259
100
AcDbEntity
  8
0
100
AcDbLine
 62
7
  6
CONTINUOUS
 10
4.8209032331
 20
7.5624554371
 11
4.8306199983
 21
7.5717739388
  0
LINE
  5
25A
100
AcDbEntity
  8
0
100
AcDbLine
 62
7
  6
CONTINUOUS
 10
4.8210468383
 20
7.5621000017
 11
4.8307636035
 21
7.5714185034
  0
LINE
  5
25B
100
AcDbEntity
  8
0
100
AcDbLine
 62
7
  6
CONTINUOUS
 10
4.9679694372
 20
7.2398305496
 11
4.9651878857
 21
7.2387067298
  0
LINE
  5
25C
100
AcDbEntity
  8
0
100
AcDbLine
 62
7
  6
CONTINUOUS
 10
4.9681130425
 20
7.2394751142
 11
4.9653314909
 21
7.2383512944
  0
LINE
  5
25D
100
AcDbEntity
  8
0
100
AcDbLine
 62
7
  6
CONTINUOUS
 10
4.9682566477
 20
7.2391196788
 11
4.9654750961
 21
7.237995859
  0
LINE
  5
25E
100
AcDbEntity
  8
0
100
AcDbLine
 62
7
  6
CONTINUOUS
 10
4.9684002529
 20
7.2387642434
 11
4.9656187013
 21
7.2376404236
  0
LINE
  5
25F
100
AcDbEntity
  8
0
100
AcDbLine
 62
7
  6
CONTINUOUS
 10
4.9787019342
 20
7.2132666874
 11
4.9759203827
 21
7.2121428676
  0
LINE
  5
260
100
AcDbEntity
  8
0
100
AcDbLine
 62
7
  6
CONTINUOUS
 10
4.9900144712
 20
7.1852671759
 11
4.9872329196
 21
7.1841433561
  0
LINE
  5
261
100
AcDbEntity
  8
0
100
AcDbLine
 62
7
  6
CONTINUOUS
 10
4.9901580764
 20
7.1849117405
 11
4.9873765249
 21
7.1837879207
  0
LINE
  5
262
100
AcDbEntity
  8
0
100
AcDbLine
 62
7
  6
CONTINUOUS
 10
4.9903016816
 20
7.1845563051
 11
4.9875201301
 21
7.1834324853
  0
LINE
  5
263
100
AcDbEntity
  8
0
100
AcDbLine
 62
7
  6
CONTINUOUS
 10
4.9904452869
 20
7.1842008696
 11
4.9876637353
 21
7.1830770499
  0
LINE
  5
264
100
AcDbEntity
  8
0
100
AcDbLine
 62
7
  6
CONTINUOUS
 10
4.9905888921
 20
7.1838454342
 11
4.9878073405
 21
7.1827216145
  0
LINE
  5
265
100
AcDbEntity
  8
0
100
AcDbLine
 62
7
  6
CONTINUOUS
 10
4.9907324973
 20
7.1834899988
 11
4.9879509458
 21
7.1823661791
  0
LINE
  5
266
100
AcDbEntity
  8
0
100
AcDbLine
 62
7
  6
CONTINUOUS
 10
4.9908761026
 20
7.1831345634
 11
4.988094551
 21
7.1820107437
  0
LINE
  5
267
100
AcDbEntity
  8
0
100
AcDbLine
 62
7
  6
CONTINUOUS
 10
5.0011777839
 20
7.1576370074
 11
4.9983962323
 21
7.1565131877
  0
LINE
  5
268
100
AcDbEntity
  8
0
100
AcDbLine
 62
7
  6
CONTINUOUS
 10
5.0344990042
 20
7.0751640931
 11
5.1851663805
 21
7.1360376646
  0
LINE
  5
269
100
AcDbEntity
  8
0
100
AcDbLine
 62
7
  6
CONTINUOUS
 10
5.0535809342
 20
7.0613029985
 11
5.1810687142
 21
7.1128114051
  0
LINE
  5
26A
100
AcDbEntity
  8
0
100
AcDbLine
 62
7
  6
CONTINUOUS
 10
4.8426610566
 20
7.5086029341
 11
4.8523778218
 21
7.5179214358
  0
LINE
  5
26B
100
AcDbEntity
  8
0
100
AcDbLine
 62
7
  6
CONTINUOUS
 10
4.8428046618
 20
7.5082474987
 11
4.852521427
 21
7.5175660004
  0
LINE
  5
26C
100
AcDbEntity
  8
0
100
AcDbLine
 62
7
  6
CONTINUOUS
 10
4.842948267
 20
7.5078920633
 11
4.8526650323
 21
7.517210565
  0
LINE
  5
26D
100
AcDbEntity
  8
0
100
AcDbLine
 62
7
  6
CONTINUOUS
 10
4.8430918723
 20
7.5075366279
 11
4.8528086375
 21
7.5168551296
  0
LINE
  5
26E
100
AcDbEntity
  8
0
100
AcDbLine
 62
7
  6
CONTINUOUS
 10
4.8432354775
 20
7.5071811925
 11
4.8529522427
 21
7.5164996942
  0
LINE
  5
26F
100
AcDbEntity
  8
0
100
AcDbLine
 62
7
  6
CONTINUOUS
 10
4.8433790827
 20
7.5068257571
 11
4.8530958479
 21
7.5161442588
  0
LINE
  5
270
100
AcDbEntity
  8
0
100
AcDbLine
 62
7
  6
CONTINUOUS
 10
4.8435226879
 20
7.5064703217
 11
4.8532394532
 21
7.5157888234
  0
LINE
  5
271
100
AcDbEntity
  8
0
100
AcDbLine
 62
7
  6
CONTINUOUS
 10
4.8651369062
 20
7.4529732542
 11
4.8748536714
 21
7.4622917559
  0
LINE
  5
272
100
AcDbEntity
  8
0
100
AcDbLine
 62
7
  6
CONTINUOUS
 10
4.8652805115
 20
7.4526178188
 11
4.8749972767
 21
7.4619363205
  0
LINE
  5
273
100
AcDbEntity
  8
0
100
AcDbLine
 62
7
  6
CONTINUOUS
 10
4.8654241167
 20
7.4522623834
 11
4.8751408819
 21
7.4615808851
  0
LINE
  5
274
100
AcDbEntity
  8
0
100
AcDbLine
 62
7
  6
CONTINUOUS
 10
4.8655677219
 20
7.451906948
 11
4.8752844871
 21
7.4612254497
  0
LINE
  5
275
100
AcDbEntity
  8
0
100
AcDbLine
 62
7
  6
CONTINUOUS
 10
4.8657113271
 20
7.4515515126
 11
4.8754280923
 21
7.4608700143
  0
LINE
  5
276
100
AcDbEntity
  8
0
100
AcDbLine
 62
7
  6
CONTINUOUS
 10
4.8658549324
 20
7.4511960772
 11
4.8755716976
 21
7.4605145789
  0
LINE
  5
277
100
AcDbEntity
  8
0
100
AcDbLine
 62
7
  6
CONTINUOUS
 10
4.8659985376
 20
7.4508406418
 11
4.8757153028
 21
7.4601591434
  0
LINE
  5
278
100
AcDbEntity
  8
0
100
AcDbLine
 62
7
  6
CONTINUOUS
 10
4.8876127559
 20
7.3973435742
 11
4.8973295211
 21
7.4066620759
  0
LINE
  5
279
100
AcDbEntity
  8
0
100
AcDbLine
 62
7
  6
CONTINUOUS
 10
4.8877563611
 20
7.3969881388
 11
4.8974731263
 21
7.4063066405
  0
LINE
  5
27A
100
AcDbEntity
  8
0
100
AcDbLine
 62
7
  6
CONTINUOUS
 10
4.8878999663
 20
7.3966327034
 11
4.8976167315
 21
7.4059512051
  0
LINE
  5
27B
100
AcDbEntity
  8
0
100
AcDbLine
 62
7
  6
CONTINUOUS
 10
4.8880435715
 20
7.396277268
 11
4.8977603368
 21
7.4055957697
  0
LINE
  5
27C
100
AcDbEntity
  8
0
100
AcDbLine
 62
7
  6
CONTINUOUS
 10
4.8881871768
 20
7.3959218326
 11
4.897903942
 21
7.4052403343
  0
LINE
  5
27D
100
AcDbEntity
  8
0
100
AcDbLine
 62
7
  6
CONTINUOUS
 10
4.888330782
 20
7.3955663972
 11
4.8980475472
 21
7.4048848989
  0
LINE
  5
27E
100
AcDbEntity
  8
0
100
AcDbLine
 62
7
  6
CONTINUOUS
 10
4.8884743872
 20
7.3952109618
 11
4.8981911524
 21
7.4045294635
  0
LINE
  5
27F
100
AcDbEntity
  8
0
100
AcDbLine
 62
7
  6
CONTINUOUS
 10
4.9100886055
 20
7.3417138943
 11
4.9198053707
 21
7.351032396
  0
LINE
  5
280
100
AcDbEntity
  8
0
100
AcDbLine
 62
7
  6
CONTINUOUS
 10
4.9102322107
 20
7.3413584589
 11
4.9199489759
 21
7.3506769606
  0
LINE
  5
281
100
AcDbEntity
  8
0
100
AcDbLine
 62
7
  6
CONTINUOUS
 10
4.910375816
 20
7.3410030235
 11
4.9200925812
 21
7.3503215252
  0
LINE
  5
282
100
AcDbEntity
  8
0
100
AcDbLine
 62
7
  6
CONTINUOUS
 10
4.9105194212
 20
7.3406475881
 11
4.9202361864
 21
7.3499660897
  0
LINE
  5
283
100
AcDbEntity
  8
0
100
AcDbLine
 62
7
  6
CONTINUOUS
 10
4.9106630264
 20
7.3402921526
 11
4.9203797916
 21
7.3496106543
  0
LINE
  5
284
100
AcDbEntity
  8
0
100
AcDbLine
 62
7
  6
CONTINUOUS
 10
4.9108066316
 20
7.3399367172
 11
4.9205233968
 21
7.3492552189
  0
LINE
  5
285
100
AcDbEntity
  8
0
100
AcDbLine
 62
7
  6
CONTINUOUS
 10
4.9109502369
 20
7.3395812818
 11
4.9206670021
 21
7.3488997835
  0
LINE
  5
286
100
AcDbEntity
  8
0
100
AcDbLine
 62
7
  6
CONTINUOUS
 10
4.9325644551
 20
7.2860842143
 11
4.9422812204
 21
7.295402716
  0
LINE
  5
287
100
AcDbEntity
  8
0
100
AcDbLine
 62
7
  6
CONTINUOUS
 10
4.9327080604
 20
7.2857287789
 11
4.9424248256
 21
7.2950472806
  0
LINE
  5
288
100
AcDbEntity
  8
0
100
AcDbLine
 62
7
  6
CONTINUOUS
 10
4.9328516656
 20
7.2853733435
 11
4.9425684308
 21
7.2946918452
  0
LINE
  5
289
100
AcDbEntity
  8
0
100
AcDbLine
 62
7
  6
CONTINUOUS
 10
4.9329952708
 20
7.2850179081
 11
4.942712036
 21
7.2943364098
  0
LINE
  5
28A
100
AcDbEntity
  8
0
100
AcDbLine
 62
7
  6
CONTINUOUS
 10
4.933138876
 20
7.2846624727
 11
4.9428556413
 21
7.2939809744
  0
LINE
  5
28B
100
AcDbEntity
  8
0
100
AcDbLine
 62
7
  6
CONTINUOUS
 10
4.9332824813
 20
7.2843070373
 11
4.9429992465
 21
7.293625539
  0
LINE
  5
28C
100
AcDbEntity
  8
0
100
AcDbLine
 62
7
  6
CONTINUOUS
 10
4.9334260865
 20
7.2839516019
 11
4.9431428517
 21
7.2932701036
  0
LINE
  5
28D
100
AcDbEntity
  8
0
100
AcDbLine
 62
7
  6
CONTINUOUS
 10
4.9550403048
 20
7.2304545344
 11
4.96475707
 21
7.239773036
  0
LINE
  5
28E
100
AcDbEntity
  8
0
100
AcDbLine
 62
7
  6
CONTINUOUS
 10
4.95518391
 20
7.2300990989
 11
4.9649006752
 21
7.2394176006
  0
LINE
  5
28F
100
AcDbEntity
  8
0
100
AcDbLine
 62
7
  6
CONTINUOUS
 10
4.9553275152
 20
7.2297436635
 11
4.9650442804
 21
7.2390621652
  0
LINE
  5
290
100
AcDbEntity
  8
0
100
AcDbLine
 62
7
  6
CONTINUOUS
 10
4.9554711205
 20
7.2293882281
 11
4.9651878857
 21
7.2387067298
  0
LINE
  5
291
100
AcDbEntity
  8
0
100
AcDbLine
 62
7
  6
CONTINUOUS
 10
4.9556147257
 20
7.2290327927
 11
4.9653314909
 21
7.2383512944
  0
LINE
  5
292
100
AcDbEntity
  8
0
100
AcDbLine
 62
7
  6
CONTINUOUS
 10
4.9557583309
 20
7.2286773573
 11
4.9654750961
 21
7.237995859
  0
LINE
  5
293
100
AcDbEntity
  8
0
100
AcDbLine
 62
7
  6
CONTINUOUS
 10
4.9559019361
 20
7.2283219219
 11
4.9656187013
 21
7.2376404236
  0
LINE
  5
294
100
AcDbEntity
  8
0
100
AcDbLine
 62
7
  6
CONTINUOUS
 10
4.9775161544
 20
7.1748248544
 11
4.9872329196
 21
7.1841433561
  0
LINE
  5
295
100
AcDbEntity
  8
0
100
AcDbLine
 62
7
  6
CONTINUOUS
 10
4.9776597596
 20
7.174469419
 11
4.9873765249
 21
7.1837879207
  0
LINE
  5
296
100
AcDbEntity
  8
0
100
AcDbLine
 62
7
  6
CONTINUOUS
 10
4.9778033649
 20
7.1741139836
 11
4.9875201301
 21
7.1834324853
  0
LINE
  5
297
100
AcDbEntity
  8
0
100
AcDbLine
 62
7
  6
CONTINUOUS
 10
4.9779469701
 20
7.1737585482
 11
4.9876637353
 21
7.1830770499
  0
LINE
  5
298
100
AcDbEntity
  8
0
100
AcDbLine
 62
7
  6
CONTINUOUS
 10
4.9780905753
 20
7.1734031128
 11
4.9878073405
 21
7.1827216145
  0
LINE
  5
299
100
AcDbEntity
  8
0
100
AcDbLine
 62
7
  6
CONTINUOUS
 10
4.9782341805
 20
7.1730476774
 11
4.9879509458
 21
7.1823661791
  0
LINE
  5
29A
100
AcDbEntity
  8
0
100
AcDbLine
 62
7
  6
CONTINUOUS
 10
4.9783777858
 20
7.172692242
 11
4.988094551
 21
7.1820107437
  0
LINE
  5
29B
100
AcDbEntity
  8
0
100
AcDbLine
 62
7
  6
CONTINUOUS
 10
5.006866136
 20
5.8204146592
 11
5.006991136
 21
5.8205396592
  0
LWPOLYLINE
  5
29C
100
AcDbEntity
  8
0
100
AcDbPolyline
 62
7
  6
CONTINUOUS
 90
4
 70
0
 10
5.0286409301
 20
0.9255020715
 10
5.0286699541
 20
0.9252379291
 10
5.0287005452
 20
0.9249690165
 10
5.0287670169
 20
0.9244139966
  0
LWPOLYLINE
  5
29D
100
AcDbEntity
  8
0
100
AcDbPolyline
 62
7
  6
CONTINUOUS
 90
194
 70
0
 10
5.0289228025
 20
0.9232376394
 10
5.0289666245
 20
0.922931866
 10
5.0290123637
 20
0.9226225018
 10
5.0290600836
 20
0.9223094732
 10
5.029109641
 20
0.9219940153
 10
5.0291610212
 20
0.9216764453
 10
5.0292143069
 20
0.9213564703
 10
5.0292694807
 20
0.9210344079
 10
5.0293265634
 20
0.9207103315
 10
5.029385597
 20
0.920384193
 10
5.0294465903
 20
0.9200561279
 10
5.0295095731
 20
0.919726152
 10
5.0295745762
 20
0.9193942765
 10
5.0296416068
 20
0.9190606292
 10
5.0297106937
 20
0.9187252254
 10
5.029781866
 20
0.9183880781
 10
5.0298551287
 20
0.9180493126
 10
5.0299305093
 20
0.9177089437
 10
5.0300080354
 20
0.9173669861
 10
5.0300877091
 20
0.9170235642
 10
5.0301695564
 20
0.9166786931
 10
5.0302536034
 20
0.9163323883
 10
5.0303398489
 20
0.9159847745
 10
5.0304283176
 20
0.9156358673
 10
5.0305190339
 20
0.9152856828
 10
5.0306119931
 20
0.9149343461
 10
5.0307072182
 20
0.9145818734
 10
5.030804732
 20
0.9142282811
 10
5.0309045262
 20
0.9138736952
 10
5.0310066221
 20
0.9135181319
 10
5.0311110405
 20
0.9131616082
 10
5.0312177697
 20
0.9128042505
 10
5.0313268282
 20
0.9124460775
 10
5.0314382359
 20
0.9120871043
 10
5.0315519792
 20
0.911727451
 10
5.0316680664
 20
0.9113671622
 10
5.0317865237
 20
0.9110062273
 10
5.031907362
 20
0.9106446833
 10
5.0320305917
 20
0.9102825664
 10
5.0321562361
 20
0.9099198756
 10
5.0322843253
 20
0.9095565917
 10
5.0324148764
 20
0.9091927334
 10
5.0325479071
 20
0.9088283192
 10
5.0326834489
 20
0.9084633296
 10
5.0328215196
 20
0.9080977842
 10
5.032962137
 20
0.9077317026
 10
5.0331053338
 20
0.9073650665
 10
5.0332511283
 20
0.9069978965
 10
5.0333995387
 20
0.9066302133
 10
5.0335505986
 20
0.9062619997
 10
5.0337043268
 20
0.9058932774
 10
5.0338607418
 20
0.9055240681
 10
5.0340198785
 20
0.9051543562
 10
5.0341817558
 20
0.9047841643
 10
5.0343463927
 20
0.9044135153
 10
5.034513825
 20
0.9040423949
 10
5.034684072
 20
0.903670827
 10
5.0348571531
 20
0.9032988357
 10
5.0350331051
 20
0.9029264081
 10
5.0352119476
 20
0.9025535694
 10
5.0353937001
 20
0.9021803449
 10
5.0355784006
 20
0.9018067234
 10
5.0357660689
 20
0.9014327311
 10
5.0359567248
 20
0.9010583949
 10
5.0361504072
 20
0.9006837051
 10
5.0363471362
 20
0.9003086893
 10
5.0365469318
 20
0.8999333756
 10
5.0367498337
 20
0.8995577562
 10
5.0369558623
 20
0.8991818603
 10
5.0371650378
 20
0.898805717
 10
5.0373774009
 20
0.8984293203
 10
5.0375929713
 20
0.898052702
 10
5.0378117703
 20
0.8976758916
 10
5.0380338422
 20
0.8972988799
 10
5.038259207
 20
0.8969217003
 10
5.0384878861
 20
0.8965443839
 10
5.0387199271
 20
0.89616692
 10
5.0389553509
 20
0.8957893423
 10
5.0391941785
 20
0.8954116849
 10
5.0394364586
 20
0.8950339393
 10
5.0396822123
 20
0.8946561409
 10
5.0399314607
 20
0.8942783257
 10
5.0401842535
 20
0.8939004874
 10
5.0404406121
 20
0.8935226632
 10
5.0407005577
 20
0.8931448911
 10
5.0409641408
 20
0.8927671671
 10
5.0412313828
 20
0.8923895305
 10
5.0415023051
 20
0.8920120211
 10
5.0417769591
 20
0.8916346375
 10
5.0420553662
 20
0.891257421
 10
5.0423375477
 20
0.8908804133
 10
5.0426235558
 20
0.8905036159
 10
5.0429134119
 20
0.8901270719
 10
5.0432071371
 20
0.8897508253
 10
5.0435047843
 20
0.8893748802
 10
5.0438063749
 20
0.888999282
 10
5.0441119297
 20
0.8886240768
 10
5.0444215024
 20
0.8882492716
 10
5.0447351139
 20
0.887874914
 10
5.0450527848
 20
0.8875010524
 10
5.0453745694
 20
0.8871276967
 10
5.0457004869
 20
0.8867548984
 10
5.046030559
 20
0.8863827067
 10
5.046364844
 20
0.8860111301
 10
5.0467033568
 20
0.8856402274
 10
5.0470461227
 20
0.8852700455
 10
5.0473932177
 20
0.8849005784
 10
5.0477446606
 20
0.8845318831
 10
5.0481004727
 20
0.8841640142
 10
5.0484607356
 20
0.8837969653
 10
5.0488254696
 20
0.8834307949
 10
5.0491946944
 20
0.8830655626
 10
5.0495684928
 20
0.8827012664
 10
5.0499468847
 20
0.8823379684
 10
5.0503298897
 20
0.8819757313
 10
5.0507175915
 20
0.8816145581
 10
5.0511100097
 20
0.8812545143
 10
5.0515071633
 20
0.8808956661
 10
5.051909137
 20
0.8805380216
 10
5.0523159498
 20
0.8801816499
 10
5.05272762
 20
0.8798266208
 10
5.053144233
 20
0.8794729476
 10
5.053565807
 20
0.8791207033
 10
5.0539923595
 20
0.8787699614
 10
5.0544239763
 20
0.8784207406
 10
5.0548606746
 20
0.8780731178
 10
5.0553024709
 20
0.8777271706
 10
5.0557494512
 20
0.8773829232
 10
5.0562016307
 20
0.8770404573
 10
5.0566590253
 20
0.8766998537
 10
5.0571217237
 20
0.8763611408
 10
5.0575897353
 20
0.8760244073
 10
5.0580630789
 20
0.8756897353
 10
5.0585418584
 20
0.8753571488
 10
5.059026085
 20
0.8750267389
 10
5.0595157729
 20
0.8746985948
 10
5.0600110316
 20
0.874372744
 10
5.0605118727
 20
0.8740492813
 10
5.0610183066
 20
0.8737283026
 10
5.0615304429
 20
0.8734098429
 10
5.0620482912
 20
0.8730940024
 10
5.0625718597
 20
0.8727808822
 10
5.0631012575
 20
0.8724705254
 10
5.0636364918
 20
0.8721630376
 10
5.0641775686
 20
0.8718585255
 10
5.0647245958
 20
0.8715570404
 10
5.0652775778
 20
0.8712586935
 10
5.0658365179
 20
0.8709635973
 10
5.0664015224
 20
0.8706718113
 10
5.0669725928
 20
0.8703834529
 10
5.0675497289
 20
0.87009864
 10
5.068133035
 20
0.8698174412
 10
5.0687225051
 20
0.8695399815
 10
5.069318139
 20
0.8692663829
 10
5.069920051
 20
0.8689967176
 10
5.0705282161
 20
0.8687311232
 10
5.0711426448
 20
0.8684697216
 10
5.0717635054
 20
0.8682125716
 10
5.0723907823
 20
0.8679598131
 10
5.073024469
 20
0.8677115825
 10
5.0736647481
 20
0.8674679458
 10
5.074311605
 20
0.8672290498
 10
5.0749650232
 20
0.866995042
 10
5.0756251825
 20
0.8667660036
 10
5.0762920633
 20
0.8665420904
 10
5.0769656435
 20
0.8663234595
 10
5.0776460991
 20
0.8661102072
 10
5.0783334045
 20
0.8659024991
 10
5.0790275312
 20
0.8657005016
 10
5.0797286506
 20
0.865504327
 10
5.0804367298
 20
0.8653141506
 10
5.081151733
 20
0.8651301486
 10
5.0818738257
 20
0.8649524495
 10
5.0826029668
 20
0.8647812384
 10
5.0833391122
 20
0.8646167017
 10
5.08408242
 20
0.8644589843
 10
5.08483284
 20
0.8643082815
 10
5.0855903184
 20
0.8641647896
 10
5.0863550047
 20
0.8640286703
 10
5.0871268384
 20
0.8639001292
 10
5.0879057546
 20
0.8637793726
 10
5.0886918929
 20
0.8636665793
 10
5.0894851809
 20
0.863561965
 10
5.0902855417
 20
0.863465746
 10
5.091093103
 20
0.8633781184
 10
5.0919077793
 20
0.8632993078
 10
5.09272948
 20
0.8632295406
 10
5.0935583195
 20
0.8631690299
 10
5.0943941975
 20
0.8631180112
 10
5.0952370083
 20
0.8630767206
 10
5.0960868511
 20
0.8630453882
 10
5.0969436793
 20
0.8630242579
 10
5.0978073005
 20
0.8630135779
 10
5.098241136
 20
0.8630122336
  0
LINE
  5
29E
100
AcDbEntity
  8
0
100
AcDbLine
 62
7
  6
CONTINUOUS
 10
5.028840945
 20
0.9238366119
 11
5.0289228025
 21
0.9232376394
  0
LINE
  5
29F
100
AcDbEntity
  8
0
100
AcDbLine
 62
7
  6
CONTINUOUS
 10
5.0287670169
 20
0.9244139966
 11
5.028840945
 21
0.9238366119
  0
LINE
  5
2A0
100
AcDbEntity
  8
0
100
AcDbLine
 62
7
  6
CONTINUOUS
 10
5.0285873619
 20
0.9260160264
 11
5.0286409301
 21
0.9255020715
  0
LINE
  5
2A1
100
AcDbEntity
  8
0
100
AcDbLine
 62
7
  6
CONTINUOUS
 10
5.0285391642
 20
0.9265134492
 11
5.0285873619
 21
0.9260160264
  0
LINE
  5
2A2
100
AcDbEntity
  8
0
100
AcDbLine
 62
7
  6
CONTINUOUS
 10
5.0284958889
 20
0.926995306
 11
5.0285391642
 21
0.9265134492
  0
LINE
  5
2A3
100
AcDbEntity
  8
0
100
AcDbLine
 62
7
  6
CONTINUOUS
 10
5.0284571534
 20
0.9274622342
 11
5.0284958889
 21
0.926995306
  0
LINE
  5
2A4
100
AcDbEntity
  8
0
100
AcDbLine
 62
7
  6
CONTINUOUS
 10
5.0284227144
 20
0.92791336
 11
5.0284571534
 21
0.9274622342
  0
LINE
  5
2A5
100
AcDbEntity
  8
0
100
AcDbLine
 62
7
  6
CONTINUOUS
 10
5.0283923005
 20
0.9283480655
 11
5.0284227144
 21
0.92791336
  0
LINE
  5
2A6
100
AcDbEntity
  8
0
100
AcDbLine
 62
7
  6
CONTINUOUS
 10
5.0283656369
 20
0.9287657419
 11
5.0283923005
 21
0.9283480655
  0
LINE
  5
2A7
100
AcDbEntity
  8
0
100
AcDbLine
 62
7
  6
CONTINUOUS
 10
5.028342645
 20
0.9291621931
 11
5.0283656369
 21
0.9287657419
  0
LINE
  5
2A8
100
AcDbEntity
  8
0
100
AcDbLine
 62
7
  6
CONTINUOUS
 10
5.0283231323
 20
0.9295339598
 11
5.028342645
 21
0.9291621931
  0
LINE
  5
2A9
100
AcDbEntity
  8
0
100
AcDbLine
 62
7
  6
CONTINUOUS
 10
5.0283070568
 20
0.929873143
 11
5.0283231323
 21
0.9295339598
  0
LINE
  5
2AA
100
AcDbEntity
  8
0
100
AcDbLine
 62
7
  6
CONTINUOUS
 10
5.0282884551
 20
0.9303183243
 11
5.0283070568
 21
0.929873143
  0
LINE
  5
2AB
100
AcDbEntity
  8
0
100
AcDbLine
 62
7
  6
CONTINUOUS
 10
5.0282746838
 20
0.9307023363
 11
5.0282884551
 21
0.9303183243
  0
LINE
  5
2AC
100
AcDbEntity
  8
0
100
AcDbLine
 62
7
  6
CONTINUOUS
 10
5.0282641034
 20
0.931047379
 11
5.0282746838
 21
0.9307023363
  0
LINE
  5
2AD
100
AcDbEntity
  8
0
100
AcDbLine
 62
7
  6
CONTINUOUS
 10
5.0282538735
 20
0.9314510948
 11
5.0282641034
 21
0.931047379
  0
LINE
  5
2AE
100
AcDbEntity
  8
0
100
AcDbLine
 62
7
  6
CONTINUOUS
 10
5.0282472936
 20
0.9317772821
 11
5.0282538735
 21
0.9314510948
  0
LINE
  5
2AF
100
AcDbEntity
  8
0
100
AcDbLine
 62
7
  6
CONTINUOUS
 10
5.0282424499
 20
0.9320854145
 11
5.0282472936
 21
0.9317772821
  0
LWPOLYLINE
  5
2B0
100
AcDbEntity
  8
0
100
AcDbPolyline
 62
7
  6
CONTINUOUS
 90
3
 70
0
 10
5.0282353527
 20
0.9331557991
 10
5.0282358919
 20
0.9331161924
 10
5.0282368111
 20
0.9331797144
  0
LINE
  5
2B1
100
AcDbEntity
  8
0
100
AcDbLine
 62
7
  6
CONTINUOUS
 10
5.0282456967
 20
1.0300255832
 11
5.0282784605
 21
1.0129552523
  0
LINE
  5
2B2
100
AcDbEntity
  8
0
100
AcDbLine
 62
7
  6
CONTINUOUS
 10
5.0282278458
 20
1.2008942947
 11
5.028236426
 21
1.1836494516
  0
LWPOLYLINE
  5
2B3
100
AcDbEntity
  8
0
100
AcDbPolyline
 62
7
  6
CONTINUOUS
 90
3
 70
0
 10
5.0282346328
 20
1.5017132648
 10
5.0282373023
 20
1.4914003964
 10
5.028239514
 20
1.481218137
  0
LWPOLYLINE
  5
2B4
100
AcDbEntity
  8
0
100
AcDbPolyline
 62
7
  6
CONTINUOUS
 90
5
 70
0
 10
5.0282186313
 20
1.5666563296
 10
5.0282206021
 20
1.5554397041
 10
5.028223005
 20
1.5443880144
 10
5.0282257394
 20
1.5334938201
 10
5.0282346328
 20
1.5017132648
  0
LINE
  5
2B5
100
AcDbEntity
  8
0
100
AcDbLine
 62
7
  6
CONTINUOUS
 10
4.973241136
 20
5.8405396592
 11
4.973241136
 21
6.2155396592
  0
LINE
  5
2B6
100
AcDbEntity
  8
0
100
AcDbLine
 62
7
  6
CONTINUOUS
 10
4.985491136
 20
5.6953459562
 11
4.985491136
 21
5.8179833983
  0
LINE
  5
2B7
100
AcDbEntity
  8
0
100
AcDbLine
 62
7
  6
CONTINUOUS
 10
4.985741136
 20
5.6834146592
 11
4.985741136
 21
5.6951593329
  0
LINE
  5
2B8
100
AcDbEntity
  8
0
100
AcDbLine
 62
7
  6
CONTINUOUS
 10
4.985741136
 20
5.8181699855
 11
4.985741136
 21
5.8405396592
  0
LINE
  5
2B9
100
AcDbEntity
  8
0
100
AcDbLine
 62
7
  6
CONTINUOUS
 10
4.993241136
 20
5.6759146592
 11
4.993241136
 21
5.6929146592
  0
LINE
  5
2BA
100
AcDbEntity
  8
0
100
AcDbLine
 62
7
  6
CONTINUOUS
 10
4.993241136
 20
5.8204146592
 11
4.993241136
 21
5.8405396592
  0
LINE
  5
2BB
100
AcDbEntity
  8
0
100
AcDbLine
 62
7
  6
CONTINUOUS
 10
4.9982225154
 20
5.7059958542
 11
4.9982225154
 21
5.8073334642
  0
LINE
  5
2BC
100
AcDbEntity
  8
0
100
AcDbLine
 62
7
  6
CONTINUOUS
 10
5.006991136
 20
5.8205396592
 11
5.006991136
 21
5.8405396592
  0
LINE
  5
2BD
100
AcDbEntity
  8
0
100
AcDbLine
 62
7
  6
CONTINUOUS
 10
5.021741136
 20
5.6929146592
 11
5.021741136
 21
5.4429146592
  0
LINE
  5
2BE
100
AcDbEntity
  8
0
100
AcDbLine
 62
7
  6
CONTINUOUS
 10
5.0282234197
 20
1.219061002
 11
5.0282278458
 21
1.2008942947
  0
LWPOLYLINE
  5
2BF
100
AcDbEntity
  8
0
100
AcDbPolyline
 62
7
  6
CONTINUOUS
 90
4
 70
0
 10
5.028239514
 20
1.481218137
 10
5.0282418127
 20
1.4612277199
 10
5.0282420117
 20
1.4513997627
 10
5.0282418789
 20
1.4416853191
  0
LINE
  5
2C0
100
AcDbEntity
  8
0
100
AcDbLine
 62
7
  6
CONTINUOUS
 10
5.0282369551
 20
1.3020118577
 11
5.0282375045
 21
1.2868956658
  0
LWPOLYLINE
  5
2C1
100
AcDbEntity
  8
0
100
AcDbPolyline
 62
7
  6
CONTINUOUS
 90
3
 70
0
 10
5.0282160308
 20
1.6012319991
 10
5.0282162964
 20
1.5895577713
 10
5.0282186313
 20
1.5666563296
  0
LINE
  5
2C2
100
AcDbEntity
  8
0
100
AcDbLine
 62
7
  6
CONTINUOUS
 10
5.028236829
 20
1.3097861494
 11
5.0282369551
 21
1.3020118577
  0
LINE
  5
2C3
100
AcDbEntity
  8
0
100
AcDbLine
 62
7
  6
CONTINUOUS
 10
5.0282112195
 20
4.3120466396
 11
5.0282418419
 21
3.906222853
  0
LINE
  5
2C4
100
AcDbEntity
  8
0
100
AcDbLine
 62
7
  6
CONTINUOUS
 10
5.028241136
 20
1.4700668882
 11
5.028241136
 21
1.4144924154
  0
LINE
  5
2C5
100
AcDbEntity
  8
0
100
AcDbLine
 62
7
  6
CONTINUOUS
 10
5.028241136
 20
3.916847772
 11
5.028241136
 21
2.4032185671
  0
LINE
  5
2C6
100
AcDbEntity
  8
0
100
AcDbLine
 62
7
  6
CONTINUOUS
 10
5.0282411079
 20
1.4131915491
 11
5.028241136
 21
1.3640122225
  0
LINE
  5
2C7
100
AcDbEntity
  8
0
100
AcDbLine
 62
7
  6
CONTINUOUS
 10
5.0282414528
 20
2.4255116992
 11
5.028241136
 21
1.7371114674
  0
LINE
  5
2C8
100
AcDbEntity
  8
0
100
AcDbLine
 62
7
  6
CONTINUOUS
 10
5.0282116177
 20
5.2561420251
 11
5.0282443469
 21
5.0362877012
  0
LINE
  5
2C9
100
AcDbEntity
  8
0
100
AcDbLine
 62
7
  6
CONTINUOUS
 10
5.0282418789
 20
1.4416853191
 11
5.0282411079
 21
1.4131915491
  0
LINE
  5
2CA
100
AcDbEntity
  8
0
100
AcDbLine
 62
7
  6
CONTINUOUS
 10
5.0855097567
 20
5.7059958542
 11
5.0855097567
 21
5.8073334642
  0
LINE
  5
2CB
100
AcDbEntity
  8
0
100
AcDbLine
 62
7
  6
CONTINUOUS
 10
5.1109725154
 20
5.7059958542
 11
5.1109725154
 21
5.8073334642
  0
LINE
  5
2CC
100
AcDbEntity
  8
0
100
AcDbLine
 62
7
  6
CONTINUOUS
 10
5.0282150463
 20
4.4370711974
 11
5.0282112195
 21
4.3120466396
  0
LWPOLYLINE
  5
2CD
100
AcDbEntity
  8
0
100
AcDbPolyline
 62
7
  6
CONTINUOUS
 90
3
 70
0
 10
5.028241136
 20
5.0808248301
 10
5.0282408055
 20
4.7000525407
 10
5.0282150463
 20
4.4370711974
  0
LWPOLYLINE
  5
2CE
100
AcDbEntity
  8
0
100
AcDbPolyline
 62
7
  6
CONTINUOUS
 90
4
 70
0
 10
5.028245661
 20
1.7923850583
 10
5.028244486
 20
1.7652748639
 10
5.0282432335
 20
1.7518988397
 10
5.0282414201
 20
1.7386450835
  0
LINE
  5
2CF
100
AcDbEntity
  8
0
100
AcDbLine
 62
7
  6
CONTINUOUS
 10
5.0282375045
 20
1.2868956658
 11
5.0282370396
 21
1.2723358587
  0
LWPOLYLINE
  5
2D0
100
AcDbEntity
  8
0
100
AcDbPolyline
 62
7
  6
CONTINUOUS
 90
3
 70
0
 10
5.0282381627
 20
1.3339376488
 10
5.0282374198
 20
1.3257541724
 10
5.028236829
 20
1.3097861494
  0
LWPOLYLINE
  5
2D1
100
AcDbEntity
  8
0
100
AcDbPolyline
 62
7
  6
CONTINUOUS
 90
3
 70
0
 10
5.0282413147
 20
1.3679597867
 10
5.0282401049
 20
1.3506989394
 10
5.0282381627
 20
1.3339376488
  0
LWPOLYLINE
  5
2D2
100
AcDbEntity
  8
0
100
AcDbPolyline
 62
7
  6
CONTINUOUS
 90
4
 70
0
 10
5.0282210538
 20
1.6493584545
 10
5.0282189483
 20
1.6371190604
 10
5.0282173769
 20
1.6250189795
 10
5.0282160308
 20
1.6012319991
  0
LINE
  5
2D3
100
AcDbEntity
  8
0
100
AcDbLine
 62
7
  6
CONTINUOUS
 10
5.028236426
 20
1.1836494516
 11
5.0282401795
 21
1.1620188481
  0
LINE
  5
2D4
100
AcDbEntity
  8
0
100
AcDbLine
 62
7
  6
CONTINUOUS
 10
5.0282357339
 20
5.4429146592
 11
5.0282116177
 21
5.2561420251
  0
LINE
  5
2D5
100
AcDbEntity
  8
0
100
AcDbLine
 62
7
  6
CONTINUOUS
 10
5.0282414201
 20
1.7386450835
 11
5.0282360858
 21
1.7125029948
  0
LINE
  5
2D6
100
AcDbEntity
  8
0
100
AcDbLine
 62
7
  6
CONTINUOUS
 10
5.0282265316
 20
1.674229263
 11
5.0282210538
 21
1.6493584545
  0
LINE
  5
2D7
100
AcDbEntity
  8
0
100
AcDbLine
 62
7
  6
CONTINUOUS
 10
5.0282360858
 20
1.7125029948
 11
5.0282265316
 21
1.674229263
  0
LINE
  5
2D8
100
AcDbEntity
  8
0
100
AcDbLine
 62
7
  6
CONTINUOUS
 10
5.0282261823
 20
1.2381841289
 11
5.0282234197
 21
1.219061002
  0
LINE
  5
2D9
100
AcDbEntity
  8
0
100
AcDbLine
 62
7
  6
CONTINUOUS
 10
5.0282370396
 20
1.2723358587
 11
5.0282335375
 21
1.2583102917
  0
LWPOLYLINE
  5
2DA
100
AcDbEntity
  8
0
100
AcDbPolyline
 62
7
  6
CONTINUOUS
 90
3
 70
0
 10
5.0282335375
 20
1.2583102917
 10
5.0282284205
 20
1.2447771988
 10
5.0282261823
 20
1.2381841289
  0
LWPOLYLINE
  5
2DB
100
AcDbEntity
  8
0
100
AcDbPolyline
 62
7
  6
CONTINUOUS
 90
6
 70
0
 10
5.0282401795
 20
1.1620188481
 10
5.0282363675
 20
1.1517553297
 10
5.0282338733
 20
1.1467534529
 10
5.0282313211
 20
1.1418371817
 10
5.0282289341
 20
1.1370033179
 10
5.0282749034
 20
1.0671826091
  0
LINE
  5
2DC
100
AcDbEntity
  8
0
100
AcDbLine
 62
7
  6
CONTINUOUS
 10
5.0282784605
 20
1.0129552523
 11
5.0282782959
 21
1.0046579385
  0
LWPOLYLINE
  5
2DD
100
AcDbEntity
  8
0
100
AcDbPolyline
 62
7
  6
CONTINUOUS
 90
4
 70
0
 10
5.0282749034
 20
1.0671826091
 10
5.0282597213
 20
1.050826858
 10
5.0282547535
 20
1.0477469362
 10
5.0282499362
 20
1.0447092209
  0
LINE
  5
2DE
100
AcDbEntity
  8
0
100
AcDbLine
 62
7
  6
CONTINUOUS
 10
5.028241136
 20
1.0963569584
 11
5.028241136
 21
0.9548655734
  0
LWPOLYLINE
  5
2DF
100
AcDbEntity
  8
0
100
AcDbPolyline
 62
7
  6
CONTINUOUS
 90
3
 70
0
 10
5.0282477926
 20
0.9608240637
 10
5.0282377806
 20
0.9347349628
 10
5.0282353527
 20
0.9331557991
  0
LINE
  5
2E0
100
AcDbEntity
  8
0
100
AcDbLine
 62
7
  6
CONTINUOUS
 10
5.0282782959
 20
1.0046579385
 11
5.0282423861
 21
0.9895876281
  0
LINE
  5
2E1
100
AcDbEntity
  8
0
100
AcDbLine
 62
7
  6
CONTINUOUS
 10
4.970741136
 20
5.9984146592
 11
4.973241136
 21
6.0802403185
  0
LINE
  5
2E2
100
AcDbEntity
  8
0
100
AcDbLine
 62
7
  6
CONTINUOUS
 10
4.9773749048
 20
6.2155396592
 11
5.0056799794
 21
7.1419722178
  0
LINE
  5
2E3
100
AcDbEntity
  8
0
100
AcDbLine
 62
7
  6
CONTINUOUS
 10
5.2191073673
 20
6.2155396592
 11
5.1915834872
 21
7.1164035133
  0
LWPOLYLINE
  5
2E4
100
AcDbEntity
  8
0
100
AcDbPolyline
 62
7
  6
CONTINUOUS
 90
3
 70
0
 10
5.1682470826
 20
0.9334242532
 10
5.1682470731
 20
0.9334407106
 10
5.1682470505
 20
0.9334739171
  0
LINE
  5
2E5
100
AcDbEntity
  8
0
100
AcDbLine
 62
7
  6
CONTINUOUS
 10
5.168250951
 20
1.1418371432
 11
5.1682483987
 21
1.146753414
  0
LINE
  5
2E6
100
AcDbEntity
  8
0
100
AcDbLine
 62
7
  6
CONTINUOUS
 10
5.1682470977
 20
0.9333916053
 11
5.1682470826
 21
0.9334242532
  0
LINE
  5
2E7
100
AcDbEntity
  8
0
100
AcDbLine
 62
7
  6
CONTINUOUS
 10
5.1682483987
 20
1.146753414
 11
5.1682437142
 21
1.1568433606
  0
LINE
  5
2E8
100
AcDbEntity
  8
0
100
AcDbLine
 62
7
  6
CONTINUOUS
 10
5.1682553574
 20
1.1322494347
 11
5.168250951
 21
1.1418371432
  0
LINE
  5
2E9
100
AcDbEntity
  8
0
100
AcDbLine
 62
7
  6
CONTINUOUS
 10
5.1682538516
 20
1.2447771505
 11
5.1682487346
 21
1.2583102421
  0
LINE
  5
2EA
100
AcDbEntity
  8
0
100
AcDbLine
 62
7
  6
CONTINUOUS
 10
5.1682471075
 20
0.9333592665
 11
5.1682470977
 21
0.9333916053
  0
LINE
  5
2EB
100
AcDbEntity
  8
0
100
AcDbLine
 62
7
  6
CONTINUOUS
 10
5.168257769
 20
1.2317003878
 11
5.1682538516
 21
1.2447771505
  0
LWPOLYLINE
  5
2EC
100
AcDbEntity
  8
0
100
AcDbPolyline
 62
7
  6
CONTINUOUS
 90
3
 70
0
 10
5.1682557405
 20
1.6742291913
 10
5.1682461863
 20
1.7125029224
 10
5.1682432845
 20
1.7255128969
  0
LWPOLYLINE
  5
2ED
100
AcDbEntity
  8
0
100
AcDbPolyline
 62
7
  6
CONTINUOUS
 90
4
 70
0
 10
5.1682633238
 20
1.6371189897
 10
5.1682612183
 20
1.6493583835
 10
5.1682586572
 20
1.6617286918
 10
5.1682557405
 20
1.6742291913
  0
LINE
  5
2EE
100
AcDbEntity
  8
0
100
AcDbLine
 62
7
  6
CONTINUOUS
 10
5.168247112
 20
0.9333271757
 11
5.1682471075
 21
0.9333592665
  0
LWPOLYLINE
  5
2EF
100
AcDbEntity
  8
0
100
AcDbPolyline
 62
7
  6
CONTINUOUS
 90
3
 70
0
 10
5.1682421671
 20
1.3506988817
 10
5.1682413508
 20
1.3592661461
 10
5.1682409574
 20
1.367959728
  0
LWPOLYLINE
  5
2F0
100
AcDbEntity
  8
0
100
AcDbPolyline
 62
7
  6
CONTINUOUS
 90
4
 70
0
 10
5.168240852
 20
1.7386450106
 10
5.1682377861
 20
1.7652747906
 10
5.1682370046
 20
1.7787704346
 10
5.1682366111
 20
1.7923849846
  0
LWPOLYLINE
  5
2F1
100
AcDbEntity
  8
0
100
AcDbPolyline
 62
7
  6
CONTINUOUS
 90
3
 70
0
 10
5.1682487346
 20
1.2583102421
 10
5.16824474
 20
1.2795459128
 10
5.1682447675
 20
1.2868956135
  0
LWPOLYLINE
  5
2F2
100
AcDbEntity
  8
0
100
AcDbPolyline
 62
7
  6
CONTINUOUS
 90
3
 70
0
 10
5.1682662413
 20
1.6012319297
 10
5.1682658783
 20
1.6130562945
 10
5.1682633238
 20
1.6371189897
  0
LINE
  5
2F3
100
AcDbEntity
  8
0
100
AcDbLine
 62
7
  6
CONTINUOUS
 10
5.168241136
 20
1.9448455512
 11
5.1682432845
 21
1.7255128969
  0
LINE
  5
2F4
100
AcDbEntity
  8
0
100
AcDbLine
 62
7
  6
CONTINUOUS
 10
5.168241136
 20
1.3920119005
 11
5.168241136
 21
1.3640122217
  0
LINE
  5
2F5
100
AcDbEntity
  8
0
100
AcDbLine
 62
7
  6
CONTINUOUS
 10
5.1682366919
 20
1.8199722348
 11
5.168241136
 21
3.9168477682
  0
LWPOLYLINE
  5
2F6
100
AcDbEntity
  8
0
100
AcDbPolyline
 62
7
  6
CONTINUOUS
 90
7
 70
0
 10
5.1682447675
 20
1.2868956135
 10
5.168245317
 20
1.3020118039
 10
5.168245443
 20
1.3097860949
 10
5.1682453035
 20
1.3177038933
 10
5.1682448523
 20
1.3257541165
 10
5.1682441093
 20
1.3339375923
 10
5.1682421671
 20
1.3506988817
  0
LINE
  5
2F7
100
AcDbEntity
  8
0
100
AcDbLine
 62
7
  6
CONTINUOUS
 10
5.1682706891
 20
5.3164478133
 11
5.1682465382
 21
5.4429146592
  0
LINE
  5
2F8
100
AcDbEntity
  8
0
100
AcDbLine
 62
7
  6
CONTINUOUS
 10
5.174741136
 20
5.6929146592
 11
5.174741136
 21
5.4429146592
  0
LINE
  5
2F9
100
AcDbEntity
  8
0
100
AcDbLine
 62
7
  6
CONTINUOUS
 10
5.189491136
 20
5.8205396592
 11
5.189491136
 21
5.8405396592
  0
LINE
  5
2FA
100
AcDbEntity
  8
0
100
AcDbLine
 62
7
  6
CONTINUOUS
 10
5.1982597567
 20
5.7059958542
 11
5.1982597567
 21
5.8073334642
  0
LINE
  5
2FB
100
AcDbEntity
  8
0
100
AcDbLine
 62
7
  6
CONTINUOUS
 10
5.210991136
 20
5.6953459562
 11
5.210991136
 21
5.8179833983
  0
LINE
  5
2FC
100
AcDbEntity
  8
0
100
AcDbLine
 62
7
  6
CONTINUOUS
 10
5.223241136
 20
5.8405396592
 11
5.223241136
 21
5.9655396592
  0
LINE
  5
2FD
100
AcDbEntity
  8
0
100
AcDbLine
 62
7
  6
CONTINUOUS
 10
5.345741136
 20
5.8542896592
 11
5.345741136
 21
6.3267896592
  0
LINE
  5
2FE
100
AcDbEntity
  8
0
100
AcDbLine
 62
7
  6
CONTINUOUS
 10
5.355741136
 20
5.8442896592
 11
5.355741136
 21
6.3367896592
  0
LWPOLYLINE
  5
2FF
100
AcDbEntity
  8
0
100
AcDbPolyline
 62
7
  6
CONTINUOUS
 90
4
 70
0
 10
5.1682413257
 20
5.0828955671
 10
5.1682685943
 20
5.2355314674
 10
5.1682706544
 20
5.256142018
 10
5.1682706891
 20
5.3164478133
  0
LINE
  5
300
100
AcDbEntity
  8
0
100
AcDbLine
 62
7
  6
CONTINUOUS
 10
5.1682379252
 20
5.0362876848
 11
5.1682413257
 21
5.0828955671
  0
LWPOLYLINE
  5
301
100
AcDbEntity
  8
0
100
AcDbPolyline
 62
7
  6
CONTINUOUS
 90
3
 70
0
 10
5.1682388444
 20
3.8729890952
 10
5.1682522678
 20
4.042934846
 10
5.168241136
 20
5.0808248329
  0
LWPOLYLINE
  5
302
100
AcDbEntity
  8
0
100
AcDbPolyline
 62
7
  6
CONTINUOUS
 90
3
 70
0
 10
5.1682409175
 20
1.3767716692
 10
5.1682412202
 20
1.4711657455
 10
5.168242758
 20
1.4812180734
  0
LINE
  5
303
100
AcDbEntity
  8
0
100
AcDbLine
 62
7
  6
CONTINUOUS
 10
5.1682471108
 20
0.933295284
 11
5.168247112
 21
0.9333271757
  0
LWPOLYLINE
  5
304
100
AcDbEntity
  8
0
100
AcDbPolyline
 62
7
  6
CONTINUOUS
 90
4
 70
0
 10
5.16826167
 20
1.5554396367
 10
5.1682636408
 20
1.5666562616
 10
5.1682650964
 20
1.5780327523
 10
5.1682662413
 20
1.6012319297
  0
LINE
  5
305
100
AcDbEntity
  8
0
100
AcDbLine
 62
7
  6
CONTINUOUS
 10
5.168242758
 20
1.4812180734
 11
5.1682476393
 21
1.5017132002
  0
LINE
  5
306
100
AcDbEntity
  8
0
100
AcDbLine
 62
7
  6
CONTINUOUS
 10
5.168256625
 20
1.2068457686
 11
5.168257769
 21
1.2317003878
  0
LWPOLYLINE
  5
307
100
AcDbEntity
  8
0
100
AcDbPolyline
 62
7
  6
CONTINUOUS
 90
4
 70
0
 10
5.1682476393
 20
1.5017132002
 10
5.1682535864
 20
1.5227495523
 10
5.1682565327
 20
1.533493754
 10
5.16826167
 20
1.5554396367
  0
LINE
  5
308
100
AcDbEntity
  8
0
100
AcDbLine
 62
7
  6
CONTINUOUS
 10
5.1682471039
 20
0.9332635251
 11
5.1682471108
 21
0.933295284
  0
LWPOLYLINE
  5
309
100
AcDbEntity
  8
0
100
AcDbPolyline
 62
7
  6
CONTINUOUS
 90
4
 70
0
 10
5.1682437142
 20
1.1568433606
 10
5.1682433522
 20
1.1780991146
 10
5.168245846
 20
1.183649409
 10
5.1682517227
 20
1.1950454376
  0
LINE
  5
30A
100
AcDbEntity
  8
0
100
AcDbLine
 62
7
  6
CONTINUOUS
 10
5.1682517227
 20
1.1950454376
 11
5.168256625
 21
1.2068457686
  0
LINE
  5
30B
100
AcDbEntity
  8
0
100
AcDbLine
 62
7
  6
CONTINUOUS
 10
5.1682470908
 20
0.9332318215
 11
5.1682471039
 21
0.9332635251
  0
LINE
  5
30C
100
AcDbEntity
  8
0
100
AcDbLine
 62
7
  6
CONTINUOUS
 10
5.1682410008
 20
1.0358276112
 11
5.1682099351
 21
1.0742096816
  0
LINE
  5
30D
100
AcDbEntity
  8
0
100
AcDbLine
 62
7
  6
CONTINUOUS
 10
5.1682039762
 20
1.0046579134
 11
5.1682038116
 21
1.0129552266
  0
LINE
  5
30E
100
AcDbEntity
  8
0
100
AcDbLine
 62
7
  6
CONTINUOUS
 10
5.168247059
 20
0.9331842263
 11
5.1682470908
 21
0.9332318215
  0
LINE
  5
30F
100
AcDbEntity
  8
0
100
AcDbLine
 62
7
  6
CONTINUOUS
 10
5.1682412142
 20
0.9734045981
 11
5.1682039762
 21
1.0046579134
  0
LINE
  5
310
100
AcDbEntity
  8
0
100
AcDbLine
 62
7
  6
CONTINUOUS
 10
5.168247011
 20
0.9331363215
 11
5.168247059
 21
0.9331842263
  0
LWPOLYLINE
  5
311
100
AcDbEntity
  8
0
100
AcDbPolyline
 62
7
  6
CONTINUOUS
 90
3
 70
0
 10
5.168241136
 20
0.9888863255
 10
5.1682423139
 20
1.097144887
 10
5.1682553574
 20
1.1322494347
  0
LWPOLYLINE
  5
312
100
AcDbEntity
  8
0
100
AcDbPolyline
 62
7
  6
CONTINUOUS
 90
3
 70
0
 10
5.1682099351
 20
1.0742096816
 10
5.1682298624
 20
1.0891807218
 10
5.1682363012
 20
1.0931227839
  0
LINE
  5
313
100
AcDbEntity
  8
0
100
AcDbLine
 62
7
  6
CONTINUOUS
 10
5.1682469183
 20
0.933071401
 11
5.168247011
 21
0.9331363215
  0
LINE
  5
314
100
AcDbEntity
  8
0
100
AcDbLine
 62
7
  6
CONTINUOUS
 10
5.1682470505
 20
0.9334739171
 11
5.1682412142
 21
0.9734045981
  0
LWPOLYLINE
  5
315
100
AcDbEntity
  8
0
100
AcDbPolyline
 62
7
  6
CONTINUOUS
 90
3
 70
0
 10
5.1682038116
 20
1.0129552266
 10
5.1682252132
 20
1.0242918241
 10
5.1682313772
 20
1.0271498654
  0
LINE
  5
316
100
AcDbEntity
  8
0
100
AcDbLine
 62
7
  6
CONTINUOUS
 10
5.1682452657
 20
0.9326385738
 11
5.1682469183
 21
0.933071401
  0
LINE
  5
317
100
AcDbEntity
  8
0
100
AcDbLine
 62
7
  6
CONTINUOUS
 10
5.1682422187
 20
0.9322813762
 11
5.1682452657
 21
0.9326385738
  0
LINE
  5
318
100
AcDbEntity
  8
0
100
AcDbLine
 62
7
  6
CONTINUOUS
 10
5.168237481
 20
0.931925958
 11
5.1682422187
 21
0.9322813762
  0
LINE
  5
319
100
AcDbEntity
  8
0
100
AcDbLine
 62
7
  6
CONTINUOUS
 10
5.1682309237
 20
0.9315677197
 11
5.168237481
 21
0.931925958
  0
LINE
  5
31A
100
AcDbEntity
  8
0
100
AcDbLine
 62
7
  6
CONTINUOUS
 10
5.1682220645
 20
0.9311906686
 11
5.1682309237
 21
0.9315677197
  0
LINE
  5
31B
100
AcDbEntity
  8
0
100
AcDbLine
 62
7
  6
CONTINUOUS
 10
5.1682124006
 20
0.9308524752
 11
5.1682220645
 21
0.9311906686
  0
LINE
  5
31C
100
AcDbEntity
  8
0
100
AcDbLine
 62
7
  6
CONTINUOUS
 10
5.1681997193
 20
0.9304758092
 11
5.1682124006
 21
0.9308524752
  0
LINE
  5
31D
100
AcDbEntity
  8
0
100
AcDbLine
 62
7
  6
CONTINUOUS
 10
5.1681831301
 20
0.9300543782
 11
5.1681997193
 21
0.9304758092
  0
LINE
  5
31E
100
AcDbEntity
  8
0
100
AcDbLine
 62
7
  6
CONTINUOUS
 10
5.1681690951
 20
0.9297398678
 11
5.1681831301
 21
0.9300543782
  0
LINE
  5
31F
100
AcDbEntity
  8
0
100
AcDbLine
 62
7
  6
CONTINUOUS
 10
5.1681521352
 20
0.9293961046
 11
5.1681690951
 21
0.9297398678
  0
LINE
  5
320
100
AcDbEntity
  8
0
100
AcDbLine
 62
7
  6
CONTINUOUS
 10
5.1681318579
 20
0.9290238114
 11
5.1681521352
 21
0.9293961046
  0
LINE
  5
321
100
AcDbEntity
  8
0
100
AcDbLine
 62
7
  6
CONTINUOUS
 10
5.415741136
 20
5.8442896592
 11
5.415741136
 21
5.6759146592
  0
LINE
  5
322
100
AcDbEntity
  8
0
100
AcDbLine
 62
7
  6
CONTINUOUS
 10
5.423241136
 20
5.6834146592
 11
5.423241136
 21
6.3367896592
  0
LINE
  5
323
100
AcDbEntity
  8
0
100
AcDbLine
 62
7
  6
CONTINUOUS
 10
5.1681080646
 20
0.9286271347
 11
5.1681318579
 21
0.9290238114
  0
LINE
  5
324
100
AcDbEntity
  8
0
100
AcDbLine
 62
7
  6
CONTINUOUS
 10
5.1680806666
 20
0.9282108738
 11
5.1681080646
 21
0.9286271347
  0
LINE
  5
325
100
AcDbEntity
  8
0
100
AcDbLine
 62
7
  6
CONTINUOUS
 10
5.1680494373
 20
0.9277767371
 11
5.1680806666
 21
0.9282108738
  0
LINE
  5
326
100
AcDbEntity
  8
0
100
AcDbLine
 62
7
  6
CONTINUOUS
 10
5.1680141266
 20
0.9273258124
 11
5.1680494373
 21
0.9277767371
  0
LINE
  5
327
100
AcDbEntity
  8
0
100
AcDbLine
 62
7
  6
CONTINUOUS
 10
5.1679741545
 20
0.9268552926
 11
5.1680141266
 21
0.9273258124
  0
LINE
  5
328
100
AcDbEntity
  8
0
100
AcDbLine
 62
7
  6
CONTINUOUS
 10
5.1679289866
 20
0.9263638219
 11
5.1679741545
 21
0.9268552926
  0
LINE
  5
329
100
AcDbEntity
  8
0
100
AcDbLine
 62
7
  6
CONTINUOUS
 10
5.1678779404
 20
0.9258491786
 11
5.1679289866
 21
0.9263638219
  0
LINE
  5
32A
100
AcDbEntity
  8
0
100
AcDbLine
 62
7
  6
CONTINUOUS
 10
5.1678204093
 20
0.9253106459
 11
5.1678779404
 21
0.9258491786
  0
LINE
  5
32B
100
AcDbEntity
  8
0
100
AcDbLine
 62
7
  6
CONTINUOUS
 10
5.1677558015
 20
0.9247480503
 11
5.1678204093
 21
0.9253106459
  0
LINE
  5
32C
100
AcDbEntity
  8
0
100
AcDbLine
 62
7
  6
CONTINUOUS
 10
4.9849334073
 20
7.1564665093
 11
4.9783777796
 21
7.1726922571
  0
LINE
  5
32D
100
AcDbEntity
  8
0
100
AcDbLine
 62
7
  6
CONTINUOUS
 10
4.978235839
 20
7.1730435725
 11
4.9775178129
 21
7.1748207495
  0
LINE
  5
32E
100
AcDbEntity
  8
0
100
AcDbLine
 62
7
  6
CONTINUOUS
 10
4.9624575577
 20
7.2120961893
 11
4.95590193
 21
7.2283219371
  0
LINE
  5
32F
100
AcDbEntity
  8
0
100
AcDbLine
 62
7
  6
CONTINUOUS
 10
4.9557599894
 20
7.2286732525
 11
4.9550419632
 21
7.2304504295
  0
LINE
  5
330
100
AcDbEntity
  8
0
100
AcDbLine
 62
7
  6
CONTINUOUS
 10
4.939981708
 20
7.2677258692
 11
4.9334260804
 21
7.2839516171
  0
LINE
  5
331
100
AcDbEntity
  8
0
100
AcDbLine
 62
7
  6
CONTINUOUS
 10
4.9332841397
 20
7.2843029324
 11
4.9325661136
 21
7.2860801095
  0
LINE
  5
332
100
AcDbEntity
  8
0
100
AcDbLine
 62
7
  6
CONTINUOUS
 10
4.9175058584
 20
7.3233555492
 11
4.910090264
 21
7.3417097894
  0
LINE
  5
333
100
AcDbEntity
  8
0
100
AcDbLine
 62
7
  6
CONTINUOUS
 10
4.8950300087
 20
7.3789852292
 11
4.8876144143
 21
7.3973394694
  0
LINE
  5
334
100
AcDbEntity
  8
0
100
AcDbLine
 62
7
  6
CONTINUOUS
 10
4.8725541591
 20
7.4346149091
 11
4.8651385647
 21
7.4529691493
  0
LINE
  5
335
100
AcDbEntity
  8
0
100
AcDbLine
 62
7
  6
CONTINUOUS
 10
4.8500783095
 20
7.4902445891
 11
4.8426627151
 21
7.5085988293
  0
LINE
  5
336
100
AcDbEntity
  8
0
100
AcDbLine
 62
7
  6
CONTINUOUS
 10
4.8276024598
 20
7.545874269
 11
4.8201868654
 21
7.5642285093
  0
LINE
  5
337
100
AcDbEntity
  8
0
100
AcDbLine
 62
7
  6
CONTINUOUS
 10
4.8051266102
 20
7.601503949
 11
4.7977110158
 21
7.6198581892
  0
LINE
  5
338
100
AcDbEntity
  8
0
100
AcDbLine
 62
7
  6
CONTINUOUS
 10
5.021741136
 20
5.4429146592
 11
5.174741136
 21
5.4429146592
  0
LINE
  5
339
100
AcDbEntity
  8
0
100
AcDbLine
 62
7
  6
CONTINUOUS
 10
5.189616136
 20
5.8204146592
 11
5.189491136
 21
5.8205396592
  0
LINE
  5
33A
100
AcDbEntity
  8
0
100
AcDbLine
 62
7
  6
CONTINUOUS
 10
4.9983962323
 20
7.1565131877
 11
4.9872351915
 21
7.184137733
  0
LINE
  5
33B
100
AcDbEntity
  8
0
100
AcDbLine
 62
7
  6
CONTINUOUS
 10
4.9759203827
 20
7.2121428676
 11
4.9647593419
 21
7.2397674129
  0
LINE
  5
33C
100
AcDbEntity
  8
0
100
AcDbLine
 62
7
  6
CONTINUOUS
 10
4.953444533
 20
7.2677725476
 11
4.9422834922
 21
7.2953970929
  0
LINE
  5
33D
100
AcDbEntity
  8
0
100
AcDbLine
 62
7
  6
CONTINUOUS
 10
4.9309686834
 20
7.3234022275
 11
4.9198076426
 21
7.3510267729
  0
LINE
  5
33E
100
AcDbEntity
  8
0
100
AcDbLine
 62
7
  6
CONTINUOUS
 10
4.9084928338
 20
7.3790319075
 11
4.897331793
 21
7.4066564528
  0
LINE
  5
33F
100
AcDbEntity
  8
0
100
AcDbLine
 62
7
  6
CONTINUOUS
 10
4.8860169841
 20
7.4346615874
 11
4.8748559433
 21
7.4622861328
  0
LINE
  5
340
100
AcDbEntity
  8
0
100
AcDbLine
 62
7
  6
CONTINUOUS
 10
4.8635411345
 20
7.4902912674
 11
4.8523800937
 21
7.5179158127
  0
LINE
  5
341
100
AcDbEntity
  8
0
100
AcDbLine
 62
7
  6
CONTINUOUS
 10
4.8410652848
 20
7.5459209474
 11
4.829904244
 21
7.5735454927
  0
LINE
  5
342
100
AcDbEntity
  8
0
100
AcDbLine
 62
7
  6
CONTINUOUS
 10
4.8185894352
 20
7.6015506273
 11
4.8074283944
 21
7.6291751727
  0
LINE
  5
343
100
AcDbEntity
  8
0
100
AcDbLine
 62
7
  6
CONTINUOUS
 10
5.0373085536
 20
7.0682102142
 11
4.7741474217
 21
7.7195568721
  0
LINE
  5
344
100
AcDbEntity
  8
0
100
AcDbLine
 62
7
  6
CONTINUOUS
 10
5.0535809342
 20
7.0613029985
 11
4.7810546375
 21
7.7358292527
  0
LINE
  5
345
100
AcDbEntity
  8
0
100
AcDbLine
 62
7
  6
CONTINUOUS
 10
4.8116330395
 20
7.7535764027
 11
4.8135060724
 21
7.7489404834
  0
LINE
  5
346
100
AcDbEntity
  8
0
100
AcDbLine
 62
7
  6
CONTINUOUS
 10
4.8742179496
 20
7.7788623478
 11
4.8760909826
 21
7.7742264285
  0
LINE
  5
347
100
AcDbEntity
  8
0
100
AcDbLine
 62
7
  6
CONTINUOUS
 10
5.1810687142
 20
7.1128114051
 11
4.9085424175
 21
7.7873376593
  0
LINE
  5
348
100
AcDbEntity
  8
0
100
AcDbLine
 62
7
  6
CONTINUOUS
 10
5.1906718282
 20
7.1224112034
 11
4.9248147981
 21
7.7804304435
  0
LINE
  5
349
100
AcDbEntity
  8
0
100
AcDbLine
 62
7
  6
CONTINUOUS
 10
4.993241136
 20
5.6759146592
 11
5.021741136
 21
5.6759146592
  0
LINE
  5
34A
100
AcDbEntity
  8
0
100
AcDbLine
 62
7
  6
CONTINUOUS
 10
5.174741136
 20
5.6759146592
 11
5.415741136
 21
5.6759146592
  0
LINE
  5
34B
100
AcDbEntity
  8
0
100
AcDbLine
 62
7
  6
CONTINUOUS
 10
4.985741136
 20
5.6834146592
 11
5.021741136
 21
5.6834146592
  0
LINE
  5
34C
100
AcDbEntity
  8
0
100
AcDbLine
 62
7
  6
CONTINUOUS
 10
5.174741136
 20
5.6834146592
 11
5.423241136
 21
5.6834146592
  0
LINE
  5
34D
100
AcDbEntity
  8
0
100
AcDbLine
 62
7
  6
CONTINUOUS
 10
5.2074850674
 20
5.6929146592
 11
4.9889972047
 21
5.6929146592
  0
LINE
  5
34E
100
AcDbEntity
  8
0
100
AcDbLine
 62
7
  6
CONTINUOUS
 10
5.210991136
 20
5.7059958542
 11
5.1982597567
 21
5.7059958542
  0
LINE
  5
34F
100
AcDbEntity
  8
0
100
AcDbLine
 62
7
  6
CONTINUOUS
 10
5.1109725154
 20
5.7059958542
 11
5.0855097567
 21
5.7059958542
  0
LINE
  5
350
100
AcDbEntity
  8
0
100
AcDbLine
 62
7
  6
CONTINUOUS
 10
4.9982225154
 20
5.7059958542
 11
4.985491136
 21
5.7059958542
  0
LINE
  5
351
100
AcDbEntity
  8
0
100
AcDbLine
 62
7
  6
CONTINUOUS
 10
5.210991136
 20
5.8073334642
 11
5.1982597567
 21
5.8073334642
  0
LINE
  5
352
100
AcDbEntity
  8
0
100
AcDbLine
 62
7
  6
CONTINUOUS
 10
5.1109725154
 20
5.8073334642
 11
5.0855097567
 21
5.8073334642
  0
LINE
  5
353
100
AcDbEntity
  8
0
100
AcDbLine
 62
7
  6
CONTINUOUS
 10
4.9982225154
 20
5.8073334642
 11
4.985491136
 21
5.8073334642
  0
LINE
  5
354
100
AcDbEntity
  8
0
100
AcDbLine
 62
7
  6
CONTINUOUS
 10
5.2074850674
 20
5.8204146592
 11
4.9889972047
 21
5.8204146592
  0
LINE
  5
355
100
AcDbEntity
  8
0
100
AcDbLine
 62
7
  6
CONTINUOUS
 10
5.189491136
 20
5.8205396592
 11
5.006991136
 21
5.8205396592
  0
LINE
  5
356
100
AcDbEntity
  8
0
100
AcDbLine
 62
7
  6
CONTINUOUS
 10
4.973241136
 20
5.8405396592
 11
5.223241136
 21
5.8405396592
  0
LINE
  5
357
100
AcDbEntity
  8
0
100
AcDbLine
 62
7
  6
CONTINUOUS
 10
5.355741136
 20
5.8442896592
 11
5.423241136
 21
5.8442896592
  0
LINE
  5
358
100
AcDbEntity
  8
0
100
AcDbLine
 62
7
  6
CONTINUOUS
 10
5.345741136
 20
5.8542896592
 11
5.423241136
 21
5.8542896592
  0
LINE
  5
359
100
AcDbEntity
  8
0
100
AcDbLine
 62
7
  6
CONTINUOUS
 10
5.345741136
 20
5.9655396592
 11
5.223241136
 21
5.9655396592
  0
LINE
  5
35A
100
AcDbEntity
  8
0
100
AcDbLine
 62
7
  6
CONTINUOUS
 10
4.970741136
 20
5.9984146592
 11
4.973241136
 21
5.9984146592
  0
LINE
  5
35B
100
AcDbEntity
  8
0
100
AcDbLine
 62
7
  6
CONTINUOUS
 10
5.345741136
 20
6.2155396592
 11
4.973241136
 21
6.2155396592
  0
LINE
  5
35C
100
AcDbEntity
  8
0
100
AcDbLine
 62
7
  6
CONTINUOUS
 10
5.345741136
 20
6.3267896592
 11
5.423241136
 21
6.3267896592
  0
LINE
  5
35D
100
AcDbEntity
  8
0
100
AcDbLine
 62
7
  6
CONTINUOUS
 10
5.355741136
 20
6.3367896592
 11
5.423241136
 21
6.3367896592
  0
LINE
  5
35E
100
AcDbEntity
  8
0
100
AcDbLine
 62
7
  6
CONTINUOUS
 10
4.9849334012
 20
7.1564665245
 11
4.9983962323
 21
7.1565131877
  0
LINE
  5
35F
100
AcDbEntity
  8
0
100
AcDbLine
 62
7
  6
CONTINUOUS
 10
4.9624575515
 20
7.2120962045
 11
4.9759203827
 21
7.2121428676
  0
LINE
  5
360
100
AcDbEntity
  8
0
100
AcDbLine
 62
7
  6
CONTINUOUS
 10
4.9399817019
 20
7.2677258844
 11
4.953444533
 21
7.2677725476
  0
LINE
  5
361
100
AcDbEntity
  8
0
100
AcDbLine
 62
7
  6
CONTINUOUS
 10
4.9175058522
 20
7.3233555644
 11
4.9309686834
 21
7.3234022275
  0
LINE
  5
362
100
AcDbEntity
  8
0
100
AcDbLine
 62
7
  6
CONTINUOUS
 10
4.8950300026
 20
7.3789852443
 11
4.9084928338
 21
7.3790319075
  0
LINE
  5
363
100
AcDbEntity
  8
0
100
AcDbLine
 62
7
  6
CONTINUOUS
 10
4.872554153
 20
7.4346149243
 11
4.8860169841
 21
7.4346615874
  0
LINE
  5
364
100
AcDbEntity
  8
0
100
AcDbLine
 62
7
  6
CONTINUOUS
 10
4.8500783033
 20
7.4902446043
 11
4.8635411345
 21
7.4902912674
  0
LINE
  5
365
100
AcDbEntity
  8
0
100
AcDbLine
 62
7
  6
CONTINUOUS
 10
4.8276024537
 20
7.5458742842
 11
4.8410652848
 21
7.5459209474
  0
LINE
  5
366
100
AcDbEntity
  8
0
100
AcDbLine
 62
7
  6
CONTINUOUS
 10
4.8051266041
 20
7.6015039642
 11
4.8185894352
 21
7.6015506273
  0
ARC
  5
367
100
AcDbEntity
  8
0
100
AcDbCircle
 62
7
  6
CONTINUOUS
 10
-17.4833533895
 20
53.2444942026
 40
51.4120389553
100
AcDbArc
 50
296.0164923039
 51
296.1470557157
  0
ARC
  5
368
100
AcDbEntity
  8
0
100
AcDbCircle
 62
7
  6
CONTINUOUS
 10
5.0189895355
 20
5.7399095926
 40
0.05575
100
AcDbArc
 50
233.0679002765
 51
237.4538555669
  0
ARC
  5
369
100
AcDbEntity
  8
0
100
AcDbCircle
 62
7
  6
CONTINUOUS
 10
5.0189895355
 20
5.7734197258
 40
0.05575
100
AcDbArc
 50
122.5461444331
 51
126.9320997235
  0
ARC
  5
36A
100
AcDbEntity
  8
0
100
AcDbCircle
 62
7
  6
CONTINUOUS
 10
5.1774927366
 20
5.7399095926
 40
0.05575
100
AcDbArc
 50
302.5461444331
 51
306.9320997235
  0
ARC
  5
36B
100
AcDbEntity
  8
0
100
AcDbCircle
 62
7
  6
CONTINUOUS
 10
5.1774927366
 20
5.7734197258
 40
0.05575
100
AcDbArc
 50
53.0679002765
 51
57.4538555669
  0
ARC
  5
36C
100
AcDbEntity
  8
0
100
AcDbCircle
 62
7
  6
CONTINUOUS
 10
5.2115775085
 20
7.1170142856
 40
0.020003348
100
AcDbArc
 50
178.7408111754
 51
181.7497411569
  0
ARC
  5
36D
100
AcDbEntity
  8
0
100
AcDbCircle
 62
7
  6
CONTINUOUS
 10
4.9856893076
 20
7.1425829881
 40
0.02
100
AcDbArc
 50
358.2499999994
 51
18.0416666642
  0
ARC
  5
36E
100
AcDbEntity
  8
0
100
AcDbCircle
 62
7
  6
CONTINUOUS
 10
4.9132249999
 20
7.7757478611
 40
0.0125
100
AcDbArc
 50
22.0
 51
112.0
  0
ARC
  5
36F
100
AcDbEntity
  8
0
100
AcDbCircle
 62
7
  6
CONTINUOUS
 10
5.1763861318
 20
7.1244012032
 40
0.0125
100
AcDbArc
 50
292.0
 51
22.0
  0
ARC
  5
370
100
AcDbEntity
  8
0
100
AcDbCircle
 62
7
  6
CONTINUOUS
 10
4.7857372199
 20
7.7242394545
 40
0.0125
100
AcDbArc
 50
112.0
 51
202.0
  0
ARC
  5
371
100
AcDbEntity
  8
0
100
AcDbCircle
 62
7
  6
CONTINUOUS
 10
5.0488983518
 20
7.0728927966
 40
0.0125
100
AcDbArc
 50
202.0
 51
292.0
  0
ARC
  5
372
100
AcDbEntity
  8
0
100
AcDbCircle
 62
7
  6
CONTINUOUS
 10
5.17908203
 20
7.117728621
 40
0.0125
100
AcDbArc
 50
358.74082033
 51
22.0000000008
  0
ARC
  5
373
100
AcDbEntity
  8
0
100
AcDbCircle
 62
7
  6
CONTINUOUS
 10
5.355741136
 20
6.3267896592
 40
0.01
100
AcDbArc
 50
90.0
 51
180.0
  0
ARC
  5
374
100
AcDbEntity
  8
0
100
AcDbCircle
 62
7
  6
CONTINUOUS
 10
5.355741136
 20
5.8542896592
 40
0.01
100
AcDbArc
 50
180.0
 51
270.0
  0
ARC
  5
375
100
AcDbEntity
  8
0
100
AcDbCircle
 62
7
  6
CONTINUOUS
 10
5.415741136
 20
5.6834146592
 40
0.0075
100
AcDbArc
 50
270.0
 51
360.0
  0
ARC
  5
376
100
AcDbEntity
  8
0
100
AcDbCircle
 62
7
  6
CONTINUOUS
 10
4.993241136
 20
5.6834146592
 40
0.0075
100
AcDbArc
 50
180.0
 51
270.0
  0
ARC
  5
377
100
AcDbEntity
  8
0
100
AcDbCircle
 62
7
  6
CONTINUOUS
 10
4.896730156
 20
7.779868859
 40
0.0075
100
AcDbArc
 50
41.4712206345
 51
112.0
  0
ARC
  5
378
100
AcDbEntity
  8
0
100
AcDbCircle
 62
7
  6
CONTINUOUS
 10
4.794739932
 20
7.7386621337
 40
0.0075
100
AcDbArc
 50
112.0
 51
182.5287793655
  0
SPLINE
  5
379
100
AcDbEntity
  8
0
100
AcDbSpline
 62
7
  6
CONTINUOUS
 70
0
 71
3
 72
19
 73
15
 74
0
 42
0.0000001
 43
0.0000001
 44
0.0000000001
 40
0.0
 40
0.0
 40
0.0
 40
0.0
 40
0.0414558943
 40
0.0837264227
 40
0.1275420082
 40
0.1735579142
 40
0.2223207462
 40
0.2742527693
 40
0.3887041126
 40
0.5185001441
 40
0.6640050767
 40
0.7425590531
 40
0.8248460159
 40
1.0
 40
1.0
 40
1.0
 40
1.0
 10
5.0373085536
 20
7.0682102142
 30
0.0
 10
5.037359979
 20
7.0680829319
 30
0.0
 10
5.0374443659
 20
7.0678175287
 30
0.0
 10
5.0375114187
 20
7.067399108
 30
0.0
 10
5.0375193882
 20
7.0669603846
 30
0.0
 10
5.0374686481
 20
7.0665031182
 30
0.0
 10
5.037359692
 20
7.0660286855
 30
0.0
 10
5.0371301051
 20
7.0653531651
 30
0.0
 10
5.0366881235
 20
7.0644724396
 30
0.0
 10
5.035956434
 20
7.0634059024
 30
0.0
 10
5.0351928678
 20
7.062514496
 30
0.0
 10
5.0344852229
 20
7.0617873683
 30
0.0
 10
5.0336778902
 20
7.0610214072
 30
0.0
 10
5.0330272214
 20
7.0604692804
 30
0.0
 10
5.0325740205
 20
7.0601073121
 30
0.0
  0
SPLINE
  5
37A
100
AcDbEntity
  8
0
100
AcDbSpline
 62
7
  6
CONTINUOUS
 70
0
 71
3
 72
27
 73
23
 74
0
 42
0.0000001
 43
0.0000001
 44
0.0000000001
 40
0.0
 40
0.0
 40
0.0
 40
0.0
 40
0.0126072179
 40
0.0256068207
 40
0.0393436307
 40
0.0541069371
 40
0.0701224669
 40
0.0875541498
 40
0.1065132074
 40
0.127072106
 40
0.1492694008
 40
0.1731209713
 40
0.2257345238
 40
0.2847045953
 40
0.3496205228
 40
0.419934714
 40
0.4949937281
 40
0.574061061
 40
0.6563345635
 40
0.7409641928
 40
0.8270597033
 40
1.0
 40
1.0
 40
1.0
 40
1.0
 10
5.0535808518
 20
7.0613029652
 30
0.0
 10
5.0536774707
 20
7.0613420077
 30
0.0
 10
5.0538816683
 20
7.0614029311
 30
0.0
 10
5.0542065311
 20
7.06143823
 30
0.0
 10
5.0545503946
 20
7.0614183917
 30
0.0
 10
5.0549118946
 20
7.0613441343
 30
0.0
 10
5.0552901964
 20
7.0612161878
 30
0.0
 10
5.0556844676
 20
7.0610351785
 30
0.0
 10
5.0560938378
 20
7.0608017503
 30
0.0
 10
5.0565172566
 20
7.0605165247
 30
0.0
 10
5.0569536925
 20
7.0601803652
 30
0.0
 10
5.0575716919
 20
7.0596477229
 30
0.0
 10
5.0583649669
 20
7.0588556684
 30
0.0
 10
5.0593194792
 20
7.0577510723
 30
0.0
 10
5.0602948018
 20
7.0564750803
 30
0.0
 10
5.0612797285
 20
7.0550420854
 30
0.0
 10
5.0622629296
 20
7.0534682419
 30
0.0
 10
5.0632330418
 20
7.0517715044
 30
0.0
 10
5.0641788506
 20
7.0499712998
 30
0.0
 10
5.0650894486
 20
7.0480882742
 30
0.0
 10
5.0662440639
 20
7.0454924979
 30
0.0
 10
5.0670231233
 20
7.0434961297
 30
0.0
 10
5.067500393
 20
7.0421486622
 30
0.0
  0
SPLINE
  5
37B
100
AcDbEntity
  8
0
100
AcDbSpline
 62
7
  6
CONTINUOUS
 70
0
 71
3
 72
18
 73
14
 74
0
 42
0.0000001
 43
0.0000001
 44
0.0000000001
 40
0.0
 40
0.0
 40
0.0
 40
0.0
 40
0.0557320612
 40
0.1117201523
 40
0.1681773891
 40
0.2253315621
 40
0.2833714089
 40
0.342455173
 40
0.4640996388
 40
0.590946801
 40
0.7229712596
 40
0.8596345711
 40
1.0
 40
1.0
 40
1.0
 40
1.0
 10
5.1810687142
 20
7.1128114051
 30
0.0
 10
5.1806802228
 20
7.1126544443
 30
0.0
 10
5.179917417
 20
7.1122985358
 30
0.0
 10
5.1788318399
 20
7.1116460967
 30
0.0
 10
5.1778107264
 20
7.1108786944
 30
0.0
 10
5.176861064
 20
7.1100017678
 30
0.0
 10
5.1759889735
 20
7.1090210905
 30
0.0
 10
5.1749273473
 20
7.1075707517
 30
0.0
 10
5.1738261972
 20
7.1055223461
 30
0.0
 10
5.1729095232
 20
7.1027997944
 30
0.0
 10
5.172404061
 20
7.099858039
 30
0.0
 10
5.1723212104
 20
7.0967744112
 30
0.0
 10
5.1725462417
 20
7.0946967248
 30
0.0
 10
5.1727265616
 20
7.0936569577
 30
0.0
  0
SPLINE
  5
37C
100
AcDbEntity
  8
0
100
AcDbSpline
 62
7
  6
CONTINUOUS
 70
0
 71
3
 72
37
 73
33
 74
0
 42
0.0000001
 43
0.0000001
 44
0.0000000001
 40
0.0
 40
0.0
 40
0.0
 40
0.0
 40
0.0001040001
 40
0.000492093
 40
0.0011685051
 40
0.0021212843
 40
0.0048048521
 40
0.0084428468
 40
0.0129417753
 40
0.0182173252
 40
0.0242281389
 40
0.0309880813
 40
0.038510137
 40
0.0468039336
 40
0.0657398766
 40
0.0878079502
 40
0.1127107716
 40
0.1400421925
 40
0.169403429
 40
0.200464511
 40
0.2330221106
 40
0.3018979355
 40
0.3746762
 40
0.4501679374
 40
0.5273607958
 40
0.6053364735
 40
0.6834402015
 40
0.7613337637
 40
0.8390924031
 40
0.9178066861
 40
0.9582399847
 40
1.0
 40
1.0
 40
1.0
 40
1.0
 10
5.1915790115
 20
7.1174539327
 30
0.0
 10
5.1915790258
 20
7.1174537518
 30
0.0
 10
5.1915775963
 20
7.1174542159
 30
0.0
 10
5.1915766295
 20
7.1174552872
 30
0.0
 10
5.191573368
 20
7.1174574269
 30
0.0
 10
5.1915676063
 20
7.117461907
 30
0.0
 10
5.1915571716
 20
7.1174694296
 30
0.0
 10
5.191541668
 20
7.1174800767
 30
0.0
 10
5.1915217808
 20
7.1174924909
 30
0.0
 10
5.1914977137
 20
7.117505896
 30
0.0
 10
5.1914694788
 20
7.117519869
 30
0.0
 10
5.191437322
 20
7.117534702
 30
0.0
 10
5.1914012886
 20
7.1175506313
 30
0.0
 10
5.1913456621
 20
7.1175747831
 30
0.0
 10
5.1912667816
 20
7.117609122
 30
0.0
 10
5.1911622887
 20
7.1176571841
 30
0.0
 10
5.191044675
 20
7.1177117626
 30
0.0
 10
5.1909149968
 20
7.1177705796
 30
0.0
 10
5.1907743719
 20
7.117831235
 30
0.0
 10
5.1906237685
 20
7.1178916655
 30
0.0
 10
5.1904070094
 20
7.1179721853
 30
0.0
 10
5.1901176801
 20
7.1180661111
 30
0.0
 10
5.189750509
 20
7.1181608464
 30
0.0
 10
5.1893632829
 20
7.1182325425
 30
0.0
 10
5.1889624244
 20
7.1182741205
 30
0.0
 10
5.1885546705
 20
7.1182782052
 30
0.0
 10
5.1881474771
 20
7.1182371876
 30
0.0
 10
5.1877490533
 20
7.1181429189
 30
0.0
 10
5.187369941
 20
7.1179840475
 30
0.0
 10
5.1870828124
 20
7.1177896083
 30
0.0
 10
5.1868825111
 20
7.1175918764
 30
0.0
 10
5.1867942549
 20
7.117478148
 30
0.0
 10
5.1867535184
 20
7.1174177237
 30
0.0
  0
SPLINE
  5
37D
100
AcDbEntity
  8
0
100
AcDbSpline
 62
7
  6
CONTINUOUS
 70
0
 71
3
 72
15
 73
11
 74
0
 42
0.0000001
 43
0.0000001
 44
0.0000000001
 40
0.0
 40
0.0
 40
0.0
 40
0.0
 40
0.1205380132
 40
0.2415797931
 40
0.3635469728
 40
0.4868823233
 40
0.611942535
 40
0.7390130478
 40
0.8683350775
 40
1.0
 40
1.0
 40
1.0
 40
1.0
 10
5.1867535453
 20
7.1174178848
 30
0.0
 10
5.1864779464
 20
7.1170086936
 30
0.0
 10
5.1859706042
 20
7.1161572488
 30
0.0
 10
5.1853530112
 20
7.1148003949
 30
0.0
 10
5.1848830244
 20
7.1133734425
 30
0.0
 10
5.1845644521
 20
7.1118885715
 30
0.0
 10
5.184399839
 20
7.1103579632
 30
0.0
 10
5.1843902759
 20
7.1087941534
 30
0.0
 10
5.1845357744
 20
7.1072102151
 30
0.0
 10
5.1847334266
 20
7.1061586472
 30
0.0
 10
5.1848567047
 20
7.1056340483
 30
0.0
  0
SPLINE
  5
37E
100
AcDbEntity
  8
0
100
AcDbSpline
 62
7
  6
CONTINUOUS
 70
0
 71
3
 72
12
 73
8
 74
0
 42
0.0000001
 43
0.0000001
 44
0.0000000001
 40
0.0
 40
0.0
 40
0.0
 40
0.0
 40
0.2492467869
 40
0.4964508366
 40
0.7454036557
 40
0.8717841354
 40
1.0
 40
1.0
 40
1.0
 40
1.0
 10
5.1848567358
 20
7.1056340494
 30
0.0
 10
5.1841638317
 20
7.1043745943
 30
0.0
 10
5.1826195073
 20
7.1019515716
 30
0.0
 10
5.1798212601
 20
7.0986700174
 30
0.0
 10
5.1770951741
 20
7.0963078726
 30
0.0
 10
5.1746794847
 20
7.0946908621
 30
0.0
 10
5.1733903699
 20
7.0939827742
 30
0.0
 10
5.1727265616
 20
7.0936569577
 30
0.0
  0
LINE
  5
37F
100
AcDbEntity
  8
0
100
AcDbLine
 62
7
  6
CONTINUOUS
 10
5.1915834872
 20
7.1164035133
 11
5.1848567358
 21
7.1056340494
  0
SPLINE
  5
380
100
AcDbEntity
  8
0
100
AcDbSpline
 62
7
  6
CONTINUOUS
 70
0
 71
3
 72
23
 73
19
 74
0
 42
0.0000001
 43
0.0000001
 44
0.0000000001
 40
0.0
 40
0.0
 40
0.0
 40
0.0
 40
0.0637472058
 40
0.1268855893
 40
0.1895815396
 40
0.2519642371
 40
0.3141317509
 40
0.3761578179
 40
0.4380988126
 40
0.4999999992
 40
0.5619011862
 40
0.6238421824
 40
0.6858682503
 40
0.7480357633
 40
0.8104184605
 40
0.8731144108
 40
0.9362527945
 40
1.0
 40
1.0
 40
1.0
 40
1.0
 10
5.0855097567
 20
5.8073334642
 30
0.0
 10
5.0838636705
 20
5.8083454327
 30
0.0
 10
5.0804789104
 20
5.8101879175
 30
0.0
 10
5.0751915878
 20
5.8124559773
 30
0.0
 10
5.0697768006
 20
5.8142708991
 30
0.0
 10
5.0642751489
 20
5.815683156
 30
0.0
 10
5.0587150481
 20
5.8167359069
 30
0.0
 10
5.0531172016
 20
5.8174632235
 30
0.0
 10
5.0474968931
 20
5.8178897158
 30
0.0
 10
5.0418661361
 20
5.8180302246
 30
0.0
 10
5.036235379
 20
5.8178897158
 30
0.0
 10
5.0306150705
 20
5.8174632235
 30
0.0
 10
5.0250172239
 20
5.8167359068
 30
0.0
 10
5.0194571232
 20
5.815683156
 30
0.0
 10
5.0139554715
 20
5.8142708991
 30
0.0
 10
5.0085406842
 20
5.8124559773
 30
0.0
 10
5.0032533617
 20
5.8101879174
 30
0.0
 10
4.9998686015
 20
5.8083454327
 30
0.0
 10
4.9982225154
 20
5.8073334642
 30
0.0
  0
SPLINE
  5
381
100
AcDbEntity
  8
0
100
AcDbSpline
 62
7
  6
CONTINUOUS
 70
0
 71
3
 72
23
 73
19
 74
0
 42
0.0000001
 43
0.0000001
 44
0.0000000001
 40
0.0
 40
0.0
 40
0.0
 40
0.0
 40
0.0637471914
 40
0.1268855882
 40
0.1895815289
 40
0.2519642119
 40
0.3141317006
 40
0.3761577462
 40
0.4380987649
 40
0.4999999997
 40
0.5619012345
 40
0.6238422532
 40
0.6858682988
 40
0.7480357877
 40
0.8104184707
 40
0.8731144115
 40
0.9362528077
 40
1.0
 40
1.0
 40
1.0
 40
1.0
 10
4.9982225154
 20
5.7059958542
 30
0.0
 10
4.9998686012
 20
5.7049838859
 30
0.0
 10
5.0032533613
 20
5.7031414011
 30
0.0
 10
5.0085406835
 20
5.7008733414
 30
0.0
 10
5.0139554704
 20
5.6990584196
 30
0.0
 10
5.0194571207
 20
5.6976461631
 30
0.0
 10
5.0250172197
 20
5.6965934126
 30
0.0
 10
5.0306150653
 20
5.6958660948
 30
0.0
 10
5.0362353753
 20
5.6954396021
 30
0.0
 10
5.041866136
 20
5.6952990934
 30
0.0
 10
5.0474968967
 20
5.6954396021
 30
0.0
 10
5.0531172067
 20
5.6958660948
 30
0.0
 10
5.0587150524
 20
5.6965934126
 30
0.0
 10
5.0642751513
 20
5.6976461631
 30
0.0
 10
5.0697768016
 20
5.6990584196
 30
0.0
 10
5.0751915885
 20
5.7008733414
 30
0.0
 10
5.0804789108
 20
5.7031414011
 30
0.0
 10
5.0838636709
 20
5.7049838859
 30
0.0
 10
5.0855097567
 20
5.7059958542
 30
0.0
  0
SPLINE
  5
382
100
AcDbEntity
  8
0
100
AcDbSpline
 62
7
  6
CONTINUOUS
 70
0
 71
3
 72
23
 73
19
 74
0
 42
0.0000001
 43
0.0000001
 44
0.0000000001
 40
0.0
 40
0.0
 40
0.0
 40
0.0
 40
0.0637472061
 40
0.1268855898
 40
0.1895815403
 40
0.251964238
 40
0.314131752
 40
0.376157819
 40
0.4380988131
 40
0.4999999991
 40
0.5619011855
 40
0.6238421811
 40
0.685868249
 40
0.7480357625
 40
0.8104184599
 40
0.8731144104
 40
0.9362527943
 40
1.0
 40
1.0
 40
1.0
 40
1.0
 10
5.1982597567
 20
5.8073334642
 30
0.0
 10
5.1966136705
 20
5.8083454327
 30
0.0
 10
5.1932289104
 20
5.8101879175
 30
0.0
 10
5.1879415878
 20
5.8124559773
 30
0.0
 10
5.1825268005
 20
5.8142708991
 30
0.0
 10
5.1770251488
 20
5.815683156
 30
0.0
 10
5.171465048
 20
5.8167359069
 30
0.0
 10
5.1658672015
 20
5.8174632235
 30
0.0
 10
5.1602468931
 20
5.8178897158
 30
0.0
 10
5.1546161361
 20
5.8180302246
 30
0.0
 10
5.1489853791
 20
5.8178897158
 30
0.0
 10
5.1433650706
 20
5.8174632235
 30
0.0
 10
5.137767224
 20
5.8167359069
 30
0.0
 10
5.1322071232
 20
5.815683156
 30
0.0
 10
5.1267054715
 20
5.8142708991
 30
0.0
 10
5.1212906842
 20
5.8124559773
 30
0.0
 10
5.1160033617
 20
5.8101879175
 30
0.0
 10
5.1126186016
 20
5.8083454327
 30
0.0
 10
5.1109725154
 20
5.8073334642
 30
0.0
  0
SPLINE
  5
383
100
AcDbEntity
  8
0
100
AcDbSpline
 62
7
  6
CONTINUOUS
 70
0
 71
3
 72
23
 73
19
 74
0
 42
0.0000001
 43
0.0000001
 44
0.0000000001
 40
0.0
 40
0.0
 40
0.0
 40
0.0
 40
0.0637471584
 40
0.1268856091
 40
0.1895815842
 40
0.2519642714
 40
0.3141317412
 40
0.3761577701
 40
0.4380987789
 40
0.4999999978
 40
0.5619012162
 40
0.6238422252
 40
0.685868256
 40
0.7480357266
 40
0.8104184141
 40
0.8731143882
 40
0.9362528377
 40
1.0
 40
1.0
 40
1.0
 40
1.0
 10
5.1109725154
 20
5.7059958542
 30
0.0
 10
5.1126186003
 20
5.7049838864
 30
0.0
 10
5.1160033609
 20
5.7031414013
 30
0.0
 10
5.1212906847
 20
5.7008733407
 30
0.0
 10
5.1267054744
 20
5.6990584186
 30
0.0
 10
5.1322071253
 20
5.6976461618
 30
0.0
 10
5.1377672234
 20
5.6965934119
 30
0.0
 10
5.1433650677
 20
5.6958660948
 30
0.0
 10
5.1489853764
 20
5.6954396022
 30
0.0
 10
5.1546161358
 20
5.6952990936
 30
0.0
 10
5.1602468952
 20
5.6954396022
 30
0.0
 10
5.165867204
 20
5.6958660948
 30
0.0
 10
5.1714650484
 20
5.6965934119
 30
0.0
 10
5.1770251466
 20
5.6976461618
 30
0.0
 10
5.1825267975
 20
5.6990584185
 30
0.0
 10
5.1879415872
 20
5.7008733407
 30
0.0
 10
5.193228911
 20
5.7031414012
 30
0.0
 10
5.1966136716
 20
5.7049838863
 30
0.0
 10
5.1982597567
 20
5.7059958542
 30
0.0
  0
LINE
  5
384
100
AcDbEntity
  8
0
100
AcDbLine
 62
7
  6
CONTINUOUS
 10
5.0325743305
 20
7.0601064047
 11
5.0056799794
 21
7.1419722178
  0
SPLINE
  5
385
100
AcDbEntity
  8
0
100
AcDbSpline
 62
7
  6
CONTINUOUS
 70
0
 71
3
 72
28
 73
24
 74
0
 42
0.0000001
 43
0.0000001
 44
0.0000000001
 40
0.0
 40
0.0
 40
0.0
 40
0.0
 40
0.0664109564
 40
0.1317644724
 40
0.1640375888
 40
0.1960249909
 40
0.2591380179
 40
0.3212357414
 40
0.3519692281
 40
0.3825153028
 40
0.4129050649
 40
0.443165358
 40
0.4733281466
 40
0.5034264296
 40
0.5334941149
 40
0.5635603403
 40
0.6237866871
 40
0.6843788373
 40
0.7455605174
 40
0.8075445767
 40
0.8705202855
 40
0.9346397426
 40
1.0
 40
1.0
 40
1.0
 40
1.0
 10
5.0675011414
 20
7.0421489039
 30
0.0
 10
5.0666114921
 20
7.0417137987
 30
0.0
 10
5.0647904775
 20
7.0409599973
 30
0.0
 10
5.0624246006
 20
7.0403123098
 30
0.0
 10
5.0605189096
 20
7.0399822327
 30
0.0
 10
5.0586291814
 20
7.0397792588
 30
0.0
 10
5.0562784004
 20
7.0397528785
 30
0.0
 10
5.053961799
 20
7.0400192287
 30
0.0
 10
5.0521602545
 20
7.0403973921
 30
0.0
 10
5.050841026
 20
7.0407589173
 30
0.0
 10
5.0495521554
 20
7.0411951898
 30
0.0
 10
5.048295578
 20
7.0417020825
 30
0.0
 10
5.0470734531
 20
7.0422770126
 30
0.0
 10
5.0458878572
 20
7.0429178397
 30
0.0
 10
5.0447400362
 20
7.0436213169
 30
0.0
 10
5.0432601385
 20
7.0446380689
 30
0.0
 10
5.0415046125
 20
7.0460521213
 30
0.0
 10
5.0395659609
 20
7.0479572815
 30
0.0
 10
5.037795213
 20
7.0500535754
 30
0.0
 10
5.0361994217
 20
7.0523292351
 30
0.0
 10
5.0347844008
 20
7.0547720326
 30
0.0
 10
5.0335575009
 20
7.0573701421
 30
0.0
 10
5.0328807653
 20
7.0591811475
 30
0.0
 10
5.0325743305
 20
7.0601064047
 30
0.0
  0
LINE
  5
386
100
AcDbEntity
  8
0
100
AcDbLine
 62
7
  6
CONTINUOUS
 10
5.098241136
 20
6.0905396592
 11
4.973241136
 21
6.2155396592
  0
LINE
  5
387
100
AcDbEntity
  8
0
100
AcDbLine
 62
7
  6
CONTINUOUS
 10
5.223241136
 20
5.9655396592
 11
5.098241136
 21
6.0905396592
  0
ENDSEC
  0
SECTION
  2
OBJECTS
  0
DICTIONARY
  5
C
100
AcDbDictionary
280
0
281
1
  3
ACAD_GROUP
350
D
  3
ACAD_MLINESTYLE
350
17
  3
ACAD_LAYOUT
350
1A
  3
ACAD_PLOTSETTINGS
350
19
  3
ACAD_PLOTSTYLENAME
350
E
  0
DICTIONARY
  5
D
102
{ACAD_REACTORS
330
C
102
}
100
AcDbDictionary
280
0
281
1
  0
ACDBDICTIONARYWDFLT
  5
E
102
{ACAD_REACTORS
330
C
102
}
100
AcDbDictionary
281
1
  3
Normal
350
F
100
AcDbDictionaryWithDefault
340
F
  0
DICTIONARY
  5
17
102
{ACAD_REACTORS
330
C
102
}
100
AcDbDictionary
280
0
281
1
  3
Standard
350
18
  0
DICTIONARY
  5
19
102
{ACAD_REACTORS
330
C
102
}
100
AcDbDictionary
281
1
  0
DICTIONARY
  5
1A
102
{ACAD_REACTORS
330
C
102
}
100
AcDbDictionary
281
1
  3
Model
350
388
  3
Layout1
350
389
  0
ACDBPLACEHOLDER
  5
F
102
{ACAD_REACTORS
330
E
102
}
  0
MLINESTYLE
  5
18
102
{ACAD_REACTORS
330
17
102
}
100
AcDbMlineStyle
  2
STANDARD
 70
0
  3

 62
256
 51
90.0
 52
90.0
 71
2
 49
0.5
 62
256
  6
BYLAYER
 49
-0.5
 62
256
  6
BYLAYER
  0
LAYOUT
  5
388
102
{ACAD_REACTORS
330
1A
102
}
100
AcDbPlotSettings
  1

  2
none_device
  4
ANSI_A_(11.00_x_8.50_Inches)
  6

 40
0.0
 41
0.0
 42
0.0
 43
0.0
 44
279.4
 45
215.9
 46
0.0
 47
0.0
 48
0.0
 49
0.0
140
0.0
141
0.0
142
1.0
143
1.0
 70
1024
 72
0
 73
0
 74
0
  7

 75
0
147
1.0
148
0.0
149
0.0
100
AcDbLayout
  1
Model
 70
0
 71
0
 10
0.0
 20
0.0
 11
11.0
 21
8.5
 12
0.0
 22
0.0
 32
0.0
 14
0.0
 24
0.0
 34
0.0
 15
0.0
 25
0.0
 35
0.0
146
0.0
 13
0.0
 23
0.0
 33
0.0
 16
1.0
 26
0.0
 36
0.0
 17
0.0
 27
1.0
 37
0.0
 76
0
330
202
345
0
346
0
  0
LAYOUT
  5
389
102
{ACAD_REACTORS
330
1A
102
}
100
AcDbPlotSettings
  1

  2
none_device
  4
ANSI_A_(11.00_x_8.50_Inches)
  6

 40
0.0
 41
0.0
 42
0.0
 43
0.0
 44
279.4
 45
215.9
 46
0.0
 47
0.0
 48
0.0
 49
0.0
140
0.0
141
0.0
142
1.0
143
1.0
 70
0
 72
0
 73
0
 74
0
  7

 75
0
147
1.0
148
0.0
149
0.0
100
AcDbLayout
  1
Layout1
 70
0
 71
1
 10
0.0
 20
0.0
 11
11.0
 21
8.5
 12
0.0
 22
0.0
 32
0.0
 14
0.0
 24
0.0
 34
0.0
 15
0.0
 25
0.0
 35
0.0
146
0.0
 13
0.0
 23
0.0
 33
0.0
 16
1.0
 26
0.0
 36
0.0
 17
0.0
 27
1.0
 37
0.0
 76
0
330
203
345
0
346
0
  0
ENDSEC
  0
EOF
