999
DXF file: E:\BT Custom\CADOUTPUT\_TOP.dxf
999
Pro/ENGINEER 2018400 by Parametric Technology Corporation
  0
SECTION
  2
HEADER
  9
$ACADVER
  1
AC1018
  9
$DWGCODEPAGE
  3
ANSI_1252
  9
$EXTMAX
 10
22.0
 20
17.0
 30
0.0
  9
$EXTMIN
 10
0.0
 20
0.0
 30
0.0
  9
$LIMMIN
 10
0.0
 20
0.0
  9
$LIMMAX
 10
22.0
 20
17.0
  9
$VIEWCTR
 10
11.0
 20
8.5
  9
$VIEWSIZE
 40
17.0
  9
$CLAYER
  8
0
  9
$LTSCALE
 40
1.21
  9
$CELTYPE
  6
BYLAYER
  9
$DIMSCALE
 40
1.0
  9
$DIMASZ
 40
0.1
  9
$DIMEXO
 40
0.0625
  9
$DIMDLI
 40
0.836
  9
$DIMEXE
 40
0.125
  9
$DIMCEN
 40
0.198
  9
$DIMLFAC
 40
1.0
  9
$DIMBLK
  1
_FILLED
  9
$DIMALT
 70
1
  9
$DIMALTD
 70
2
  9
$DIMALTTD
 70
2
  9
$DIMALTF
 40
25.4
  9
$DIMTXT
 40
0.08
  9
$DIMTOL
 70
1
  9
$DIMLIM
 70
0
  9
$DIMTFAC
 40
1.0
  9
$DIMTP
 40
0.001
  9
$DIMTM
 40
0.001
  9
$DIMGAP
 40
0.09
  9
$DIMDSEP
 70
46
  9
$AUNITS
 70
0
  9
$PDMODE
 70
3
  9
$PDSIZE
 40
0.06
  9
$HANDSEED
  5
584
  9
$TILEMODE
 70
1
  9
$MEASUREMENT
 70
0
  9
$INSUNITS
 70
1
  0
ENDSEC
  0
SECTION
  2
CLASSES
  0
CLASS
  1
ACDBDICTIONARYWDFLT
  2
AcDbDictionaryWithDefault
  3
AutoCAD 2000
 90
0
 91
1
280
0
281
0
  0
CLASS
  1
ACDBPLACEHOLDER
  2
AcDbPlaceHolder
  3
AutoCAD 2000
 90
0
 91
1
280
0
281
0
  0
CLASS
  1
LAYOUT
  2
AcDbLayout
  3
AutoCAD 2000
 90
0
 91
0
280
0
281
0
  0
ENDSEC
  0
SECTION
  2
TABLES
  0
TABLE
  2
VPORT
  5
8
100
AcDbSymbolTable
 70
2
  0
VPORT
  5
1F4
100
AcDbSymbolTableRecord
100
AcDbViewportTableRecord
  2
*ACTIVE
 70
0
 10
0.0
 20
0.0
 11
1.0
 21
1.0
 12
11.0
 22
8.5
 13
0.0
 23
0.0
 14
1.0
 24
1.0
 15
0.0
 25
0.0
 16
0.0
 26
0.0
 36
1.0
 17
0.0
 27
0.0
 37
0.0
 40
17.0
 41
1.2941176471
 42
50.0
 43
0.0
 44
0.0
 50
0.0
 51
0.0
 71
0
 72
100
 73
1
 74
1
 75
0
 76
0
 77
0
 78
0
  0
ENDTAB
  0
TABLE
  2
LTYPE
  5
5
100
AcDbSymbolTable
 70
6
  0
LTYPE
  5
14
100
AcDbSymbolTableRecord
100
AcDbLinetypeTableRecord
  2
BYBLOCK
 70
0
  3

 72
65
 73
0
 40
0.0
  0
LTYPE
  5
15
100
AcDbSymbolTableRecord
100
AcDbLinetypeTableRecord
  2
BYLAYER
 70
0
  3

 72
65
 73
0
 40
0.0
  0
LTYPE
  5
16
100
AcDbSymbolTableRecord
100
AcDbLinetypeTableRecord
  2
CONTINUOUS
 70
64
  3
Solid line
 72
65
 73
0
 40
0.0
  0
LTYPE
  5
1F5
100
AcDbSymbolTableRecord
100
AcDbLinetypeTableRecord
  2
CENTER
 70
64
  3
____ _ ____ _ ____ _ ____ _ ____ _ ____ _ ____
 72
65
 73
4
 40
0.6
 49
0.375
 74
0
 49
-0.075
 74
0
 49
0.075
 74
0
 49
-0.075
 74
0
  0
LTYPE
  5
1F6
100
AcDbSymbolTableRecord
100
AcDbLinetypeTableRecord
  2
HIDDEN
 70
64
  3
- - - - - - - - - - - - - - - - - - - -
 72
65
 73
2
 40
0.2
 49
0.1
 74
0
 49
-0.1
 74
0
  0
LTYPE
  5
1F7
100
AcDbSymbolTableRecord
100
AcDbLinetypeTableRecord
  2
PHANTOM
 70
64
  3
_____ _ _ _____ _ _ _____ _ _ _____
 72
65
 73
6
 40
0.8
 49
0.45
 74
0
 49
-0.05
 74
0
 49
0.1
 74
0
 49
-0.05
 74
0
 49
0.1
 74
0
 49
-0.05
 74
0
  0
LTYPE
  5
1F8
100
AcDbSymbolTableRecord
100
AcDbLinetypeTableRecord
  2
DOT
 70
64
  3
. . . . . . . . . . . . . . . . . . . .
 72
65
 73
2
 40
0.2
 49
0.1
 74
0
 49
-0.1
 74
0
  0
LTYPE
  5
1F9
100
AcDbSymbolTableRecord
100
AcDbLinetypeTableRecord
  2
DASHED
 70
64
  3
- - - - - - - - - - - - - - - - - - - -
 72
65
 73
2
 40
0.2
 49
0.1
 74
0
 49
-0.1
 74
0
  0
ENDTAB
  0
TABLE
  2
LAYER
  5
2
100
AcDbSymbolTable
 70
36
  0
LAYER
  5
10
100
AcDbSymbolTableRecord
100
AcDbLayerTableRecord
  2
0
 70
0
 62
7
  6
CONTINUOUS
370
-3
390
F
  0
LAYER
  5
1FA
100
AcDbSymbolTableRecord
100
AcDbLayerTableRecord
  2
DEFAULT_1
 70
0
 62
7
  6
CENTER
370
-3
390
F
  0
LAYER
  5
1FB
100
AcDbSymbolTableRecord
100
AcDbLayerTableRecord
  2
DEFAULT_2
 70
0
 62
8
  6
HIDDEN
370
-3
390
F
  0
LAYER
  5
1FC
100
AcDbSymbolTableRecord
100
AcDbLayerTableRecord
  2
DEFAULT_3
 70
0
 62
7
  6
PHANTOM
370
-3
390
F
  0
LAYER
  5
1FD
100
AcDbSymbolTableRecord
100
AcDbLayerTableRecord
  2
ALL_FEATURES
 70
0
 62
7
  6
CONTINUOUS
370
-3
390
F
  0
LAYER
  5
1FE
100
AcDbSymbolTableRecord
100
AcDbLayerTableRecord
  2
AXES_FEATURES
 70
0
 62
7
  6
CONTINUOUS
370
-3
390
F
  0
LAYER
  5
1FF
100
AcDbSymbolTableRecord
100
AcDbLayerTableRecord
  2
DIMENSIONS
 70
0
 62
7
  6
CONTINUOUS
370
-3
390
F
  0
ENDTAB
  0
TABLE
  2
STYLE
  5
3
100
AcDbSymbolTable
 70
1
  0
STYLE
  5
11
100
AcDbSymbolTableRecord
100
AcDbTextStyleTableRecord
  2
STANDARD
 70
0
 40
0.0
 41
0.8
 50
0.0
 71
0
 42
0.2
  3
txt
  4

  0
STYLE
  5
200
100
AcDbSymbolTableRecord
100
AcDbTextStyleTableRecord
  2
TEXTSTYLE_1
 70
0
 40
0.0
 41
0.8
 50
0.0
 71
0
 42
0.2
  3
gdt
  4

  0
ENDTAB
  0
TABLE
  2
VIEW
  5
6
100
AcDbSymbolTable
 70
0
  0
ENDTAB
  0
TABLE
  2
UCS
  5
7
100
AcDbSymbolTable
 70
0
  0
ENDTAB
  0
TABLE
  2
APPID
  5
9
100
AcDbSymbolTable
 70
1
  0
APPID
  5
201
100
AcDbSymbolTableRecord
100
AcDbRegAppTableRecord
  2
ACAD
 70
0
  0
ENDTAB
  0
TABLE
  2
BLOCK_RECORD
  5
1
100
AcDbSymbolTable
 70
0
  0
BLOCK_RECORD
  5
202
100
AcDbSymbolTableRecord
100
AcDbBlockTableRecord
  2
*Model_Space
  0
BLOCK_RECORD
  5
203
100
AcDbSymbolTableRecord
100
AcDbBlockTableRecord
  2
*Paper_Space
  0
BLOCK_RECORD
  5
204
100
AcDbSymbolTableRecord
100
AcDbBlockTableRecord
  2
_FILLED
  0
ENDTAB
  0
TABLE
  2
DIMSTYLE
  5
A
100
AcDbSymbolTable
 70
1
100
AcDbDimStyleTable
 71
0
  0
DIMSTYLE
105
205
100
AcDbSymbolTableRecord
100
AcDbDimStyleTableRecord
  2
STANDARD
 70
0
  3

  4

 40
1.0
 41
0.1
 42
0.0625
 43
0.38
 44
0.125
 45
0.0
 46
0.0
 47
0.001
 48
0.001
140
0.08
141
0.09
142
0.0
143
25.4
144
1.0
145
0.0
146
1.0
147
0.09
 71
1.0
 72
0.0
 73
1
 74
1
 75
0
 76
0
 77
0
 78
4
 79
1
170
1
171
2
172
0
173
0
174
0
175
0
176
0
177
0
178
0
270
2
179
3
271
3
272
3
273
2
274
2
275
0
280
0
281
0
282
0
283
1
284
4
285
0
286
0
287
3
288
0
340
11
278
46
341
204
342
204
343
204
344
204
  0
ENDTAB
  0
ENDSEC
  0
SECTION
  2
BLOCKS
  0
BLOCK
  5
20
100
AcDbEntity
  8
0
100
AcDbBlockBegin
  2
*Model_Space
 70
0
 10
0.0
 20
0.0
 30
0.0
  3
*Model_Space
  1

  0
ENDBLK
  5
21
100
AcDbEntity
  8
0
100
AcDbBlockEnd
  0
BLOCK
  5
1C
100
AcDbEntity
  8
0
100
AcDbBlockBegin
  2
*Paper_Space
 70
0
 10
0.0
 20
0.0
 30
0.0
  3
*Paper_Space
  1

  0
ENDBLK
  5
1D
100
AcDbEntity
  8
0
100
AcDbBlockEnd
  0
BLOCK
  5
206
100
AcDbEntity
  8
0
100
AcDbBlockBegin
  2
_FILLED
 70
64
 10
0.0
 20
0.0
  3
_FILLED
  1

  0
SOLID
  5
207
100
AcDbEntity
  8
0
  6
BYBLOCK
 62
0
100
AcDbTrace
 10
0.0
 20
0.0
 11
-1.0
 21
0.2
 12
-1.0
 22
-0.2
 13
-1.0
 23
-0.2
  0
ENDBLK
  5
208
100
AcDbEntity
  8
0
  6
BYBLOCK
 62
0
100
AcDbBlockEnd
  0
ENDSEC
  0
SECTION
  2
ENTITIES
  0
LINE
  5
209
100
AcDbEntity
  8
0
100
AcDbLine
 62
7
  6
CONTINUOUS
 10
3.7201886126
 20
5.519566759
 11
3.7201886126
 21
5.3365179315
  0
LINE
  5
20A
100
AcDbEntity
  8
0
100
AcDbLine
 62
7
  6
CONTINUOUS
 10
3.9283382189
 20
4.7384370815
 11
3.9283382189
 21
4.773356898
  0
LINE
  5
20B
100
AcDbEntity
  8
0
100
AcDbLine
 62
7
  6
CONTINUOUS
 10
3.9833398379
 20
4.773356898
 11
3.9833398379
 21
4.7384370815
  0
LINE
  5
20C
100
AcDbEntity
  8
0
100
AcDbLine
 62
7
  6
CONTINUOUS
 10
4.0051886126
 20
5.7421390882
 11
4.0051886126
 21
5.7081506556
  0
LINE
  5
20D
100
AcDbEntity
  8
0
100
AcDbLine
 62
7
  6
CONTINUOUS
 10
4.1445964254
 20
4.773356898
 11
4.1445964254
 21
4.7384370815
  0
LINE
  5
20E
100
AcDbEntity
  8
0
100
AcDbLine
 62
7
  6
CONTINUOUS
 10
4.1666899976
 20
4.7117409825
 11
4.1666899976
 21
4.6968899132
  0
LINE
  5
20F
100
AcDbEntity
  8
0
100
AcDbLine
 62
7
  6
CONTINUOUS
 10
4.2612548575
 20
4.7105982318
 11
4.2612548575
 21
4.6968899132
  0
LINE
  5
210
100
AcDbEntity
  8
0
100
AcDbLine
 62
7
  6
CONTINUOUS
 10
4.3099507561
 20
4.7604092306
 11
4.3099507561
 21
4.7384370815
  0
LINE
  5
211
100
AcDbEntity
  8
0
100
AcDbLine
 62
7
  6
CONTINUOUS
 10
4.4011186115
 20
4.773356898
 11
4.4011186115
 21
4.7384370815
  0
LINE
  5
212
100
AcDbEntity
  8
0
100
AcDbLine
 62
7
  6
CONTINUOUS
 10
4.4029871409
 20
4.7173711905
 11
4.4029871409
 21
4.6968899132
  0
LINE
  5
213
100
AcDbEntity
  8
0
100
AcDbLine
 62
7
  6
CONTINUOUS
 10
4.4439401383
 20
4.7105982318
 11
4.4439401383
 21
4.6968899132
  0
LINE
  5
214
100
AcDbEntity
  8
0
100
AcDbLine
 62
7
  6
CONTINUOUS
 10
4.4637712898
 20
4.6486438515
 11
4.4637712898
 21
4.6418703611
  0
LINE
  5
215
100
AcDbEntity
  8
0
100
AcDbLine
 62
7
  6
CONTINUOUS
 10
4.5664729422
 20
4.7634589028
 11
4.5664729422
 21
4.7384370815
  0
LINE
  5
216
100
AcDbEntity
  8
0
100
AcDbLine
 62
7
  6
CONTINUOUS
 10
4.5856724218
 20
4.7192211659
 11
4.5856724218
 21
4.6968899132
  0
LINE
  5
217
100
AcDbEntity
  8
0
100
AcDbLine
 62
7
  6
CONTINUOUS
 10
3.9422579215
 20
4.7163635686
 11
3.9341044308
 21
4.7245170593
  0
LINE
  5
218
100
AcDbEntity
  8
0
100
AcDbLine
 62
7
  6
CONTINUOUS
 10
3.9972592627
 20
4.7163638464
 11
3.9891060498
 21
4.7245170593
  0
LINE
  5
219
100
AcDbEntity
  8
0
100
AcDbLine
 62
7
  6
CONTINUOUS
 10
4.1806094224
 20
4.6748166781
 11
4.1724559048
 21
4.6829701957
  0
LINE
  5
21A
100
AcDbEntity
  8
0
100
AcDbLine
 62
7
  6
CONTINUOUS
 10
4.1585158502
 20
4.7163638464
 11
4.1503626373
 21
4.7245170593
  0
LINE
  5
21B
100
AcDbEntity
  8
0
100
AcDbLine
 62
7
  6
CONTINUOUS
 10
4.2751742823
 20
4.6748166781
 11
4.2670207647
 21
4.6829701957
  0
LINE
  5
21C
100
AcDbEntity
  8
0
100
AcDbLine
 62
7
  6
CONTINUOUS
 10
4.4150380363
 20
4.7163638464
 11
4.4068848234
 21
4.7245170593
  0
LINE
  5
21D
100
AcDbEntity
  8
0
100
AcDbLine
 62
7
  6
CONTINUOUS
 10
4.4578595631
 20
4.6748166781
 11
4.4497060455
 21
4.6829701957
  0
LINE
  5
21E
100
AcDbEntity
  8
0
100
AcDbLine
 62
7
  6
CONTINUOUS
 10
4.6692051272
 20
4.5560737258
 11
4.6564388691
 21
4.568839984
  0
LINE
  5
21F
100
AcDbEntity
  8
0
100
AcDbLine
 62
7
  6
CONTINUOUS
 10
4.7169751378
 20
4.5560737258
 11
4.7042088796
 21
4.568839984
  0
LINE
  5
220
100
AcDbEntity
  8
0
100
AcDbLine
 62
7
  6
CONTINUOUS
 10
4.8154546806
 20
4.5560737258
 11
4.8026884223
 21
4.5688399841
  0
LINE
  5
221
100
AcDbEntity
  8
0
100
AcDbLine
 62
7
  6
CONTINUOUS
 10
4.7162155649
 20
4.6748166781
 11
4.7080620473
 21
4.6829701957
  0
LINE
  5
222
100
AcDbEntity
  8
0
100
AcDbLine
 62
7
  6
CONTINUOUS
 10
4.9632110984
 20
4.4800892338
 11
4.9348341126
 21
4.5580543613
  0
LWPOLYLINE
  5
223
100
AcDbEntity
  8
0
100
AcDbPolyline
 62
7
  6
CONTINUOUS
 90
3
 70
0
 10
4.797928376
 20
4.6072137398
 10
4.7992211455
 20
4.6024394228
 10
4.7992321825
 20
4.6019323004
  0
LINE
  5
224
100
AcDbEntity
  8
0
100
AcDbLine
 62
7
  6
CONTINUOUS
 10
4.6994528259
 20
4.6084157307
 11
4.7007499296
 21
4.6030739393
  0
LINE
  5
225
100
AcDbEntity
  8
0
100
AcDbLine
 62
7
  6
CONTINUOUS
 10
4.6524583107
 20
4.6070951652
 11
4.6529787738
 21
4.6036296544
  0
LINE
  5
226
100
AcDbEntity
  8
0
100
AcDbLine
 62
7
  6
CONTINUOUS
 10
4.6250562245
 20
9.8655080835
 11
4.6250562245
 21
9.9155080835
  0
LINE
  5
227
100
AcDbEntity
  8
0
100
AcDbLine
 62
7
  6
CONTINUOUS
 10
4.6251886126
 20
10.1155080835
 11
4.6251886126
 21
10.1905080835
  0
LINE
  5
228
100
AcDbEntity
  8
0
100
AcDbLine
 62
7
  6
CONTINUOUS
 10
4.6529794566
 20
4.6036269571
 11
4.6529794566
 21
4.5771916826
  0
LINE
  5
229
100
AcDbEntity
  8
0
100
AcDbLine
 62
7
  6
CONTINUOUS
 10
4.7007494671
 20
4.6030738027
 11
4.7007494671
 21
4.5771916826
  0
LINE
  5
22A
100
AcDbEntity
  8
0
100
AcDbLine
 62
7
  6
CONTINUOUS
 10
4.7022961401
 20
4.7391246282
 11
4.7022961401
 21
4.6968899132
  0
LINE
  5
22B
100
AcDbEntity
  8
0
100
AcDbLine
 62
7
  6
CONTINUOUS
 10
4.7354248331
 20
4.773356898
 11
4.7354248331
 21
4.7384370815
  0
LINE
  5
22C
100
AcDbEntity
  8
0
100
AcDbLine
 62
7
  6
CONTINUOUS
 10
4.7992290099
 20
4.6019308673
 11
4.7992290099
 21
4.5771916826
  0
LINE
  5
22D
100
AcDbEntity
  8
0
100
AcDbLine
 62
7
  6
CONTINUOUS
 10
4.8440284236
 20
4.7105982318
 11
4.8440284236
 21
4.6968899132
  0
LINE
  5
22E
100
AcDbEntity
  8
0
100
AcDbLine
 62
7
  6
CONTINUOUS
 10
4.9007791638
 20
4.7674353117
 11
4.9007791638
 21
4.7384370815
  0
LINE
  5
22F
100
AcDbEntity
  8
0
100
AcDbLine
 62
7
  6
CONTINUOUS
 10
4.9409612934
 20
4.5844000713
 11
4.9409612934
 21
4.5771916826
  0
LINE
  5
230
100
AcDbEntity
  8
0
100
AcDbLine
 62
7
  6
CONTINUOUS
 10
4.9751886126
 20
8.8079687653
 11
4.9751886126
 21
8.8357256807
  0
LINE
  5
231
100
AcDbEntity
  8
0
100
AcDbLine
 62
7
  6
CONTINUOUS
 10
4.9751886126
 20
8.9505080835
 11
4.9751886126
 21
8.9855080835
  0
LINE
  5
232
100
AcDbEntity
  8
0
100
AcDbLine
 62
7
  6
CONTINUOUS
 10
5.0187163283
 20
4.7359115627
 11
5.0187163283
 21
4.6968899132
  0
LINE
  5
233
100
AcDbEntity
  8
0
100
AcDbLine
 62
7
  6
CONTINUOUS
 10
5.0551886126
 20
9.0005080835
 11
5.0551886126
 21
9.4605080835
  0
LINE
  5
234
100
AcDbEntity
  8
0
100
AcDbLine
 62
7
  6
CONTINUOUS
 10
5.1247326737
 20
4.773356898
 11
5.1247326737
 21
4.7384370815
  0
LWPOLYLINE
  5
235
100
AcDbEntity
  8
0
100
AcDbPolyline
 62
7
  6
CONTINUOUS
 90
4
 70
0
 10
4.7940382322
 20
4.611318285
 10
4.7940592403
 20
4.6113001556
 10
4.7954890542
 20
4.6102999527
 10
4.797928376
 20
4.6072137398
  0
LINE
  5
236
100
AcDbEntity
  8
0
100
AcDbLine
 62
7
  6
CONTINUOUS
 10
4.7493442579
 20
4.7163638464
 11
4.7411910448
 21
4.7245170595
  0
LINE
  5
237
100
AcDbEntity
  8
0
100
AcDbLine
 62
7
  6
CONTINUOUS
 10
5.040737108
 20
4.4532174496
 11
5.0325838868
 21
4.4613706708
  0
LINE
  5
238
100
AcDbEntity
  8
0
100
AcDbLine
 62
7
  6
CONTINUOUS
 10
5.1331538216
 20
4.4532174496
 11
5.1250006021
 21
4.4613706691
  0
LINE
  5
239
100
AcDbEntity
  8
0
100
AcDbLine
 62
7
  6
CONTINUOUS
 10
5.0326357532
 20
4.6748166781
 11
5.0244822356
 21
4.6829701957
  0
LINE
  5
23A
100
AcDbEntity
  8
0
100
AcDbLine
 62
7
  6
CONTINUOUS
 10
5.1386520985
 20
4.7163638464
 11
5.1304988855
 21
4.7245170593
  0
LINE
  5
23B
100
AcDbEntity
  8
0
100
AcDbLine
 62
7
  6
CONTINUOUS
 10
5.4423861722
 20
4.4532174496
 11
5.434232951
 21
4.4613706708
  0
LINE
  5
23C
100
AcDbEntity
  8
0
100
AcDbLine
 62
7
  6
CONTINUOUS
 10
5.3745595147
 20
4.5560737258
 11
5.3617932565
 21
4.568839984
  0
LINE
  5
23D
100
AcDbEntity
  8
0
100
AcDbLine
 62
7
  6
CONTINUOUS
 10
5.3855566149
 20
4.6748166781
 11
5.3774030973
 21
4.6829701957
  0
LINE
  5
23E
100
AcDbEntity
  8
0
100
AcDbLine
 62
7
  6
CONTINUOUS
 10
5.5942516774
 20
4.5560737258
 11
5.5814854192
 21
4.568839984
  0
LINE
  5
23F
100
AcDbEntity
  8
0
100
AcDbLine
 62
7
  6
CONTINUOUS
 10
5.1411886126
 20
6.4782723285
 11
5.1411886126
 21
6.4982723285
  0
LINE
  5
240
100
AcDbEntity
  8
0
100
AcDbLine
 62
7
  6
CONTINUOUS
 10
5.1604486118
 20
4.7105982318
 11
5.1604486118
 21
4.6968899132
  0
LINE
  5
241
100
AcDbEntity
  8
0
100
AcDbLine
 62
7
  6
CONTINUOUS
 10
5.2501886126
 20
7.8527283566
 11
5.2501886126
 21
6.7724496421
  0
LINE
  5
242
100
AcDbEntity
  8
0
100
AcDbLine
 62
7
  6
CONTINUOUS
 10
5.2900870044
 20
4.7720687933
 11
5.2900870044
 21
4.7384370815
  0
LINE
  5
243
100
AcDbEntity
  8
0
100
AcDbLine
 62
7
  6
CONTINUOUS
 10
5.3126886126
 20
8.5995080835
 11
5.3126886126
 21
8.5955080835
  0
LINE
  5
244
100
AcDbEntity
  8
0
100
AcDbLine
 62
7
  6
CONTINUOUS
 10
5.3583338441
 20
4.5954380387
 11
5.3583338441
 21
4.5771916826
  0
LINE
  5
245
100
AcDbEntity
  8
0
100
AcDbLine
 62
7
  6
CONTINUOUS
 10
5.37163719
 20
4.7323295707
 11
5.37163719
 21
4.6968899132
  0
LINE
  5
246
100
AcDbEntity
  8
0
100
AcDbLine
 62
7
  6
CONTINUOUS
 10
5.5000661188
 20
4.590887763
 11
5.5000661275
 21
4.5771916826
  0
LINE
  5
247
100
AcDbEntity
  8
0
100
AcDbLine
 62
7
  6
CONTINUOUS
 10
5.5133694735
 20
4.728623155
 11
5.5133694735
 21
4.6968899132
  0
LINE
  5
248
100
AcDbEntity
  8
0
100
AcDbLine
 62
7
  6
CONTINUOUS
 10
5.5425114472
 20
4.773356898
 11
5.5425114472
 21
4.7384370815
  0
LINE
  5
249
100
AcDbEntity
  8
0
100
AcDbLine
 62
7
  6
CONTINUOUS
 10
5.5780260067
 20
4.5928871077
 11
5.5780260067
 21
4.5771916826
  0
LINE
  5
24A
100
AcDbEntity
  8
0
100
AcDbLine
 62
9
  6
CONTINUOUS
 10
5.6251886799
 20
8.779317014
 11
5.6251875043
 21
8.6183422298
  0
LINE
  5
24B
100
AcDbEntity
  8
0
100
AcDbLine
 62
7
  6
CONTINUOUS
 10
5.5780260067
 20
4.5928871077
 11
5.5780260866
 21
4.5929027903
  0
LWPOLYLINE
  5
24C
100
AcDbEntity
  8
0
100
AcDbPolyline
 62
7
  6
CONTINUOUS
 90
3
 70
0
 10
4.9409598262
 20
4.5844016029
 10
4.9416477966
 20
4.5883052081
 10
4.9439886014
 20
4.5921311083
  0
LINE
  5
24D
100
AcDbEntity
  8
0
100
AcDbLine
 62
7
  6
CONTINUOUS
 10
5.7872900427
 20
4.4532174496
 11
5.7791368232
 21
4.4613706691
  0
LINE
  5
24E
100
AcDbEntity
  8
0
100
AcDbLine
 62
7
  6
CONTINUOUS
 10
5.5564308721
 20
4.7163638464
 11
5.5482776591
 21
4.7245170593
  0
LINE
  5
24F
100
AcDbEntity
  8
0
100
AcDbLine
 62
7
  6
CONTINUOUS
 10
5.8125356474
 20
4.5560737258
 11
5.7997693892
 21
4.568839984
  0
LINE
  5
250
100
AcDbEntity
  8
0
100
AcDbLine
 62
7
  6
CONTINUOUS
 10
5.7509271765
 20
4.6748166781
 11
5.7427736589
 21
4.6829701957
  0
LINE
  5
251
100
AcDbEntity
  8
0
100
AcDbLine
 62
7
  6
CONTINUOUS
 10
5.9742096457
 20
4.7163638464
 11
5.9660564327
 21
4.7245170593
  0
LINE
  5
252
100
AcDbEntity
  8
0
100
AcDbLine
 62
7
  6
CONTINUOUS
 10
6.1038480382
 20
4.6748166781
 11
6.0956945206
 21
4.6829701957
  0
LINE
  5
253
100
AcDbEntity
  8
0
100
AcDbLine
 62
7
  6
CONTINUOUS
 10
6.350763523
 20
4.5560737258
 11
6.3379972648
 21
4.568839984
  0
LWPOLYLINE
  5
254
100
AcDbEntity
  8
0
100
AcDbPolyline
 62
7
  6
CONTINUOUS
 90
3
 70
0
 10
6.3314604974
 20
4.5919172341
 10
6.3339858172
 20
4.587624486
 10
6.3345374746
 20
4.5841082175
  0
LINE
  5
255
100
AcDbEntity
  8
0
100
AcDbLine
 62
7
  6
CONTINUOUS
 10
5.707865778
 20
4.773356898
 11
5.707865778
 21
4.7384370815
  0
LINE
  5
256
100
AcDbEntity
  8
0
100
AcDbLine
 62
7
  6
CONTINUOUS
 10
5.7197582689
 20
4.5934410499
 11
5.7197582902
 21
4.5771916826
  0
LINE
  5
257
100
AcDbEntity
  8
0
100
AcDbLine
 62
7
  6
CONTINUOUS
 10
5.7370077517
 20
4.728623154
 11
5.7370077517
 21
4.6968899132
  0
LINE
  5
258
100
AcDbEntity
  8
0
100
AcDbLine
 62
7
  6
CONTINUOUS
 10
5.7963099768
 20
4.5903523411
 11
5.7963099768
 21
4.5771916826
  0
LINE
  5
259
100
AcDbEntity
  8
0
100
AcDbLine
 62
7
  6
CONTINUOUS
 10
5.8787400352
 20
4.7323295698
 11
5.8787400352
 21
4.6968899132
  0
LINE
  5
25A
100
AcDbEntity
  8
0
100
AcDbLine
 62
7
  6
CONTINUOUS
 10
5.9376886126
 20
8.5995080835
 11
5.9376886126
 21
8.5955080835
  0
LINE
  5
25B
100
AcDbEntity
  8
0
100
AcDbLine
 62
7
  6
CONTINUOUS
 10
5.9380422574
 20
4.5959714769
 11
5.9380422602
 21
4.5771916826
  0
LINE
  5
25C
100
AcDbEntity
  8
0
100
AcDbLine
 62
7
  6
CONTINUOUS
 10
5.9602902208
 20
4.772068828
 11
5.9602902208
 21
4.7384370815
  0
LINE
  5
25D
100
AcDbEntity
  8
0
100
AcDbLine
 62
7
  6
CONTINUOUS
 10
6.0001886126
 20
7.8527283566
 11
6.0001886126
 21
6.7724496421
  0
LINE
  5
25E
100
AcDbEntity
  8
0
100
AcDbLine
 62
7
  6
CONTINUOUS
 10
6.0899286134
 20
4.7105982318
 11
6.0899286134
 21
4.6968899132
  0
LINE
  5
25F
100
AcDbEntity
  8
0
100
AcDbLine
 62
7
  6
CONTINUOUS
 10
6.1091886126
 20
6.4782723285
 11
6.1091886126
 21
6.4982723285
  0
LINE
  5
260
100
AcDbEntity
  8
0
100
AcDbLine
 62
7
  6
CONTINUOUS
 10
6.1256445515
 20
4.773356898
 11
6.1256445515
 21
4.7384370815
  0
LINE
  5
261
100
AcDbEntity
  8
0
100
AcDbLine
 62
7
  6
CONTINUOUS
 10
6.1951886126
 20
9.0005080835
 11
6.1951886126
 21
9.4605080835
  0
LWPOLYLINE
  5
262
100
AcDbEntity
  8
0
100
AcDbPolyline
 62
7
  6
CONTINUOUS
 90
5
 70
0
 10
5.7197564473
 20
4.5934433214
 10
5.719777382
 20
4.5941055332
 10
5.7212383593
 20
4.5987767938
 10
5.7233219844
 20
4.6011267397
 10
5.7236914032
 20
4.601378663
  0
LINE
  5
263
100
AcDbEntity
  8
0
100
AcDbLine
 62
7
  6
CONTINUOUS
 10
5.1869597614
 20
6.594683633
 11
5.2301885787
 21
6.7277282523
  0
LINE
  5
264
100
AcDbEntity
  8
0
100
AcDbLine
 62
7
  6
CONTINUOUS
 10
6.3635174862
 20
4.7163638464
 11
6.3553642733
 21
4.7245170593
  0
LINE
  5
265
100
AcDbEntity
  8
0
100
AcDbLine
 62
7
  6
CONTINUOUS
 10
6.4202682265
 20
4.6748166781
 11
6.4121147089
 21
4.6829701957
  0
LINE
  5
266
100
AcDbEntity
  8
0
100
AcDbLine
 62
7
  6
CONTINUOUS
 10
6.6786242283
 20
4.6748166781
 11
6.6704707107
 21
4.6829701957
  0
LINE
  5
267
100
AcDbEntity
  8
0
100
AcDbLine
 62
7
  6
CONTINUOUS
 10
6.6978237078
 20
4.7163638464
 11
6.6896704949
 21
4.7245170593
  0
LINE
  5
268
100
AcDbEntity
  8
0
100
AcDbLine
 62
7
  6
CONTINUOUS
 10
6.8613095091
 20
4.6748166781
 11
6.8531559916
 21
4.6829701957
  0
LINE
  5
269
100
AcDbEntity
  8
0
100
AcDbLine
 62
7
  6
CONTINUOUS
 10
6.9543458939
 20
4.7163638464
 11
6.9461923322
 21
4.7245174081
  0
LINE
  5
26A
100
AcDbEntity
  8
0
100
AcDbLine
 62
7
  6
CONTINUOUS
 10
6.0634174638
 20
6.594683633
 11
6.0201886465
 21
6.7277282523
  0
LINE
  5
26B
100
AcDbEntity
  8
0
100
AcDbLine
 62
7
  6
CONTINUOUS
 10
6.2316608969
 20
4.7359115636
 11
6.2316608969
 21
4.6968899132
  0
LINE
  5
26C
100
AcDbEntity
  8
0
100
AcDbLine
 62
7
  6
CONTINUOUS
 10
6.2751886126
 20
8.8079687653
 11
6.2751886126
 21
8.8357256807
  0
LINE
  5
26D
100
AcDbEntity
  8
0
100
AcDbLine
 62
7
  6
CONTINUOUS
 10
6.2751886126
 20
8.9505080835
 11
6.2751886126
 21
8.9855080835
  0
LINE
  5
26E
100
AcDbEntity
  8
0
100
AcDbLine
 62
7
  6
CONTINUOUS
 10
6.3345378524
 20
4.5841091934
 11
6.3345378524
 21
4.5771916826
  0
LINE
  5
26F
100
AcDbEntity
  8
0
100
AcDbLine
 62
7
  6
CONTINUOUS
 10
6.3495980614
 20
4.7674353196
 11
6.3495980614
 21
4.7384370815
  0
LINE
  5
270
100
AcDbEntity
  8
0
100
AcDbLine
 62
7
  6
CONTINUOUS
 10
6.4063488016
 20
4.7105982318
 11
6.4063488016
 21
4.6968899132
  0
LINE
  5
271
100
AcDbEntity
  8
0
100
AcDbLine
 62
7
  6
CONTINUOUS
 10
6.4762701358
 20
4.6022219902
 11
6.4762701358
 21
4.5771916826
  0
LINE
  5
272
100
AcDbEntity
  8
0
100
AcDbLine
 62
7
  6
CONTINUOUS
 10
6.5149523921
 20
4.773356898
 11
6.5149523921
 21
4.7384370815
  0
LINE
  5
273
100
AcDbEntity
  8
0
100
AcDbLine
 62
7
  6
CONTINUOUS
 10
6.5480810851
 20
4.7391246589
 11
6.5480810851
 21
4.6968899132
  0
LINE
  5
274
100
AcDbEntity
  8
0
100
AcDbLine
 62
7
  6
CONTINUOUS
 10
6.5642773489
 20
4.6032450079
 11
6.5642773489
 21
4.5771916826
  0
LINE
  5
275
100
AcDbEntity
  8
0
100
AcDbLine
 62
7
  6
CONTINUOUS
 10
6.6007047188
 20
4.6036666134
 11
6.6007047188
 21
4.5771916826
  0
LINE
  5
276
100
AcDbEntity
  8
0
100
AcDbLine
 62
7
  6
CONTINUOUS
 10
6.6251886126
 20
10.1155080835
 11
6.6251886126
 21
10.1905080835
  0
LINE
  5
277
100
AcDbEntity
  8
0
100
AcDbLine
 62
7
  6
CONTINUOUS
 10
6.6253210007
 20
9.8655080835
 11
6.6253210007
 21
9.9155080835
  0
LINE
  5
278
100
AcDbEntity
  8
0
100
AcDbLine
 62
7
  6
CONTINUOUS
 10
6.6647048034
 20
4.7192211508
 11
6.6647048034
 21
4.6968899132
  0
LINE
  5
279
100
AcDbEntity
  8
0
100
AcDbLine
 62
7
  6
CONTINUOUS
 10
6.683904283
 20
4.7634589028
 11
6.683904283
 21
4.7384370815
  0
LINE
  5
27A
100
AcDbEntity
  8
0
100
AcDbLine
 62
7
  6
CONTINUOUS
 10
6.5642776452
 20
4.6032447609
 11
6.5642961984
 21
4.6039098838
  0
LWPOLYLINE
  5
27B
100
AcDbEntity
  8
0
100
AcDbPolyline
 62
7
  6
CONTINUOUS
 90
4
 70
0
 10
5.5000665828
 20
4.5908905891
 10
5.5014452124
 20
4.5960800403
 10
5.5035720972
 20
4.5986047928
 10
5.5042873185
 20
4.5991023151
  0
LWPOLYLINE
  5
27C
100
AcDbEntity
  8
0
100
AcDbPolyline
 62
7
  6
CONTINUOUS
 90
5
 70
0
 10
4.6944225864
 20
4.6133523908
 10
4.6942009605
 20
4.6134246734
 10
4.6947900155
 20
4.6131576321
 10
4.6967629272
 20
4.6118231044
 10
4.6994528259
 20
4.6084157307
  0
LWPOLYLINE
  5
27D
100
AcDbEntity
  8
0
100
AcDbPolyline
 62
7
  6
CONTINUOUS
 90
5
 70
0
 10
5.7921826522
 20
4.5986032208
 10
5.7918613455
 20
4.5987313689
 10
5.7927850648
 20
4.5981103688
 10
5.7950049721
 20
4.5954237968
 10
5.7963105061
 20
4.5903501429
  0
LWPOLYLINE
  5
27E
100
AcDbEntity
  8
0
100
AcDbPolyline
 62
7
  6
CONTINUOUS
 90
6
 70
0
 10
5.3555817567
 20
4.6028759833
 10
5.3546129831
 20
4.6032718047
 10
5.3548870206
 20
4.603049834
 10
5.3569110221
 20
4.6006941621
 10
5.3583176261
 20
4.5960736342
 10
5.3583365732
 20
4.5954407176
  0
LWPOLYLINE
  5
27F
100
AcDbEntity
  8
0
100
AcDbPolyline
 62
7
  6
CONTINUOUS
 90
5
 70
0
 10
5.5742398625
 20
4.6007827707
 10
5.5740576936
 20
4.600859257
 10
5.5754838584
 20
4.5996455705
 10
5.5775640688
 20
4.5959562024
 10
5.5780256048
 20
4.5929006764
  0
LINE
  5
280
100
AcDbEntity
  8
0
100
AcDbLine
 62
7
  6
CONTINUOUS
 10
7.1156024814
 20
4.7163638464
 11
7.1074492685
 21
4.7245170593
  0
LINE
  5
281
100
AcDbEntity
  8
0
100
AcDbLine
 62
7
  6
CONTINUOUS
 10
6.7866059354
 20
4.6486438515
 11
6.7866059354
 21
4.6418703611
  0
LINE
  5
282
100
AcDbEntity
  8
0
100
AcDbLine
 62
7
  6
CONTINUOUS
 10
6.8064370869
 20
4.7105982318
 11
6.8064370869
 21
4.6968899132
  0
LINE
  5
283
100
AcDbEntity
  8
0
100
AcDbLine
 62
7
  6
CONTINUOUS
 10
6.8473900843
 20
4.7173711897
 11
6.8473900843
 21
4.6968899132
  0
LINE
  5
284
100
AcDbEntity
  8
0
100
AcDbLine
 62
7
  6
CONTINUOUS
 10
6.8492586137
 20
4.773356898
 11
6.8492586137
 21
4.7384370815
  0
LINE
  5
285
100
AcDbEntity
  8
0
100
AcDbLine
 62
7
  6
CONTINUOUS
 10
6.9404264691
 20
4.760409234
 11
6.9404264691
 21
4.7384370815
  0
LINE
  5
286
100
AcDbEntity
  8
0
100
AcDbLine
 62
7
  6
CONTINUOUS
 10
6.9891223677
 20
4.7105982318
 11
6.9891223677
 21
4.6968899132
  0
LINE
  5
287
100
AcDbEntity
  8
0
100
AcDbLine
 62
7
  6
CONTINUOUS
 10
7.0836872276
 20
4.7117409879
 11
7.0836872276
 21
4.6968899132
  0
LINE
  5
288
100
AcDbEntity
  8
0
100
AcDbLine
 62
7
  6
CONTINUOUS
 10
7.1057807998
 20
4.773356898
 11
7.1057807998
 21
4.7384370815
  0
LINE
  5
289
100
AcDbEntity
  8
0
100
AcDbLine
 62
7
  6
CONTINUOUS
 10
7.2451886126
 20
5.7421390882
 11
7.2451886126
 21
5.7081506556
  0
LINE
  5
28A
100
AcDbEntity
  8
0
100
AcDbLine
 62
7
  6
CONTINUOUS
 10
7.2670373873
 20
4.773356898
 11
7.2670373873
 21
4.7384370815
  0
LINE
  5
28B
100
AcDbEntity
  8
0
100
AcDbLine
 62
7
  6
CONTINUOUS
 10
6.6007055962
 20
4.6036681524
 11
6.6009183309
 21
4.6058999142
  0
LINE
  5
28C
100
AcDbEntity
  8
0
100
AcDbLine
 62
7
  6
CONTINUOUS
 10
6.4762665123
 20
4.6022216563
 11
6.4774832333
 21
4.607352158
  0
LWPOLYLINE
  5
28D
100
AcDbEntity
  8
0
100
AcDbPolyline
 62
7
  6
CONTINUOUS
 90
4
 70
0
 10
5.9380424161
 20
4.595972135
 10
5.939395284
 20
4.6011125493
 10
5.9413972391
 20
4.6035255827
 10
5.9418949547
 20
4.6038857871
  0
LINE
  5
28E
100
AcDbEntity
  8
0
100
AcDbLine
 62
7
  6
CONTINUOUS
 10
4.363022909
 20
4.6639836274
 11
4.4519602663
 21
4.6486438515
  0
LWPOLYLINE
  5
28F
100
AcDbEntity
  8
0
100
AcDbPolyline
 62
7
  6
CONTINUOUS
 90
7
 70
0
 10
4.6444698302
 20
4.6149321037
 10
4.6444092987
 20
4.614944856
 10
4.6449262299
 20
4.614797053
 10
4.6465424399
 20
4.6141313739
 10
4.648812479
 20
4.6126249489
 10
4.6509188461
 20
4.610290282
 10
4.6524583107
 20
4.6070951652
  0
LINE
  5
290
100
AcDbEntity
  8
0
100
AcDbLine
 62
7
  6
CONTINUOUS
 10
7.3220390063
 20
4.7384370815
 11
7.3220390063
 21
4.773356898
  0
LINE
  5
291
100
AcDbEntity
  8
0
100
AcDbLine
 62
7
  6
CONTINUOUS
 10
7.5301886126
 20
5.519566759
 11
7.5301886126
 21
5.3365179315
  0
LINE
  5
292
100
AcDbEntity
  8
0
100
AcDbLine
 62
7
  6
CONTINUOUS
 10
6.5642961984
 20
4.6039098838
 11
6.5656532932
 21
4.6087468328
  0
LWPOLYLINE
  5
293
100
AcDbEntity
  8
0
100
AcDbPolyline
 62
7
  6
CONTINUOUS
 90
7
 70
0
 10
6.6009183309
 20
4.6058999142
 10
6.6019444685
 20
4.6089350884
 10
6.6036242725
 20
4.6114414319
 10
6.6057096495
 20
4.6133191921
 10
6.6079246295
 20
4.6145466298
 10
6.6094037506
 20
4.6150537169
 10
6.6098960688
 20
4.6151718316
  0
LINE
  5
294
100
AcDbEntity
  8
0
100
AcDbLine
 62
7
  6
CONTINUOUS
 10
6.2871661268
 20
4.4800892338
 11
6.3155431126
 21
4.5580543613
  0
LINE
  5
295
100
AcDbEntity
  8
0
100
AcDbLine
 62
7
  6
CONTINUOUS
 10
3.8587697098
 20
4.773356898
 11
3.8568261897
 21
4.7736005237
  0
LWPOLYLINE
  5
296
100
AcDbEntity
  8
0
100
AcDbPolyline
 62
7
  6
CONTINUOUS
 90
5
 70
0
 10
6.3270136748
 20
4.5947581107
 10
6.3268435677
 20
4.594783529
 10
6.3269974511
 20
4.5947414878
 10
6.3285035368
 20
4.5941456299
 10
6.3314604974
 20
4.5919172341
  0
LINE
  5
297
100
AcDbEntity
  8
0
100
AcDbLine
 62
9
  6
CONTINUOUS
 10
6.6006372699
 20
4.6036780827
 11
6.6007047181
 21
4.6036666774
  0
LINE
  5
298
100
AcDbEntity
  8
0
100
AcDbLine
 62
7
  6
CONTINUOUS
 10
4.1347747438
 20
4.7163638464
 11
4.1429279567
 21
4.7245170593
  0
LINE
  5
299
100
AcDbEntity
  8
0
100
AcDbLine
 62
7
  6
CONTINUOUS
 10
4.2960313313
 20
4.7163638464
 11
4.3041845442
 21
4.7245170593
  0
LINE
  5
29A
100
AcDbEntity
  8
0
100
AcDbLine
 62
7
  6
CONTINUOUS
 10
4.3890677161
 20
4.6748166781
 11
4.3972212337
 21
4.6829701957
  0
LINE
  5
29B
100
AcDbEntity
  8
0
100
AcDbLine
 62
7
  6
CONTINUOUS
 10
5.0546676988
 20
4.447451835
 11
5.449166451
 21
4.447451835
  0
LINE
  5
29C
100
AcDbEntity
  8
0
100
AcDbLine
 62
7
  6
CONTINUOUS
 10
5.4563132522
 20
4.447451835
 11
5.6722737857
 21
4.447451835
  0
LINE
  5
29D
100
AcDbEntity
  8
0
100
AcDbLine
 62
7
  6
CONTINUOUS
 10
5.7433620646
 20
4.447451835
 11
5.794063973
 21
4.447451835
  0
LINE
  5
29E
100
AcDbEntity
  8
0
100
AcDbLine
 62
7
  6
CONTINUOUS
 10
5.8012107742
 20
4.447451835
 11
6.1957095264
 21
4.447451835
  0
LINE
  5
29F
100
AcDbEntity
  8
0
100
AcDbLine
 62
9
  6
CONTINUOUS
 10
5.0407377312
 20
4.4532168264
 11
5.415391947
 21
4.4532168264
  0
LINE
  5
2A0
100
AcDbEntity
  8
0
100
AcDbLine
 62
9
  6
CONTINUOUS
 10
5.4423867953
 20
4.4532168264
 11
5.6862002426
 21
4.4532168264
  0
LINE
  5
2A1
100
AcDbEntity
  8
0
100
AcDbLine
 62
9
  6
CONTINUOUS
 10
5.7872906659
 20
4.4532168264
 11
6.209639494
 21
4.4532168264
  0
LINE
  5
2A2
100
AcDbEntity
  8
0
100
AcDbLine
 62
7
  6
CONTINUOUS
 10
4.0159063168
 20
4.4532657347
 11
4.0066766303
 21
4.4532657347
  0
LINE
  5
2A3
100
AcDbEntity
  8
0
100
AcDbLine
 62
9
  6
CONTINUOUS
 10
4.0066766408
 20
4.4532657347
 11
4.0067287332
 21
4.4532657383
  0
LINE
  5
2A4
100
AcDbEntity
  8
0
100
AcDbLine
 62
9
  6
CONTINUOUS
 10
5.7823692627
 20
4.4581382296
 11
5.6911216458
 21
4.4581382296
  0
LINE
  5
2A5
100
AcDbEntity
  8
0
100
AcDbLine
 62
9
  6
CONTINUOUS
 10
5.4374653921
 20
4.4581382296
 11
5.3818892953
 21
4.4581382296
  0
LINE
  5
2A6
100
AcDbEntity
  8
0
100
AcDbLine
 62
9
  6
CONTINUOUS
 10
6.2177933384
 20
4.4613706708
 11
5.7791368232
 21
4.4613706691
  0
LINE
  5
2A7
100
AcDbEntity
  8
0
100
AcDbLine
 62
9
  6
CONTINUOUS
 10
5.694354087
 20
4.4613706708
 11
5.434232951
 21
4.4613706708
  0
LINE
  5
2A8
100
AcDbEntity
  8
0
100
AcDbLine
 62
9
  6
CONTINUOUS
 10
5.3851217347
 20
4.4613706691
 11
5.0325969798
 21
4.4613706708
  0
LINE
  5
2A9
100
AcDbEntity
  8
0
100
AcDbLine
 62
7
  6
CONTINUOUS
 10
4.9817125677
 20
4.4671368744
 11
6.2686646575
 21
4.4671368744
  0
LINE
  5
2AA
100
AcDbEntity
  8
0
100
AcDbLine
 62
9
  6
CONTINUOUS
 10
4.9632111095
 20
4.4800892032
 11
6.2871661157
 21
4.4800892032
  0
LINE
  5
2AB
100
AcDbEntity
  8
0
100
AcDbLine
 62
7
  6
CONTINUOUS
 10
4.6775568384
 20
4.5526143571
 11
4.8178935878
 21
4.5526143571
  0
LINE
  5
2AC
100
AcDbEntity
  8
0
100
AcDbLine
 62
7
  6
CONTINUOUS
 10
4.8238105451
 20
4.5526143571
 11
4.9368141122
 21
4.5526143571
  0
LINE
  5
2AD
100
AcDbEntity
  8
0
100
AcDbLine
 62
7
  6
CONTINUOUS
 10
5.3829162702
 20
4.5526143571
 11
5.4754837014
 21
4.5526143571
  0
LINE
  5
2AE
100
AcDbEntity
  8
0
100
AcDbLine
 62
7
  6
CONTINUOUS
 10
5.6026098848
 20
4.5526143571
 11
5.6951744121
 21
4.5526143571
  0
LINE
  5
2AF
100
AcDbEntity
  8
0
100
AcDbLine
 62
7
  6
CONTINUOUS
 10
5.8208939008
 20
4.5526143571
 11
5.9134583362
 21
4.5526143571
  0
LINE
  5
2B0
100
AcDbEntity
  8
0
100
AcDbLine
 62
7
  6
CONTINUOUS
 10
6.313563113
 20
4.5526143571
 11
6.3496588993
 21
4.5526143571
  0
LINE
  5
2B1
100
AcDbEntity
  8
0
100
AcDbLine
 62
7
  6
CONTINUOUS
 10
6.3591178335
 20
4.5526143571
 11
6.5761168622
 21
4.5526143571
  0
LINE
  5
2B2
100
AcDbEntity
  8
0
100
AcDbLine
 62
9
  6
CONTINUOUS
 10
4.6692051641
 20
4.5560736889
 11
4.9355550184
 21
4.5560736889
  0
LINE
  5
2B3
100
AcDbEntity
  8
0
100
AcDbLine
 62
9
  6
CONTINUOUS
 10
5.3745595516
 20
4.5560736889
 11
5.48384042
 21
4.5560736889
  0
LINE
  5
2B4
100
AcDbEntity
  8
0
100
AcDbLine
 62
9
  6
CONTINUOUS
 10
5.5942517143
 20
4.5560736889
 11
5.7035325827
 21
4.5560736889
  0
LINE
  5
2B5
100
AcDbEntity
  8
0
100
AcDbLine
 62
9
  6
CONTINUOUS
 10
5.8125356843
 20
4.5560736889
 11
5.9218165527
 21
4.5560736889
  0
LINE
  5
2B6
100
AcDbEntity
  8
0
100
AcDbLine
 62
9
  6
CONTINUOUS
 10
6.3148222069
 20
4.5560736894
 11
6.5844790112
 21
4.5560736889
  0
LINE
  5
2B7
100
AcDbEntity
  8
0
100
AcDbLine
 62
9
  6
CONTINUOUS
 10
6.3155431126
 20
4.5580543613
 11
5.9237972251
 21
4.5580543613
  0
LINE
  5
2B8
100
AcDbEntity
  8
0
100
AcDbLine
 62
9
  6
CONTINUOUS
 10
5.8105550119
 20
4.5580543613
 11
5.705513255
 21
4.5580543613
  0
LINE
  5
2B9
100
AcDbEntity
  8
0
100
AcDbLine
 62
9
  6
CONTINUOUS
 10
5.5922710419
 20
4.5580543613
 11
5.4858210924
 21
4.5580543613
  0
LINE
  5
2BA
100
AcDbEntity
  8
0
100
AcDbLine
 62
9
  6
CONTINUOUS
 10
5.3725788792
 20
4.5580543613
 11
4.9348341126
 21
4.5580543613
  0
LINE
  5
2BB
100
AcDbEntity
  8
0
100
AcDbLine
 62
9
  6
CONTINUOUS
 10
6.5972453063
 20
4.568839984
 11
6.5610078079
 21
4.568839984
  0
LINE
  5
2BC
100
AcDbEntity
  8
0
100
AcDbLine
 62
9
  6
CONTINUOUS
 10
6.5608179364
 20
4.568839984
 11
6.3217554864
 21
4.5688399839
  0
LINE
  5
2BD
100
AcDbEntity
  8
0
100
AcDbLine
 62
9
  6
CONTINUOUS
 10
5.9345828478
 20
4.568839984
 11
5.7997693892
 21
4.568839984
  0
LINE
  5
2BE
100
AcDbEntity
  8
0
100
AcDbLine
 62
9
  6
CONTINUOUS
 10
5.7162988777
 20
4.568839984
 11
5.5814854192
 21
4.568839984
  0
LINE
  5
2BF
100
AcDbEntity
  8
0
100
AcDbLine
 62
9
  6
CONTINUOUS
 10
5.4966067151
 20
4.568839984
 11
5.3617932565
 21
4.568839984
  0
LINE
  5
2C0
100
AcDbEntity
  8
0
100
AcDbLine
 62
9
  6
CONTINUOUS
 10
4.937501881
 20
4.5688399841
 11
4.6564388691
 21
4.568839984
  0
LINE
  5
2C1
100
AcDbEntity
  8
0
100
AcDbLine
 62
9
  6
CONTINUOUS
 10
4.6529794566
 20
4.5771916826
 11
4.9409612934
 21
4.5771916826
  0
LINE
  5
2C2
100
AcDbEntity
  8
0
100
AcDbLine
 62
9
  6
CONTINUOUS
 10
5.3583338441
 20
4.5771916826
 11
5.5000661275
 21
4.5771916826
  0
LINE
  5
2C3
100
AcDbEntity
  8
0
100
AcDbLine
 62
9
  6
CONTINUOUS
 10
5.5780260067
 20
4.5771916826
 11
5.7197582902
 21
4.5771916826
  0
LINE
  5
2C4
100
AcDbEntity
  8
0
100
AcDbLine
 62
9
  6
CONTINUOUS
 10
5.7963099768
 20
4.5771916826
 11
5.9380422602
 21
4.5771916826
  0
LINE
  5
2C5
100
AcDbEntity
  8
0
100
AcDbLine
 62
9
  6
CONTINUOUS
 10
6.3310286467
 20
4.5771916826
 11
6.6007047188
 21
4.5771916826
  0
LINE
  5
2C6
100
AcDbEntity
  8
0
100
AcDbLine
 62
9
  6
CONTINUOUS
 10
5.7963099768
 20
4.5837568144
 11
5.7197582902
 21
4.5837568144
  0
LINE
  5
2C7
100
AcDbEntity
  8
0
100
AcDbLine
 62
9
  6
CONTINUOUS
 10
5.5780260067
 20
4.5837568144
 11
5.5000661275
 21
4.5837568144
  0
LINE
  5
2C8
100
AcDbEntity
  8
0
100
AcDbLine
 62
9
  6
CONTINUOUS
 10
5.3583338441
 20
4.5837568144
 11
4.9409612933
 21
4.5837568144
  0
LINE
  5
2C9
100
AcDbEntity
  8
0
100
AcDbLine
 62
9
  6
CONTINUOUS
 10
6.3345378524
 20
4.5837568144
 11
5.9380422602
 21
4.5837568144
  0
LINE
  5
2CA
100
AcDbEntity
  8
0
100
AcDbLine
 62
7
  6
CONTINUOUS
 10
4.4637712898
 20
4.6418703611
 11
6.7866059354
 21
4.6418703611
  0
LINE
  5
2CB
100
AcDbEntity
  8
0
100
AcDbLine
 62
7
  6
CONTINUOUS
 10
4.4519769198
 20
4.6486438515
 11
6.7984008214
 21
4.6486438515
  0
LINE
  5
2CC
100
AcDbEntity
  8
0
100
AcDbLine
 62
9
  6
CONTINUOUS
 10
4.363022909
 20
4.6639836274
 11
6.8873543162
 21
4.6639836274
  0
LINE
  5
2CD
100
AcDbEntity
  8
0
100
AcDbLine
 62
7
  6
CONTINUOUS
 10
4.1945292254
 20
4.6690510636
 11
4.2805806285
 21
4.6690510636
  0
LINE
  5
2CE
100
AcDbEntity
  8
0
100
AcDbLine
 62
7
  6
CONTINUOUS
 10
4.2891006576
 20
4.6690510636
 11
4.3751413408
 21
4.6690510636
  0
LINE
  5
2CF
100
AcDbEntity
  8
0
100
AcDbLine
 62
7
  6
CONTINUOUS
 10
4.4717915136
 20
4.6690510636
 11
4.5578210465
 21
4.6690510636
  0
LINE
  5
2D0
100
AcDbEntity
  8
0
100
AcDbLine
 62
7
  6
CONTINUOUS
 10
4.7301441005
 20
4.6690510636
 11
4.8161804632
 21
4.6690510636
  0
LINE
  5
2D1
100
AcDbEntity
  8
0
100
AcDbLine
 62
7
  6
CONTINUOUS
 10
5.0465573855
 20
4.6690510636
 11
5.1326075546
 21
4.6690510636
  0
LINE
  5
2D2
100
AcDbEntity
  8
0
100
AcDbLine
 62
7
  6
CONTINUOUS
 10
5.3994790862
 20
4.6690510636
 11
5.4855275773
 21
4.6690510636
  0
LINE
  5
2D3
100
AcDbEntity
  8
0
100
AcDbLine
 62
7
  6
CONTINUOUS
 10
5.7648563366
 20
4.6690510636
 11
5.8508914503
 21
4.6690510636
  0
LINE
  5
2D4
100
AcDbEntity
  8
0
100
AcDbLine
 62
7
  6
CONTINUOUS
 10
6.1177799377
 20
4.6690510636
 11
6.2038095726
 21
4.6690510636
  0
LINE
  5
2D5
100
AcDbEntity
  8
0
100
AcDbLine
 62
7
  6
CONTINUOUS
 10
6.4341959251
 20
4.6690510636
 11
6.5202339616
 21
4.6690510636
  0
LINE
  5
2D6
100
AcDbEntity
  8
0
100
AcDbLine
 62
7
  6
CONTINUOUS
 10
6.6925449763
 20
4.6690510636
 11
6.778596914
 21
4.6690510636
  0
LINE
  5
2D7
100
AcDbEntity
  8
0
100
AcDbLine
 62
7
  6
CONTINUOUS
 10
6.8752324301
 20
4.6690510636
 11
6.961280022
 21
4.6690510636
  0
LINE
  5
2D8
100
AcDbEntity
  8
0
100
AcDbLine
 62
7
  6
CONTINUOUS
 10
6.9698137047
 20
4.6690510636
 11
7.0558284671
 21
4.6690510636
  0
LINE
  5
2D9
100
AcDbEntity
  8
0
100
AcDbLine
 62
9
  6
CONTINUOUS
 10
4.3834312846
 20
4.6710506081
 11
4.4634959946
 21
4.6710506081
  0
LINE
  5
2DA
100
AcDbEntity
  8
0
100
AcDbLine
 62
9
  6
CONTINUOUS
 10
4.5661165654
 20
4.6710506081
 11
4.7218519964
 21
4.6710506081
  0
LINE
  5
2DB
100
AcDbEntity
  8
0
100
AcDbLine
 62
9
  6
CONTINUOUS
 10
4.8244725672
 20
4.6710506081
 11
5.0382721847
 21
4.6710506081
  0
LINE
  5
2DC
100
AcDbEntity
  8
0
100
AcDbLine
 62
9
  6
CONTINUOUS
 10
5.1408927555
 20
4.6710506081
 11
5.3911930464
 21
4.6710506081
  0
LINE
  5
2DD
100
AcDbEntity
  8
0
100
AcDbLine
 62
9
  6
CONTINUOUS
 10
5.4938136172
 20
4.6710506081
 11
5.756563608
 21
4.6710506081
  0
LINE
  5
2DE
100
AcDbEntity
  8
0
100
AcDbLine
 62
9
  6
CONTINUOUS
 10
5.8591841788
 20
4.6710506081
 11
6.1094844697
 21
4.6710506081
  0
LINE
  5
2DF
100
AcDbEntity
  8
0
100
AcDbLine
 62
9
  6
CONTINUOUS
 10
6.2121050405
 20
4.6710506081
 11
6.4202682265
 21
4.6710506081
  0
LINE
  5
2E0
100
AcDbEntity
  8
0
100
AcDbLine
 62
9
  6
CONTINUOUS
 10
6.5285252288
 20
4.6710506081
 11
6.6786242283
 21
4.6710506081
  0
LINE
  5
2E1
100
AcDbEntity
  8
0
100
AcDbLine
 62
9
  6
CONTINUOUS
 10
6.7868812422
 20
4.6710506159
 11
6.866945929
 21
4.6710506159
  0
LINE
  5
2E2
100
AcDbEntity
  8
0
100
AcDbLine
 62
9
  6
CONTINUOUS
 10
4.1806097448
 20
4.6748163557
 11
4.3890673937
 21
4.6748163557
  0
LINE
  5
2E3
100
AcDbEntity
  8
0
100
AcDbLine
 62
9
  6
CONTINUOUS
 10
4.4578598856
 20
4.6748163557
 11
4.5717526745
 21
4.6748163557
  0
LINE
  5
2E4
100
AcDbEntity
  8
0
100
AcDbLine
 62
9
  6
CONTINUOUS
 10
4.7162158874
 20
4.6748163557
 11
4.8301086763
 21
4.6748163557
  0
LINE
  5
2E5
100
AcDbEntity
  8
0
100
AcDbLine
 62
9
  6
CONTINUOUS
 10
5.0326360756
 20
4.6748163557
 11
5.1465288645
 21
4.6748163557
  0
LINE
  5
2E6
100
AcDbEntity
  8
0
100
AcDbLine
 62
9
  6
CONTINUOUS
 10
5.3855569373
 20
4.6748163557
 11
5.4994497262
 21
4.6748163557
  0
LINE
  5
2E7
100
AcDbEntity
  8
0
100
AcDbLine
 62
9
  6
CONTINUOUS
 10
5.750927499
 20
4.6748163557
 11
5.8648202879
 21
4.6748163557
  0
LINE
  5
2E8
100
AcDbEntity
  8
0
100
AcDbLine
 62
9
  6
CONTINUOUS
 10
6.1038483607
 20
4.6748163557
 11
6.2177411496
 21
4.6748163557
  0
LINE
  5
2E9
100
AcDbEntity
  8
0
100
AcDbLine
 62
9
  6
CONTINUOUS
 10
6.4202685489
 20
4.6748163557
 11
6.5341613378
 21
4.6748163557
  0
LINE
  5
2EA
100
AcDbEntity
  8
0
100
AcDbLine
 62
9
  6
CONTINUOUS
 10
6.6786245507
 20
4.6748163557
 11
6.7925173396
 21
4.6748163557
  0
LINE
  5
2EB
100
AcDbEntity
  8
0
100
AcDbLine
 62
9
  6
CONTINUOUS
 10
6.8613098315
 20
4.6748163557
 11
7.0697674804
 21
4.6748163557
  0
LINE
  5
2EC
100
AcDbEntity
  8
0
100
AcDbLine
 62
9
  6
CONTINUOUS
 10
7.0779207598
 20
4.6829701957
 11
6.9893399836
 21
4.6829701957
  0
LINE
  5
2ED
100
AcDbEntity
  8
0
100
AcDbLine
 62
9
  6
CONTINUOUS
 10
6.9833564605
 20
4.6829701957
 11
6.8531559916
 21
4.6829701957
  0
LINE
  5
2EE
100
AcDbEntity
  8
0
100
AcDbLine
 62
9
  6
CONTINUOUS
 10
6.8006711797
 20
4.6829701957
 11
6.6704707107
 21
4.6829701957
  0
LINE
  5
2EF
100
AcDbEntity
  8
0
100
AcDbLine
 62
9
  6
CONTINUOUS
 10
6.5423151779
 20
4.6829701957
 11
6.4121147089
 21
4.6829701957
  0
LINE
  5
2F0
100
AcDbEntity
  8
0
100
AcDbLine
 62
9
  6
CONTINUOUS
 10
6.2258949896
 20
4.6829701957
 11
6.0956945206
 21
4.6829701957
  0
LINE
  5
2F1
100
AcDbEntity
  8
0
100
AcDbLine
 62
9
  6
CONTINUOUS
 10
5.8729741279
 20
4.6829701957
 11
5.7427736589
 21
4.6829701957
  0
LINE
  5
2F2
100
AcDbEntity
  8
0
100
AcDbLine
 62
9
  6
CONTINUOUS
 10
5.5076035663
 20
4.6829701957
 11
5.3774030973
 21
4.6829701957
  0
LINE
  5
2F3
100
AcDbEntity
  8
0
100
AcDbLine
 62
9
  6
CONTINUOUS
 10
5.1546827045
 20
4.6829701957
 11
5.0244822356
 21
4.6829701957
  0
LINE
  5
2F4
100
AcDbEntity
  8
0
100
AcDbLine
 62
9
  6
CONTINUOUS
 10
4.8382625163
 20
4.6829701957
 11
4.7080620473
 21
4.6829701957
  0
LINE
  5
2F5
100
AcDbEntity
  8
0
100
AcDbLine
 62
9
  6
CONTINUOUS
 10
4.5799065145
 20
4.6829701957
 11
4.4497060455
 21
4.6829701957
  0
LINE
  5
2F6
100
AcDbEntity
  8
0
100
AcDbLine
 62
9
  6
CONTINUOUS
 10
4.3972212337
 20
4.6829701957
 11
4.1724559048
 21
4.6829701957
  0
LINE
  5
2F7
100
AcDbEntity
  8
0
100
AcDbLine
 62
9
  6
CONTINUOUS
 10
6.8486124291
 20
4.6907449396
 11
6.8052147421
 21
4.6907449396
  0
LINE
  5
2F8
100
AcDbEntity
  8
0
100
AcDbLine
 62
9
  6
CONTINUOUS
 10
6.6659271483
 20
4.6907449396
 11
6.5468587403
 21
4.6907449396
  0
LINE
  5
2F9
100
AcDbEntity
  8
0
100
AcDbLine
 62
9
  6
CONTINUOUS
 10
6.4075711465
 20
4.6907449396
 11
6.2304385521
 21
4.6907449396
  0
LINE
  5
2FA
100
AcDbEntity
  8
0
100
AcDbLine
 62
9
  6
CONTINUOUS
 10
6.0911509582
 20
4.6907449396
 11
5.8775176904
 21
4.6907449396
  0
LINE
  5
2FB
100
AcDbEntity
  8
0
100
AcDbLine
 62
9
  6
CONTINUOUS
 10
5.7382300965
 20
4.6907449396
 11
5.5121471287
 21
4.6907449396
  0
LINE
  5
2FC
100
AcDbEntity
  8
0
100
AcDbLine
 62
9
  6
CONTINUOUS
 10
5.3728595348
 20
4.6907449396
 11
5.159226267
 21
4.6907449396
  0
LINE
  5
2FD
100
AcDbEntity
  8
0
100
AcDbLine
 62
9
  6
CONTINUOUS
 10
5.0199386732
 20
4.6907449396
 11
4.8428060787
 21
4.6907449396
  0
LINE
  5
2FE
100
AcDbEntity
  8
0
100
AcDbLine
 62
9
  6
CONTINUOUS
 10
4.7035184849
 20
4.6907449396
 11
4.5844500769
 21
4.6907449396
  0
LINE
  5
2FF
100
AcDbEntity
  8
0
100
AcDbLine
 62
9
  6
CONTINUOUS
 10
4.4451624831
 20
4.6907449396
 11
4.4017647961
 21
4.6907449396
  0
LINE
  5
300
100
AcDbEntity
  8
0
100
AcDbLine
 62
9
  6
CONTINUOUS
 10
4.1666899976
 20
4.6968899132
 11
4.4029871409
 21
4.6968899132
  0
LINE
  5
301
100
AcDbEntity
  8
0
100
AcDbLine
 62
9
  6
CONTINUOUS
 10
4.4439401383
 20
4.6968899132
 11
4.5856724218
 21
4.6968899132
  0
LINE
  5
302
100
AcDbEntity
  8
0
100
AcDbLine
 62
9
  6
CONTINUOUS
 10
4.7022961401
 20
4.6968899132
 11
4.8440284236
 21
4.6968899132
  0
LINE
  5
303
100
AcDbEntity
  8
0
100
AcDbLine
 62
9
  6
CONTINUOUS
 10
5.0187163283
 20
4.6968899132
 11
5.1604486118
 21
4.6968899132
  0
LINE
  5
304
100
AcDbEntity
  8
0
100
AcDbLine
 62
9
  6
CONTINUOUS
 10
5.37163719
 20
4.6968899132
 11
5.5133694735
 21
4.6968899132
  0
LINE
  5
305
100
AcDbEntity
  8
0
100
AcDbLine
 62
9
  6
CONTINUOUS
 10
5.7370077517
 20
4.6968899132
 11
5.8787400352
 21
4.6968899132
  0
LINE
  5
306
100
AcDbEntity
  8
0
100
AcDbLine
 62
9
  6
CONTINUOUS
 10
6.0899286134
 20
4.6968899132
 11
6.2316608969
 21
4.6968899132
  0
LINE
  5
307
100
AcDbEntity
  8
0
100
AcDbLine
 62
9
  6
CONTINUOUS
 10
6.4063488016
 20
4.6968899132
 11
6.5480810851
 21
4.6968899132
  0
LINE
  5
308
100
AcDbEntity
  8
0
100
AcDbLine
 62
9
  6
CONTINUOUS
 10
6.6647048034
 20
4.6968899132
 11
6.8064370869
 21
4.6968899132
  0
LINE
  5
309
100
AcDbEntity
  8
0
100
AcDbLine
 62
9
  6
CONTINUOUS
 10
6.8473900843
 20
4.6968899132
 11
7.0836866174
 21
4.6968899132
  0
LINE
  5
30A
100
AcDbEntity
  8
0
100
AcDbLine
 62
9
  6
CONTINUOUS
 10
6.8473900843
 20
4.7083883615
 11
6.8064370869
 21
4.7083883615
  0
LINE
  5
30B
100
AcDbEntity
  8
0
100
AcDbLine
 62
9
  6
CONTINUOUS
 10
6.6647048034
 20
4.7083883615
 11
6.5480810851
 21
4.7083883615
  0
LINE
  5
30C
100
AcDbEntity
  8
0
100
AcDbLine
 62
9
  6
CONTINUOUS
 10
6.4068565686
 20
4.7083883615
 11
6.2316608969
 21
4.7083883615
  0
LINE
  5
30D
100
AcDbEntity
  8
0
100
AcDbLine
 62
9
  6
CONTINUOUS
 10
6.0899286134
 20
4.7083883615
 11
5.8787400352
 21
4.7083883615
  0
LINE
  5
30E
100
AcDbEntity
  8
0
100
AcDbLine
 62
9
  6
CONTINUOUS
 10
5.7370077517
 20
4.7083883615
 11
5.5133694735
 21
4.7083883615
  0
LINE
  5
30F
100
AcDbEntity
  8
0
100
AcDbLine
 62
9
  6
CONTINUOUS
 10
5.37163719
 20
4.7083883615
 11
5.1604486118
 21
4.7083883615
  0
LINE
  5
310
100
AcDbEntity
  8
0
100
AcDbLine
 62
9
  6
CONTINUOUS
 10
5.0187163283
 20
4.7083883615
 11
4.8455211566
 21
4.7083883615
  0
LINE
  5
311
100
AcDbEntity
  8
0
100
AcDbLine
 62
9
  6
CONTINUOUS
 10
4.7022961401
 20
4.7083883615
 11
4.5856724218
 21
4.7083883615
  0
LINE
  5
312
100
AcDbEntity
  8
0
100
AcDbLine
 62
9
  6
CONTINUOUS
 10
4.4439401383
 20
4.7083883615
 11
4.4029871409
 21
4.7083883615
  0
LINE
  5
313
100
AcDbEntity
  8
0
100
AcDbLine
 62
7
  6
CONTINUOUS
 10
3.9561774144
 20
4.7105982318
 11
4.1208397884
 21
4.7105982318
  0
LINE
  5
314
100
AcDbEntity
  8
0
100
AcDbLine
 62
7
  6
CONTINUOUS
 10
4.1724422726
 20
4.7105982318
 11
4.2821049089
 21
4.7105982318
  0
LINE
  5
315
100
AcDbEntity
  8
0
100
AcDbLine
 62
7
  6
CONTINUOUS
 10
4.4289606668
 20
4.7105982318
 11
4.5386308869
 21
4.7105982318
  0
LINE
  5
316
100
AcDbEntity
  8
0
100
AcDbLine
 62
7
  6
CONTINUOUS
 10
4.763264516
 20
4.7105982318
 11
4.8729394809
 21
4.7105982318
  0
LINE
  5
317
100
AcDbEntity
  8
0
100
AcDbLine
 62
7
  6
CONTINUOUS
 10
5.1525733158
 20
4.7105982318
 11
5.2622463623
 21
4.7105982318
  0
LINE
  5
318
100
AcDbEntity
  8
0
100
AcDbLine
 62
7
  6
CONTINUOUS
 10
5.5703502969
 20
4.7105982318
 11
5.6800220846
 21
4.7105982318
  0
LINE
  5
319
100
AcDbEntity
  8
0
100
AcDbLine
 62
7
  6
CONTINUOUS
 10
5.9881370742
 20
4.7105982318
 11
6.0977976981
 21
4.7105982318
  0
LINE
  5
31A
100
AcDbEntity
  8
0
100
AcDbLine
 62
7
  6
CONTINUOUS
 10
6.3774470067
 20
4.7105982318
 11
6.4871034468
 21
4.7105982318
  0
LINE
  5
31B
100
AcDbEntity
  8
0
100
AcDbLine
 62
7
  6
CONTINUOUS
 10
6.7117535058
 20
4.7105982318
 11
6.8214093909
 21
4.7105982318
  0
LINE
  5
31C
100
AcDbEntity
  8
0
100
AcDbLine
 62
7
  6
CONTINUOUS
 10
6.9682739063
 20
4.7105982318
 11
7.0779333626
 21
4.7105982318
  0
LINE
  5
31D
100
AcDbEntity
  8
0
100
AcDbLine
 62
7
  6
CONTINUOUS
 10
7.1295261146
 20
4.7105982318
 11
7.2941998108
 21
4.7105982318
  0
LINE
  5
31E
100
AcDbEntity
  8
0
100
AcDbLine
 62
9
  6
CONTINUOUS
 10
3.9422579215
 20
4.7163635686
 11
4.134774466
 21
4.7163635686
  0
LINE
  5
31F
100
AcDbEntity
  8
0
100
AcDbLine
 62
9
  6
CONTINUOUS
 10
4.158516128
 20
4.7163635686
 11
4.2960310535
 21
4.7163635686
  0
LINE
  5
320
100
AcDbEntity
  8
0
100
AcDbLine
 62
9
  6
CONTINUOUS
 10
4.415038314
 20
4.7163635686
 11
4.5525532396
 21
4.7163635686
  0
LINE
  5
321
100
AcDbEntity
  8
0
100
AcDbLine
 62
9
  6
CONTINUOUS
 10
4.7493445357
 20
4.7163635686
 11
4.8868594612
 21
4.7163635686
  0
LINE
  5
322
100
AcDbEntity
  8
0
100
AcDbLine
 62
9
  6
CONTINUOUS
 10
5.1386523762
 20
4.7163635686
 11
5.2761673018
 21
4.7163635686
  0
LINE
  5
323
100
AcDbEntity
  8
0
100
AcDbLine
 62
9
  6
CONTINUOUS
 10
5.5564311498
 20
4.7163635686
 11
5.6939460754
 21
4.7163635686
  0
LINE
  5
324
100
AcDbEntity
  8
0
100
AcDbLine
 62
9
  6
CONTINUOUS
 10
5.9742099234
 20
4.7163635686
 11
6.111724849
 21
4.7163635686
  0
LINE
  5
325
100
AcDbEntity
  8
0
100
AcDbLine
 62
9
  6
CONTINUOUS
 10
6.363517764
 20
4.7163635686
 11
6.5010326896
 21
4.7163635686
  0
LINE
  5
326
100
AcDbEntity
  8
0
100
AcDbLine
 62
9
  6
CONTINUOUS
 10
6.6978239856
 20
4.7163635686
 11
6.8353389112
 21
4.7163635686
  0
LINE
  5
327
100
AcDbEntity
  8
0
100
AcDbLine
 62
9
  6
CONTINUOUS
 10
6.9543461458
 20
4.7163635945
 11
7.0918611231
 21
4.7163635945
  0
LINE
  5
328
100
AcDbEntity
  8
0
100
AcDbLine
 62
9
  6
CONTINUOUS
 10
7.1156027592
 20
4.7163635686
 11
7.3081193037
 21
4.7163635686
  0
LINE
  5
329
100
AcDbEntity
  8
0
100
AcDbLine
 62
9
  6
CONTINUOUS
 10
7.3162727944
 20
4.7245170593
 11
7.1074492685
 21
4.7245170593
  0
LINE
  5
32A
100
AcDbEntity
  8
0
100
AcDbLine
 62
9
  6
CONTINUOUS
 10
6.8434924018
 20
4.7245170593
 11
6.6896704949
 21
4.7245170593
  0
LINE
  5
32B
100
AcDbEntity
  8
0
100
AcDbLine
 62
9
  6
CONTINUOUS
 10
6.5091861802
 20
4.7245170593
 11
6.3553642733
 21
4.7245170593
  0
LINE
  5
32C
100
AcDbEntity
  8
0
100
AcDbLine
 62
9
  6
CONTINUOUS
 10
6.1198783397
 20
4.7245170593
 11
5.9660564327
 21
4.7245170593
  0
LINE
  5
32D
100
AcDbEntity
  8
0
100
AcDbLine
 62
9
  6
CONTINUOUS
 10
5.7020995661
 20
4.7245170593
 11
5.5482776591
 21
4.7245170593
  0
LINE
  5
32E
100
AcDbEntity
  8
0
100
AcDbLine
 62
9
  6
CONTINUOUS
 10
5.2843207925
 20
4.7245170593
 11
5.1304988855
 21
4.7245170593
  0
LINE
  5
32F
100
AcDbEntity
  8
0
100
AcDbLine
 62
9
  6
CONTINUOUS
 10
4.895012952
 20
4.7245170595
 11
4.7411910448
 21
4.7245170595
  0
LINE
  5
330
100
AcDbEntity
  8
0
100
AcDbLine
 62
9
  6
CONTINUOUS
 10
4.5607067303
 20
4.7245170593
 11
4.4068848234
 21
4.7245170593
  0
LINE
  5
331
100
AcDbEntity
  8
0
100
AcDbLine
 62
9
  6
CONTINUOUS
 10
4.3041845442
 20
4.7245170593
 11
4.1503626373
 21
4.7245170593
  0
LINE
  5
332
100
AcDbEntity
  8
0
100
AcDbLine
 62
9
  6
CONTINUOUS
 10
4.1429279567
 20
4.7245170593
 11
3.9341044308
 21
4.7245170593
  0
LINE
  5
333
100
AcDbEntity
  8
0
100
AcDbLine
 62
9
  6
CONTINUOUS
 10
7.1000149367
 20
4.7245174081
 11
6.9461923322
 21
4.7245174081
  0
LINE
  5
334
100
AcDbEntity
  8
0
100
AcDbLine
 62
9
  6
CONTINUOUS
 10
3.9283382189
 20
4.7384370815
 11
4.3099507561
 21
4.7384370815
  0
LINE
  5
335
100
AcDbEntity
  8
0
100
AcDbLine
 62
9
  6
CONTINUOUS
 10
4.4011186115
 20
4.7384370815
 11
4.5664729422
 21
4.7384370815
  0
LINE
  5
336
100
AcDbEntity
  8
0
100
AcDbLine
 62
9
  6
CONTINUOUS
 10
4.7354248331
 20
4.7384370815
 11
4.9007791638
 21
4.7384370815
  0
LINE
  5
337
100
AcDbEntity
  8
0
100
AcDbLine
 62
9
  6
CONTINUOUS
 10
5.1247326737
 20
4.7384370815
 11
5.2900870044
 21
4.7384370815
  0
LINE
  5
338
100
AcDbEntity
  8
0
100
AcDbLine
 62
9
  6
CONTINUOUS
 10
5.5425114472
 20
4.7384370815
 11
5.707865778
 21
4.7384370815
  0
LINE
  5
339
100
AcDbEntity
  8
0
100
AcDbLine
 62
9
  6
CONTINUOUS
 10
5.9602902208
 20
4.7384370815
 11
6.1256445515
 21
4.7384370815
  0
LINE
  5
33A
100
AcDbEntity
  8
0
100
AcDbLine
 62
9
  6
CONTINUOUS
 10
6.3495980614
 20
4.7384370815
 11
6.5149523921
 21
4.7384370815
  0
LINE
  5
33B
100
AcDbEntity
  8
0
100
AcDbLine
 62
9
  6
CONTINUOUS
 10
6.683904283
 20
4.7384370815
 11
6.8492586137
 21
4.7384370815
  0
LINE
  5
33C
100
AcDbEntity
  8
0
100
AcDbLine
 62
9
  6
CONTINUOUS
 10
6.9404264691
 20
4.7384370815
 11
7.3220390063
 21
4.7384370815
  0
LINE
  5
33D
100
AcDbEntity
  8
0
100
AcDbLine
 62
7
  6
CONTINUOUS
 10
3.9283382189
 20
4.7686806098
 11
3.9222581067
 21
4.768676943
  0
LINE
  5
33E
100
AcDbEntity
  8
0
100
AcDbLine
 62
9
  6
CONTINUOUS
 10
5.7078656185
 20
4.7735942961
 11
5.6794796082
 21
4.7735956077
  0
LINE
  5
33F
100
AcDbEntity
  8
0
100
AcDbLine
 62
7
  6
CONTINUOUS
 10
3.8640647087
 20
4.773356898
 11
7.3899366398
 21
4.773356898
  0
LINE
  5
340
100
AcDbEntity
  8
0
100
AcDbLine
 62
9
  6
CONTINUOUS
 10
4.1467178523
 20
4.7735974263
 11
3.8678619568
 21
4.7735990717
  0
LINE
  5
341
100
AcDbEntity
  8
0
100
AcDbLine
 62
9
  6
CONTINUOUS
 10
6.1000393227
 20
4.7735961042
 11
5.9816823145
 21
4.7735969371
  0
LINE
  5
342
100
AcDbEntity
  8
0
100
AcDbLine
 62
9
  6
CONTINUOUS
 10
5.6794796082
 20
4.7735956077
 11
5.5659247366
 21
4.7735959697
  0
LINE
  5
343
100
AcDbEntity
  8
0
100
AcDbLine
 62
9
  6
CONTINUOUS
 10
5.1503381147
 20
4.773595718
 11
4.1483356446
 21
4.7735975102
  0
LINE
  5
344
100
AcDbEntity
  8
0
100
AcDbLine
 62
9
  6
CONTINUOUS
 10
7.3935518784
 20
4.7735972146
 11
6.1000393227
 21
4.7735961042
  0
LINE
  5
345
100
AcDbEntity
  8
0
100
AcDbLine
 62
9
  6
CONTINUOUS
 10
5.9602901449
 20
4.7735963895
 11
5.7078656185
 21
4.7735942961
  0
LINE
  5
346
100
AcDbEntity
  8
0
100
AcDbLine
 62
9
  6
CONTINUOUS
 10
5.9816823145
 20
4.7735969371
 11
5.9649098629
 21
4.7735966193
  0
LINE
  5
347
100
AcDbEntity
  8
0
100
AcDbLine
 62
9
  6
CONTINUOUS
 10
5.5659247366
 20
4.7735959697
 11
5.5606151895
 21
4.7735958229
  0
LINE
  5
348
100
AcDbEntity
  8
0
100
AcDbLine
 62
9
  6
CONTINUOUS
 10
5.9649098629
 20
4.7735966193
 11
5.9602901449
 21
4.7735963895
  0
LINE
  5
349
100
AcDbEntity
  8
0
100
AcDbLine
 62
9
  6
CONTINUOUS
 10
4.1483356446
 20
4.7735975102
 11
4.1467178523
 21
4.7735974263
  0
LINE
  5
34A
100
AcDbEntity
  8
0
100
AcDbLine
 62
9
  6
CONTINUOUS
 10
3.8678619568
 20
4.7735990717
 11
3.8568231104
 21
4.7735977844
  0
LINE
  5
34B
100
AcDbEntity
  8
0
100
AcDbLine
 62
7
  6
CONTINUOUS
 10
3.7481886126
 20
4.7939650047
 11
7.5021886126
 21
4.7939650047
  0
LINE
  5
34C
100
AcDbEntity
  8
0
100
AcDbLine
 62
9
  6
CONTINUOUS
 10
7.6501886126
 20
4.8017213561
 11
3.6001886126
 21
4.8017213561
  0
LINE
  5
34D
100
AcDbEntity
  8
0
100
AcDbLine
 62
9
  6
CONTINUOUS
 10
5.5606151895
 20
4.7735958229
 11
5.2758144704
 21
4.773592962
  0
LINE
  5
34E
100
AcDbEntity
  8
0
100
AcDbLine
 62
9
  6
CONTINUOUS
 10
5.2900871069
 20
4.7735920009
 11
5.1503381147
 21
4.773595718
  0
LINE
  5
34F
100
AcDbEntity
  8
0
100
AcDbLine
 62
7
  6
CONTINUOUS
 10
3.7481886126
 20
4.7939650047
 11
3.6001886126
 21
4.8017213561
  0
LINE
  5
350
100
AcDbEntity
  8
0
100
AcDbLine
 62
7
  6
CONTINUOUS
 10
7.2570538797
 20
5.6898797465
 11
7.4856938608
 21
5.5880826683
  0
LINE
  5
351
100
AcDbEntity
  8
0
100
AcDbLine
 62
7
  6
CONTINUOUS
 10
4.5525535174
 20
4.7163638464
 11
4.5607067303
 21
4.7245170593
  0
LINE
  5
352
100
AcDbEntity
  8
0
100
AcDbLine
 62
7
  6
CONTINUOUS
 10
4.5717529969
 20
4.6748166781
 11
4.5799065145
 21
4.6829701957
  0
LINE
  5
353
100
AcDbEntity
  8
0
100
AcDbLine
 62
7
  6
CONTINUOUS
 10
4.8301089987
 20
4.6748166781
 11
4.8382625163
 21
4.6829701957
  0
LINE
  5
354
100
AcDbEntity
  8
0
100
AcDbLine
 62
7
  6
CONTINUOUS
 10
4.886859739
 20
4.7163638464
 11
4.895012952
 21
4.7245170595
  0
LINE
  5
355
100
AcDbEntity
  8
0
100
AcDbLine
 62
7
  6
CONTINUOUS
 10
4.9247356228
 20
4.5560737258
 11
4.937501881
 21
4.5688399841
  0
LINE
  5
356
100
AcDbEntity
  8
0
100
AcDbLine
 62
7
  6
CONTINUOUS
 10
5.146529187
 20
4.6748166781
 11
5.1546827045
 21
4.6829701957
  0
LINE
  5
357
100
AcDbEntity
  8
0
100
AcDbLine
 62
7
  6
CONTINUOUS
 10
5.2761675795
 20
4.7163638464
 11
5.2843207925
 21
4.7245170593
  0
LINE
  5
358
100
AcDbEntity
  8
0
100
AcDbLine
 62
7
  6
CONTINUOUS
 10
7.3916075154
 20
4.773356898
 11
7.3935510355
 21
4.7736005237
  0
LINE
  5
359
100
AcDbEntity
  8
0
100
AcDbLine
 62
7
  6
CONTINUOUS
 10
7.5021886126
 20
4.7939650047
 11
7.6501886126
 21
4.8017213561
  0
LINE
  5
35A
100
AcDbEntity
  8
0
100
AcDbLine
 62
7
  6
CONTINUOUS
 10
3.4752514712
 20
4.9114430414
 11
7.775125754
 21
4.9114430414
  0
LINE
  5
35B
100
AcDbEntity
  8
0
100
AcDbLine
 62
9
  6
CONTINUOUS
 10
7.7262712195
 20
4.9819871272
 11
3.5241060057
 21
4.9819871272
  0
LINE
  5
35C
100
AcDbEntity
  8
0
100
AcDbLine
 62
9
  6
CONTINUOUS
 10
7.6274240582
 20
5.0571308001
 11
3.622953167
 21
5.0571308001
  0
LINE
  5
35D
100
AcDbEntity
  8
0
100
AcDbLine
 62
9
  6
CONTINUOUS
 10
3.7201886126
 20
5.3365179315
 11
7.5301886126
 21
5.3365179315
  0
LWPOLYLINE
  5
35E
100
AcDbEntity
  8
0
100
AcDbPolyline
 62
7
  6
CONTINUOUS
 90
4
 70
0
 10
6.4774832333
 20
4.607352158
 10
6.479966379
 20
4.6105921238
 10
6.4815934417
 20
4.6117427081
 10
6.4817382927
 20
4.6118187917
  0
LWPOLYLINE
  5
35F
100
AcDbEntity
  8
0
100
AcDbPolyline
 62
7
  6
CONTINUOUS
 90
4
 70
0
 10
6.5656532932
 20
4.6087468328
 10
6.5683321755
 20
4.6120790823
 10
6.5703980988
 20
4.6134619303
 10
6.5710869183
 20
4.6137707797
  0
LINE
  5
360
100
AcDbEntity
  8
0
100
AcDbLine
 62
7
  6
CONTINUOUS
 10
5.4994500487
 20
4.6748166781
 11
5.5076035663
 21
4.6829701957
  0
LINE
  5
361
100
AcDbEntity
  8
0
100
AcDbLine
 62
7
  6
CONTINUOUS
 10
5.3769685152
 20
4.4532174496
 11
5.3851217347
 21
4.4613706691
  0
LINE
  5
362
100
AcDbEntity
  8
0
100
AcDbLine
 62
7
  6
CONTINUOUS
 10
5.4838404569
 20
4.5560737258
 11
5.4966067151
 21
4.568839984
  0
LINE
  5
363
100
AcDbEntity
  8
0
100
AcDbLine
 62
7
  6
CONTINUOUS
 10
5.6939463531
 20
4.7163638464
 11
5.7020995661
 21
4.7245170593
  0
LINE
  5
364
100
AcDbEntity
  8
0
100
AcDbLine
 62
7
  6
CONTINUOUS
 10
5.7035326196
 20
4.5560737258
 11
5.7162988777
 21
4.568839984
  0
LINE
  5
365
100
AcDbEntity
  8
0
100
AcDbLine
 62
7
  6
CONTINUOUS
 10
5.8648206103
 20
4.6748166781
 11
5.8729741279
 21
4.6829701957
  0
LINE
  5
366
100
AcDbEntity
  8
0
100
AcDbLine
 62
7
  6
CONTINUOUS
 10
5.6862008658
 20
4.4532174496
 11
5.694354087
 21
4.4613706708
  0
LINE
  5
367
100
AcDbEntity
  8
0
100
AcDbLine
 62
7
  6
CONTINUOUS
 10
6.6098960688
 20
4.6151718316
 11
6.6099823231
 21
4.6151892733
  0
LINE
  5
368
100
AcDbEntity
  8
0
100
AcDbLine
 62
7
  6
CONTINUOUS
 10
6.8873543162
 20
4.6639836274
 11
6.7984169594
 21
4.6486438515
  0
LINE
  5
369
100
AcDbEntity
  8
0
100
AcDbLine
 62
9
  6
CONTINUOUS
 10
4.6529794566
 20
4.6036269571
 11
4.6533057103
 21
4.6036780824
  0
LINE
  5
36A
100
AcDbEntity
  8
0
100
AcDbLine
 62
9
  6
CONTINUOUS
 10
7.5301886126
 20
5.519566759
 11
3.7201886126
 21
5.519566759
  0
LINE
  5
36B
100
AcDbEntity
  8
0
100
AcDbLine
 62
9
  6
CONTINUOUS
 10
3.7646833644
 20
5.5880826683
 11
7.4856938608
 21
5.5880826683
  0
LINE
  5
36C
100
AcDbEntity
  8
0
100
AcDbLine
 62
9
  6
CONTINUOUS
 10
7.2570538797
 20
5.6898797465
 11
3.9933233455
 21
5.6898797465
  0
LINE
  5
36D
100
AcDbEntity
  8
0
100
AcDbLine
 62
9
  6
CONTINUOUS
 10
4.0051886126
 20
5.7081506556
 11
7.2451886126
 21
5.7081506556
  0
LINE
  5
36E
100
AcDbEntity
  8
0
100
AcDbLine
 62
9
  6
CONTINUOUS
 10
7.2451886126
 20
5.7421390882
 11
4.0051886126
 21
5.7421390882
  0
LINE
  5
36F
100
AcDbEntity
  8
0
100
AcDbLine
 62
9
  6
CONTINUOUS
 10
4.0208742196
 20
5.761668195
 11
7.2295030056
 21
5.761668195
  0
LINE
  5
370
100
AcDbEntity
  8
0
100
AcDbLine
 62
9
  6
CONTINUOUS
 10
5.7030091144
 20
9.0316865569
 11
5.6850198544
 21
9.0452839472
  0
LINE
  5
371
100
AcDbEntity
  8
0
100
AcDbLine
 62
7
  6
CONTINUOUS
 10
5.9218165896
 20
4.5560737258
 11
5.9345828478
 21
4.568839984
  0
LINE
  5
372
100
AcDbEntity
  8
0
100
AcDbLine
 62
7
  6
CONTINUOUS
 10
6.1117251267
 20
4.7163638464
 11
6.1198783397
 21
4.7245170593
  0
LINE
  5
373
100
AcDbEntity
  8
0
100
AcDbLine
 62
7
  6
CONTINUOUS
 10
6.217741472
 20
4.6748166781
 11
6.2258949896
 21
4.6829701957
  0
LINE
  5
374
100
AcDbEntity
  8
0
100
AcDbLine
 62
7
  6
CONTINUOUS
 10
6.0311047363
 20
4.4532174496
 11
6.0392579559
 21
4.4613706691
  0
LINE
  5
375
100
AcDbEntity
  8
0
100
AcDbLine
 62
7
  6
CONTINUOUS
 10
6.2096401172
 20
4.4532174496
 11
6.2177933384
 21
4.4613706708
  0
LINE
  5
376
100
AcDbEntity
  8
0
100
AcDbLine
 62
7
  6
CONTINUOUS
 10
6.5010329673
 20
4.7163638464
 11
6.5091861802
 21
4.7245170593
  0
LINE
  5
377
100
AcDbEntity
  8
0
100
AcDbLine
 62
7
  6
CONTINUOUS
 10
6.5341616603
 20
4.6748166781
 11
6.5423151779
 21
4.6829701957
  0
LINE
  5
378
100
AcDbEntity
  8
0
100
AcDbLine
 62
7
  6
CONTINUOUS
 10
6.4600444652
 20
4.5560737258
 11
6.4728107234
 21
4.568839984
  0
LINE
  5
379
100
AcDbEntity
  8
0
100
AcDbLine
 62
7
  6
CONTINUOUS
 10
6.5480516783
 20
4.5560737258
 11
6.5608179364
 21
4.568839984
  0
LINE
  5
37A
100
AcDbEntity
  8
0
100
AcDbLine
 62
7
  6
CONTINUOUS
 10
6.5844790481
 20
4.5560737258
 11
6.5972453063
 21
4.568839984
  0
LINE
  5
37B
100
AcDbEntity
  8
0
100
AcDbLine
 62
7
  6
CONTINUOUS
 10
6.7925176621
 20
4.6748166781
 11
6.8006711797
 21
4.6829701957
  0
LINE
  5
37C
100
AcDbEntity
  8
0
100
AcDbLine
 62
7
  6
CONTINUOUS
 10
6.8353391889
 20
4.7163638464
 11
6.8434924018
 21
4.7245170593
  0
LWPOLYLINE
  5
37D
100
AcDbEntity
  8
0
100
AcDbPolyline
 62
7
  6
CONTINUOUS
 90
3
 70
0
 10
4.9439886014
 20
4.5921311083
 10
4.9466932487
 20
4.5942295971
 10
4.9481904858
 20
4.5948615831
  0
LINE
  5
37E
100
AcDbEntity
  8
0
100
AcDbLine
 62
7
  6
CONTINUOUS
 10
3.9933233455
 20
5.6898797465
 11
3.7646833644
 21
5.5880826683
  0
LINE
  5
37F
100
AcDbEntity
  8
0
100
AcDbLine
 62
7
  6
CONTINUOUS
 10
4.9481904858
 20
4.5948615831
 11
4.9483899085
 21
4.5949144238
  0
LINE
  5
380
100
AcDbEntity
  8
0
100
AcDbLine
 62
7
  6
CONTINUOUS
 10
6.1651875622
 20
6.4182723285
 11
5.085189663
 21
6.4182723285
  0
LINE
  5
381
100
AcDbEntity
  8
0
100
AcDbLine
 62
7
  6
CONTINUOUS
 10
10.522037269
 20
10.1155080835
 11
10.522037269
 21
10.1905080835
  0
LINE
  5
382
100
AcDbEntity
  8
0
100
AcDbLine
 62
7
  6
CONTINUOUS
 10
10.5224214593
 20
9.8605080835
 11
10.5224214593
 21
9.9355080835
  0
LINE
  5
383
100
AcDbEntity
  8
0
100
AcDbLine
 62
7
  6
CONTINUOUS
 10
6.9752029429
 20
4.6748166781
 11
6.9833564605
 21
4.6829701957
  0
LINE
  5
384
100
AcDbEntity
  8
0
100
AcDbLine
 62
7
  6
CONTINUOUS
 10
7.091861375
 20
4.7163638464
 11
7.1000149367
 21
4.7245174081
  0
LINE
  5
385
100
AcDbEntity
  8
0
100
AcDbLine
 62
7
  6
CONTINUOUS
 10
7.0697678028
 20
4.6748166781
 11
7.0779213204
 21
4.6829701957
  0
LINE
  5
386
100
AcDbEntity
  8
0
100
AcDbLine
 62
7
  6
CONTINUOUS
 10
7.2531179625
 20
4.7163638464
 11
7.2612711754
 21
4.7245170593
  0
LINE
  5
387
100
AcDbEntity
  8
0
100
AcDbLine
 62
7
  6
CONTINUOUS
 10
7.3081193037
 20
4.7163635686
 11
7.3162727944
 21
4.7245170593
  0
LINE
  5
388
100
AcDbEntity
  8
0
100
AcDbLine
 62
9
  6
CONTINUOUS
 10
5.1411886126
 20
6.4782723285
 11
6.1091886126
 21
6.4782723285
  0
LINE
  5
389
100
AcDbEntity
  8
0
100
AcDbLine
 62
9
  6
CONTINUOUS
 10
6.1091886126
 20
6.4982723285
 11
5.1411886126
 21
6.4982723285
  0
LINE
  5
38A
100
AcDbEntity
  8
0
100
AcDbLine
 62
9
  6
CONTINUOUS
 10
6.078746264
 20
6.5701175311
 11
5.1716309612
 21
6.5701175311
  0
LINE
  5
38B
100
AcDbEntity
  8
0
100
AcDbLine
 62
9
  6
CONTINUOUS
 10
5.1869597614
 20
6.594683633
 11
6.0634174638
 21
6.594683633
  0
LINE
  5
38C
100
AcDbEntity
  8
0
100
AcDbLine
 62
7
  6
CONTINUOUS
 10
6.0201886097
 20
6.7277283656
 11
5.2301885787
 21
6.7277282523
  0
LINE
  5
38D
100
AcDbEntity
  8
0
100
AcDbLine
 62
9
  6
CONTINUOUS
 10
5.2501886126
 20
6.7724496824
 11
6.0001886126
 21
6.7724496421
  0
LINE
  5
38E
100
AcDbEntity
  8
0
100
AcDbLine
 62
7
  6
CONTINUOUS
 10
10.922037269
 20
8.1605080835
 11
10.922037269
 21
8.2105080835
  0
LINE
  5
38F
100
AcDbEntity
  8
0
100
AcDbLine
 62
7
  6
CONTINUOUS
 10
10.922037269
 20
8.3105080835
 11
10.922037269
 21
8.3605080835
  0
LINE
  5
390
100
AcDbEntity
  8
0
100
AcDbLine
 62
7
  6
CONTINUOUS
 10
10.972037269
 20
10.2005080835
 11
10.972037269
 21
10.1905080835
  0
LINE
  5
391
100
AcDbEntity
  8
0
100
AcDbLine
 62
7
  6
CONTINUOUS
 10
10.972037269
 20
8.3605080835
 11
10.972037269
 21
9.4805080835
  0
LWPOLYLINE
  5
392
100
AcDbEntity
  8
0
100
AcDbPolyline
 62
7
  6
CONTINUOUS
 90
7
 70
0
 10
18.3857851817
 20
9.9650126072
 10
18.4579797152
 20
9.9890194112
 10
18.5210100441
 20
10.0315377145
 10
18.5702486455
 20
10.0893938515
 10
18.6022208591
 20
10.1586747856
 10
18.6142955145
 20
10.2336745805
 10
18.6095594141
 20
10.2919672753
  0
LINE
  5
393
100
AcDbEntity
  8
0
100
AcDbLine
 62
9
  6
CONTINUOUS
 10
6.0001886126
 20
7.2277283566
 11
5.2501886126
 21
7.2277283566
  0
LINE
  5
394
100
AcDbEntity
  8
0
100
AcDbLine
 62
7
  6
CONTINUOUS
 10
12.072037269
 20
10.2005080835
 11
12.072037269
 21
10.1905080835
  0
LINE
  5
395
100
AcDbEntity
  8
0
100
AcDbLine
 62
7
  6
CONTINUOUS
 10
12.072037269
 20
8.3605080835
 11
12.072037269
 21
9.4805080835
  0
LINE
  5
396
100
AcDbEntity
  8
0
100
AcDbLine
 62
7
  6
CONTINUOUS
 10
12.122037269
 20
8.1605080835
 11
12.122037269
 21
8.2105080835
  0
LINE
  5
397
100
AcDbEntity
  8
0
100
AcDbLine
 62
7
  6
CONTINUOUS
 10
12.122037269
 20
8.3105080835
 11
12.122037269
 21
8.3605080835
  0
LWPOLYLINE
  5
398
100
AcDbEntity
  8
0
100
AcDbPolyline
 62
7
  6
CONTINUOUS
 90
3
 70
0
 10
12.072037269
 20
8.7789339505
 10
12.1538799973
 20
8.7943156311
 10
12.6579664424
 20
8.888999384
  0
LINE
  5
399
100
AcDbEntity
  8
0
100
AcDbLine
 62
7
  6
CONTINUOUS
 10
5.0138352509
 20
7.4529818145
 11
4.9507678399
 21
7.4411339948
  0
LINE
  5
39A
100
AcDbEntity
  8
0
100
AcDbLine
 62
7
  6
CONTINUOUS
 10
6.3588808222
 20
7.7056615596
 11
10.972037269
 21
8.5722873604
  0
LINE
  5
39B
100
AcDbEntity
  8
0
100
AcDbLine
 62
7
  6
CONTINUOUS
 10
12.072037269
 20
8.7789329385
 11
12.4383121169
 21
8.8477411909
  0
LINE
  5
39C
100
AcDbEntity
  8
0
100
AcDbLine
 62
7
  6
CONTINUOUS
 10
12.6579664424
 20
8.888999384
 11
16.5125961506
 21
9.6131352092
  0
LWPOLYLINE
  5
39D
100
AcDbEntity
  8
0
100
AcDbPolyline
 62
7
  6
CONTINUOUS
 90
8
 70
0
 10
16.487774214
 20
9.6084715873
 10
17.2154534969
 20
9.7451669379
 10
17.5199700161
 20
9.8023729387
 10
17.7899014026
 20
9.853087154
 10
18.0226768153
 20
9.8968175276
 10
18.2100752926
 20
9.9320201011
 10
18.338220073
 20
9.9560971271
 10
18.3857851817
 20
9.9650126072
  0
LINE
  5
39E
100
AcDbEntity
  8
0
100
AcDbLine
 62
9
  6
CONTINUOUS
 10
10.9748159638
 20
8.1581601034
 11
12.0692585742
 21
8.1581601034
  0
LINE
  5
39F
100
AcDbEntity
  8
0
100
AcDbLine
 62
7
  6
CONTINUOUS
 10
10.9220424736
 20
8.1605080835
 11
12.1220320645
 21
8.1605080835
  0
LINE
  5
3A0
100
AcDbEntity
  8
0
100
AcDbLine
 62
7
  6
CONTINUOUS
 10
12.122037269
 20
8.2105080835
 11
10.922037269
 21
8.2105080835
  0
LINE
  5
3A1
100
AcDbEntity
  8
0
100
AcDbLine
 62
7
  6
CONTINUOUS
 10
10.922037269
 20
8.3105080835
 11
12.122037269
 21
8.3105080835
  0
LINE
  5
3A2
100
AcDbEntity
  8
0
100
AcDbLine
 62
7
  6
CONTINUOUS
 10
12.1220320645
 20
8.3605080835
 11
10.9220424736
 21
8.3605080835
  0
LINE
  5
3A3
100
AcDbEntity
  8
0
100
AcDbLine
 62
7
  6
CONTINUOUS
 10
5.3126886126
 20
8.5955080835
 11
5.9376886126
 21
8.5955080835
  0
LINE
  5
3A4
100
AcDbEntity
  8
0
100
AcDbLine
 62
7
  6
CONTINUOUS
 10
5.2978805457
 20
8.5995080835
 11
5.9524966795
 21
8.5995080835
  0
LINE
  5
3A5
100
AcDbEntity
  8
0
100
AcDbLine
 62
9
  6
CONTINUOUS
 10
5.9803410498
 20
8.6183424441
 11
5.270036171
 21
8.6183424501
  0
LINE
  5
3A6
100
AcDbEntity
  8
0
100
AcDbLine
 62
7
  6
CONTINUOUS
 10
12.5216530787
 20
9.8605080835
 11
12.5216530787
 21
9.9355080835
  0
LINE
  5
3A7
100
AcDbEntity
  8
0
100
AcDbLine
 62
7
  6
CONTINUOUS
 10
12.522037269
 20
10.1155080835
 11
12.522037269
 21
10.1905080835
  0
LINE
  5
3A8
100
AcDbEntity
  8
0
100
AcDbLine
 62
9
  6
CONTINUOUS
 10
12.072037269
 20
9.0638308726
 11
18.6095594141
 21
10.2919672753
  0
LINE
  5
3A9
100
AcDbEntity
  8
0
100
AcDbLine
 62
7
  6
CONTINUOUS
 10
18.2823919726
 20
10.5154222583
 11
18.2117533889
 21
10.5021327151
  0
LINE
  5
3AA
100
AcDbEntity
  8
0
100
AcDbLine
 62
7
  6
CONTINUOUS
 10
17.1120459024
 20
10.2955490958
 11
16.3843814394
 21
10.1588441286
  0
LINE
  5
3AB
100
AcDbEntity
  8
0
100
AcDbLine
 62
7
  6
CONTINUOUS
 10
12.5545361185
 20
9.4393768396
 11
12.072037269
 21
9.3487216444
  0
LINE
  5
3AC
100
AcDbEntity
  8
0
100
AcDbLine
 62
7
  6
CONTINUOUS
 10
4.8726876902
 20
7.9962617561
 11
4.8473750654
 21
7.9915065361
  0
LINE
  5
3AD
100
AcDbEntity
  8
0
100
AcDbLine
 62
7
  6
CONTINUOUS
 10
6.2926795827
 20
8.2630208884
 11
10.972037269
 21
9.1420832286
  0
LINE
  5
3AE
100
AcDbEntity
  8
0
100
AcDbLine
 62
7
  6
CONTINUOUS
 10
12.072037269
 20
9.3487288067
 11
12.3349090884
 21
9.3981118059
  0
LINE
  5
3AF
100
AcDbEntity
  8
0
100
AcDbLine
 62
7
  6
CONTINUOUS
 10
16.4091867887
 20
10.1635034696
 11
12.5545361185
 21
9.4393768396
  0
LWPOLYLINE
  5
3B0
100
AcDbEntity
  8
0
100
AcDbPolyline
 62
7
  6
CONTINUOUS
 90
6
 70
0
 10
18.2348254228
 20
10.5064663349
 10
18.1066770388
 20
10.4823962257
 10
17.9192772296
 20
10.4471893367
 10
17.6864994392
 20
10.4034610643
 10
17.4165643341
 20
10.3527561675
 10
17.1120459024
 20
10.2955490958
  0
LINE
  5
3B1
100
AcDbEntity
  8
0
100
AcDbLine
 62
9
  6
CONTINUOUS
 10
6.2540819983
 20
8.7793168938
 11
4.9962951913
 21
8.7793168452
  0
LINE
  5
3B2
100
AcDbEntity
  8
0
100
AcDbLine
 62
9
  6
CONTINUOUS
 10
4.9751886126
 20
8.8079687654
 11
6.2751886126
 21
8.8079687654
  0
LINE
  5
3B3
100
AcDbEntity
  8
0
100
AcDbLine
 62
7
  6
CONTINUOUS
 10
6.2751886126
 20
8.8357256807
 11
4.9751886126
 21
8.8357256807
  0
LINE
  5
3B4
100
AcDbEntity
  8
0
100
AcDbLine
 62
7
  6
CONTINUOUS
 10
4.9751886126
 20
8.9505080835
 11
6.2751886126
 21
8.9505080835
  0
LINE
  5
3B5
100
AcDbEntity
  8
0
100
AcDbLine
 62
9
  6
CONTINUOUS
 10
6.2751886126
 20
8.9855080835
 11
4.9751886126
 21
8.9855080835
  0
LINE
  5
3B6
100
AcDbEntity
  8
0
100
AcDbLine
 62
7
  6
CONTINUOUS
 10
6.2601830663
 20
9.0005080835
 11
4.9901941589
 21
9.0005080835
  0
LINE
  5
3B7
100
AcDbEntity
  8
0
100
AcDbLine
 62
9
  6
CONTINUOUS
 10
6.1951886126
 20
9.4605080835
 11
5.0551886126
 21
9.4605080835
  0
LINE
  5
3B8
100
AcDbEntity
  8
0
100
AcDbLine
 62
9
  6
CONTINUOUS
 10
12.072037269
 20
9.4805080835
 11
10.972037269
 21
9.4805080835
  0
LINE
  5
3B9
100
AcDbEntity
  8
0
100
AcDbLine
 62
7
  6
CONTINUOUS
 10
4.6500562438
 20
9.8405080835
 11
6.6003209814
 21
9.8405080835
  0
LINE
  5
3BA
100
AcDbEntity
  8
0
100
AcDbLine
 62
7
  6
CONTINUOUS
 10
10.5224214593
 20
9.8605080835
 11
12.5216530787
 21
9.8605080835
  0
LINE
  5
3BB
100
AcDbEntity
  8
0
100
AcDbLine
 62
9
  6
CONTINUOUS
 10
4.6250562245
 20
9.8655080835
 11
6.6253210007
 21
9.8655080835
  0
LINE
  5
3BC
100
AcDbEntity
  8
0
100
AcDbLine
 62
7
  6
CONTINUOUS
 10
6.6253210007
 20
9.9155080835
 11
4.6250562245
 21
9.9155080835
  0
LINE
  5
3BD
100
AcDbEntity
  8
0
100
AcDbLine
 62
7
  6
CONTINUOUS
 10
12.5216530787
 20
9.9355080835
 11
10.5224214593
 21
9.9355080835
  0
LINE
  5
3BE
100
AcDbEntity
  8
0
100
AcDbLine
 62
7
  6
CONTINUOUS
 10
4.6251886126
 20
10.1155080835
 11
6.6251886126
 21
10.1155080835
  0
LINE
  5
3BF
100
AcDbEntity
  8
0
100
AcDbLine
 62
7
  6
CONTINUOUS
 10
10.522037269
 20
10.1155080835
 11
12.522037269
 21
10.1155080835
  0
LINE
  5
3C0
100
AcDbEntity
  8
0
100
AcDbLine
 62
7
  6
CONTINUOUS
 10
12.522037269
 20
10.1905080835
 11
10.522037269
 21
10.1905080835
  0
LINE
  5
3C1
100
AcDbEntity
  8
0
100
AcDbLine
 62
7
  6
CONTINUOUS
 10
6.6251886126
 20
10.1905080835
 11
4.6251886126
 21
10.1905080835
  0
LINE
  5
3C2
100
AcDbEntity
  8
0
100
AcDbLine
 62
7
  6
CONTINUOUS
 10
12.072037269
 20
10.2005080835
 11
10.972037269
 21
10.2005080835
  0
LWPOLYLINE
  5
3C3
100
AcDbEntity
  8
0
100
AcDbPolyline
 62
7
  6
CONTINUOUS
 90
37
 70
0
 10
18.6095594141
 20
10.2919672753
 10
18.6068683601
 20
10.3046631154
 10
18.6027405349
 20
10.3201392394
 10
18.5977945526
 20
10.3351876237
 10
18.5920835415
 20
10.3497487353
 10
18.585662464
 20
10.3637769906
 10
18.5785852992
 20
10.3772400268
 10
18.5709026508
 20
10.3901173699
 10
18.5626598716
 20
10.4023986572
 10
18.5538957419
 20
10.4140815785
 10
18.5446416987
 20
10.4251696805
 10
18.5349216263
 20
10.4356701112
 10
18.5247867356
 20
10.4455593632
 10
18.5143064556
 20
10.4548049519
 10
18.5035315914
 20
10.4633997143
 10
18.4925109009
 20
10.4713417035
 10
18.4812906923
 20
10.4786335353
 10
18.4699145627
 20
10.4852817347
 10
18.4584232627
 20
10.4912961082
 10
18.4468546672
 20
10.4966891606
 10
18.4352438347
 20
10.5014755708
 10
18.4236239384
 20
10.5056714635
 10
18.4120382913
 20
10.5092907927
 10
18.4005338089
 20
10.512349536
 10
18.3891546031
 20
10.5148678287
 10
18.377942477
 20
10.5168693092
 10
18.3669367969
 20
10.5183807332
 10
18.3561744715
 20
10.5194315938
 10
18.3456973892
 20
10.5200534669
 10
18.3355599895
 20
10.520280998
 10
18.325815697
 20
10.520153691
 10
18.3165172086
 20
10.5197155503
 10
18.3077530174
 20
10.5190181793
 10
18.299646693
 20
10.5181256449
 10
18.2923840469
 20
10.517122079
 10
18.2867993481
 20
10.5162179616
 10
18.284261745
 20
10.5157688279
  0
ARC
  5
3C4
100
AcDbEntity
  8
0
100
AcDbCircle
 62
7
  6
CONTINUOUS
 10
6.5836125648
 20
-25.5148016834
 40
34.6207390961
100
AcDbArc
 50
91.586351634
 51
91.7108030819
  0
ARC
  5
3C5
100
AcDbEntity
  8
0
100
AcDbCircle
 62
7
  6
CONTINUOUS
 10
6.3191960368
 20
-15.6029039019
 40
24.6497829138
100
AcDbArc
 50
91.6133591007
 51
91.7309917949
  0
ARC
  5
3C6
100
AcDbEntity
  8
0
100
AcDbCircle
 62
7
  6
CONTINUOUS
 10
6.2584686757
 20
-13.6681650304
 40
22.8251791236
100
AcDbArc
 50
91.5898640443
 51
91.7126932122
  0
ARC
  5
3C7
100
AcDbEntity
  8
0
100
AcDbCircle
 62
7
  6
CONTINUOUS
 10
6.0406921048
 20
-6.4293932285
 40
15.4645042366
100
AcDbArc
 50
91.5396201118
 51
91.6926973363
  0
ARC
  5
3C8
100
AcDbEntity
  8
0
100
AcDbCircle
 62
9
  6
CONTINUOUS
 10
7.2056698306
 20
-0.4930725561
 40
5.1430675324
100
AcDbArc
 50
96.7688932791
 51
97.0796370255
  0
ARC
  5
3C9
100
AcDbEntity
  8
0
100
AcDbCircle
 62
7
  6
CONTINUOUS
 10
3.5551886126
 20
4.9082723285
 40
0.08
100
AcDbArc
 50
112.8632234308
 51
177.7285491583
  0
ARC
  5
3CA
100
AcDbEntity
  8
0
100
AcDbCircle
 62
9
  6
CONTINUOUS
 10
3.8207889653
 20
4.5137937859
 40
0.0137317703
100
AcDbArc
 50
231.4691225601
 51
242.170298936
  0
ARC
  5
3CB
100
AcDbEntity
  8
0
100
AcDbCircle
 62
7
  6
CONTINUOUS
 10
3.2701886126
 20
5.3365179315
 40
0.45
100
AcDbArc
 50
321.6210152008
 51
360.0
  0
ARC
  5
3CC
100
AcDbEntity
  8
0
100
AcDbCircle
 62
7
  6
CONTINUOUS
 10
3.426972859
 20
5.2123458731
 40
0.25
100
AcDbArc
 50
292.8632234306
 51
321.6210152008
  0
ARC
  5
3CD
100
AcDbEntity
  8
0
100
AcDbCircle
 62
7
  6
CONTINUOUS
 10
3.7951886126
 20
5.519566759
 40
0.075
100
AcDbArc
 50
114.0000000002
 51
180.0
  0
ARC
  5
3CE
100
AcDbEntity
  8
0
100
AcDbCircle
 62
7
  6
CONTINUOUS
 10
3.9240357922
 20
4.3958850353
 40
0.3728022678
100
AcDbArc
 50
94.0696771084
 51
102.1874714621
  0
ARC
  5
3CF
100
AcDbEntity
  8
0
100
AcDbCircle
 62
7
  6
CONTINUOUS
 10
3.9240361231
 20
4.3959046955
 40
0.3727826446
100
AcDbArc
 50
94.0699423522
 51
102.1881542434
  0
ARC
  5
3D0
100
AcDbEntity
  8
0
100
AcDbCircle
 62
7
  6
CONTINUOUS
 10
3.9238770956
 20
4.3975076543
 40
0.3711724801
100
AcDbArc
 50
90.2600132456
 51
94.0630178575
  0
ARC
  5
3D1
100
AcDbEntity
  8
0
100
AcDbCircle
 62
7
  6
CONTINUOUS
 10
3.9238774526
 20
4.3975262133
 40
0.371153957
100
AcDbArc
 50
90.1922635134
 51
94.0632758746
  0
ARC
  5
3D2
100
AcDbEntity
  8
0
100
AcDbCircle
 62
7
  6
CONTINUOUS
 10
3.9238690097
 20
4.4144395622
 40
0.3542410468
100
AcDbArc
 50
89.2769881235
 51
89.9998238926
  0
ARC
  5
3D3
100
AcDbEntity
  8
0
100
AcDbCircle
 62
7
  6
CONTINUOUS
 10
3.9238695358
 20
4.4144651436
 40
0.354215467
100
AcDbArc
 50
89.2770198415
 51
89.9999092511
  0
ARC
  5
3D4
100
AcDbEntity
  8
0
100
AcDbCircle
 62
7
  6
CONTINUOUS
 10
4.0475663935
 20
4.4867016806
 40
0.2910406942
100
AcDbArc
 50
72.5547036525
 51
72.8900231283
  0
ARC
  5
3D5
100
AcDbEntity
  8
0
100
AcDbCircle
 62
9
  6
CONTINUOUS
 10
3.9381399509
 20
4.9409049171
 40
0.5173450787
100
AcDbArc
 50
326.9352133148
 51
327.3051127485
  0
ARC
  5
3D6
100
AcDbEntity
  8
0
100
AcDbCircle
 62
7
  6
CONTINUOUS
 10
3.9504845716
 20
4.9429097017
 40
0.514252569
100
AcDbArc
 50
326.028968188
 51
326.6758966823
  0
ARC
  5
3D7
100
AcDbEntity
  8
0
100
AcDbCircle
 62
7
  6
CONTINUOUS
 10
4.0152057135
 20
4.8811564394
 40
0.4293702326
100
AcDbArc
 50
242.1130790669
 51
244.2558294622
  0
ARC
  5
3D8
100
AcDbEntity
  8
0
100
AcDbCircle
 62
9
  6
CONTINUOUS
 10
3.9215862625
 20
4.9283112423
 40
0.4267984869
100
AcDbArc
 50
322.1925624674
 51
322.544089549
  0
ARC
  5
3D9
100
AcDbEntity
  8
0
100
AcDbCircle
 62
9
  6
CONTINUOUS
 10
3.9227048991
 20
4.9274434669
 40
0.4253827249
100
AcDbArc
 50
321.8736132395
 51
322.19254537
  0
ARC
  5
3DA
100
AcDbEntity
  8
0
100
AcDbCircle
 62
9
  6
CONTINUOUS
 10
4.0065995325
 20
4.8384424276
 40
0.3851770247
100
AcDbArc
 50
276.4110282727
 51
279.0037944957
  0
ARC
  5
3DB
100
AcDbEntity
  8
0
100
AcDbCircle
 62
9
  6
CONTINUOUS
 10
4.006641174
 20
4.8380211005
 40
0.3847536827
100
AcDbArc
 50
271.3738320846
 51
276.4118469152
  0
ARC
  5
3DC
100
AcDbEntity
  8
0
100
AcDbCircle
 62
9
  6
CONTINUOUS
 10
4.0066502511
 20
4.8377309943
 40
0.3844634423
100
AcDbArc
 50
270.7201936232
 51
271.3735162893
  0
ARC
  5
3DD
100
AcDbEntity
  8
0
100
AcDbCircle
 62
9
  6
CONTINUOUS
 10
4.0066509843
 20
4.8376949868
 40
0.3844274275
100
AcDbArc
 50
270.0115926064
 51
271.3735356248
  0
ARC
  5
3DE
100
AcDbEntity
  8
0
100
AcDbCircle
 62
9
  6
CONTINUOUS
 10
4.0066513905
 20
4.8376422363
 40
0.384374677
100
AcDbArc
 50
270.0115587419
 51
270.7201900973
  0
ARC
  5
3DF
100
AcDbEntity
  8
0
100
AcDbCircle
 62
7
  6
CONTINUOUS
 10
4.1290091292
 20
4.7384370815
 40
0.0196850394
100
AcDbArc
 50
314.9999999999
 51
334.5973246504
  0
ARC
  5
3E0
100
AcDbEntity
  8
0
100
AcDbCircle
 62
7
  6
CONTINUOUS
 10
4.0030248773
 20
4.7384370815
 40
0.0196850394
100
AcDbArc
 50
180.0
 51
225.0000000001
  0
ARC
  5
3E1
100
AcDbEntity
  8
0
100
AcDbCircle
 62
7
  6
CONTINUOUS
 10
4.0111786875
 20
4.7302832712
 40
0.0196850394
100
AcDbArc
 50
225.0011432902
 51
270.0
  0
ARC
  5
3E2
100
AcDbEntity
  8
0
100
AcDbCircle
 62
7
  6
CONTINUOUS
 10
4.1208553189
 20
4.7302832712
 40
0.0196850394
100
AcDbArc
 50
270.0
 51
314.9988567098
  0
ARC
  5
3E3
100
AcDbEntity
  8
0
100
AcDbCircle
 62
7
  6
CONTINUOUS
 10
3.9561770686
 20
4.7302832712
 40
0.0196850394
100
AcDbArc
 50
225.0011432902
 51
270.001006738
  0
ARC
  5
3E4
100
AcDbEntity
  8
0
100
AcDbCircle
 62
7
  6
CONTINUOUS
 10
3.9480232583
 20
4.7384370815
 40
0.0196850394
100
AcDbArc
 50
180.0
 51
225.0024588144
  0
ARC
  5
3E5
100
AcDbEntity
  8
0
100
AcDbCircle
 62
7
  6
CONTINUOUS
 10
4.2384169551
 20
4.6147857892
 40
0.1641888447
100
AcDbArc
 50
69.760839903
 51
69.9780853206
  0
ARC
  5
3E6
100
AcDbEntity
  8
0
100
AcDbCircle
 62
7
  6
CONTINUOUS
 10
4.2902657167
 20
4.7384370815
 40
0.0196850394
100
AcDbArc
 50
315.0000000003
 51
360.0
  0
ARC
  5
3E7
100
AcDbEntity
  8
0
100
AcDbCircle
 62
7
  6
CONTINUOUS
 10
4.1642814648
 20
4.7384370815
 40
0.0196850394
100
AcDbArc
 50
180.0
 51
224.9999999997
  0
ARC
  5
3E8
100
AcDbEntity
  8
0
100
AcDbCircle
 62
7
  6
CONTINUOUS
 10
4.172435275
 20
4.7302832712
 40
0.0196850394
100
AcDbArc
 50
225.00114329
 51
270.0
  0
ARC
  5
3E9
100
AcDbEntity
  8
0
100
AcDbCircle
 62
7
  6
CONTINUOUS
 10
4.2821119064
 20
4.7302832712
 40
0.0196850394
100
AcDbArc
 50
270.0
 51
314.99885671
  0
ARC
  5
3EA
100
AcDbEntity
  8
0
100
AcDbCircle
 62
7
  6
CONTINUOUS
 10
4.1863750369
 20
4.6968899132
 40
0.0196850394
100
AcDbArc
 50
180.0
 51
224.9999999998
  0
ARC
  5
3EB
100
AcDbEntity
  8
0
100
AcDbCircle
 62
7
  6
CONTINUOUS
 10
4.2805834314
 20
4.6887361029
 40
0.0196850394
100
AcDbArc
 50
270.0
 51
282.7092229253
  0
ARC
  5
3EC
100
AcDbEntity
  8
0
100
AcDbCircle
 62
7
  6
CONTINUOUS
 10
4.1945288472
 20
4.6887361029
 40
0.0196850394
100
AcDbArc
 50
225.0013272051
 51
270.0
  0
ARC
  5
3ED
100
AcDbEntity
  8
0
100
AcDbCircle
 62
7
  6
CONTINUOUS
 10
4.3751482913
 20
4.6887361029
 40
0.0196850394
100
AcDbArc
 50
270.0
 51
314.9986727946
  0
ARC
  5
3EE
100
AcDbEntity
  8
0
100
AcDbCircle
 62
7
  6
CONTINUOUS
 10
4.2809398968
 20
4.6968899132
 40
0.0196850394
100
AcDbArc
 50
180.0
 51
224.9999999998
  0
ARC
  5
3EF
100
AcDbEntity
  8
0
100
AcDbCircle
 62
7
  6
CONTINUOUS
 10
4.2890937071
 20
4.6887361029
 40
0.0196850394
100
AcDbArc
 50
225.0013272053
 51
270.0
  0
ARC
  5
3F0
100
AcDbEntity
  8
0
100
AcDbCircle
 62
7
  6
CONTINUOUS
 10
4.3644105219
 20
4.6717368873
 40
0.0078740157
100
AcDbArc
 50
200.3751729783
 51
259.8531132105
  0
ARC
  5
3F1
100
AcDbEntity
  8
0
100
AcDbCircle
 62
7
  6
CONTINUOUS
 10
3.9851886126
 20
5.7081506556
 40
0.02
100
AcDbArc
 50
294.0000000012
 51
360.0
  0
ARC
  5
3F2
100
AcDbEntity
  8
0
100
AcDbCircle
 62
7
  6
CONTINUOUS
 10
4.0251886126
 20
5.7421390882
 40
0.02
100
AcDbArc
 50
102.4577510794
 51
180.0
  0
ARC
  5
3F3
100
AcDbEntity
  8
0
100
AcDbCircle
 62
7
  6
CONTINUOUS
 10
3.6110068821
 20
7.616933342
 40
1.9
100
AcDbArc
 50
282.4577510794
 51
320.8853497804
  0
ARC
  5
3F4
100
AcDbEntity
  8
0
100
AcDbCircle
 62
9
  6
CONTINUOUS
 10
4.5660626787
 20
2.8650570067
 40
1.7555505817
100
AcDbArc
 50
82.3876824811
 51
82.5256594316
  0
ARC
  5
3F5
100
AcDbEntity
  8
0
100
AcDbCircle
 62
9
  6
CONTINUOUS
 10
4.6034799421
 20
3.3742098689
 40
1.2339461814
100
AcDbArc
 50
80.9380704966
 51
81.0597620153
  0
ARC
  5
3F6
100
AcDbEntity
  8
0
100
AcDbCircle
 62
7
  6
CONTINUOUS
 10
4.7299716723
 20
4.5064494653
 40
0.2382401306
100
AcDbArc
 50
88.7184356219
 51
89.987966584
  0
ARC
  5
3F7
100
AcDbEntity
  8
0
100
AcDbCircle
 62
7
  6
CONTINUOUS
 10
4.5021285685
 20
4.5049927218
 40
0.2322759989
100
AcDbArc
 50
74.283873611
 51
74.5026483346
  0
ARC
  5
3F8
100
AcDbEntity
  8
0
100
AcDbCircle
 62
9
  6
CONTINUOUS
 10
4.8128650392
 20
4.675353528
 40
0.0670141117
100
AcDbArc
 50
254.1248809708
 51
254.4790935255
  0
ARC
  5
3F9
100
AcDbEntity
  8
0
100
AcDbCircle
 62
7
  6
CONTINUOUS
 10
4.8978383206
 20
4.5445890551
 40
0.0393700787
100
AcDbArc
 50
20.0
 51
28.762807137
  0
ARC
  5
3FA
100
AcDbEntity
  8
0
100
AcDbCircle
 62
7
  6
CONTINUOUS
 10
4.5467879028
 20
4.7384370815
 40
0.0196850394
100
AcDbArc
 50
315.0000000002
 51
360.0
  0
ARC
  5
3FB
100
AcDbEntity
  8
0
100
AcDbCircle
 62
7
  6
CONTINUOUS
 10
4.4208036508
 20
4.7384370815
 40
0.0196850394
100
AcDbArc
 50
180.0
 51
224.9999999998
  0
ARC
  5
3FC
100
AcDbEntity
  8
0
100
AcDbCircle
 62
7
  6
CONTINUOUS
 10
4.4289574611
 20
4.7302832712
 40
0.0196850394
100
AcDbArc
 50
225.0011432895
 51
270.0
  0
ARC
  5
3FD
100
AcDbEntity
  8
0
100
AcDbCircle
 62
7
  6
CONTINUOUS
 10
4.5386340925
 20
4.7302832712
 40
0.0196850394
100
AcDbArc
 50
270.0
 51
314.9988567094
  0
ARC
  5
3FE
100
AcDbEntity
  8
0
100
AcDbCircle
 62
7
  6
CONTINUOUS
 10
4.8810941244
 20
4.7384370815
 40
0.0196850394
100
AcDbArc
 50
315.0000000002
 51
360.0
  0
ARC
  5
3FF
100
AcDbEntity
  8
0
100
AcDbCircle
 62
7
  6
CONTINUOUS
 10
4.7551098724
 20
4.7384370815
 40
0.0196850394
100
AcDbArc
 50
180.0
 51
224.9999999998
  0
ARC
  5
400
100
AcDbEntity
  8
0
100
AcDbCircle
 62
7
  6
CONTINUOUS
 10
4.7632636827
 20
4.7302832712
 40
0.0196850394
100
AcDbArc
 50
225.0011432897
 51
270.0
  0
ARC
  5
401
100
AcDbEntity
  8
0
100
AcDbCircle
 62
7
  6
CONTINUOUS
 10
4.8729403141
 20
4.7302832712
 40
0.0196850394
100
AcDbArc
 50
270.0
 51
314.9988567103
  0
ARC
  5
402
100
AcDbEntity
  8
0
100
AcDbCircle
 62
7
  6
CONTINUOUS
 10
4.4636251777
 20
4.6968899132
 40
0.0196850394
100
AcDbArc
 50
180.0
 51
224.9999999999
  0
ARC
  5
403
100
AcDbEntity
  8
0
100
AcDbCircle
 62
7
  6
CONTINUOUS
 10
4.5659873824
 20
4.6968899132
 40
0.0196850394
100
AcDbArc
 50
315.0000000001
 51
360.0
  0
ARC
  5
404
100
AcDbEntity
  8
0
100
AcDbCircle
 62
7
  6
CONTINUOUS
 10
4.5578335721
 20
4.6887361029
 40
0.0196850394
100
AcDbArc
 50
270.0
 51
314.998672795
  0
ARC
  5
405
100
AcDbEntity
  8
0
100
AcDbCircle
 62
7
  6
CONTINUOUS
 10
4.4717789879
 20
4.6887361029
 40
0.0196850394
100
AcDbArc
 50
225.0013272058
 51
270.0
  0
ARC
  5
406
100
AcDbEntity
  8
0
100
AcDbCircle
 62
7
  6
CONTINUOUS
 10
4.3833021015
 20
4.6968899132
 40
0.0196850394
100
AcDbArc
 50
315.0000000002
 51
360.0
  0
ARC
  5
407
100
AcDbEntity
  8
0
100
AcDbCircle
 62
7
  6
CONTINUOUS
 10
4.8161895739
 20
4.6887361029
 40
0.0196850394
100
AcDbArc
 50
270.0
 51
314.9986727883
  0
ARC
  5
408
100
AcDbEntity
  8
0
100
AcDbCircle
 62
7
  6
CONTINUOUS
 10
4.8243433842
 20
4.6968899132
 40
0.0196850394
100
AcDbArc
 50
315.0000000001
 51
360.0
  0
ARC
  5
409
100
AcDbEntity
  8
0
100
AcDbCircle
 62
7
  6
CONTINUOUS
 10
4.7219811795
 20
4.6968899132
 40
0.0196850394
100
AcDbArc
 50
180.0
 51
224.9999999999
  0
ARC
  5
40A
100
AcDbEntity
  8
0
100
AcDbCircle
 62
7
  6
CONTINUOUS
 10
4.7301349898
 20
4.6887361029
 40
0.0196850394
100
AcDbArc
 50
225.0013272118
 51
270.0
  0
ARC
  5
40B
100
AcDbEntity
  8
0
100
AcDbCircle
 62
9
  6
CONTINUOUS
 10
4.6414332496
 20
4.6036776121
 40
0.0118719934
100
AcDbArc
 50
0.0026129955
 51
20.6649644513
  0
ARC
  5
40C
100
AcDbEntity
  8
0
100
AcDbCircle
 62
7
  6
CONTINUOUS
 10
4.6647904802
 20
4.5771916826
 40
0.0118110236
100
AcDbArc
 50
180.0
 51
225.0000000007
  0
ARC
  5
40D
100
AcDbEntity
  8
0
100
AcDbCircle
 62
7
  6
CONTINUOUS
 10
4.6775567821
 20
4.5644253807
 40
0.0118110236
100
AcDbArc
 50
225.0002531655
 51
270.0
  0
ARC
  5
40E
100
AcDbEntity
  8
0
100
AcDbCircle
 62
7
  6
CONTINUOUS
 10
4.817904425
 20
4.5644253807
 40
0.0118110236
100
AcDbArc
 50
270.0
 51
284.6898599032
  0
ARC
  5
40F
100
AcDbEntity
  8
0
100
AcDbCircle
 62
7
  6
CONTINUOUS
 10
4.7125604907
 20
4.5771916826
 40
0.0118110236
100
AcDbArc
 50
180.0
 51
225.0000000003
  0
ARC
  5
410
100
AcDbEntity
  8
0
100
AcDbCircle
 62
7
  6
CONTINUOUS
 10
4.7253267927
 20
4.5644253807
 40
0.0118110236
100
AcDbArc
 50
225.0002531646
 51
270.0
  0
ARC
  5
411
100
AcDbEntity
  8
0
100
AcDbCircle
 62
7
  6
CONTINUOUS
 10
4.9163839679
 20
4.5644253807
 40
0.0118110236
100
AcDbArc
 50
270.0
 51
314.9997441386
  0
ARC
  5
412
100
AcDbEntity
  8
0
100
AcDbCircle
 62
7
  6
CONTINUOUS
 10
4.9291502698
 20
4.5771916826
 40
0.0118110236
100
AcDbArc
 50
315.0
 51
360.0
  0
ARC
  5
413
100
AcDbEntity
  8
0
100
AcDbCircle
 62
7
  6
CONTINUOUS
 10
4.8110400336
 20
4.5771916826
 40
0.0118110236
100
AcDbArc
 50
180.0
 51
225.0
  0
ARC
  5
414
100
AcDbEntity
  8
0
100
AcDbCircle
 62
7
  6
CONTINUOUS
 10
4.8238063355
 20
4.5644253807
 40
0.0118110236
100
AcDbArc
 50
225.0002558629
 51
270.0
  0
ARC
  5
415
100
AcDbEntity
  8
0
100
AcDbCircle
 62
9
  6
CONTINUOUS
 10
4.6415286318
 20
4.6037265689
 40
0.0117648074
100
AcDbArc
 50
20.6058143979
 51
81.995353124
  0
ARC
  5
416
100
AcDbEntity
  8
0
100
AcDbCircle
 62
7
  6
CONTINUOUS
 10
5.4332511106
 20
4.4034101727
 40
0.341279418
100
AcDbArc
 50
89.7139472837
 51
89.9996082308
  0
ARC
  5
417
100
AcDbEntity
  8
0
100
AcDbCircle
 62
7
  6
CONTINUOUS
 10
5.0624258417
 20
4.4331024833
 40
0.3115871097
100
AcDbArc
 50
88.8102006204
 51
89.9931356118
  0
ARC
  5
418
100
AcDbEntity
  8
0
100
AcDbCircle
 62
7
  6
CONTINUOUS
 10
5.0747297682
 20
4.4650171153
 40
0.2786790932
100
AcDbArc
 50
79.5767978335
 51
80.6135101857
  0
ARC
  5
419
100
AcDbEntity
  8
0
100
AcDbCircle
 62
9
  6
CONTINUOUS
 10
5.4919010073
 20
4.6504514596
 40
0.0534306274
100
AcDbArc
 50
282.7411408278
 51
284.4505092156
  0
ARC
  5
41A
100
AcDbEntity
  8
0
100
AcDbCircle
 62
7
  6
CONTINUOUS
 10
5.270401965
 20
4.7384370815
 40
0.0196850394
100
AcDbArc
 50
315.0000000002
 51
360.0
  0
ARC
  5
41B
100
AcDbEntity
  8
0
100
AcDbCircle
 62
7
  6
CONTINUOUS
 10
5.144417713
 20
4.7384370815
 40
0.0196850394
100
AcDbArc
 50
180.0
 51
224.9999999998
  0
ARC
  5
41C
100
AcDbEntity
  8
0
100
AcDbCircle
 62
7
  6
CONTINUOUS
 10
5.1525715233
 20
4.7302832712
 40
0.0196850394
100
AcDbArc
 50
225.0011432896
 51
270.0
  0
ARC
  5
41D
100
AcDbEntity
  8
0
100
AcDbCircle
 62
7
  6
CONTINUOUS
 10
5.2622481547
 20
4.7302832712
 40
0.0196850394
100
AcDbArc
 50
270.0
 51
314.9988567094
  0
ARC
  5
41E
100
AcDbEntity
  8
0
100
AcDbCircle
 62
7
  6
CONTINUOUS
 10
5.0384013677
 20
4.6968899132
 40
0.0196850394
100
AcDbArc
 50
180.0
 51
224.9999999996
  0
ARC
  5
41F
100
AcDbEntity
  8
0
100
AcDbCircle
 62
7
  6
CONTINUOUS
 10
5.1407635724
 20
4.6968899132
 40
0.0196850394
100
AcDbArc
 50
315.0000000004
 51
360.0
  0
ARC
  5
420
100
AcDbEntity
  8
0
100
AcDbCircle
 62
7
  6
CONTINUOUS
 10
5.1326097621
 20
4.6887361029
 40
0.0196850394
100
AcDbArc
 50
270.0
 51
314.9986727934
  0
ARC
  5
421
100
AcDbEntity
  8
0
100
AcDbCircle
 62
7
  6
CONTINUOUS
 10
5.046555178
 20
4.6887361029
 40
0.0196850394
100
AcDbArc
 50
225.0013272065
 51
270.0
  0
ARC
  5
422
100
AcDbEntity
  8
0
100
AcDbCircle
 62
7
  6
CONTINUOUS
 10
5.4855306238
 20
4.6887361029
 40
0.0196850394
100
AcDbArc
 50
270.0
 51
314.998672795
  0
ARC
  5
423
100
AcDbEntity
  8
0
100
AcDbCircle
 62
7
  6
CONTINUOUS
 10
5.4936844341
 20
4.6968899132
 40
0.0196850394
100
AcDbArc
 50
315.0000000001
 51
360.0
  0
ARC
  5
424
100
AcDbEntity
  8
0
100
AcDbCircle
 62
7
  6
CONTINUOUS
 10
5.3913222294
 20
4.6968899132
 40
0.0196850394
100
AcDbArc
 50
180.0
 51
224.9999999999
  0
ARC
  5
425
100
AcDbEntity
  8
0
100
AcDbCircle
 62
7
  6
CONTINUOUS
 10
5.3994760397
 20
4.6887361029
 40
0.0196850394
100
AcDbArc
 50
225.0013272053
 51
270.0
  0
ARC
  5
426
100
AcDbEntity
  8
0
100
AcDbCircle
 62
7
  6
CONTINUOUS
 10
5.456305597
 20
4.4671368744
 40
0.0196850394
100
AcDbArc
 50
225.0025651318
 51
270.0
  0
ARC
  5
427
100
AcDbEntity
  8
0
100
AcDbCircle
 62
7
  6
CONTINUOUS
 10
5.420312937
 20
4.447451835
 40
0.0196850394
100
AcDbArc
 50
44.9999999999
 51
89.9960818715
  0
ARC
  5
428
100
AcDbEntity
  8
0
100
AcDbCircle
 62
7
  6
CONTINUOUS
 10
5.3630490904
 20
4.4671368744
 40
0.0196850394
100
AcDbArc
 50
270.0
 51
314.9974348101
  0
ARC
  5
429
100
AcDbEntity
  8
0
100
AcDbCircle
 62
7
  6
CONTINUOUS
 10
5.1470732464
 20
4.4671368744
 40
0.0196850394
100
AcDbArc
 50
225.0025651903
 51
270.0
  0
ARC
  5
42A
100
AcDbEntity
  8
0
100
AcDbCircle
 62
7
  6
CONTINUOUS
 10
5.3990417503
 20
4.447451835
 40
0.0196850394
100
AcDbArc
 50
90.0039289499
 51
135.000000001
  0
ARC
  5
42B
100
AcDbEntity
  8
0
100
AcDbCircle
 62
7
  6
CONTINUOUS
 10
5.1110805865
 20
4.447451835
 40
0.0196850394
100
AcDbArc
 50
44.999999999
 51
89.9960710504
  0
ARC
  5
42C
100
AcDbEntity
  8
0
100
AcDbCircle
 62
7
  6
CONTINUOUS
 10
5.0546565328
 20
4.4671368744
 40
0.0196850394
100
AcDbArc
 50
225.0025651318
 51
270.0
  0
ARC
  5
42D
100
AcDbEntity
  8
0
100
AcDbCircle
 62
7
  6
CONTINUOUS
 10
5.0186638729
 20
4.447451835
 40
0.0196850394
100
AcDbArc
 50
44.9999999999
 51
89.9960818712
  0
ARC
  5
42E
100
AcDbEntity
  8
0
100
AcDbCircle
 62
7
  6
CONTINUOUS
 10
5.4491677577
 20
4.4671368744
 40
0.0196850394
100
AcDbArc
 50
270.0
 51
280.6595944996
  0
ARC
  5
42F
100
AcDbEntity
  8
0
100
AcDbCircle
 62
7
  6
CONTINUOUS
 10
4.9817089846
 20
4.4868219138
 40
0.0196850394
100
AcDbArc
 50
200.0000948198
 51
270.0
  0
ARC
  5
430
100
AcDbEntity
  8
0
100
AcDbCircle
 62
7
  6
CONTINUOUS
 10
5.475488802
 20
4.5644253807
 40
0.0118110236
100
AcDbArc
 50
270.0
 51
314.9997468354
  0
ARC
  5
431
100
AcDbEntity
  8
0
100
AcDbCircle
 62
7
  6
CONTINUOUS
 10
5.4882551039
 20
4.5771916826
 40
0.0118110236
100
AcDbArc
 50
315.0000000004
 51
360.0
  0
ARC
  5
432
100
AcDbEntity
  8
0
100
AcDbCircle
 62
7
  6
CONTINUOUS
 10
5.3701448677
 20
4.5771916826
 40
0.0118110236
100
AcDbArc
 50
180.0
 51
224.9999999996
  0
ARC
  5
433
100
AcDbEntity
  8
0
100
AcDbCircle
 62
7
  6
CONTINUOUS
 10
5.3829111696
 20
4.5644253807
 40
0.0118110236
100
AcDbArc
 50
225.0002531647
 51
270.0
  0
ARC
  5
434
100
AcDbEntity
  8
0
100
AcDbCircle
 62
7
  6
CONTINUOUS
 10
4.6751886126
 20
9.4605080835
 40
0.38
100
AcDbArc
 50
0.0
 51
89.9999989198
  0
ARC
  5
435
100
AcDbEntity
  8
0
100
AcDbCircle
 62
7
  6
CONTINUOUS
 10
4.8883870686
 20
7.7143131012
 40
0.28
100
AcDbArc
 50
100.6395587084
 51
280.6395587084
  0
ARC
  5
436
100
AcDbEntity
  8
0
100
AcDbCircle
 62
7
  6
CONTINUOUS
 10
4.7081886126
 20
10.0154530986
 40
0.13
100
AcDbArc
 50
129.6771957253
 51
230.2469514845
  0
ARC
  5
437
100
AcDbEntity
  8
0
100
AcDbCircle
 62
7
  6
CONTINUOUS
 10
5.2411886126
 20
6.4982723285
 40
0.1
100
AcDbArc
 50
134.0731757116
 51
180.0
  0
ARC
  5
438
100
AcDbEntity
  8
0
100
AcDbCircle
 62
7
  6
CONTINUOUS
 10
4.9926886126
 20
8.8931168821
 40
0.06
100
AcDbArc
 50
106.9577633
 51
253.0422367
  0
ARC
  5
439
100
AcDbEntity
  8
0
100
AcDbCircle
 62
7
  6
CONTINUOUS
 10
5.1901886126
 20
6.7724496421
 40
0.06
100
AcDbArc
 50
311.8102714498
 51
360.0
  0
ARC
  5
43A
100
AcDbEntity
  8
0
100
AcDbCircle
 62
7
  6
CONTINUOUS
 10
5.1298963704
 20
6.6132246526
 40
0.06
100
AcDbArc
 50
314.0731757112
 51
341.9999999995
  0
ARC
  5
43B
100
AcDbEntity
  8
0
100
AcDbCircle
 62
7
  6
CONTINUOUS
 10
5.2011886126
 20
6.4782723285
 40
0.06
100
AcDbArc
 50
180.0
 51
270.0
  0
ARC
  5
43C
100
AcDbEntity
  8
0
100
AcDbCircle
 62
7
  6
CONTINUOUS
 10
5.0051889001
 20
8.807968257
 40
0.0300000243
100
AcDbArc
 50
179.9992206375
 51
252.7550905584
  0
ARC
  5
43D
100
AcDbEntity
  8
0
100
AcDbCircle
 62
7
  6
CONTINUOUS
 10
5.297880885
 20
8.6295081058
 40
0.0299999994
100
AcDbArc
 50
201.8506531414
 51
269.9989212524
  0
ARC
  5
43E
100
AcDbEntity
  8
0
100
AcDbCircle
 62
7
  6
CONTINUOUS
 10
4.6500562245
 20
9.8655080835
 40
0.025
100
AcDbArc
 50
180.0
 51
270.000044291
  0
ARC
  5
43F
100
AcDbEntity
  8
0
100
AcDbCircle
 62
7
  6
CONTINUOUS
 10
4.9901886126
 20
8.9855080835
 40
0.015
100
AcDbArc
 50
90.0
 51
180.0
  0
ARC
  5
440
100
AcDbEntity
  8
0
100
AcDbCircle
 62
7
  6
CONTINUOUS
 10
5.0484346047
 20
30.2128906629
 40
21.191212692
100
AcDbArc
 50
271.5595922727
 51
271.679728881
  0
ARC
  5
441
100
AcDbEntity
  8
0
100
AcDbCircle
 62
7
  6
CONTINUOUS
 10
5.8171259121
 20
4.4029351709
 40
0.3417544198
100
AcDbArc
 50
90.0003572661
 51
90.3847572355
  0
ARC
  5
442
100
AcDbEntity
  8
0
100
AcDbCircle
 62
9
  6
CONTINUOUS
 10
5.9249460146
 20
4.6592716088
 40
0.0585440147
100
AcDbArc
 50
286.0765992528
 51
286.8705220385
  0
ARC
  5
443
100
AcDbEntity
  8
0
100
AcDbCircle
 62
9
  6
CONTINUOUS
 10
5.7087124061
 20
4.654726229
 40
0.0560588685
100
AcDbArc
 50
284.8318839773
 51
286.0923629904
  0
ARC
  5
444
100
AcDbEntity
  8
0
100
AcDbCircle
 62
9
  6
CONTINUOUS
 10
5.9265742961
 20
4.6538630818
 40
0.0528957122
100
AcDbArc
 50
286.8828734211
 51
287.1788174237
  0
ARC
  5
445
100
AcDbEntity
  8
0
100
AcDbCircle
 62
7
  6
CONTINUOUS
 10
5.6881807386
 20
4.7384370815
 40
0.0196850394
100
AcDbArc
 50
315.0000000003
 51
360.0
  0
ARC
  5
446
100
AcDbEntity
  8
0
100
AcDbCircle
 62
7
  6
CONTINUOUS
 10
5.5621964866
 20
4.7384370815
 40
0.0196850394
100
AcDbArc
 50
180.0
 51
224.9999999997
  0
ARC
  5
447
100
AcDbEntity
  8
0
100
AcDbCircle
 62
7
  6
CONTINUOUS
 10
5.5703502969
 20
4.7302832712
 40
0.0196850394
100
AcDbArc
 50
225.0011432902
 51
270.0
  0
ARC
  5
448
100
AcDbEntity
  8
0
100
AcDbCircle
 62
7
  6
CONTINUOUS
 10
5.6800269283
 20
4.7302832712
 40
0.0196850394
100
AcDbArc
 50
270.0
 51
314.9988567098
  0
ARC
  5
449
100
AcDbEntity
  8
0
100
AcDbCircle
 62
7
  6
CONTINUOUS
 10
6.1059595122
 20
4.7384370815
 40
0.0196850394
100
AcDbArc
 50
314.9999999999
 51
360.0
  0
ARC
  5
44A
100
AcDbEntity
  8
0
100
AcDbCircle
 62
7
  6
CONTINUOUS
 10
5.9799752602
 20
4.7384370815
 40
0.0196850394
100
AcDbArc
 50
180.0
 51
225.0000000001
  0
ARC
  5
44B
100
AcDbEntity
  8
0
100
AcDbCircle
 62
7
  6
CONTINUOUS
 10
5.9881290705
 20
4.7302832712
 40
0.0196850394
100
AcDbArc
 50
225.0011432902
 51
270.0
  0
ARC
  5
44C
100
AcDbEntity
  8
0
100
AcDbCircle
 62
7
  6
CONTINUOUS
 10
6.0978057019
 20
4.7302832712
 40
0.0196850394
100
AcDbArc
 50
270.0
 51
314.9988567098
  0
ARC
  5
44D
100
AcDbEntity
  8
0
100
AcDbCircle
 62
7
  6
CONTINUOUS
 10
6.1096136528
 20
4.6968899132
 40
0.0196850394
100
AcDbArc
 50
180.0
 51
224.9999999998
  0
ARC
  5
44E
100
AcDbEntity
  8
0
100
AcDbCircle
 62
7
  6
CONTINUOUS
 10
6.1177674631
 20
4.6887361029
 40
0.0196850394
100
AcDbArc
 50
225.0013272053
 51
270.0
  0
ARC
  5
44F
100
AcDbEntity
  8
0
100
AcDbCircle
 62
7
  6
CONTINUOUS
 10
5.8509011855
 20
4.6887361029
 40
0.0196850394
100
AcDbArc
 50
270.0
 51
314.9986727949
  0
ARC
  5
450
100
AcDbEntity
  8
0
100
AcDbCircle
 62
7
  6
CONTINUOUS
 10
5.7648466014
 20
4.6887361029
 40
0.0196850394
100
AcDbArc
 50
225.0013272051
 51
270.0
  0
ARC
  5
451
100
AcDbEntity
  8
0
100
AcDbCircle
 62
7
  6
CONTINUOUS
 10
5.7566927911
 20
4.6968899132
 40
0.0196850394
100
AcDbArc
 50
180.0
 51
224.9999999998
  0
ARC
  5
452
100
AcDbEntity
  8
0
100
AcDbCircle
 62
7
  6
CONTINUOUS
 10
5.8590549958
 20
4.6968899132
 40
0.0196850394
100
AcDbArc
 50
315.0000000002
 51
360.0
  0
ARC
  5
453
100
AcDbEntity
  8
0
100
AcDbCircle
 62
7
  6
CONTINUOUS
 10
5.7940716282
 20
4.4671368744
 40
0.0196850394
100
AcDbArc
 50
270.0
 51
280.6595944687
  0
ARC
  5
454
100
AcDbEntity
  8
0
100
AcDbCircle
 62
7
  6
CONTINUOUS
 10
6.0171853115
 20
4.4671368744
 40
0.0196850394
100
AcDbArc
 50
270.0
 51
314.9974348101
  0
ARC
  5
455
100
AcDbEntity
  8
0
100
AcDbCircle
 62
7
  6
CONTINUOUS
 10
5.8012094675
 20
4.4671368744
 40
0.0196850394
100
AcDbArc
 50
225.0025651903
 51
270.0
  0
ARC
  5
456
100
AcDbEntity
  8
0
100
AcDbCircle
 62
7
  6
CONTINUOUS
 10
6.0531779715
 20
4.447451835
 40
0.0196850394
100
AcDbArc
 50
90.0039289499
 51
135.000000001
  0
ARC
  5
457
100
AcDbEntity
  8
0
100
AcDbCircle
 62
7
  6
CONTINUOUS
 10
5.7652168076
 20
4.447451835
 40
0.0196850394
100
AcDbArc
 50
44.999999999
 51
89.9960710504
  0
ARC
  5
458
100
AcDbEntity
  8
0
100
AcDbCircle
 62
7
  6
CONTINUOUS
 10
5.672281441
 20
4.4671368744
 40
0.0196850394
100
AcDbArc
 50
270.0
 51
314.9974348679
  0
ARC
  5
459
100
AcDbEntity
  8
0
100
AcDbCircle
 62
7
  6
CONTINUOUS
 10
5.7082741009
 20
4.447451835
 40
0.0196850394
100
AcDbArc
 50
90.0039181288
 51
135.0000000001
  0
ARC
  5
45A
100
AcDbEntity
  8
0
100
AcDbCircle
 62
7
  6
CONTINUOUS
 10
5.6951809647
 20
4.5644253807
 40
0.0118110236
100
AcDbArc
 50
270.0
 51
314.9997468341
  0
ARC
  5
45B
100
AcDbEntity
  8
0
100
AcDbCircle
 62
7
  6
CONTINUOUS
 10
5.7079472666
 20
4.5771916826
 40
0.0118110236
100
AcDbArc
 50
314.9999999996
 51
360.0
  0
ARC
  5
45C
100
AcDbEntity
  8
0
100
AcDbCircle
 62
7
  6
CONTINUOUS
 10
5.5898370304
 20
4.5771916826
 40
0.0118110236
100
AcDbArc
 50
180.0
 51
225.0000000004
  0
ARC
  5
45D
100
AcDbEntity
  8
0
100
AcDbCircle
 62
7
  6
CONTINUOUS
 10
5.6026033323
 20
4.5644253807
 40
0.0118110236
100
AcDbArc
 50
225.0002531647
 51
270.0
  0
ARC
  5
45E
100
AcDbEntity
  8
0
100
AcDbCircle
 62
7
  6
CONTINUOUS
 10
5.9134649347
 20
4.5644253807
 40
0.0118110236
100
AcDbArc
 50
270.0
 51
314.999746836
  0
ARC
  5
45F
100
AcDbEntity
  8
0
100
AcDbCircle
 62
7
  6
CONTINUOUS
 10
5.9262312366
 20
4.5771916826
 40
0.0118110236
100
AcDbArc
 50
314.9999999994
 51
360.0
  0
ARC
  5
460
100
AcDbEntity
  8
0
100
AcDbCircle
 62
7
  6
CONTINUOUS
 10
5.8081210004
 20
4.5771916826
 40
0.0118110236
100
AcDbArc
 50
180.0
 51
225.0000000006
  0
ARC
  5
461
100
AcDbEntity
  8
0
100
AcDbCircle
 62
7
  6
CONTINUOUS
 10
5.8208873023
 20
4.5644253807
 40
0.0118110236
100
AcDbArc
 50
225.0002531659
 51
270.0
  0
ARC
  5
462
100
AcDbEntity
  8
0
100
AcDbCircle
 62
7
  6
CONTINUOUS
 10
5.6251886126
 20
7.0034352085
 40
2.5590551181
100
AcDbArc
 50
264.5049555658
 51
265.9886462846
  0
ARC
  5
463
100
AcDbEntity
  8
0
100
AcDbCircle
 62
7
  6
CONTINUOUS
 10
5.6251886126
 20
7.0034352085
 40
2.5590551181
100
AcDbArc
 50
267.3528405073
 51
273.7405671051
  0
ARC
  5
464
100
AcDbEntity
  8
0
100
AcDbCircle
 62
7
  6
CONTINUOUS
 10
6.0091886126
 20
6.4982723285
 40
0.1
100
AcDbArc
 50
0.0
 51
45.9268242884
  0
ARC
  5
465
100
AcDbEntity
  8
0
100
AcDbCircle
 62
7
  6
CONTINUOUS
 10
6.1204808548
 20
6.6132246526
 40
0.06
100
AcDbArc
 50
198.0000000005
 51
225.9268242888
  0
ARC
  5
466
100
AcDbEntity
  8
0
100
AcDbCircle
 62
7
  6
CONTINUOUS
 10
6.0601886126
 20
6.7724496421
 40
0.06
100
AcDbArc
 50
180.0
 51
228.1897285506
  0
ARC
  5
467
100
AcDbEntity
  8
0
100
AcDbCircle
 62
7
  6
CONTINUOUS
 10
6.0491886126
 20
6.4782723285
 40
0.06
100
AcDbArc
 50
270.0
 51
360.0
  0
ARC
  5
468
100
AcDbEntity
  8
0
100
AcDbCircle
 62
7
  6
CONTINUOUS
 10
6.1879752558
 20
4.4321974296
 40
0.3124921671
100
AcDbArc
 50
90.0112215037
 51
90.8821195162
  0
ARC
  5
469
100
AcDbEntity
  8
0
100
AcDbCircle
 62
7
  6
CONTINUOUS
 10
6.1743928893
 20
4.4722228152
 40
0.2713662439
100
AcDbArc
 50
99.4755185355
 51
100.4351524352
  0
ARC
  5
46A
100
AcDbEntity
  8
0
100
AcDbCircle
 62
7
  6
CONTINUOUS
 10
6.3525389046
 20
4.5445890551
 40
0.0393700787
100
AcDbArc
 50
117.4883173629
 51
160.0
  0
ARC
  5
46B
100
AcDbEntity
  8
0
100
AcDbCircle
 62
7
  6
CONTINUOUS
 10
6.1957206924
 20
4.4671368744
 40
0.0196850394
100
AcDbArc
 50
270.0
 51
314.9974348682
  0
ARC
  5
46C
100
AcDbEntity
  8
0
100
AcDbCircle
 62
7
  6
CONTINUOUS
 10
6.2317133523
 20
4.447451835
 40
0.0196850394
100
AcDbArc
 50
90.0039181288
 51
135.0000000001
  0
ARC
  5
46D
100
AcDbEntity
  8
0
100
AcDbCircle
 62
7
  6
CONTINUOUS
 10
6.2686682406
 20
4.4868219138
 40
0.0196850394
100
AcDbArc
 50
270.0
 51
339.9999051803
  0
ARC
  5
46E
100
AcDbEntity
  8
0
100
AcDbCircle
 62
7
  6
CONTINUOUS
 10
6.3496656799
 20
4.5644253807
 40
0.0118110236
100
AcDbArc
 50
270.0
 51
292.4997467748
  0
ARC
  5
46F
100
AcDbEntity
  8
0
100
AcDbCircle
 62
7
  6
CONTINUOUS
 10
6.346348876
 20
4.5771916826
 40
0.0118110236
100
AcDbArc
 50
180.0
 51
225.0000000002
  0
ARC
  5
470
100
AcDbEntity
  8
0
100
AcDbCircle
 62
7
  6
CONTINUOUS
 10
6.3591151779
 20
4.5644253807
 40
0.0118110236
100
AcDbArc
 50
225.0002531656
 51
270.0
  0
ARC
  5
471
100
AcDbEntity
  8
0
100
AcDbCircle
 62
7
  6
CONTINUOUS
 10
6.3692831008
 20
4.7384370815
 40
0.0196850394
100
AcDbArc
 50
180.0
 51
224.9999999997
  0
ARC
  5
472
100
AcDbEntity
  8
0
100
AcDbCircle
 62
7
  6
CONTINUOUS
 10
6.3774369111
 20
4.7302832712
 40
0.0196850394
100
AcDbArc
 50
225.00114329
 51
270.0
  0
ARC
  5
473
100
AcDbEntity
  8
0
100
AcDbCircle
 62
7
  6
CONTINUOUS
 10
6.426033841
 20
4.6968899132
 40
0.0196850394
100
AcDbArc
 50
180.0
 51
224.9999999999
  0
ARC
  5
474
100
AcDbEntity
  8
0
100
AcDbCircle
 62
7
  6
CONTINUOUS
 10
6.2038220472
 20
4.6887361029
 40
0.0196850394
100
AcDbArc
 50
270.0
 51
314.9986727946
  0
ARC
  5
475
100
AcDbEntity
  8
0
100
AcDbCircle
 62
7
  6
CONTINUOUS
 10
6.2119758575
 20
4.6968899132
 40
0.0196850394
100
AcDbArc
 50
315.0000000002
 51
360.0
  0
ARC
  5
476
100
AcDbEntity
  8
0
100
AcDbCircle
 62
7
  6
CONTINUOUS
 10
6.5205032525
 20
4.4977221029
 40
0.246967532
100
AcDbArc
 50
90.0342742198
 51
91.2588008814
  0
ARC
  5
477
100
AcDbEntity
  8
0
100
AcDbCircle
 62
7
  6
CONTINUOUS
 10
6.4516928103
 20
4.5644253807
 40
0.0118110236
100
AcDbArc
 50
270.0
 51
314.9997468355
  0
ARC
  5
478
100
AcDbEntity
  8
0
100
AcDbCircle
 62
7
  6
CONTINUOUS
 10
6.4644591122
 20
4.5771916826
 40
0.0118110236
100
AcDbArc
 50
314.9999999998
 51
360.0
  0
ARC
  5
479
100
AcDbEntity
  8
0
100
AcDbCircle
 62
7
  6
CONTINUOUS
 10
6.5397000234
 20
4.5644253807
 40
0.0118110236
100
AcDbArc
 50
270.0
 51
314.9997468347
  0
ARC
  5
47A
100
AcDbEntity
  8
0
100
AcDbCircle
 62
7
  6
CONTINUOUS
 10
6.5524663253
 20
4.5771916826
 40
0.0118110236
100
AcDbArc
 50
314.9999999998
 51
360.0
  0
ARC
  5
47B
100
AcDbEntity
  8
0
100
AcDbCircle
 62
7
  6
CONTINUOUS
 10
6.5761273932
 20
4.5644253807
 40
0.0118110236
100
AcDbArc
 50
270.0
 51
314.9997468346
  0
ARC
  5
47C
100
AcDbEntity
  8
0
100
AcDbCircle
 62
7
  6
CONTINUOUS
 10
6.5888936951
 20
4.5771916826
 40
0.0118110236
100
AcDbArc
 50
315.0000000005
 51
360.0
  0
ARC
  5
47D
100
AcDbEntity
  8
0
100
AcDbCircle
 62
7
  6
CONTINUOUS
 10
6.4952673528
 20
4.7384370815
 40
0.0196850394
100
AcDbArc
 50
315.0000000003
 51
360.0
  0
ARC
  5
47E
100
AcDbEntity
  8
0
100
AcDbCircle
 62
7
  6
CONTINUOUS
 10
6.4871135425
 20
4.7302832712
 40
0.0196850394
100
AcDbArc
 50
270.0
 51
314.99885671
  0
ARC
  5
47F
100
AcDbEntity
  8
0
100
AcDbCircle
 62
7
  6
CONTINUOUS
 10
6.5283960457
 20
4.6968899132
 40
0.0196850394
100
AcDbArc
 50
315.0000000001
 51
360.0
  0
ARC
  5
480
100
AcDbEntity
  8
0
100
AcDbCircle
 62
7
  6
CONTINUOUS
 10
6.5202422354
 20
4.6887361029
 40
0.0196850394
100
AcDbArc
 50
270.0
 51
314.998672795
  0
ARC
  5
481
100
AcDbEntity
  8
0
100
AcDbCircle
 62
7
  6
CONTINUOUS
 10
6.4341876513
 20
4.6887361029
 40
0.0196850394
100
AcDbArc
 50
225.0013272058
 51
270.0
  0
ARC
  5
482
100
AcDbEntity
  8
0
100
AcDbCircle
 62
7
  6
CONTINUOUS
 10
6.6843898428
 20
4.6968899132
 40
0.0196850394
100
AcDbArc
 50
180.0
 51
224.9999999999
  0
ARC
  5
483
100
AcDbEntity
  8
0
100
AcDbCircle
 62
7
  6
CONTINUOUS
 10
6.6925436531
 20
4.6887361029
 40
0.0196850394
100
AcDbArc
 50
225.0013272118
 51
270.0
  0
ARC
  5
484
100
AcDbEntity
  8
0
100
AcDbCircle
 62
9
  6
CONTINUOUS
 10
6.6125056164
 20
4.6036695042
 40
0.0118680643
100
AcDbArc
 50
159.2858967566
 51
164.931569589
  0
ARC
  5
485
100
AcDbEntity
  8
0
100
AcDbCircle
 62
9
  6
CONTINUOUS
 10
6.6124531692
 20
4.6036848513
 40
0.0118150243
100
AcDbArc
 50
176.2091034957
 51
180.0328207074
  0
ARC
  5
486
100
AcDbEntity
  8
0
100
AcDbCircle
 62
9
  6
CONTINUOUS
 10
6.6124507529
 20
4.6036827616
 40
0.0118116509
100
AcDbArc
 50
132.6354792334
 51
155.5624792122
  0
ARC
  5
487
100
AcDbEntity
  8
0
100
AcDbCircle
 62
9
  6
CONTINUOUS
 10
6.6124195155
 20
4.603682237
 40
0.0117816181
100
AcDbArc
 50
164.8825056592
 51
176.1855970089
  0
ARC
  5
488
100
AcDbEntity
  8
0
100
AcDbCircle
 62
9
  6
CONTINUOUS
 10
6.6124254405
 20
4.6037330344
 40
0.0117543813
100
AcDbArc
 50
97.8830174272
 51
132.6402287808
  0
ARC
  5
489
100
AcDbEntity
  8
0
100
AcDbCircle
 62
9
  6
CONTINUOUS
 10
6.6123709246
 20
4.6037164166
 40
0.0117254868
100
AcDbArc
 50
155.5613660509
 51
159.267517256
  0
ARC
  5
48A
100
AcDbEntity
  8
0
100
AcDbCircle
 62
7
  6
CONTINUOUS
 10
5.6251886126
 20
7.9027283566
 40
0.76
100
AcDbArc
 50
299.6055382994
 51
65.7207532118
  0
ARC
  5
48B
100
AcDbEntity
  8
0
100
AcDbCircle
 62
7
  6
CONTINUOUS
 10
5.6251886126
 20
7.9027283566
 40
0.76
100
AcDbArc
 50
114.2792467882
 51
240.3927214476
  0
ARC
  5
48C
100
AcDbEntity
  8
0
100
AcDbCircle
 62
7
  6
CONTINUOUS
 10
5.6251886126
 20
7.8527283566
 40
0.635
100
AcDbArc
 50
306.3469686567
 51
233.6530313433
  0
ARC
  5
48D
100
AcDbEntity
  8
0
100
AcDbCircle
 62
9
  6
CONTINUOUS
 10
5.6251886126
 20
7.8527283566
 40
0.595
100
AcDbArc
 50
309.2952412839
 51
230.7088924639
  0
ARC
  5
48E
100
AcDbEntity
  8
0
100
AcDbCircle
 62
9
  6
CONTINUOUS
 10
5.6251886126
 20
7.9027283566
 40
0.5878559417
100
AcDbArc
 50
66.8968303862
 51
112.5703286888
  0
ARC
  5
48F
100
AcDbEntity
  8
0
100
AcDbCircle
 62
9
  6
CONTINUOUS
 10
5.6251886126
 20
7.8527283566
 40
0.580618532
100
AcDbArc
 50
310.4589933101
 51
229.5498721844
  0
ARC
  5
490
100
AcDbEntity
  8
0
100
AcDbCircle
 62
9
  6
CONTINUOUS
 10
5.6251886126
 20
7.8527283566
 40
0.5339897743
100
AcDbArc
 50
314.8821753819
 51
225.1793641955
  0
ARC
  5
491
100
AcDbEntity
  8
0
100
AcDbCircle
 62
7
  6
CONTINUOUS
 10
5.6251886126
 20
7.8527283566
 40
0.3900431149
100
AcDbArc
 50
344.7994138529
 51
195.2053897471
  0
ARC
  5
492
100
AcDbEntity
  8
0
100
AcDbCircle
 62
7
  6
CONTINUOUS
 10
5.6251886126
 20
7.8527283566
 40
0.375
100
AcDbArc
 50
0.0
 51
180.0
  0
ARC
  5
493
100
AcDbEntity
  8
0
100
AcDbCircle
 62
7
  6
CONTINUOUS
 10
5.6249537075
 20
9.08977799
 40
0.0973503261
100
AcDbArc
 50
334.8646175699
 51
336.4696822249
  0
ARC
  5
494
100
AcDbEntity
  8
0
100
AcDbCircle
 62
7
  6
CONTINUOUS
 10
5.6255545558
 20
9.0899872192
 40
0.0969160621
100
AcDbArc
 50
304.8823248371
 51
306.4005365401
  0
ARC
  5
495
100
AcDbEntity
  8
0
100
AcDbCircle
 62
7
  6
CONTINUOUS
 10
5.6256906752
 20
9.0897926898
 40
0.0966786384
100
AcDbArc
 50
303.9433430995
 51
304.8820802517
  0
ARC
  5
496
100
AcDbEntity
  8
0
100
AcDbCircle
 62
7
  6
CONTINUOUS
 10
5.6258612432
 20
9.0895377473
 40
0.0963719001
100
AcDbArc
 50
302.009530435
 51
303.9438493254
  0
ARC
  5
497
100
AcDbEntity
  8
0
100
AcDbCircle
 62
7
  6
CONTINUOUS
 10
5.6209934853
 20
9.0911363063
 40
0.1015453334
100
AcDbArc
 50
348.9078710994
 51
350.5797198306
  0
ARC
  5
498
100
AcDbEntity
  8
0
100
AcDbCircle
 62
7
  6
CONTINUOUS
 10
5.6210239363
 20
9.0911334746
 40
0.1015148295
100
AcDbArc
 50
350.5784834413
 51
356.0681481713
  0
ARC
  5
499
100
AcDbEntity
  8
0
100
AcDbCircle
 62
7
  6
CONTINUOUS
 10
5.6213801293
 20
9.091056016
 40
0.1011504655
100
AcDbArc
 50
344.4056245804
 51
348.9103663168
  0
ARC
  5
49A
100
AcDbEntity
  8
0
100
AcDbCircle
 62
7
  6
CONTINUOUS
 10
5.6215465893
 20
9.0910947041
 40
0.1009907483
100
AcDbArc
 50
356.0697599951
 51
358.2401207871
  0
ARC
  5
49B
100
AcDbEntity
  8
0
100
AcDbCircle
 62
7
  6
CONTINUOUS
 10
5.6221267528
 20
9.0908518285
 40
0.1003764353
100
AcDbArc
 50
342.2901347661
 51
344.4033184559
  0
ARC
  5
49C
100
AcDbEntity
  8
0
100
AcDbCircle
 62
7
  6
CONTINUOUS
 10
5.6222865757
 20
9.0910756708
 40
0.1002505265
100
AcDbArc
 50
358.2380053731
 51
1.7526176961
  0
ARC
  5
49D
100
AcDbEntity
  8
0
100
AcDbCircle
 62
7
  6
CONTINUOUS
 10
5.6230504113
 20
9.0910939319
 40
0.0994864898
100
AcDbArc
 50
1.7555598833
 51
2.7982298572
  0
ARC
  5
49E
100
AcDbEntity
  8
0
100
AcDbCircle
 62
7
  6
CONTINUOUS
 10
5.6251886126
 20
9.0905080835
 40
0.1015
100
AcDbArc
 50
297.4975693099
 51
242.5624805518
  0
ARC
  5
49F
100
AcDbEntity
  8
0
100
AcDbCircle
 62
7
  6
CONTINUOUS
 10
5.6234536138
 20
9.090410491
 40
0.0989782033
100
AcDbArc
 50
336.4806698112
 51
342.2998568744
  0
ARC
  5
4A0
100
AcDbEntity
  8
0
100
AcDbCircle
 62
7
  6
CONTINUOUS
 10
5.6235807744
 20
9.0911209304
 40
0.098955441
100
AcDbArc
 50
2.7976077197
 51
4.4917041975
  0
ARC
  5
4A1
100
AcDbEntity
  8
0
100
AcDbCircle
 62
7
  6
CONTINUOUS
 10
5.6248546683
 20
9.0908255782
 40
0.098009387
100
AcDbArc
 50
315.3025473907
 51
317.9855853699
  0
ARC
  5
4A2
100
AcDbEntity
  8
0
100
AcDbCircle
 62
7
  6
CONTINUOUS
 10
5.6249827564
 20
9.0906956707
 40
0.0978269659
100
AcDbArc
 50
310.1203156345
 51
315.3038651237
  0
ARC
  5
4A3
100
AcDbEntity
  8
0
100
AcDbCircle
 62
7
  6
CONTINUOUS
 10
5.6249983179
 20
9.0906955983
 40
0.0978156609
100
AcDbArc
 50
317.9858342063
 51
319.3258817479
  0
ARC
  5
4A4
100
AcDbEntity
  8
0
100
AcDbCircle
 62
7
  6
CONTINUOUS
 10
5.6249719884
 20
9.0912429009
 40
0.0975589486
100
AcDbArc
 50
4.4842788607
 51
9.1410303056
  0
ARC
  5
4A5
100
AcDbEntity
  8
0
100
AcDbCircle
 62
7
  6
CONTINUOUS
 10
5.6252474435
 20
9.0904826619
 40
0.0974879343
100
AcDbArc
 50
319.3253693049
 51
321.3737386493
  0
ARC
  5
4A6
100
AcDbEntity
  8
0
100
AcDbCircle
 62
7
  6
CONTINUOUS
 10
5.6252502093
 20
9.0903876734
 40
0.0974190974
100
AcDbArc
 50
308.0197763448
 51
310.1167588455
  0
ARC
  5
4A7
100
AcDbEntity
  8
0
100
AcDbCircle
 62
7
  6
CONTINUOUS
 10
5.6254512332
 20
9.0902481916
 40
0.0971916627
100
AcDbArc
 50
296.7971292563
 51
301.9924898034
  0
ARC
  5
4A8
100
AcDbEntity
  8
0
100
AcDbCircle
 62
7
  6
CONTINUOUS
 10
5.6254005407
 20
9.0901959674
 40
0.0971754777
100
AcDbArc
 50
306.4005885683
 51
308.0195684338
  0
ARC
  5
4A9
100
AcDbEntity
  8
0
100
AcDbCircle
 62
7
  6
CONTINUOUS
 10
5.6256391992
 20
9.0901689749
 40
0.096986066
100
AcDbArc
 50
321.3740425573
 51
322.9150728295
  0
ARC
  5
4AA
100
AcDbEntity
  8
0
100
AcDbCircle
 62
7
  6
CONTINUOUS
 10
5.6251886126
 20
9.0905080835
 40
0.075
100
AcDbArc
 50
177.4751583611
 51
177.4602717532
  0
ARC
  5
4AB
100
AcDbEntity
  8
0
100
AcDbCircle
 62
7
  6
CONTINUOUS
 10
5.6240898116
 20
9.0929228223
 40
0.1001928346
100
AcDbArc
 50
292.8844392746
 51
296.8025076088
  0
ARC
  5
4AC
100
AcDbEntity
  8
0
100
AcDbCircle
 62
7
  6
CONTINUOUS
 10
5.6264204192
 20
9.0890720834
 40
0.0957226636
100
AcDbArc
 50
329.9438855809
 51
334.8742325893
  0
ARC
  5
4AD
100
AcDbEntity
  8
0
100
AcDbCircle
 62
7
  6
CONTINUOUS
 10
5.6280529
 20
9.0881441205
 40
0.0938449267
100
AcDbArc
 50
327.7243198456
 51
329.9350694661
  0
ARC
  5
4AE
100
AcDbEntity
  8
0
100
AcDbCircle
 62
7
  6
CONTINUOUS
 10
5.6296073178
 20
9.0871461869
 40
0.0919977952
100
AcDbArc
 50
322.9266808154
 51
327.7328474277
  0
ARC
  5
4AF
100
AcDbEntity
  8
0
100
AcDbCircle
 62
7
  6
CONTINUOUS
 10
5.6263467673
 20
9.0914497428
 40
0.0961687701
100
AcDbArc
 50
9.1494840797
 51
10.1852502094
  0
ARC
  5
4B0
100
AcDbEntity
  8
0
100
AcDbCircle
 62
7
  6
CONTINUOUS
 10
5.6272059797
 20
9.0916075493
 40
0.0952951928
100
AcDbArc
 50
10.183215643
 51
12.5381100039
  0
ARC
  5
4B1
100
AcDbEntity
  8
0
100
AcDbCircle
 62
7
  6
CONTINUOUS
 10
5.6287778991
 20
9.0919639138
 40
0.0936833983
100
AcDbArc
 50
12.5340615504
 51
16.2871389698
  0
ARC
  5
4B2
100
AcDbEntity
  8
0
100
AcDbCircle
 62
7
  6
CONTINUOUS
 10
5.6300168653
 20
9.0923156076
 40
0.0923955215
100
AcDbArc
 50
16.2932718377
 51
17.3950638179
  0
ARC
  5
4B3
100
AcDbEntity
  8
0
100
AcDbCircle
 62
7
  6
CONTINUOUS
 10
5.6307451024
 20
9.0925454278
 40
0.0916318828
100
AcDbArc
 50
17.3940653033
 51
19.2264608198
  0
ARC
  5
4B4
100
AcDbEntity
  8
0
100
AcDbCircle
 62
7
  6
CONTINUOUS
 10
5.6313794397
 20
9.092764495
 40
0.0909607867
100
AcDbArc
 50
19.2277460936
 51
20.0213074219
  0
ARC
  5
4B5
100
AcDbEntity
  8
0
100
AcDbCircle
 62
7
  6
CONTINUOUS
 10
5.9524963401
 20
8.6295081064
 40
0.0299999999
100
AcDbArc
 50
270.0010791448
 51
338.149345962
  0
ARC
  5
4B6
100
AcDbEntity
  8
0
100
AcDbCircle
 62
7
  6
CONTINUOUS
 10
5.6251886126
 20
11.7162743592
 40
7.1691060898
100
AcDbArc
 50
260.6768182412
 51
262.1369697736
  0
ARC
  5
4B7
100
AcDbEntity
  8
0
100
AcDbCircle
 62
7
  6
CONTINUOUS
 10
5.6251886126
 20
11.7162743592
 40
7.1691060898
100
AcDbArc
 50
277.8955430007
 51
279.3231817588
  0
ARC
  5
4B8
100
AcDbEntity
  8
0
100
AcDbCircle
 62
7
  6
CONTINUOUS
 10
5.6251886123
 20
11.71630967
 40
7.1643816812
100
AcDbArc
 50
284.2898330323
 51
284.9326914327
  0
ARC
  5
4B9
100
AcDbEntity
  8
0
100
AcDbCircle
 62
7
  6
CONTINUOUS
 10
5.6251886123
 20
11.71630967
 40
7.1643816812
100
AcDbArc
 50
255.0673085672
 51
255.7101669717
  0
ARC
  5
4BA
100
AcDbEntity
  8
0
100
AcDbCircle
 62
7
  6
CONTINUOUS
 10
6.5751886126
 20
9.4605080835
 40
0.38
100
AcDbArc
 50
90.0000010802
 51
180.0
  0
ARC
  5
4BB
100
AcDbEntity
  8
0
100
AcDbCircle
 62
7
  6
CONTINUOUS
 10
6.2576886126
 20
8.8931168821
 40
0.06
100
AcDbArc
 50
286.9577633
 51
73.0422367
  0
ARC
  5
4BC
100
AcDbEntity
  8
0
100
AcDbCircle
 62
7
  6
CONTINUOUS
 10
6.245188325
 20
8.807968258
 40
0.0300000244
100
AcDbArc
 50
287.2449156237
 51
0.0007773047
  0
ARC
  5
4BD
100
AcDbEntity
  8
0
100
AcDbCircle
 62
7
  6
CONTINUOUS
 10
6.2601886126
 20
8.9855080835
 40
0.015
100
AcDbArc
 50
0.0
 51
90.0
  0
ARC
  5
4BE
100
AcDbEntity
  8
0
100
AcDbCircle
 62
7
  6
CONTINUOUS
 10
6.5421886126
 20
10.0154530986
 40
0.13
100
AcDbArc
 50
309.7530485155
 51
50.3228042747
  0
ARC
  5
4BF
100
AcDbEntity
  8
0
100
AcDbCircle
 62
7
  6
CONTINUOUS
 10
6.6003210007
 20
9.8655080835
 40
0.025
100
AcDbArc
 50
269.999955709
 51
360.0
  0
ARC
  5
4C0
100
AcDbEntity
  8
0
100
AcDbCircle
 62
9
  6
CONTINUOUS
 10
6.765728818
 20
2.3595032977
 40
2.2649535613
100
AcDbArc
 50
97.1880215873
 51
97.3165989558
  0
ARC
  5
4C1
100
AcDbEntity
  8
0
100
AcDbCircle
 62
7
  6
CONTINUOUS
 10
7.1974185592
 20
4.5039736623
 40
0.2729490057
100
AcDbArc
 50
107.1008469881
 51
107.5006532917
  0
ARC
  5
4C2
100
AcDbEntity
  8
0
100
AcDbCircle
 62
7
  6
CONTINUOUS
 10
6.7461122646
 20
4.5126672128
 40
0.2243095538
100
AcDbArc
 50
105.5086731635
 51
105.9119768457
  0
ARC
  5
4C3
100
AcDbEntity
  8
0
100
AcDbCircle
 62
7
  6
CONTINUOUS
 10
7.2251886126
 20
5.7421390882
 40
0.02
100
AcDbArc
 50
0.0
 51
77.5422489206
  0
ARC
  5
4C4
100
AcDbEntity
  8
0
100
AcDbCircle
 62
7
  6
CONTINUOUS
 10
6.8295735744
 20
4.7384370815
 40
0.0196850394
100
AcDbArc
 50
315.0000000002
 51
360.0
  0
ARC
  5
4C5
100
AcDbEntity
  8
0
100
AcDbCircle
 62
7
  6
CONTINUOUS
 10
6.7035893224
 20
4.7384370815
 40
0.0196850394
100
AcDbArc
 50
180.0
 51
224.9999999998
  0
ARC
  5
4C6
100
AcDbEntity
  8
0
100
AcDbCircle
 62
7
  6
CONTINUOUS
 10
6.7117431327
 20
4.7302832712
 40
0.0196850394
100
AcDbArc
 50
225.0011432895
 51
270.0
  0
ARC
  5
4C7
100
AcDbEntity
  8
0
100
AcDbCircle
 62
7
  6
CONTINUOUS
 10
6.8214197641
 20
4.7302832712
 40
0.0196850394
100
AcDbArc
 50
270.0
 51
314.9988567094
  0
ARC
  5
4C8
100
AcDbEntity
  8
0
100
AcDbCircle
 62
7
  6
CONTINUOUS
 10
6.7785982373
 20
4.6887361029
 40
0.0196850394
100
AcDbArc
 50
270.0
 51
314.9986727883
  0
ARC
  5
4C9
100
AcDbEntity
  8
0
100
AcDbCircle
 62
7
  6
CONTINUOUS
 10
6.7867520475
 20
4.6968899132
 40
0.0196850394
100
AcDbArc
 50
315.0000000001
 51
360.0
  0
ARC
  5
4CA
100
AcDbEntity
  8
0
100
AcDbCircle
 62
7
  6
CONTINUOUS
 10
7.0860957604
 20
4.7384370815
 40
0.0196850394
100
AcDbArc
 50
315.0000000002
 51
360.0
  0
ARC
  5
4CB
100
AcDbEntity
  8
0
100
AcDbCircle
 62
7
  6
CONTINUOUS
 10
7.0779419502
 20
4.7302832712
 40
0.0196850394
100
AcDbArc
 50
270.0
 51
314.9989630351
  0
ARC
  5
4CC
100
AcDbEntity
  8
0
100
AcDbCircle
 62
7
  6
CONTINUOUS
 10
6.9682653188
 20
4.7302832712
 40
0.0196850394
100
AcDbArc
 50
225.0010369649
 51
270.0
  0
ARC
  5
4CD
100
AcDbEntity
  8
0
100
AcDbCircle
 62
7
  6
CONTINUOUS
 10
6.9601115085
 20
4.7384370815
 40
0.0196850394
100
AcDbArc
 50
180.0
 51
224.9999999998
  0
ARC
  5
4CE
100
AcDbEntity
  8
0
100
AcDbCircle
 62
7
  6
CONTINUOUS
 10
6.9697937938
 20
4.6887361029
 40
0.0196850394
100
AcDbArc
 50
257.2907770745
 51
270.0
  0
ARC
  5
4CF
100
AcDbEntity
  8
0
100
AcDbCircle
 62
7
  6
CONTINUOUS
 10
7.0640021883
 20
4.6968899132
 40
0.0196850394
100
AcDbArc
 50
315.0000000001
 51
360.0
  0
ARC
  5
4D0
100
AcDbEntity
  8
0
100
AcDbCircle
 62
7
  6
CONTINUOUS
 10
7.055848378
 20
4.6887361029
 40
0.0196850394
100
AcDbArc
 50
270.0
 51
314.998672795
  0
ARC
  5
4D1
100
AcDbEntity
  8
0
100
AcDbCircle
 62
7
  6
CONTINUOUS
 10
6.8752289339
 20
4.6887361029
 40
0.0196850394
100
AcDbArc
 50
225.0013272065
 51
270.0
  0
ARC
  5
4D2
100
AcDbEntity
  8
0
100
AcDbCircle
 62
7
  6
CONTINUOUS
 10
6.9612835181
 20
4.6887361029
 40
0.0196850394
100
AcDbArc
 50
270.0
 51
314.9986727935
  0
ARC
  5
4D3
100
AcDbEntity
  8
0
100
AcDbCircle
 62
7
  6
CONTINUOUS
 10
6.9694373284
 20
4.6968899132
 40
0.0196850394
100
AcDbArc
 50
315.0000000004
 51
360.0
  0
ARC
  5
4D4
100
AcDbEntity
  8
0
100
AcDbCircle
 62
7
  6
CONTINUOUS
 10
6.8670751237
 20
4.6968899132
 40
0.0196850394
100
AcDbArc
 50
180.0
 51
224.9999999996
  0
ARC
  5
4D5
100
AcDbEntity
  8
0
100
AcDbCircle
 62
7
  6
CONTINUOUS
 10
7.2473523479
 20
4.7384370815
 40
0.0196850394
100
AcDbArc
 50
315.0000000002
 51
360.0
  0
ARC
  5
4D6
100
AcDbEntity
  8
0
100
AcDbCircle
 62
7
  6
CONTINUOUS
 10
7.121368096
 20
4.7384370815
 40
0.0196850394
100
AcDbArc
 50
205.4025424871
 51
224.9999999998
  0
ARC
  5
4D7
100
AcDbEntity
  8
0
100
AcDbCircle
 62
7
  6
CONTINUOUS
 10
7.1295219063
 20
4.7302832712
 40
0.0196850394
100
AcDbArc
 50
225.0011432896
 51
270.0
  0
ARC
  5
4D8
100
AcDbEntity
  8
0
100
AcDbCircle
 62
7
  6
CONTINUOUS
 10
7.2391985377
 20
4.7302832712
 40
0.0196850394
100
AcDbArc
 50
270.0
 51
314.9988567095
  0
ARC
  5
4D9
100
AcDbEntity
  8
0
100
AcDbCircle
 62
7
  6
CONTINUOUS
 10
6.8859667033
 20
4.6717368873
 40
0.0078740157
100
AcDbArc
 50
280.1468867895
 51
339.6248379632
  0
ARC
  5
4DA
100
AcDbEntity
  8
0
100
AcDbCircle
 62
7
  6
CONTINUOUS
 10
7.8234043662
 20
5.2123458731
 40
0.25
100
AcDbArc
 50
218.3789847992
 51
247.1367765694
  0
ARC
  5
4DB
100
AcDbEntity
  8
0
100
AcDbCircle
 62
7
  6
CONTINUOUS
 10
7.6951886126
 20
4.9082723285
 40
0.08
100
AcDbArc
 50
2.2714508417
 51
67.1367765692
  0
ARC
  5
4DC
100
AcDbEntity
  8
0
100
AcDbCircle
 62
7
  6
CONTINUOUS
 10
7.4551886126
 20
5.519566759
 40
0.075
100
AcDbArc
 50
0.0
 51
65.9999999998
  0
ARC
  5
4DD
100
AcDbEntity
  8
0
100
AcDbCircle
 62
7
  6
CONTINUOUS
 10
7.2651886126
 20
5.7081506556
 40
0.02
100
AcDbArc
 50
180.0
 51
245.9999999988
  0
ARC
  5
4DE
100
AcDbEntity
  8
0
100
AcDbCircle
 62
7
  6
CONTINUOUS
 10
7.2942001566
 20
4.7302832712
 40
0.0196850394
100
AcDbArc
 50
269.998993262
 51
314.9988567098
  0
ARC
  5
4DF
100
AcDbEntity
  8
0
100
AcDbCircle
 62
7
  6
CONTINUOUS
 10
7.3023539669
 20
4.7384370815
 40
0.0196850394
100
AcDbArc
 50
314.9975411856
 51
360.0
  0
ARC
  5
4E0
100
AcDbEntity
  8
0
100
AcDbCircle
 62
7
  6
CONTINUOUS
 10
7.6393703431
 20
7.616933342
 40
1.9
100
AcDbArc
 50
219.1146502196
 51
257.5422489206
  0
ARC
  5
4E1
100
AcDbEntity
  8
0
100
AcDbCircle
 62
7
  6
CONTINUOUS
 10
11.522037269
 20
8.8085821534
 40
0.85
100
AcDbArc
 50
229.9250028206
 51
310.0749971794
  0
ARC
  5
4E2
100
AcDbEntity
  8
0
100
AcDbCircle
 62
7
  6
CONTINUOUS
 10
11.522037269
 20
8.9605080835
 40
0.555
100
AcDbArc
 50
172.7582990785
 51
187.2417009215
  0
ARC
  5
4E3
100
AcDbEntity
  8
0
100
AcDbCircle
 62
7
  6
CONTINUOUS
 10
11.522037269
 20
8.9605080835
 40
0.555
100
AcDbArc
 50
352.7582990785
 51
7.2417009215
  0
ARC
  5
4E4
100
AcDbEntity
  8
0
100
AcDbCircle
 62
7
  6
CONTINUOUS
 10
7.9801886126
 20
5.3365179315
 40
0.45
100
AcDbArc
 50
180.0
 51
218.3789847992
  0
ARC
  5
4E5
100
AcDbEntity
  8
0
100
AcDbCircle
 62
7
  6
CONTINUOUS
 10
12.452037269
 20
9.4805080835
 40
0.38
100
AcDbArc
 50
90.0000014446
 51
180.0
  0
ARC
  5
4E6
100
AcDbEntity
  8
0
100
AcDbCircle
 62
7
  6
CONTINUOUS
 10
10.592037269
 20
9.4805080835
 40
0.38
100
AcDbArc
 50
0.0
 51
89.9999985554
  0
ARC
  5
4E7
100
AcDbEntity
  8
0
100
AcDbCircle
 62
7
  6
CONTINUOUS
 10
10.616037269
 20
10.0257083062
 40
0.13
100
AcDbArc
 50
136.3091047207
 51
223.935478063
  0
ARC
  5
4E8
100
AcDbEntity
  8
0
100
AcDbCircle
 62
7
  6
CONTINUOUS
 10
12.428037269
 20
10.0257083062
 40
0.13
100
AcDbArc
 50
316.064521937
 51
43.6908952793
  0
ARC
  5
4E9
100
AcDbEntity
  8
0
100
AcDbCircle
 62
7
  6
CONTINUOUS
 10
12.102037269
 20
8.2605080835
 40
0.0538516481
100
AcDbArc
 50
291.8014094864
 51
68.1985905136
  0
ARC
  5
4EA
100
AcDbEntity
  8
0
100
AcDbCircle
 62
7
  6
CONTINUOUS
 10
10.942037269
 20
8.2605080835
 40
0.0538516481
100
AcDbArc
 50
111.8014094864
 51
248.1985905136
  0
ARC
  5
4EB
100
AcDbEntity
  8
0
100
AcDbCircle
 62
7
  6
CONTINUOUS
 10
10.968378061
 20
8.1505080835
 40
0.01
100
AcDbArc
 50
49.9250023802
 51
89.9999497573
  0
ARC
  5
4EC
100
AcDbEntity
  8
0
100
AcDbCircle
 62
7
  6
CONTINUOUS
 10
12.075696477
 20
8.1505080835
 40
0.01
100
AcDbArc
 50
90.0000502427
 51
130.0749976198
  0
SPLINE
  5
4ED
100
AcDbEntity
  8
0
100
AcDbSpline
 62
7
  6
CONTINUOUS
 70
0
 71
3
 72
23
 73
19
 74
0
 42
0.0000001
 43
0.0000001
 44
0.0000000001
 40
0.0
 40
0.0
 40
0.0
 40
0.0
 40
0.0937864102
 40
0.1830179815
 40
0.2677342535
 40
0.3479814401
 40
0.4238139265
 40
0.4952961747
 40
0.5625051655
 40
0.6255335392
 40
0.6844936456
 40
0.739522758
 40
0.7907897365
 40
0.838503401
 40
0.882922713
 40
0.9243684317
 40
0.9632350076
 40
1.0
 40
1.0
 40
1.0
 40
1.0
 10
6.2540821513
 20
8.779317413
 30
0.0
 10
6.2443641325
 20
8.7763009725
 30
0.0
 10
6.2254514235
 20
8.7702470226
 30
0.0
 10
6.1979663364
 20
8.7608410403
 30
0.0
 10
6.1720739964
 20
8.7513370215
 30
0.0
 10
6.1477741463
 20
8.7417349866
 30
0.0
 10
6.1250662941
 20
8.7320348687
 30
0.0
 10
6.1039498784
 20
8.7222365326
 30
0.0
 10
6.0844242037
 20
8.7123397169
 30
0.0
 10
6.0664884371
 20
8.7023439675
 30
0.0
 10
6.0501416079
 20
8.6922485384
 30
0.0
 10
6.0353826405
 20
8.6820522366
 30
0.0
 10
6.0222104791
 20
8.6717532669
 30
0.0
 10
6.0106242953
 20
8.6613488852
 30
0.0
 10
6.0006241111
 20
8.6508356275
 30
0.0
 10
5.9922111047
 20
8.6402079639
 30
0.0
 10
5.9853902791
 20
8.6294635699
 30
0.0
 10
5.9818259328
 20
8.6220445217
 30
0.0
 10
5.9803413081
 20
8.6183422657
 30
0.0
  0
SPLINE
  5
4EE
100
AcDbEntity
  8
0
100
AcDbSpline
 62
7
  6
CONTINUOUS
 70
0
 71
3
 72
23
 73
19
 74
0
 42
0.0000001
 43
0.0000001
 44
0.0000000001
 40
0.0
 40
0.0
 40
0.0
 40
0.0
 40
0.0937863774
 40
0.1830179206
 40
0.2677341691
 40
0.3479813369
 40
0.423813809
 40
0.4952960477
 40
0.5625050336
 40
0.6255334069
 40
0.6844935174
 40
0.7395226383
 40
0.7907896294
 40
0.8385033102
 40
0.882922642
 40
0.924368383
 40
0.963234983
 40
1.0
 40
1.0
 40
1.0
 40
1.0
 10
4.9962949905
 20
8.7793171312
 30
0.0
 10
5.0060130044
 20
8.7763006999
 30
0.0
 10
5.0249257044
 20
8.7702467678
 30
0.0
 10
5.0524107793
 20
8.7608408116
 30
0.0
 10
5.0783031091
 20
8.7513368175
 30
0.0
 10
5.1026029513
 20
8.7417348057
 30
0.0
 10
5.1253107975
 20
8.7320347094
 30
0.0
 10
5.1464272095
 20
8.7222363933
 30
0.0
 10
5.1659528827
 20
8.7123395961
 30
0.0
 10
5.1838886497
 20
8.7023438637
 30
0.0
 10
5.2002354816
 20
8.6922484501
 30
0.0
 10
5.2149944537
 20
8.6820521623
 30
0.0
 10
5.228166622
 20
8.6717532049
 30
0.0
 10
5.2397528147
 20
8.6613488341
 30
0.0
 10
5.24975301
 20
8.6508355857
 30
0.0
 10
5.2581660296
 20
8.64020793
 30
0.0
 10
5.2649868705
 20
8.6294635423
 30
0.0
 10
5.2685512288
 20
8.6220444974
 30
0.0
 10
5.2700358598
 20
8.6183422427
 30
0.0
  0
SPLINE
  5
4EF
100
AcDbEntity
  8
0
100
AcDbSpline
 62
7
  6
CONTINUOUS
 70
0
 71
3
 72
13
 73
9
 74
0
 42
0.0000001
 43
0.0000001
 44
0.0000000001
 40
0.0
 40
0.0
 40
0.0
 40
0.0
 40
0.2922613194
 40
0.5637532668
 40
0.687883327
 40
0.8026318554
 40
0.9069695918
 40
1.0
 40
1.0
 40
1.0
 40
1.0
 10
5.8171237811
 20
4.7446895907
 30
0.0
 10
5.8219506775
 20
4.7446895907
 30
0.0
 10
5.831262632
 20
4.7444942685
 30
0.0
 10
5.8426036545
 20
4.7437377076
 30
0.0
 10
5.8509833185
 20
4.7428151594
 30
0.0
 10
5.8565958545
 20
4.7420122284
 30
0.0
 10
5.8616685375
 20
4.7410885044
 30
0.0
 10
5.8648469595
 20
4.7403569208
 30
0.0
 10
5.8663325614
 20
4.7399648755
 30
0.0
  0
SPLINE
  5
4F0
100
AcDbEntity
  8
0
100
AcDbSpline
 62
7
  6
CONTINUOUS
 70
0
 71
3
 72
15
 73
11
 74
0
 42
0.0000001
 43
0.0000001
 44
0.0000000001
 40
0.0
 40
0.0
 40
0.0
 40
0.0
 40
0.1938829291
 40
0.3668117484
 40
0.5186127296
 40
0.6494193352
 40
0.7600324932
 40
0.8524382113
 40
0.9303218176
 40
1.0
 40
1.0
 40
1.0
 40
1.0
 10
5.8663325614
 20
4.7399648755
 30
0.0
 10
5.8672890491
 20
4.7397124616
 30
0.0
 10
5.8690892059
 20
4.7391974293
 30
0.0
 10
5.871592293
 20
4.7383347601
 30
0.0
 10
5.8737359524
 20
4.7374307508
 30
0.0
 10
5.8755116641
 20
4.7364894807
 30
0.0
 10
5.8769139091
 20
4.7355127839
 30
0.0
 10
5.877941196
 20
4.734499627
 30
0.0
 10
5.8785874314
 20
4.7334397624
 30
0.0
 10
5.8787400628
 20
4.7326814115
 30
0.0
 10
5.8787397509
 20
4.7323258984
 30
0.0
  0
SPLINE
  5
4F1
100
AcDbEntity
  8
0
100
AcDbSpline
 62
7
  6
CONTINUOUS
 70
0
 71
3
 72
9
 73
5
 74
0
 42
0.0000001
 43
0.0000001
 44
0.0000000001
 40
0.0
 40
0.0
 40
0.0
 40
0.0
 40
0.5342875577
 40
1.0
 40
1.0
 40
1.0
 40
1.0
 10
6.9687771895
 20
4.7733470027
 30
0.0
 10
6.9661977068
 20
4.7725658187
 30
0.0
 10
6.9613864335
 20
4.7710480081
 30
0.0
 10
6.9566224149
 20
4.7693855954
 30
0.0
 10
6.954422222
 20
4.7685620975
 30
0.0
  0
SPLINE
  5
4F2
100
AcDbEntity
  8
0
100
AcDbSpline
 62
7
  6
CONTINUOUS
 70
0
 71
3
 72
17
 73
13
 74
0
 42
0.0000001
 43
0.0000001
 44
0.0000000001
 40
0.0
 40
0.0
 40
0.0
 40
0.0
 40
0.2061288879
 40
0.3897894718
 40
0.5501514981
 40
0.6865066558
 40
0.7984941048
 40
0.8454573332
 40
0.8865444417
 40
0.9219918072
 40
0.9522151311
 40
1.0
 40
1.0
 40
1.0
 40
1.0
 10
6.954422222
 20
4.7685620975
 30
0.0
 10
6.9533548786
 20
4.7681626074
 30
0.0
 10
6.9513447696
 20
4.7673847186
 30
0.0
 10
6.9485407843
 20
4.7662046344
 30
0.0
 10
6.9461322955
 20
4.7650830007
 30
0.0
 10
6.9441342588
 20
4.7640253408
 30
0.0
 10
6.9427477463
 20
4.7631580983
 30
0.0
 10
6.9418653819
 20
4.7624898124
 30
0.0
 10
6.941352631
 20
4.7620382319
 30
0.0
 10
6.9409487936
 20
4.761604536
 30
0.0
 10
6.9405852368
 20
4.7610956341
 30
0.0
 10
6.9404263578
 20
4.7606681173
 30
0.0
 10
6.9404263524
 20
4.760403922
 30
0.0
  0
LINE
  5
4F3
100
AcDbEntity
  8
0
100
AcDbLine
 62
7
  6
CONTINUOUS
 10
5.9602912654
 20
4.7720643777
 11
5.9604850021
 21
4.7733497064
  0
SPLINE
  5
4F4
100
AcDbEntity
  8
0
100
AcDbSpline
 62
7
  6
CONTINUOUS
 70
0
 71
3
 72
13
 73
9
 74
0
 42
0.0000001
 43
0.0000001
 44
0.0000000001
 40
0.0
 40
0.0
 40
0.0
 40
0.0
 40
0.0912119759
 40
0.1879427515
 40
0.2930671585
 40
0.4087181824
 40
0.6768720806
 40
1.0
 40
1.0
 40
1.0
 40
1.0
 10
6.3495989167
 20
4.7674313963
 30
0.0
 10
6.3495987783
 20
4.7676640181
 30
0.0
 10
6.349649348
 20
4.7681444862
 30
0.0
 10
6.3498684911
 20
4.7688629221
 30
0.0
 10
6.3502290815
 20
4.7695913679
 30
0.0
 10
6.3509298558
 20
4.7706264002
 30
0.0
 10
6.3521869033
 20
4.7719346936
 30
0.0
 10
6.3533797402
 20
4.7728626271
 30
0.0
 10
6.3540531502
 20
4.7733376416
 30
0.0
  0
SPLINE
  5
4F5
100
AcDbEntity
  8
0
100
AcDbSpline
 62
7
  6
CONTINUOUS
 70
0
 71
3
 72
16
 73
12
 74
0
 42
0.0000001
 43
0.0000001
 44
0.0000000001
 40
0.0
 40
0.0
 40
0.0
 40
0.0
 40
0.0604278865
 40
0.0952922045
 40
0.1342357589
 40
0.2261015876
 40
0.3384185179
 40
0.4720844236
 40
0.6272229932
 40
0.8034048272
 40
1.0
 40
1.0
 40
1.0
 40
1.0
 10
6.6839053323
 20
4.7634594032
 30
0.0
 10
6.6839047462
 20
4.7638159492
 30
0.0
 10
6.6840447849
 20
4.764380563
 30
0.0
 10
6.6844172721
 20
4.7650800777
 30
0.0
 10
6.684987996
 20
4.7658773823
 30
0.0
 10
6.686008487
 20
4.7668966648
 30
0.0
 10
6.6875935993
 20
4.7681104531
 30
0.0
 10
6.6895987751
 20
4.7693726388
 30
0.0
 10
6.6920137916
 20
4.7706774915
 30
0.0
 10
6.6948264484
 20
4.7720183643
 30
0.0
 10
6.6968487919
 20
4.7728846429
 30
0.0
 10
6.6979221102
 20
4.7733245835
 30
0.0
  0
SPLINE
  5
4F6
100
AcDbEntity
  8
0
100
AcDbSpline
 62
7
  6
CONTINUOUS
 70
0
 71
3
 72
16
 73
12
 74
0
 42
0.0000001
 43
0.0000001
 44
0.0000000001
 40
0.0
 40
0.0
 40
0.0
 40
0.0
 40
0.0326569394
 40
0.066163428
 40
0.1402944359
 40
0.2300833135
 40
0.3396034374
 40
0.4709433553
 40
0.6248511139
 40
0.8013116568
 40
1.0
 40
1.0
 40
1.0
 40
1.0
 10
5.0187166749
 20
4.7359090817
 30
0.0
 10
5.0187165298
 20
4.7360761313
 30
0.0
 10
5.018751753
 20
4.7364156873
 30
0.0
 10
5.0189737623
 20
4.7371030051
 30
0.0
 10
5.0195611165
 20
4.7379493273
 30
0.0
 10
5.0206397395
 20
4.7388540758
 30
0.0
 10
5.0221083257
 20
4.7397049626
 30
0.0
 10
5.0239680586
 20
4.7405002885
 30
0.0
 10
5.0262133736
 20
4.741239614
 30
0.0
 10
5.0288344906
 20
4.7419187516
 30
0.0
 10
5.0307148663
 20
4.7423056218
 30
0.0
 10
5.0317141649
 20
4.7424910031
 30
0.0
  0
SPLINE
  5
4F7
100
AcDbEntity
  8
0
100
AcDbSpline
 62
7
  6
CONTINUOUS
 70
0
 71
3
 72
11
 73
7
 74
0
 42
0.0000001
 43
0.0000001
 44
0.0000000001
 40
0.0
 40
0.0
 40
0.0
 40
0.0
 40
0.2060584878
 40
0.4443702875
 40
0.7109991533
 40
1.0
 40
1.0
 40
1.0
 40
1.0
 10
5.0317141649
 20
4.7424910031
 30
0.0
 10
5.0337985206
 20
4.7428776749
 30
0.0
 10
5.0383266963
 20
4.7435331658
 30
0.0
 10
5.0456131118
 20
4.7442001744
 30
0.0
 10
5.05377318
 20
4.7446037365
 30
0.0
 10
5.0594899469
 20
4.7446895907
 30
0.0
 10
5.0624631717
 20
4.7446895907
 30
0.0
  0
SPLINE
  5
4F8
100
AcDbEntity
  8
0
100
AcDbSpline
 62
7
  6
CONTINUOUS
 70
0
 71
3
 72
11
 73
7
 74
0
 42
0.0000001
 43
0.0000001
 44
0.0000000001
 40
0.0
 40
0.0
 40
0.0
 40
0.0
 40
0.2885076622
 40
0.5549217022
 40
0.7933781846
 40
1.0
 40
1.0
 40
1.0
 40
1.0
 10
6.1879140535
 20
4.7446895907
 30
0.0
 10
6.1908631994
 20
4.7446895907
 30
0.0
 10
6.1965361162
 20
4.7446050276
 30
0.0
 10
6.2046383096
 20
4.7442079
 30
0.0
 10
6.211883679
 20
4.7435516546
 30
0.0
 10
6.2163909933
 20
4.7429068842
 30
0.0
 10
6.2184686016
 20
4.742526723
 30
0.0
  0
SPLINE
  5
4F9
100
AcDbEntity
  8
0
100
AcDbSpline
 62
7
  6
CONTINUOUS
 70
0
 71
3
 72
16
 73
12
 74
0
 42
0.0000001
 43
0.0000001
 44
0.0000000001
 40
0.0
 40
0.0
 40
0.0
 40
0.0
 40
0.1989288818
 40
0.3756121375
 40
0.5296916078
 40
0.6611177809
 40
0.7706286869
 40
0.8602922221
 40
0.9341696315
 40
0.9675136273
 40
1.0
 40
1.0
 40
1.0
 40
1.0
 10
6.2184686016
 20
4.742526723
 30
0.0
 10
6.2194824019
 20
4.7423412175
 30
0.0
 10
6.2213902245
 20
4.7419536875
 30
0.0
 10
6.2240500087
 20
4.7412722796
 30
0.0
 10
6.2263287695
 20
4.7405296953
 30
0.0
 10
6.228216318
 20
4.7397302787
 30
0.0
 10
6.2297070476
 20
4.7388747919
 30
0.0
 10
6.2308021917
 20
4.7379649329
 30
0.0
 10
6.2313993691
 20
4.7371125891
 30
0.0
 10
6.2316248974
 20
4.7364198083
 30
0.0
 10
6.2316606957
 20
4.7360776209
 30
0.0
 10
6.2316605771
 20
4.735909312
 30
0.0
  0
SPLINE
  5
4FA
100
AcDbEntity
  8
0
100
AcDbSpline
 62
7
  6
CONTINUOUS
 70
0
 71
3
 72
15
 73
11
 74
0
 42
0.0000001
 43
0.0000001
 44
0.0000000001
 40
0.0
 40
0.0
 40
0.0
 40
0.0
 40
0.1446870914
 40
0.2889591088
 40
0.4297416837
 40
0.5645244252
 40
0.6909618176
 40
0.806904425
 40
0.9104046012
 40
1.0
 40
1.0
 40
1.0
 40
1.0
 10
5.4349549621
 20
4.7446853374
 30
0.0
 10
5.4382128122
 20
4.7446690945
 30
0.0
 10
5.4447190318
 20
4.7445449763
 30
0.0
 10
5.4543862873
 20
4.7440984637
 30
0.0
 10
5.4638149894
 20
4.7433978968
 30
0.0
 10
5.4728197017
 20
4.7424614766
 30
0.0
 10
5.4812349941
 20
4.741306821
 30
0.0
 10
5.4889084136
 20
4.7399616555
 30
0.0
 10
5.4957032822
 20
4.7384501605
 30
0.0
 10
5.4998908013
 20
4.7372647755
 30
0.0
 10
5.5018065005
 20
4.7366323146
 30
0.0
  0
SPLINE
  5
4FB
100
AcDbEntity
  8
0
100
AcDbSpline
 62
7
  6
CONTINUOUS
 70
0
 71
3
 72
15
 73
11
 74
0
 42
0.0000001
 43
0.0000001
 44
0.0000000001
 40
0.0
 40
0.0
 40
0.0
 40
0.0
 40
0.1915598663
 40
0.3629761965
 40
0.5140850661
 40
0.6450014523
 40
0.756409392
 40
0.8501007255
 40
0.9294058687
 40
1.0
 40
1.0
 40
1.0
 40
1.0
 10
5.5018065005
 20
4.7366323146
 30
0.0
 10
5.5026987736
 20
4.736337734
 30
0.0
 10
5.504378405
 20
4.7357446906
 30
0.0
 10
5.5067101455
 20
4.7347808767
 30
0.0
 10
5.5087071697
 20
4.733796936
 30
0.0
 10
5.5103617112
 20
4.7327974806
 30
0.0
 10
5.5116682079
 20
4.7317845125
 30
0.0
 10
5.5126242645
 20
4.7307569616
 30
0.0
 10
5.5132244078
 20
4.7297072862
 30
0.0
 10
5.5133693492
 20
4.7289678914
 30
0.0
 10
5.5133694637
 20
4.7286216118
 30
0.0
  0
SPLINE
  5
4FC
100
AcDbEntity
  8
0
100
AcDbSpline
 62
7
  6
CONTINUOUS
 70
0
 71
3
 72
12
 73
8
 74
0
 42
0.0000001
 43
0.0000001
 44
0.0000000001
 40
0.0
 40
0.0
 40
0.0
 40
0.0
 40
0.2663769331
 40
0.5352260219
 40
0.7861208484
 40
0.8987813454
 40
1.0
 40
1.0
 40
1.0
 40
1.0
 10
4.310101916
 20
4.7397192466
 30
0.0
 10
4.3166846833
 20
4.7386650038
 30
0.0
 10
4.3298867346
 20
4.7363908464
 30
0.0
 10
4.3492036236
 20
4.7326517845
 30
0.0
 10
4.3646792259
 20
4.7293255256
 30
0.0
 10
4.3759978747
 20
4.7266424255
 30
0.0
 10
4.3811859204
 20
4.7253231534
 30
0.0
 10
4.3836339791
 20
4.7246718641
 30
0.0
  0
SPLINE
  5
4FD
100
AcDbEntity
  8
0
100
AcDbSpline
 62
7
  6
CONTINUOUS
 70
0
 71
3
 72
14
 73
10
 74
0
 42
0.0000001
 43
0.0000001
 44
0.0000000001
 40
0.0
 40
0.0
 40
0.0
 40
0.0
 40
0.3491819851
 40
0.5008265106
 40
0.6360270401
 40
0.7540083341
 40
0.8542464552
 40
0.9363321635
 40
1.0
 40
1.0
 40
1.0
 40
1.0
 10
4.3836339791
 20
4.7246718641
 30
0.0
 10
4.3858108985
 20
4.7240927097
 30
0.0
 10
4.3889256636
 20
4.7232322404
 30
0.0
 10
4.3928539986
 20
4.7220468076
 30
0.0
 10
4.3953396495
 20
4.7212447852
 30
0.0
 10
4.3974917759
 20
4.7204912889
 30
0.0
 10
4.3992990297
 20
4.7197916469
 30
0.0
 10
4.4007511804
 20
4.7191507337
 30
0.0
 10
4.4015848573
 20
4.7187115896
 30
0.0
 10
4.4019333778
 20
4.7184942517
 30
0.0
  0
SPLINE
  5
4FE
100
AcDbEntity
  8
0
100
AcDbSpline
 62
7
  6
CONTINUOUS
 70
0
 71
3
 72
11
 73
7
 74
0
 42
0.0000001
 43
0.0000001
 44
0.0000000001
 40
0.0
 40
0.0
 40
0.0
 40
0.0
 40
0.3512603248
 40
0.6287922437
 40
0.8395401491
 40
1.0
 40
1.0
 40
1.0
 40
1.0
 10
4.4019333778
 20
4.7184942517
 30
0.0
 10
4.4020912824
 20
4.7183957822
 30
0.0
 10
4.4023682947
 20
4.7182097616
 30
0.0
 10
4.4027066601
 20
4.7179186786
 30
0.0
 10
4.4029235232
 20
4.7176484626
 30
0.0
 10
4.4029870176
 20
4.7174531524
 30
0.0
 10
4.4029871072
 20
4.7173681436
 30
0.0
  0
SPLINE
  5
4FF
100
AcDbEntity
  8
0
100
AcDbSpline
 62
7
  6
CONTINUOUS
 70
0
 71
3
 72
9
 73
5
 74
0
 42
0.0000001
 43
0.0000001
 44
0.0000000001
 40
0.0
 40
0.0
 40
0.0
 40
0.0
 40
0.5325373741
 40
1.0
 40
1.0
 40
1.0
 40
1.0
 10
6.5203555171
 20
4.7446895907
 30
0.0
 10
6.5227130484
 20
4.7446895907
 30
0.0
 10
6.5271404227
 20
4.7446185327
 30
0.0
 10
6.5315622748
 20
4.7443657754
 30
0.0
 10
6.5336238643
 20
4.7441856121
 30
0.0
  0
SPLINE
  5
500
100
AcDbEntity
  8
0
100
AcDbSpline
 62
7
  6
CONTINUOUS
 70
0
 71
3
 72
17
 73
13
 74
0
 42
0.0000001
 43
0.0000001
 44
0.0000000001
 40
0.0
 40
0.0
 40
0.0
 40
0.0
 40
0.207064847
 40
0.3899499927
 40
0.5481205481
 40
0.6813001629
 40
0.7899262791
 40
0.8757017309
 40
0.9112251366
 40
0.942870085
 40
0.9719089515
 40
1.0
 40
1.0
 40
1.0
 40
1.0
 10
6.5336238643
 20
4.7441856121
 30
0.0
 10
6.5347300326
 20
4.7440889435
 30
0.0
 10
6.5368104957
 20
4.7438724872
 30
0.0
 10
6.5397192721
 20
4.7434418774
 30
0.0
 10
6.5422118056
 20
4.7429297189
 30
0.0
 10
6.5442773668
 20
4.7423394132
 30
0.0
 10
6.5459071291
 20
4.7416750225
 30
0.0
 10
6.5469677267
 20
4.7410230429
 30
0.0
 10
6.5475586264
 20
4.7404492769
 30
0.0
 10
6.5478591635
 20
4.7400254224
 30
0.0
 10
6.5480412733
 20
4.7395805541
 30
0.0
 10
6.5480806807
 20
4.7392725899
 30
0.0
 10
6.5480805336
 20
4.7391219519
 30
0.0
  0
SPLINE
  5
501
100
AcDbEntity
  8
0
100
AcDbSpline
 62
7
  6
CONTINUOUS
 70
0
 71
3
 72
11
 73
7
 74
0
 42
0.0000001
 43
0.0000001
 44
0.0000000001
 40
0.0
 40
0.0
 40
0.0
 40
0.0
 40
0.2510262293
 40
0.5070822157
 40
0.7594859896
 40
1.0
 40
1.0
 40
1.0
 40
1.0
 10
5.0688957686
 20
4.7446224135
 30
0.0
 10
5.0732070617
 20
4.7445342519
 30
0.0
 10
5.0819132685
 20
4.7441902704
 30
0.0
 10
5.0949267863
 20
4.7432281728
 30
0.0
 10
5.1077208151
 20
4.7418462737
 30
0.0
 10
5.116104229
 20
4.740639038
 30
0.0
 10
5.1201804686
 20
4.7399648755
 30
0.0
  0
SPLINE
  5
502
100
AcDbEntity
  8
0
100
AcDbSpline
 62
7
  6
CONTINUOUS
 70
0
 71
3
 72
17
 73
13
 74
0
 42
0.0000001
 43
0.0000001
 44
0.0000000001
 40
0.0
 40
0.0
 40
0.0
 40
0.0
 40
0.0285539183
 40
0.058010192
 40
0.0899913849
 40
0.1257564849
 40
0.2117511343
 40
0.3203171998
 40
0.4532386917
 40
0.6110249216
 40
0.7934446256
 40
1.0
 40
1.0
 40
1.0
 40
1.0
 10
4.7022965404
 20
4.7391228472
 30
0.0
 10
4.7022964028
 20
4.7392703323
 30
0.0
 10
4.7023340831
 20
4.7395714736
 30
0.0
 10
4.7025083514
 20
4.7400071078
 30
0.0
 10
4.702796119
 20
4.7404227943
 30
0.0
 10
4.703361299
 20
4.7409853685
 30
0.0
 10
4.7043769996
 20
4.7416269154
 30
0.0
 10
4.705939782
 20
4.7422828293
 30
0.0
 10
4.7079207529
 20
4.7428681162
 30
0.0
 10
4.7103120925
 20
4.7433789469
 30
0.0
 10
4.7131039451
 20
4.743812189
 30
0.0
 10
4.7151014851
 20
4.7440328945
 30
0.0
 10
4.7161637335
 20
4.7441322932
 30
0.0
  0
SPLINE
  5
503
100
AcDbEntity
  8
0
100
AcDbSpline
 62
7
  6
CONTINUOUS
 70
0
 71
3
 72
9
 73
5
 74
0
 42
0.0000001
 43
0.0000001
 44
0.0000000001
 40
0.0
 40
0.0
 40
0.0
 40
0.0
 40
0.4652513186
 40
1.0
 40
1.0
 40
1.0
 40
1.0
 10
4.7161637335
 20
4.7441322932
 30
0.0
 10
4.718305817
 20
4.7443327362
 30
0.0
 10
4.7229241962
 20
4.7446118888
 30
0.0
 10
4.7275488934
 20
4.7446895907
 30
0.0
 10
4.7300217081
 20
4.7446895907
 30
0.0
  0
SPLINE
  5
504
100
AcDbEntity
  8
0
100
AcDbSpline
 62
7
  6
CONTINUOUS
 70
0
 71
3
 72
19
 73
15
 74
0
 42
0.0000001
 43
0.0000001
 44
0.0000000001
 40
0.0
 40
0.0
 40
0.0
 40
0.0
 40
0.2080846467
 40
0.394475112
 40
0.557571589
 40
0.6959686978
 40
0.7556282124
 40
0.8088242851
 40
0.8555246263
 40
0.8957590665
 40
0.9296901343
 40
0.9577299612
 40
0.9806709304
 40
1.0
 40
1.0
 40
1.0
 40
1.0
 10
4.5650454919
 20
4.7285852091
 30
0.0
 10
4.566591
 20
4.7281502764
 30
0.0
 10
4.5695123485
 20
4.7272948258
 30
0.0
 10
4.573608141
 20
4.7259763643
 30
0.0
 10
4.5771514192
 20
4.7247029029
 30
0.0
 10
4.5797306996
 20
4.723643873
 30
0.0
 10
4.5814844474
 20
4.7228166827
 30
0.0
 10
4.5825756575
 20
4.7222457627
 30
0.0
 10
4.5835065969
 20
4.7216946063
 30
0.0
 10
4.584274887
 20
4.7211642224
 30
0.0
 10
4.5848792662
 20
4.7206551016
 30
0.0
 10
4.5853199179
 20
4.7201663133
 30
0.0
 10
4.5855979151
 20
4.7196945255
 30
0.0
 10
4.5856704945
 20
4.7193677269
 30
0.0
 10
4.5856707886
 20
4.7192185878
 30
0.0
  0
SPLINE
  5
505
100
AcDbEntity
  8
0
100
AcDbSpline
 62
7
  6
CONTINUOUS
 70
0
 71
3
 72
15
 73
11
 74
0
 42
0.0000001
 43
0.0000001
 44
0.0000000001
 40
0.0
 40
0.0
 40
0.0
 40
0.0
 40
0.0702028496
 40
0.1484769408
 40
0.2410828815
 40
0.3517226567
 40
0.4824096471
 40
0.6339587245
 40
0.8065358279
 40
1.0
 40
1.0
 40
1.0
 40
1.0
 10
5.3716372445
 20
4.7323260195
 30
0.0
 10
5.3716371061
 20
4.7326769963
 30
0.0
 10
5.3717859821
 20
4.7334245052
 30
0.0
 10
5.3724155527
 20
4.7344715165
 30
0.0
 10
5.373417558
 20
4.7354733613
 30
0.0
 10
5.3747857331
 20
4.7364396851
 30
0.0
 10
5.3765185852
 20
4.7373717049
 30
0.0
 10
5.3786107813
 20
4.7382678366
 30
0.0
 10
5.3810543308
 20
4.7391239045
 30
0.0
 10
5.3828122018
 20
4.739635627
 30
0.0
 10
5.3837463052
 20
4.7398865472
 30
0.0
  0
SPLINE
  5
506
100
AcDbEntity
  8
0
100
AcDbSpline
 62
7
  6
CONTINUOUS
 70
0
 71
3
 72
13
 73
9
 74
0
 42
0.0000001
 43
0.0000001
 44
0.0000000001
 40
0.0
 40
0.0
 40
0.0
 40
0.0
 40
0.0924907214
 40
0.1964714635
 40
0.3110432031
 40
0.4351635588
 40
0.7070258308
 40
1.0
 40
1.0
 40
1.0
 40
1.0
 10
5.3837463052
 20
4.7398865472
 30
0.0
 10
5.3852307376
 20
4.7402852974
 30
0.0
 10
5.3884120135
 20
4.7410289088
 30
0.0
 10
5.3934966138
 20
4.7419669175
 30
0.0
 10
5.3991338632
 20
4.7427827377
 30
0.0
 10
5.4075676492
 20
4.7437213362
 30
0.0
 10
5.4189967106
 20
4.7444911554
 30
0.0
 10
5.4283846561
 20
4.7446895907
 30
0.0
 10
5.4332534441
 20
4.7446895907
 30
0.0
  0
SPLINE
  5
507
100
AcDbEntity
  8
0
100
AcDbSpline
 62
7
  6
CONTINUOUS
 70
0
 71
3
 72
11
 73
7
 74
0
 42
0.0000001
 43
0.0000001
 44
0.0000000001
 40
0.0
 40
0.0
 40
0.0
 40
0.0
 40
0.2405312915
 40
0.493471978
 40
0.749824464
 40
1.0
 40
1.0
 40
1.0
 40
1.0
 10
6.1297189043
 20
4.7398865472
 30
0.0
 10
6.1339656718
 20
4.7405962276
 30
0.0
 10
6.1427110319
 20
4.7418601559
 30
0.0
 10
6.1560597337
 20
4.7432892434
 30
0.0
 10
6.1696226136
 20
4.7442609513
 30
0.0
 10
6.1786865828
 20
4.7445838852
 30
0.0
 10
6.1831643508
 20
4.7446525619
 30
0.0
  0
SPLINE
  5
508
100
AcDbEntity
  8
0
100
AcDbSpline
 62
7
  6
CONTINUOUS
 70
0
 71
3
 72
19
 73
15
 74
0
 42
0.0000001
 43
0.0000001
 44
0.0000000001
 40
0.0
 40
0.0
 40
0.0
 40
0.0
 40
0.0195786486
 40
0.0427113388
 40
0.0708773601
 40
0.1048779763
 40
0.1451302023
 40
0.1918007035
 40
0.2449327117
 40
0.3045064579
 40
0.4427131472
 40
0.6056399137
 40
0.7919175783
 40
1.0
 40
1.0
 40
1.0
 40
1.0
 10
6.6647063841
 20
4.7192192338
 30
0.0
 10
6.6647066143
 20
4.7193654396
 30
0.0
 10
6.6647759588
 20
4.719685116
 30
0.0
 10
6.6650432986
 20
4.7201476475
 30
0.0
 10
6.6654677894
 20
4.7206264231
 30
0.0
 10
6.6660502626
 20
4.7211245804
 30
0.0
 10
6.666790771
 20
4.7216431012
 30
0.0
 10
6.6676880353
 20
4.7221816996
 30
0.0
 10
6.6687399172
 20
4.7227394253
 30
0.0
 10
6.6704309103
 20
4.7235474673
 30
0.0
 10
6.6729195538
 20
4.7245823588
 30
0.0
 10
6.6763404255
 20
4.7258278215
 30
0.0
 10
6.6802975545
 20
4.7271183749
 30
0.0
 10
6.6831211701
 20
4.7279560732
 30
0.0
 10
6.6846155011
 20
4.7283821265
 30
0.0
  0
LINE
  5
509
100
AcDbEntity
  8
0
100
AcDbLine
 62
7
  6
CONTINUOUS
 10
5.2898925728
 20
4.7733497302
 11
5.2900862732
 21
4.7720655575
  0
SPLINE
  5
50A
100
AcDbEntity
  8
0
100
AcDbSpline
 62
7
  6
CONTINUOUS
 70
0
 71
3
 72
13
 73
9
 74
0
 42
0.0000001
 43
0.0000001
 44
0.0000000001
 40
0.0
 40
0.0
 40
0.0
 40
0.0
 40
0.3230480168
 40
0.5911187175
 40
0.7067504021
 40
0.8118878805
 40
0.9086830308
 40
1.0
 40
1.0
 40
1.0
 40
1.0
 10
4.89632748
 20
4.7733360791
 30
0.0
 10
4.8970004466
 20
4.7728614229
 30
0.0
 10
4.8981925321
 20
4.7719343036
 30
0.0
 10
4.899448756
 20
4.7706269422
 30
0.0
 10
4.9001488396
 20
4.7695923704
 30
0.0
 10
4.9005089406
 20
4.7688639087
 30
0.0
 10
4.9007277032
 20
4.7681452233
 30
0.0
 10
4.9007781813
 20
4.7676645391
 30
0.0
 10
4.9007780429
 20
4.7674317527
 30
0.0
  0
SPLINE
  5
50B
100
AcDbEntity
  8
0
100
AcDbSpline
 62
7
  6
CONTINUOUS
 70
0
 71
3
 72
16
 73
12
 74
0
 42
0.0000001
 43
0.0000001
 44
0.0000000001
 40
0.0
 40
0.0
 40
0.0
 40
0.0
 40
0.1965850165
 40
0.372745805
 40
0.5278656315
 40
0.6615384348
 40
0.7738999385
 40
0.8658156016
 40
0.9047728901
 40
0.9396354267
 40
1.0
 40
1.0
 40
1.0
 40
1.0
 10
4.5524289992
 20
4.7733360791
 30
0.0
 10
4.5535042598
 20
4.7728958351
 30
0.0
 10
4.555530257
 20
4.7720290595
 30
0.0
 10
4.5583480347
 20
4.770687302
 30
0.0
 10
4.560767436
 20
4.7693811267
 30
0.0
 10
4.562776196
 20
4.7681166757
 30
0.0
 10
4.5643642549
 20
4.7669001495
 30
0.0
 10
4.565386787
 20
4.7658785616
 30
0.0
 10
4.5659587809
 20
4.7650796688
 30
0.0
 10
4.5663319297
 20
4.7643793426
 30
0.0
 10
4.566472405
 20
4.7638142092
 30
0.0
 10
4.5664718467
 20
4.7634574312
 30
0.0
  0
LINE
  5
50C
100
AcDbEntity
  8
0
100
AcDbLine
 62
7
  6
CONTINUOUS
 10
4.2816373132
 20
4.7733360791
 11
4.2946318554
 21
4.769051345
  0
SPLINE
  5
50D
100
AcDbEntity
  8
0
100
AcDbSpline
 62
7
  6
CONTINUOUS
 70
0
 71
3
 72
17
 73
13
 74
0
 42
0.0000001
 43
0.0000001
 44
0.0000000001
 40
0.0
 40
0.0
 40
0.0
 40
0.0
 40
0.2064924669
 40
0.3905705809
 40
0.5513135521
 40
0.6879168163
 40
0.7999604651
 40
0.8468642398
 40
0.8878232876
 40
0.9230660815
 40
0.9530028849
 40
1.0
 40
1.0
 40
1.0
 40
1.0
 10
4.2952163706
 20
4.7688370895
 30
0.0
 10
4.2963382575
 20
4.7684234253
 30
0.0
 10
4.2984517852
 20
4.7676175699
 30
0.0
 10
4.3014013455
 20
4.7663948719
 30
0.0
 10
4.3039364883
 20
4.7652330735
 30
0.0
 10
4.306040536
 20
4.7641386576
 30
0.0
 10
4.3075019294
 20
4.7632427935
 30
0.0
 10
4.3084327561
 20
4.7625530807
 30
0.0
 10
4.3089734139
 20
4.762087807
 30
0.0
 10
4.309399356
 20
4.7616412545
 30
0.0
 10
4.309782107
 20
4.7611191018
 30
0.0
 10
4.3099509114
 20
4.7606780899
 30
0.0
 10
4.3099508222
 20
4.7604059471
 30
0.0
  0
SPLINE
  5
50E
100
AcDbEntity
  8
0
100
AcDbSpline
 62
7
  6
CONTINUOUS
 70
0
 71
3
 72
10
 73
6
 74
0
 42
0.0000001
 43
0.0000001
 44
0.0000000001
 40
0.0
 40
0.0
 40
0.0
 40
0.0
 40
0.5494708469
 40
0.7889664534
 40
1.0
 40
1.0
 40
1.0
 40
1.0
 10
4.102406428
 20
4.7733360791
 30
0.0
 10
4.1080750431
 20
4.7718950912
 30
0.0
 10
4.1161992768
 20
4.7697643793
 30
0.0
 10
4.1264473561
 20
4.7668853683
 30
0.0
 10
4.1310456062
 20
4.7655224127
 30
0.0
 10
4.1331925309
 20
4.7648614374
 30
0.0
  0
SPLINE
  5
50F
100
AcDbEntity
  8
0
100
AcDbSpline
 62
7
  6
CONTINUOUS
 70
0
 71
3
 72
10
 73
6
 74
0
 42
0.0000001
 43
0.0000001
 44
0.0000000001
 40
0.0
 40
0.0
 40
0.0
 40
0.0
 40
0.5672503839
 40
0.801074318
 40
1.0
 40
1.0
 40
1.0
 40
1.0
 10
4.1348189655
 20
4.7643555557
 30
0.0
 10
4.1367112665
 20
4.7637606629
 30
0.0
 10
4.1393755617
 20
4.7628933075
 30
0.0
 10
4.1426672247
 20
4.7617124107
 30
0.0
 10
4.1440784012
 20
4.7611651339
 30
0.0
 10
4.1447217861
 20
4.7609006671
 30
0.0
  0
SPLINE
  5
510
100
AcDbEntity
  8
0
100
AcDbSpline
 62
7
  6
CONTINUOUS
 70
0
 71
3
 72
16
 73
12
 74
0
 42
0.0000001
 43
0.0000001
 44
0.0000000001
 40
0.0
 40
0.0
 40
0.0
 40
0.0
 40
0.0712879302
 40
0.1510950708
 40
0.2450439256
 40
0.3564916436
 40
0.4194187236
 40
0.487292426
 40
0.6380632488
 40
0.8090065224
 40
1.0
 40
1.0
 40
1.0
 40
1.0
 10
5.7370078191
 20
4.7286214448
 30
0.0
 10
5.7370079932
 20
4.7289617093
 30
0.0
 10
5.7371473009
 20
4.7296868787
 30
0.0
 10
5.7377262464
 20
4.7307189647
 30
0.0
 10
5.7386502693
 20
4.7317298201
 30
0.0
 10
5.7396589703
 20
4.7325256242
 30
0.0
 10
5.7406242122
 20
4.7331627924
 30
0.0
 10
5.7417827668
 20
4.7338450756
 30
0.0
 10
5.743446857
 20
4.7346795406
 30
0.0
 10
5.7457033549
 20
4.7356298466
 30
0.0
 10
5.7473295291
 20
4.7362153233
 30
0.0
 10
5.7481934657
 20
4.7365063306
 30
0.0
  0
SPLINE
  5
511
100
AcDbEntity
  8
0
100
AcDbSpline
 62
7
  6
CONTINUOUS
 70
0
 71
3
 72
15
 73
11
 74
0
 42
0.0000001
 43
0.0000001
 44
0.0000000001
 40
0.0
 40
0.0
 40
0.0
 40
0.0
 40
0.0889351465
 40
0.1919440276
 40
0.3075833626
 40
0.4339187173
 40
0.5688044037
 40
0.7098817849
 40
0.8546329936
 40
1.0
 40
1.0
 40
1.0
 40
1.0
 10
5.7481934657
 20
4.7365063306
 30
0.0
 10
5.7500857937
 20
4.73714374
 30
0.0
 10
5.7542308429
 20
4.7383389042
 30
0.0
 10
5.7609689185
 20
4.7398635667
 30
0.0
 10
5.7685968998
 20
4.7412223412
 30
0.0
 10
5.7769787793
 20
4.7423915509
 30
0.0
 10
5.7859624175
 20
4.7433439901
 30
0.0
 10
5.7953824358
 20
4.7440614679
 30
0.0
 10
5.8050538228
 20
4.7445249599
 30
0.0
 10
5.8115672056
 20
4.744660025
 30
0.0
 10
5.8148309525
 20
4.744681885
 30
0.0
  0
SPLINE
  5
512
100
AcDbEntity
  8
0
100
AcDbSpline
 62
7
  6
CONTINUOUS
 70
0
 71
3
 72
10
 73
6
 74
0
 42
0.0000001
 43
0.0000001
 44
0.0000000001
 40
0.0
 40
0.0
 40
0.0
 40
0.0
 40
0.3703751084
 40
0.6488329567
 40
1.0
 40
1.0
 40
1.0
 40
1.0
 10
6.8473899768
 20
4.7173679971
 30
0.0
 10
6.847390158
 20
4.7175538514
 30
0.0
 10
6.8475983206
 20
4.7178539644
 30
0.0
 10
6.847969084
 20
4.718177898
 30
0.0
 10
6.8482315187
 20
4.7183595016
 30
0.0
 10
6.8483800678
 20
4.7184542917
 30
0.0
  0
SPLINE
  5
513
100
AcDbEntity
  8
0
100
AcDbSpline
 62
7
  6
CONTINUOUS
 70
0
 71
3
 72
14
 73
10
 74
0
 42
0.0000001
 43
0.0000001
 44
0.0000000001
 40
0.0
 40
0.0
 40
0.0
 40
0.0
 40
0.0634260481
 40
0.1452666442
 40
0.2452979598
 40
0.3631449447
 40
0.4983109725
 40
0.6500549907
 40
1.0
 40
1.0
 40
1.0
 40
1.0
 10
6.8483800678
 20
4.7184542917
 30
0.0
 10
6.848711246
 20
4.7186656186
 30
0.0
 10
6.8495055988
 20
4.7190924848
 30
0.0
 10
6.8508920501
 20
4.7197148392
 30
0.0
 10
6.8526205277
 20
4.7203938983
 30
0.0
 10
6.8546817073
 20
4.7211249564
 30
0.0
 10
6.8570652233
 20
4.7219029582
 30
0.0
 10
6.8608384334
 20
4.7230538288
 30
0.0
 10
6.8638320291
 20
4.7238891032
 30
0.0
 10
6.8659252839
 20
4.724451728
 30
0.0
  0
SPLINE
  5
514
100
AcDbEntity
  8
0
100
AcDbSpline
 62
7
  6
CONTINUOUS
 70
0
 71
3
 72
13
 73
9
 74
0
 42
0.0000001
 43
0.0000001
 44
0.0000000001
 40
0.0
 40
0.0
 40
0.0
 40
0.0
 40
0.1001696177
 40
0.2122111016
 40
0.3339298026
 40
0.4629149487
 40
0.7325585074
 40
1.0
 40
1.0
 40
1.0
 40
1.0
 10
6.8659252839
 20
4.724451728
 30
0.0
 10
6.8683729988
 20
4.7251096245
 30
0.0
 10
6.8735745784
 20
4.7264438402
 30
0.0
 10
6.8817932828
 20
4.7284060749
 30
0.0
 10
6.8907508072
 20
4.7304094275
 30
0.0
 10
6.9036339491
 20
4.7331266792
 30
0.0
 10
6.9201806438
 20
4.7363347449
 30
0.0
 10
6.9335736696
 20
4.7386467065
 30
0.0
 10
6.9402555276
 20
4.7397171718
 30
0.0
  0
SPLINE
  5
515
100
AcDbEntity
  8
0
100
AcDbSpline
 62
7
  6
CONTINUOUS
 70
0
 71
3
 72
10
 73
6
 74
0
 42
0.0000001
 43
0.0000001
 44
0.0000000001
 40
0.0
 40
0.0
 40
0.0
 40
0.0
 40
0.199320171
 40
0.433261014
 40
1.0
 40
1.0
 40
1.0
 40
1.0
 10
7.1056329014
 20
4.7608895807
 30
0.0
 10
7.1062647773
 20
4.7611498788
 30
0.0
 10
7.1076493908
 20
4.7616887371
 30
0.0
 10
7.1108751687
 20
4.7628510696
 30
0.0
 10
7.1134850892
 20
4.7637043914
 30
0.0
 10
7.1153382421
 20
4.7642888198
 30
0.0
  0
SPLINE
  5
516
100
AcDbEntity
  8
0
100
AcDbSpline
 62
7
  6
CONTINUOUS
 70
0
 71
3
 72
10
 73
6
 74
0
 42
0.0000001
 43
0.0000001
 44
0.0000000001
 40
0.0
 40
0.0
 40
0.0
 40
0.0
 40
0.2109264455
 40
0.4503882118
 40
1.0
 40
1.0
 40
1.0
 40
1.0
 10
7.1171566883
 20
4.7648552288
 30
0.0
 10
7.1193050954
 20
4.7655165562
 30
0.0
 10
7.1239077635
 20
4.766879348
 30
0.0
 10
7.1341687545
 20
4.7697589778
 30
0.0
 10
7.1423032647
 20
4.7718941579
 30
0.0
 10
7.147979946
 20
4.7733376416
 30
0.0
  0
SPLINE
  5
517
100
AcDbEntity
  8
0
100
AcDbSpline
 62
9
  6
CONTINUOUS
 70
0
 71
3
 72
17
 73
13
 74
0
 42
0.0000001
 43
0.0000001
 44
0.0000000001
 40
0.0
 40
0.0
 40
0.0
 40
0.0
 40
0.0175353797
 40
0.037203131
 40
0.0613210378
 40
0.0911855187
 40
0.1705099614
 40
0.2779102328
 40
0.4143342799
 40
0.5802164811
 40
0.7755889943
 40
1.0
 40
1.0
 40
1.0
 40
1.0
 10
4.7007499299
 20
4.6030741186
 30
0.0
 10
4.7007500054
 20
4.6030988367
 30
0.0
 10
4.7007623755
 20
4.6031518424
 30
0.0
 10
4.7008156912
 20
4.6032220241
 30
0.0
 10
4.700899213
 20
4.6032849882
 30
0.0
 10
4.7010674514
 20
4.6033700836
 30
0.0
 10
4.7013620602
 20
4.603456729
 30
0.0
 10
4.7018104721
 20
4.6035375774
 30
0.0
 10
4.7023849799
 20
4.6036007394
 30
0.0
 10
4.703085168
 20
4.6036459061
 30
0.0
 10
4.7039104304
 20
4.6036724096
 30
0.0
 10
4.7045021891
 20
4.6036773324
 30
0.0
 10
4.7048185236
 20
4.6036772281
 30
0.0
  0
SPLINE
  5
518
100
AcDbEntity
  8
0
100
AcDbSpline
 62
9
  6
CONTINUOUS
 70
0
 71
3
 72
23
 73
19
 74
0
 42
0.0000001
 43
0.0000001
 44
0.0000000001
 40
0.0
 40
0.0
 40
0.0
 40
0.0
 40
0.2017014698
 40
0.3888134311
 40
0.4753706618
 40
0.5565219829
 40
0.6317584956
 40
0.7006405924
 40
0.7627655189
 40
0.8178215472
 40
0.8655622258
 40
0.9058483285
 40
0.9387244903
 40
0.9644856536
 40
0.9749772985
 40
0.9841416378
 40
0.9923220868
 40
1.0
 40
1.0
 40
1.0
 40
1.0
 10
5.8861143951
 20
4.603678075
 30
0.0
 10
5.8897232554
 20
4.6036780802
 30
0.0
 10
5.8966802878
 20
4.6035937676
 30
0.0
 10
5.9051803679
 20
4.6032548658
 30
0.0
 10
5.9115155181
 20
4.6028388943
 30
0.0
 10
5.9158471003
 20
4.6024719742
 30
0.0
 10
5.9198552817
 20
4.6020444997
 30
0.0
 10
5.9235139534
 20
4.6015600463
 30
0.0
 10
5.926799836
 20
4.6010218088
 30
0.0
 10
5.9296925063
 20
4.6004342372
 30
0.0
 10
5.9321744513
 20
4.5998019716
 30
0.0
 10
5.9342332083
 20
4.5991292463
 30
0.0
 10
5.9358583142
 20
4.5984221552
 30
0.0
 10
5.9369182928
 20
4.5977659791
 30
0.0
 10
5.9375125043
 20
4.5972074272
 30
0.0
 10
5.9378138341
 20
4.596806869
 30
0.0
 10
5.937999352
 20
4.59639457
 30
0.0
 10
5.9380420105
 20
4.5961095006
 30
0.0
 10
5.9380424161
 20
4.5959721273
 30
0.0
  0
SPLINE
  5
519
100
AcDbEntity
  8
0
100
AcDbSpline
 62
9
  6
CONTINUOUS
 70
0
 71
3
 72
16
 73
12
 74
0
 42
0.0000001
 43
0.0000001
 44
0.0000000001
 40
0.0
 40
0.0
 40
0.0
 40
0.0
 40
0.1904966612
 40
0.3671826061
 40
0.5228214242
 40
0.6538942622
 40
0.7612987481
 40
0.8560019523
 40
0.8985881635
 40
0.9369516537
 40
1.0
 40
1.0
 40
1.0
 40
1.0
 10
5.8861143953
 20
4.603678075
 30
0.0
 10
5.8861142963
 20
4.6044590193
 30
0.0
 10
5.8861540803
 20
4.6059646138
 30
0.0
 10
5.8863244817
 20
4.6081021776
 30
0.0
 10
5.886583167
 20
4.6099853152
 30
0.0
 10
5.8869035969
 20
4.6115702253
 30
0.0
 10
5.8872731734
 20
4.6128865378
 30
0.0
 10
5.8876357332
 20
4.6138244316
 30
0.0
 10
5.8879735216
 20
4.6144625445
 30
0.0
 10
5.8883012579
 20
4.6149514272
 30
0.0
 10
5.888606924
 20
4.6152570069
 30
0.0
 10
5.8888363003
 20
4.6153761374
 30
0.0
  0
LINE
  5
51A
100
AcDbEntity
  8
0
100
AcDbLine
 62
9
  6
CONTINUOUS
 10
5.7923221087
 20
4.597977912
 11
5.7888770879
 21
4.5988810319
  0
SPLINE
  5
51B
100
AcDbEntity
  8
0
100
AcDbSpline
 62
9
  6
CONTINUOUS
 70
0
 71
3
 72
34
 73
30
 74
0
 42
0.0000001
 43
0.0000001
 44
0.0000000001
 40
0.0
 40
0.0
 40
0.0
 40
0.0
 40
0.0157068908
 40
0.0284538783
 40
0.0384518402
 40
0.0425497888
 40
0.0461538035
 40
0.0493944273
 40
0.0524521862
 40
0.0555435951
 40
0.0588821202
 40
0.0626424741
 40
0.0669510815
 40
0.0775066177
 40
0.0909052855
 40
0.1072570591
 40
0.1265849075
 40
0.1488521967
 40
0.1739780673
 40
0.2018679614
 40
0.265514152
 40
0.3388722938
 40
0.4208151832
 40
0.5097702503
 40
0.6040746163
 40
0.702047602
 40
0.8019383614
 40
0.9019174306
 40
1.0
 40
1.0
 40
1.0
 40
1.0
 10
5.7888770879
 20
4.5988810319
 30
0.0
 10
5.7883146338
 20
4.5990590382
 30
0.0
 10
5.7873046974
 20
4.5994137411
 30
0.0
 10
5.7859939274
 20
4.6000251262
 30
0.0
 10
5.7851464616
 20
4.6005862256
 30
0.0
 10
5.7846748371
 20
4.6010581467
 30
0.0
 10
5.7844360396
 20
4.6013957338
 30
0.0
 10
5.7842904726
 20
4.6017419512
 30
0.0
 10
5.7842430449
 20
4.6020960189
 30
0.0
 10
5.784296564
 20
4.6024528169
 30
0.0
 10
5.7844485999
 20
4.602807777
 30
0.0
 10
5.7846956125
 20
4.6031607056
 30
0.0
 10
5.7851841705
 20
4.6036644384
 30
0.0
 10
5.7860580494
 20
4.6042799349
 30
0.0
 10
5.7874030422
 20
4.6049786522
 30
0.0
 10
5.7891100856
 20
4.6056797653
 30
0.0
 10
5.7911720414
 20
4.6063792304
 30
0.0
 10
5.7935807122
 20
4.6070735721
 30
0.0
 10
5.7963242642
 20
4.6077598485
 30
0.0
 10
5.8006042306
 20
4.6087012908
 30
0.0
 10
5.8066991288
 20
4.6098123572
 30
0.0
 10
5.8148358878
 20
4.6110121323
 30
0.0
 10
5.8239462718
 20
4.6121009492
 30
0.0
 10
5.8338613345
 20
4.6130633367
 30
0.0
 10
5.8443933724
 20
4.6138802274
 30
0.0
 10
5.8553480307
 20
4.6145371299
 30
0.0
 10
5.8665251717
 20
4.6150187963
 30
0.0
 10
5.8777130757
 20
4.6153063705
 30
0.0
 10
5.8851523647
 20
4.6153730164
 30
0.0
 10
5.8888363393
 20
4.6153748528
 30
0.0
  0
SPLINE
  5
51C
100
AcDbEntity
  8
0
100
AcDbSpline
 62
9
  6
CONTINUOUS
 70
0
 71
3
 72
20
 73
16
 74
0
 42
0.0000001
 43
0.0000001
 44
0.0000000001
 40
0.0
 40
0.0
 40
0.0
 40
0.0
 40
0.0436581718
 40
0.0957166127
 40
0.1551344681
 40
0.2207723167
 40
0.3655840106
 40
0.5191040169
 40
0.6698324925
 40
0.7406390129
 40
0.8066406231
 40
0.8666171277
 40
0.9194636865
 40
0.9641950568
 40
1.0
 40
1.0
 40
1.0
 40
1.0
 10
6.4752408365
 20
4.6153748529
 30
0.0
 10
6.4730845
 20
4.6153744074
 30
0.0
 10
6.4683569836
 20
4.6152873189
 30
0.0
 10
6.4607005513
 20
4.6149790047
 30
0.0
 10
6.4519664536
 20
4.6144813147
 30
0.0
 10
6.4386698511
 20
4.6135468597
 30
0.0
 10
6.4207597545
 20
4.6119821386
 30
0.0
 10
6.3987009264
 20
4.609660879
 30
0.0
 10
6.3803127031
 20
4.6074087383
 30
0.0
 10
6.3662427902
 20
4.6054760203
 30
0.0
 10
6.3566285111
 20
4.6040483716
 30
0.0
 10
6.3479089441
 20
4.6026395327
 30
0.0
 10
6.3402467407
 20
4.6012773899
 30
0.0
 10
6.3337857585
 20
4.5999882476
 30
0.0
 10
6.3299081429
 20
4.599094996
 30
0.0
 10
6.3281968811
 20
4.598648884
 30
0.0
  0
SPLINE
  5
51D
100
AcDbEntity
  8
0
100
AcDbSpline
 62
9
  6
CONTINUOUS
 70
0
 71
3
 72
25
 73
21
 74
0
 42
0.0000001
 43
0.0000001
 44
0.0000000001
 40
0.0
 40
0.0
 40
0.0
 40
0.0
 40
0.2179303744
 40
0.3068648273
 40
0.3822817786
 40
0.4441483954
 40
0.4926277433
 40
0.5283851925
 40
0.5420360087
 40
0.5534327261
 40
0.5634088825
 40
0.5731756831
 40
0.5840207596
 40
0.5969175706
 40
0.6309094638
 40
0.6775294073
 40
0.7375402806
 40
0.8112440505
 40
0.8987605244
 40
1.0
 40
1.0
 40
1.0
 40
1.0
 10
6.3281968811
 20
4.598648884
 30
0.0
 10
6.3272786745
 20
4.598409515
 30
0.0
 10
6.3259903048
 20
4.5980528652
 30
0.0
 10
6.3244081367
 20
4.5975347038
 30
0.0
 10
6.3234849873
 20
4.5971905668
 30
0.0
 10
6.3227433851
 20
4.5968652569
 30
0.0
 10
6.3221851852
 20
4.5965594992
 30
0.0
 10
6.3218404169
 20
4.5963018709
 30
0.0
 10
6.3216702215
 20
4.5960972306
 30
0.0
 10
6.3216002541
 20
4.5959596938
 30
0.0
 10
6.3215796003
 20
4.5958225993
 30
0.0
 10
6.3216128995
 20
4.5956902386
 30
0.0
 10
6.3216965754
 20
4.5955679838
 30
0.0
 10
6.3218873369
 20
4.5954016471
 30
0.0
 10
6.322258042
 20
4.5952215898
 30
0.0
 10
6.3228433851
 20
4.5950412176
 30
0.0
 10
6.3236132337
 20
4.5948810483
 30
0.0
 10
6.3245666404
 20
4.5947420005
 30
0.0
 10
6.325703747
 20
4.5946252963
 30
0.0
 10
6.3265236403
 20
4.5945669712
 30
0.0
 10
6.3269636568
 20
4.5945405568
 30
0.0
  0
SPLINE
  5
51E
100
AcDbEntity
  8
0
100
AcDbSpline
 62
9
  6
CONTINUOUS
 70
0
 71
3
 72
19
 73
15
 74
0
 42
0.0000001
 43
0.0000001
 44
0.0000000001
 40
0.0
 40
0.0
 40
0.0
 40
0.0
 40
0.017268373
 40
0.0368883473
 40
0.0612086315
 40
0.0915202245
 40
0.1284624251
 40
0.1723305921
 40
0.2232658642
 40
0.2813291178
 40
0.4188608656
 40
0.5847991429
 40
0.7787883719
 40
1.0
 40
1.0
 40
1.0
 40
1.0
 10
4.7992321825
 20
4.6019323167
 30
0.0
 10
4.7992323617
 20
4.6020026949
 30
0.0
 10
4.7992692557
 20
4.6021546181
 30
0.0
 10
4.7994263673
 20
4.6023547067
 30
0.0
 10
4.799672188
 20
4.6025348603
 30
0.0
 10
4.800007803
 20
4.6027008343
 30
0.0
 10
4.8004346056
 20
4.6028542109
 30
0.0
 10
4.8009530917
 20
4.6029952926
 30
0.0
 10
4.8015629606
 20
4.6031238764
 30
0.0
 10
4.8025545419
 20
4.6032875426
 30
0.0
 10
4.8040199755
 20
4.6034495913
 30
0.0
 10
4.8060433579
 20
4.603583313
 30
0.0
 10
4.8084108467
 20
4.6036624787
 30
0.0
 10
4.8101031034
 20
4.603677408
 30
0.0
 10
4.8110046671
 20
4.603677228
 30
0.0
  0
LINE
  5
51F
100
AcDbEntity
  8
0
100
AcDbLine
 62
9
  6
CONTINUOUS
 10
6.4819605512
 20
4.6116318832
 11
6.4845495619
 21
4.612491564
  0
SPLINE
  5
520
100
AcDbEntity
  8
0
100
AcDbSpline
 62
9
  6
CONTINUOUS
 70
0
 71
3
 72
25
 73
21
 74
0
 42
0.0000001
 43
0.0000001
 44
0.0000000001
 40
0.0
 40
0.0
 40
0.0
 40
0.0
 40
0.05920963
 40
0.1064580456
 40
0.1422123764
 40
0.1561215629
 40
0.1677237289
 40
0.1775235605
 40
0.1863449761
 40
0.205192576
 40
0.2172796202
 40
0.2317784996
 40
0.2689618488
 40
0.3179583355
 40
0.3792832464
 40
0.4532159788
 40
0.5396580179
 40
0.6381149704
 40
0.748038508
 40
1.0
 40
1.0
 40
1.0
 40
1.0
 10
6.4845495619
 20
4.612491564
 30
0.0
 10
6.4848140768
 20
4.6125948663
 30
0.0
 10
6.4852858016
 20
4.612791612
 30
0.0
 10
6.4858938437
 20
4.613101419
 30
0.0
 10
6.4862828115
 20
4.6133610559
 30
0.0
 10
6.4864941414
 20
4.6135665292
 30
0.0
 10
6.4865946358
 20
4.6137042653
 30
0.0
 10
6.4866499707
 20
4.6138403441
 30
0.0
 10
6.4866584875
 20
4.6140244965
 30
0.0
 10
6.4865488079
 20
4.6141987751
 30
0.0
 10
6.4863787638
 20
4.6143341388
 30
0.0
 10
6.4861127241
 20
4.6144878677
 30
0.0
 10
6.4856569593
 20
4.6146542213
 30
0.0
 10
6.4849692315
 20
4.6148222416
 30
0.0
 10
6.4840970912
 20
4.614968652
 30
0.0
 10
6.483040837
 20
4.6150927627
 30
0.0
 10
6.481803397
 20
4.6151938969
 30
0.0
 10
6.4803915113
 20
4.6152728006
 30
0.0
 10
6.4781850182
 20
4.6153520746
 30
0.0
 10
6.4764492479
 20
4.6153722723
 30
0.0
 10
6.4752408365
 20
4.6153748529
 30
0.0
  0
SPLINE
  5
521
100
AcDbEntity
  8
0
100
AcDbSpline
 62
9
  6
CONTINUOUS
 70
0
 71
3
 72
24
 73
20
 74
0
 42
0.0000001
 43
0.0000001
 44
0.0000000001
 40
0.0
 40
0.0
 40
0.0
 40
0.0
 40
0.1913270701
 40
0.3744852487
 40
0.4609081681
 40
0.5428680976
 40
0.6196173282
 40
0.6904340147
 40
0.7547559623
 40
0.8121082168
 40
0.8620429822
 40
0.904212909
 40
0.9385414471
 40
0.9528134832
 40
0.9652201876
 40
0.9758689508
 40
0.9849535096
 40
0.9928187407
 40
1.0
 40
1.0
 40
1.0
 40
1.0
 10
5.6507472306
 20
4.6036782036
 30
0.0
 10
5.6552848513
 20
4.6036783307
 30
0.0
 10
5.6641668351
 20
4.6035518895
 30
0.0
 10
5.6750895235
 20
4.6030742668
 30
0.0
 10
5.6834070823
 20
4.6024943788
 30
0.0
 10
5.6891985889
 20
4.6019827575
 30
0.0
 10
5.6946104
 20
4.6013914691
 30
0.0
 10
5.699591799
 20
4.6007247594
 30
0.0
 10
5.7040983147
 20
4.5999902095
 30
0.0
 10
5.7080910627
 20
4.5991963798
 30
0.0
 10
5.711535433
 20
4.5983519802
 30
0.0
 10
5.714401084
 20
4.5974630831
 30
0.0
 10
5.7164011936
 20
4.59665314
 30
0.0
 10
5.7176782467
 20
4.5959699386
 30
0.0
 10
5.718419415
 20
4.5954829677
 30
0.0
 10
5.7190036802
 20
4.5949896433
 30
0.0
 10
5.7194296978
 20
4.594487239
 30
0.0
 10
5.7196937142
 20
4.5939722673
 30
0.0
 10
5.7197558604
 20
4.5936136049
 30
0.0
 10
5.7197564474
 20
4.5934432911
 30
0.0
  0
SPLINE
  5
522
100
AcDbEntity
  8
0
100
AcDbSpline
 62
9
  6
CONTINUOUS
 70
0
 71
3
 72
15
 73
11
 74
0
 42
0.0000001
 43
0.0000001
 44
0.0000000001
 40
0.0
 40
0.0
 40
0.0
 40
0.0
 40
0.3851292423
 40
0.5471007023
 40
0.6820094838
 40
0.7905277326
 40
0.8829646505
 40
0.955796052
 40
0.9819718164
 40
1.0
 40
1.0
 40
1.0
 40
1.0
 10
5.6507472363
 20
4.6036780837
 30
0.0
 10
5.650747216
 20
4.6051807189
 30
0.0
 10
5.6507573429
 20
4.6073153382
 30
0.0
 10
5.6507929735
 20
4.6099760714
 30
0.0
 10
5.6508242946
 20
4.611557482
 30
0.0
 10
5.6508600038
 20
4.6128674593
 30
0.0
 10
5.6509006951
 20
4.6139348502
 30
0.0
 10
5.650940333
 20
4.6146809644
 30
0.0
 10
5.6509798166
 20
4.6151358152
 30
0.0
 10
5.6510008029
 20
4.6153072172
 30
0.0
 10
5.6510138356
 20
4.6153763387
 30
0.0
  0
SPLINE
  5
523
100
AcDbEntity
  8
0
100
AcDbSpline
 62
9
  6
CONTINUOUS
 70
0
 71
3
 72
24
 73
20
 74
0
 42
0.0000001
 43
0.0000001
 44
0.0000000001
 40
0.0
 40
0.0
 40
0.0
 40
0.0
 40
0.0075691138
 40
0.0156712123
 40
0.0247981265
 40
0.0353003547
 40
0.0474071751
 40
0.061249837
 40
0.0943879125
 40
0.1349948116
 40
0.183086961
 40
0.2385636236
 40
0.3011297813
 40
0.3703700943
 40
0.4458481744
 40
0.527114325
 40
0.6136463888
 40
0.8000407071
 40
1.0
 40
1.0
 40
1.0
 40
1.0
 10
5.3583365734
 20
4.5954407638
 30
0.0
 10
5.3583370607
 20
4.5955855019
 30
0.0
 10
5.3583832149
 20
4.5958865856
 30
0.0
 10
5.3585832721
 20
4.5963217968
 30
0.0
 10
5.3589084296
 20
4.5967450095
 30
0.0
 10
5.3593560955
 20
4.5971579117
 30
0.0
 10
5.3599257897
 20
4.5975620135
 30
0.0
 10
5.3609075163
 20
4.598123997
 30
0.0
 10
5.3624515571
 20
4.5987849744
 30
0.0
 10
5.3646695433
 20
4.5995033787
 30
0.0
 10
5.3673436375
 20
4.6001808801
 30
0.0
 10
5.370458343
 20
4.6008107726
 30
0.0
 10
5.3739933709
 20
4.601388735
 30
0.0
 10
5.3779230938
 20
4.6019107337
 30
0.0
 10
5.3822201096
 20
4.6023722949
 30
0.0
 10
5.3868555005
 20
4.6027689162
 30
0.0
 10
5.3936139305
 20
4.6032176714
 30
0.0
 10
5.4026506602
 20
4.6035859496
 30
0.0
 10
5.4100390411
 20
4.6036776601
 30
0.0
 10
5.4138627251
 20
4.6036772281
 30
0.0
  0
SPLINE
  5
524
100
AcDbEntity
  8
0
100
AcDbSpline
 62
9
  6
CONTINUOUS
 70
0
 71
3
 72
25
 73
21
 74
0
 42
0.0000001
 43
0.0000001
 44
0.0000000001
 40
0.0
 40
0.0
 40
0.0
 40
0.0
 40
0.0070824479
 40
0.0149118072
 40
0.0240180936
 40
0.0347346286
 40
0.0472592884
 40
0.0617055896
 40
0.078123796
 40
0.0965308646
 40
0.1392896649
 40
0.1898297741
 40
0.2477884545
 40
0.3127116356
 40
0.3840266173
 40
0.4610930189
 40
0.5431862374
 40
0.6295238297
 40
0.8115379187
 40
1.0
 40
1.0
 40
1.0
 40
1.0
 10
5.578025605
 20
4.5929006951
 30
0.0
 10
5.5780274515
 20
4.5930775681
 30
0.0
 10
5.5780980145
 20
4.5934513279
 30
0.0
 10
5.578385518
 20
4.593985384
 30
0.0
 10
5.5788437786
 20
4.5945076443
 30
0.0
 10
5.5794698523
 20
4.5950221362
 30
0.0
 10
5.5802636684
 20
4.5955308412
 30
0.0
 10
5.5812248811
 20
4.5960334248
 30
0.0
 10
5.582351773
 20
4.5965295301
 30
0.0
 10
5.584164716
 20
4.5972154035
 30
0.0
 10
5.586836065
 20
4.5980292595
 30
0.0
 10
5.5905082677
 20
4.5989207945
 30
0.0
 10
5.5947585022
 20
4.599760035
 30
0.0
 10
5.5995465963
 20
4.6005371505
 30
0.0
 10
5.6048272944
 20
4.6012441736
 30
0.0
 10
5.610549356
 20
4.6018730121
 30
0.0
 10
5.6166567952
 20
4.6024171821
 30
0.0
 10
5.6253878408
 20
4.6030324894
 30
0.0
 10
5.6367873366
 20
4.6035422174
 30
0.0
 10
5.6460404206
 20
4.6036780941
 30
0.0
 10
5.6507472204
 20
4.6036780864
 30
0.0
  0
SPLINE
  5
525
100
AcDbEntity
  8
0
100
AcDbSpline
 62
9
  6
CONTINUOUS
 70
0
 71
3
 72
25
 73
21
 74
0
 42
0.0000001
 43
0.0000001
 44
0.0000000001
 40
0.0
 40
0.0
 40
0.0
 40
0.0
 40
0.17831291
 40
0.3563358239
 40
0.4425142765
 40
0.5253759393
 40
0.603873391
 40
0.6771026449
 40
0.7442350481
 40
0.8044630877
 40
0.8571502776
 40
0.9018288288
 40
0.9210429568
 40
0.9381227393
 40
0.953072551
 40
0.9659382227
 40
0.9768093162
 40
0.985855356
 40
0.9933953049
 40
1.0
 40
1.0
 40
1.0
 40
1.0
 10
5.4138615555
 20
4.6036782038
 30
0.0
 10
5.4191289082
 20
4.6036783548
 30
0.0
 10
5.42965565
 20
4.6034973137
 30
0.0
 10
5.442714253
 20
4.6028573542
 30
0.0
 10
5.4529384654
 20
4.6020938517
 30
0.0
 10
5.4602199236
 20
4.6014187585
 30
0.0
 10
5.467106472
 20
4.6006418775
 30
0.0
 10
5.4735137212
 20
4.5997744804
 30
0.0
 10
5.4793640518
 20
4.5988295774
 30
0.0
 10
5.4845868021
 20
4.5978182876
 30
0.0
 10
5.4891199909
 20
4.5967535181
 30
0.0
 10
5.4924303548
 20
4.5957945709
 30
0.0
 10
5.494685153
 20
4.5949942296
 30
0.0
 10
5.4960862934
 20
4.5944193999
 30
0.0
 10
5.4972810459
 20
4.5938413007
 30
0.0
 10
5.4982678009
 20
4.5932616438
 30
0.0
 10
5.4990462854
 20
4.5926812185
 30
0.0
 10
5.499616525
 20
4.5920979525
 30
0.0
 10
5.4999768932
 20
4.5915055582
 30
0.0
 10
5.5000660411
 20
4.5910856977
 30
0.0
 10
5.5000665828
 20
4.5908905962
 30
0.0
  0
SPLINE
  5
526
100
AcDbEntity
  8
0
100
AcDbSpline
 62
9
  6
CONTINUOUS
 70
0
 71
3
 72
16
 73
12
 74
0
 42
0.0000001
 43
0.0000001
 44
0.0000000001
 40
0.0
 40
0.0
 40
0.0
 40
0.0
 40
0.3725940471
 40
0.5301389835
 40
0.6623199586
 40
0.7699638814
 40
0.8638269068
 40
0.9053798907
 40
0.9421469596
 40
0.9736609068
 40
1.0
 40
1.0
 40
1.0
 40
1.0
 10
5.4138615755
 20
4.6036780833
 30
0.0
 10
5.4138617316
 20
4.6051820801
 30
0.0
 10
5.413777375
 20
4.6073242186
 30
0.0
 10
5.4134824151
 20
4.6099821464
 30
0.0
 10
5.4132231971
 20
4.6115660495
 30
0.0
 10
5.4129247078
 20
4.6128802381
 30
0.0
 10
5.412631589
 20
4.6138187721
 30
0.0
 10
5.4123579869
 20
4.6144583732
 30
0.0
 10
5.4121463177
 20
4.6148490268
 30
0.0
 10
5.4119214923
 20
4.615159294
 30
0.0
 10
5.4117466516
 20
4.6153189349
 30
0.0
 10
5.4116571609
 20
4.6153763387
 30
0.0
  0
LINE
  5
527
100
AcDbEntity
  8
0
100
AcDbLine
 62
9
  6
CONTINUOUS
 10
5.3547751191
 20
4.6025901109
 11
5.3520107625
 21
4.6034868846
  0
SPLINE
  5
528
100
AcDbEntity
  8
0
100
AcDbSpline
 62
9
  6
CONTINUOUS
 70
0
 71
3
 72
28
 73
24
 74
0
 42
0.0000001
 43
0.0000001
 44
0.0000000001
 40
0.0
 40
0.0
 40
0.0
 40
0.0
 40
0.0206416144
 40
0.0384674859
 40
0.0535442522
 40
0.066006079
 40
0.0761215892
 40
0.084435616
 40
0.091915161
 40
0.099825311
 40
0.1092473426
 40
0.1208371102
 40
0.1349412026
 40
0.1517428358
 40
0.1713428862
 40
0.1937984881
 40
0.247237037
 40
0.3116090161
 40
0.3862473314
 40
0.470354841
 40
0.5630716545
 40
0.7706689367
 40
1.0
 40
1.0
 40
1.0
 40
1.0
 10
5.3520107625
 20
4.6034868846
 30
0.0
 10
5.3515402158
 20
4.6036588331
 30
0.0
 10
5.3506703272
 20
4.603999367
 30
0.0
 10
5.3494917014
 20
4.6045494175
 30
0.0
 10
5.3485359833
 20
4.6050997055
 30
0.0
 10
5.3478025589
 20
4.6056503528
 30
0.0
 10
5.3472899197
 20
4.606205355
 30
0.0
 10
5.3470024124
 20
4.6067792404
 30
0.0
 10
5.3469736131
 20
4.6073727575
 30
0.0
 10
5.3472115367
 20
4.6079428347
 30
0.0
 10
5.3476780907
 20
4.6084771348
 30
0.0
 10
5.3483617437
 20
4.6089924701
 30
0.0
 10
5.3492651872
 20
4.6094945675
 30
0.0
 10
5.3503903123
 20
4.6099844073
 30
0.0
 10
5.3517378977
 20
4.6104610007
 30
0.0
 10
5.3539624745
 20
4.6111143433
 30
0.0
 10
5.3572873945
 20
4.6118594478
 30
0.0
 10
5.3618933683
 20
4.6126417422
 30
0.0
 10
5.3672642133
 20
4.6133418216
 30
0.0
 10
5.3733373574
 20
4.6139523204
 30
0.0
 10
5.3826410582
 20
4.6146626774
 30
0.0
 10
5.395486096
 20
4.6152375474
 30
0.0
 10
5.4060911575
 20
4.6153721094
 30
0.0
 10
5.4116571064
 20
4.6153748528
 30
0.0
  0
SPLINE
  5
529
100
AcDbEntity
  8
0
100
AcDbSpline
 62
9
  6
CONTINUOUS
 70
0
 71
3
 72
13
 73
9
 74
0
 42
0.0000001
 43
0.0000001
 44
0.0000000001
 40
0.0
 40
0.0
 40
0.0
 40
0.0
 40
0.087362479
 40
0.1800647189
 40
0.2818452778
 40
0.3955057775
 40
0.6654681322
 40
1.0
 40
1.0
 40
1.0
 40
1.0
 10
5.7963105091
 20
4.5903517303
 30
0.0
 10
5.7963107907
 20
4.5904670702
 30
0.0
 10
5.7963404737
 20
4.5907055066
 30
0.0
 10
5.7964678961
 20
4.5910577479
 30
0.0
 10
5.7966760567
 20
4.5914095621
 30
0.0
 10
5.7970831442
 20
4.5919069562
 30
0.0
 10
5.7978137943
 20
4.5925218253
 30
0.0
 10
5.7984944109
 20
4.5929415828
 30
0.0
 10
5.7988804149
 20
4.59315622
 30
0.0
  0
SPLINE
  5
52A
100
AcDbEntity
  8
0
100
AcDbSpline
 62
9
  6
CONTINUOUS
 70
0
 71
3
 72
18
 73
14
 74
0
 42
0.0000001
 43
0.0000001
 44
0.0000000001
 40
0.0
 40
0.0
 40
0.0
 40
0.0
 40
0.0272141228
 40
0.061010114
 40
0.1012367412
 40
0.1476597475
 40
0.1999681514
 40
0.2576914174
 40
0.3873025861
 40
0.531948664
 40
0.6861562871
 40
0.8441672082
 40
1.0
 40
1.0
 40
1.0
 40
1.0
 10
5.7988804149
 20
4.59315622
 30
0.0
 10
5.7995804843
 20
4.5935454929
 30
0.0
 10
5.8012195214
 20
4.59429148
 30
0.0
 10
5.8040294712
 20
4.5952877591
 30
0.0
 10
5.8074377003
 20
4.5962702614
 30
0.0
 10
5.8114151276
 20
4.5972275504
 30
0.0
 10
5.8159280025
 20
4.5981483442
 30
0.0
 10
5.8228767002
 20
4.5993645516
 30
0.0
 10
5.8325594809
 20
4.6007016137
 30
0.0
 10
5.8451077731
 20
4.6019812671
 30
0.0
 10
5.858522805
 20
4.6029405956
 30
0.0
 10
5.8722881636
 20
4.6035360956
 30
0.0
 10
5.8815262834
 20
4.6036777534
 30
0.0
 10
5.886113054
 20
4.6036772282
 30
0.0
  0
SPLINE
  5
52B
100
AcDbEntity
  8
0
100
AcDbSpline
 62
9
  6
CONTINUOUS
 70
0
 71
3
 72
32
 73
28
 74
0
 42
0.0000001
 43
0.0000001
 44
0.0000000001
 40
0.0
 40
0.0
 40
0.0
 40
0.0
 40
0.0531351088
 40
0.1164102125
 40
0.1882578699
 40
0.2667815881
 40
0.3499568696
 40
0.4356650589
 40
0.5217231246
 40
0.6059884398
 40
0.6863756102
 40
0.7608802334
 40
0.8277117304
 40
0.8577090482
 40
0.8851812757
 40
0.9099747471
 40
0.9319384309
 40
0.9509264257
 40
0.966832229
 40
0.9736135164
 40
0.9796083531
 40
0.9848167771
 40
0.9892445208
 40
0.9929079409
 40
0.995845082
 40
0.9981447042
 40
1.0
 40
1.0
 40
1.0
 40
1.0
 10
4.8110001507
 20
4.6036782045
 30
0.0
 10
4.813340993
 20
4.6036783245
 30
0.0
 10
4.8184693062
 20
4.6035608376
 30
0.0
 10
4.8267531784
 20
4.6031479364
 30
0.0
 10
4.8361424373
 20
4.6024841965
 30
0.0
 10
4.8463926115
 20
4.6015892696
 30
0.0
 10
4.8572361329
 20
4.6004834404
 30
0.0
 10
4.8683937923
 20
4.5991964725
 30
0.0
 10
4.8795818121
 20
4.5977615572
 30
0.0
 10
4.8905181873
 20
4.5962145453
 30
0.0
 10
4.9009295967
 20
4.5945968357
 30
0.0
 10
4.9105575507
 20
4.5929468213
 30
0.0
 10
4.9179733787
 20
4.5915369666
 30
0.0
 10
4.9233332488
 20
4.5904143584
 30
0.0
 10
4.9268695287
 20
4.589620883
 30
0.0
 10
4.9300478628
 20
4.5888506885
 30
0.0
 10
4.9328480044
 20
4.5881091159
 30
0.0
 10
4.9352509776
 20
4.5874008843
 30
0.0
 10
4.9369920599
 20
4.586815778
 30
0.0
 10
4.9381710908
 20
4.586360786
 30
0.0
 10
4.9388997108
 20
4.5860490303
 30
0.0
 10
4.9395198763
 20
4.5857489677
 30
0.0
 10
4.9400307362
 20
4.5854610515
 30
0.0
 10
4.9404322041
 20
4.5851858081
 30
0.0
 10
4.9407245167
 20
4.5849219947
 30
0.0
 10
4.940910473
 20
4.5846666112
 30
0.0
 10
4.940960115
 20
4.5844832574
 30
0.0
 10
4.9409598259
 20
4.5844015237
 30
0.0
  0
SPLINE
  5
52C
100
AcDbEntity
  8
0
100
AcDbSpline
 62
9
  6
CONTINUOUS
 70
0
 71
3
 72
13
 73
9
 74
0
 42
0.0000001
 43
0.0000001
 44
0.0000000001
 40
0.0
 40
0.0
 40
0.0
 40
0.0
 40
0.2922037569
 40
0.5437675921
 40
0.6527621143
 40
0.7634674658
 40
0.8795815465
 40
1.0
 40
1.0
 40
1.0
 40
1.0
 10
4.811000162
 20
4.6036780833
 30
0.0
 10
4.811000775
 20
4.60520108
 30
0.0
 10
4.810542109
 20
4.6080588191
 30
0.0
 10
4.8089411292
 20
4.6111298888
 30
0.0
 10
4.8073008443
 20
4.6129704723
 30
0.0
 10
4.8059294607
 20
4.6140726801
 30
0.0
 10
4.8043234635
 20
4.6149314626
 30
0.0
 10
4.8031262555
 20
4.6152732606
 30
0.0
 10
4.8025071439
 20
4.6153763375
 30
0.0
  0
SPLINE
  5
52D
100
AcDbEntity
  8
0
100
AcDbSpline
 62
9
  6
CONTINUOUS
 70
0
 71
3
 72
28
 73
24
 74
0
 42
0.0000001
 43
0.0000001
 44
0.0000000001
 40
0.0
 40
0.0
 40
0.0
 40
0.0
 40
0.0845188109
 40
0.1556244808
 40
0.2133168986
 40
0.2577461282
 40
0.2751543303
 40
0.289552422
 40
0.3012475755
 40
0.3108125805
 40
0.3192667269
 40
0.3280277876
 40
0.3383897467
 40
0.3511703978
 40
0.3668139549
 40
0.3855643071
 40
0.4328848085
 40
0.4937900171
 40
0.5685761392
 40
0.6572538495
 40
0.7592231413
 40
0.8737300529
 40
1.0
 40
1.0
 40
1.0
 40
1.0
 10
4.7945338951
 20
4.610895322
 30
0.0
 10
4.7939754948
 20
4.6110541674
 30
0.0
 10
4.7929511407
 20
4.611360399
 30
0.0
 10
4.791563918
 20
4.6118342681
 30
0.0
 10
4.7904608118
 20
4.6122814791
 30
0.0
 10
4.7897261875
 20
4.6126536052
 30
0.0
 10
4.7892918106
 20
4.6129474338
 30
0.0
 10
4.7890645568
 20
4.6131429227
 30
0.0
 10
4.7889075022
 20
4.6133329939
 30
0.0
 10
4.7888211468
 20
4.6135220389
 30
0.0
 10
4.788815583
 20
4.6137118472
 30
0.0
 10
4.788895508
 20
4.6138893954
 30
0.0
 10
4.7890489505
 20
4.6140495125
 30
0.0
 10
4.7892715142
 20
4.6141982765
 30
0.0
 10
4.7895646033
 20
4.614338223
 30
0.0
 10
4.7900932323
 20
4.6145287574
 30
0.0
 10
4.7909434128
 20
4.6147325292
 30
0.0
 10
4.7921852535
 20
4.6149306588
 30
0.0
 10
4.7937184312
 20
4.6150933314
 30
0.0
 10
4.795537567
 20
4.6152191087
 30
0.0
 10
4.7976319238
 20
4.6153087209
 30
0.0
 10
4.7999857233
 20
4.6153624349
 30
0.0
 10
4.8016396273
 20
4.6153740929
 30
0.0
 10
4.8025069665
 20
4.6153748528
 30
0.0
  0
SPLINE
  5
52E
100
AcDbEntity
  8
0
100
AcDbSpline
 62
9
  6
CONTINUOUS
 70
0
 71
3
 72
30
 73
26
 74
0
 42
0.0000001
 43
0.0000001
 44
0.0000000001
 40
0.0
 40
0.0
 40
0.0
 40
0.0
 40
0.0038929456
 40
0.0067978601
 40
0.0104668457
 40
0.0149361739
 40
0.0202196471
 40
0.0263214314
 40
0.0332406642
 40
0.0495081355
 40
0.0689358648
 40
0.0914096087
 40
0.1167929407
 40
0.1756012455
 40
0.2438517695
 40
0.3197838471
 40
0.4014389579
 40
0.4867150928
 40
0.5734051224
 40
0.6592466963
 40
0.7419775776
 40
0.8193942551
 40
0.8894170078
 40
0.9501597909
 40
1.0
 40
1.0
 40
1.0
 40
1.0
 10
6.3345374727
 20
4.584109745
 30
0.0
 10
6.3345375842
 20
4.5842836999
 30
0.0
 10
6.3347341783
 20
4.5845642403
 30
0.0
 10
6.3350899726
 20
4.5848548058
 30
0.0
 10
6.3355092846
 20
4.5851222843
 30
0.0
 10
6.3360402525
 20
4.5853998389
 30
0.0
 10
6.3366863109
 20
4.5856921157
 30
0.0
 10
6.3374454642
 20
4.5859967751
 30
0.0
 10
6.33867569
 20
4.5864439429
 30
0.0
 10
6.340490846
 20
4.5870216382
 30
0.0
 10
6.342993211
 20
4.5877257923
 30
0.0
 10
6.3459072359
 20
4.5884671949
 30
0.0
 10
6.3505485685
 20
4.5895524547
 30
0.0
 10
6.3572174996
 20
4.5909447697
 30
0.0
 10
6.366134388
 20
4.5926098487
 30
0.0
 10
6.3760846045
 20
4.5942949999
 30
0.0
 10
6.3868093622
 20
4.5959557313
 30
0.0
 10
6.398030255
 20
4.5975477717
 30
0.0
 10
6.4094549627
 20
4.5990289867
 30
0.0
 10
6.4207836374
 20
4.6003600317
 30
0.0
 10
6.4317160713
 20
4.6015053957
 30
0.0
 10
6.441959474
 20
4.6024343734
 30
0.0
 10
6.4512371117
 20
4.6031228579
 30
0.0
 10
6.4592964481
 20
4.6035530933
 30
0.0
 10
6.4642376428
 20
4.603678091
 30
0.0
 10
6.4664647362
 20
4.603678084
 30
0.0
  0
SPLINE
  5
52F
100
AcDbEntity
  8
0
100
AcDbSpline
 62
9
  6
CONTINUOUS
 70
0
 71
3
 72
16
 73
12
 74
0
 42
0.0000001
 43
0.0000001
 44
0.0000000001
 40
0.0
 40
0.0
 40
0.0
 40
0.0
 40
0.029149388
 40
0.0651532976
 40
0.107653667
 40
0.1562796456
 40
0.2698955006
 40
0.4014645847
 40
0.5459049674
 40
0.6976351206
 40
1.0
 40
1.0
 40
1.0
 40
1.0
 10
4.7048134168
 20
4.6036782038
 30
0.0
 10
4.7056984035
 20
4.603678278
 30
0.0
 10
4.7076764167
 20
4.6036320315
 30
0.0
 10
4.7109411183
 20
4.6034733913
 30
0.0
 10
4.7147925077
 20
4.6032171248
 30
0.0
 10
4.7209888108
 20
4.6027204081
 30
0.0
 10
4.7298682853
 20
4.6018632099
 30
0.0
 10
4.7416256528
 20
4.6005595199
 30
0.0
 10
4.7545159079
 20
4.5989803458
 30
0.0
 10
4.7725300091
 20
4.5965906475
 30
0.0
 10
4.7861719504
 20
4.594591433
 30
0.0
 10
4.7952403338
 20
4.5931648028
 30
0.0
  0
SPLINE
  5
530
100
AcDbEntity
  8
0
100
AcDbSpline
 62
9
  6
CONTINUOUS
 70
0
 71
3
 72
13
 73
9
 74
0
 42
0.0000001
 43
0.0000001
 44
0.0000000001
 40
0.0
 40
0.0
 40
0.0
 40
0.0
 40
0.2791114628
 40
0.5257232784
 40
0.6356771153
 40
0.7496117132
 40
0.8715076395
 40
1.0
 40
1.0
 40
1.0
 40
1.0
 10
4.7048134235
 20
4.6036780833
 30
0.0
 10
4.7048141195
 20
4.6052066955
 30
0.0
 10
4.7042780817
 20
4.6081153967
 30
0.0
 10
4.7024558838
 20
4.61116365
 30
0.0
 10
4.7006174575
 20
4.6129823977
 30
0.0
 10
4.6990645828
 20
4.6140825813
 30
0.0
 10
4.6972495579
 20
4.6149370561
 30
0.0
 10
4.6959089514
 20
4.6152737996
 30
0.0
 10
4.6952127466
 20
4.6153763387
 30
0.0
  0
LINE
  5
531
100
AcDbEntity
  8
0
100
AcDbLine
 62
9
  6
CONTINUOUS
 10
4.6966067705
 20
4.6127124491
 11
4.6939152138
 21
4.6133616481
  0
SPLINE
  5
532
100
AcDbEntity
  8
0
100
AcDbSpline
 62
9
  6
CONTINUOUS
 70
0
 71
3
 72
24
 73
20
 74
0
 42
0.0000001
 43
0.0000001
 44
0.0000000001
 40
0.0
 40
0.0
 40
0.0
 40
0.0
 40
0.1026928028
 40
0.1915704431
 40
0.266566537
 40
0.3276672459
 40
0.374966664
 40
0.408853216
 40
0.4211767878
 40
0.4309410388
 40
0.4390816386
 40
0.4471509228
 40
0.4567598621
 40
0.4689412492
 40
0.502859482
 40
0.5508119608
 40
0.6130304528
 40
0.7795078872
 40
1.0
 40
1.0
 40
1.0
 40
1.0
 10
4.6939152138
 20
4.6133616481
 30
0.0
 10
4.6936276708
 20
4.6134373504
 30
0.0
 10
4.693092486
 20
4.6135832654
 30
0.0
 10
4.6923528529
 20
4.6138043216
 30
0.0
 10
4.6917351691
 20
4.6140113729
 30
0.0
 10
4.6912395954
 20
4.6142036185
 30
0.0
 10
4.6908676901
 20
4.6143806912
 30
0.0
 10
4.6906367687
 20
4.6145264739
 30
0.0
 10
4.6905220637
 20
4.6146420937
 30
0.0
 10
4.6904756656
 20
4.6147178224
 30
0.0
 10
4.690463191
 20
4.6147948192
 30
0.0
 10
4.690490448
 20
4.6148675344
 30
0.0
 10
4.6905515267
 20
4.6149307761
 30
0.0
 10
4.690689062
 20
4.6150166696
 30
0.0
 10
4.6909499331
 20
4.6151033496
 30
0.0
 10
4.6913586815
 20
4.6151861618
 30
0.0
 10
4.6921541778
 20
4.6152866883
 30
0.0
 10
4.6934536556
 20
4.6153583908
 30
0.0
 10
4.694574127
 20
4.6153739241
 30
0.0
 10
4.6952125489
 20
4.6153748528
 30
0.0
  0
LINE
  5
533
100
AcDbEntity
  8
0
100
AcDbLine
 62
9
  6
CONTINUOUS
 10
6.4761883433
 20
4.5936063327
 11
6.4774264879
 21
4.5937949726
  0
SPLINE
  5
534
100
AcDbEntity
  8
0
100
AcDbSpline
 62
9
  6
CONTINUOUS
 70
0
 71
3
 72
16
 73
12
 74
0
 42
0.0000001
 43
0.0000001
 44
0.0000000001
 40
0.0
 40
0.0
 40
0.0
 40
0.0
 40
0.3163485199
 40
0.4706888952
 40
0.6151937598
 40
0.7447100228
 40
0.8545456421
 40
0.9007832306
 40
0.9406900392
 40
0.9738749474
 40
1.0
 40
1.0
 40
1.0
 40
1.0
 10
6.4774264879
 20
4.5937949726
 30
0.0
 10
6.4862402989
 20
4.5951342944
 30
0.0
 10
6.4993702604
 20
4.5970233617
 30
0.0
 10
6.5165578237
 20
4.5992935172
 30
0.0
 10
6.5285388087
 20
4.6007716488
 30
0.0
 10
6.5392880272
 20
4.6019861071
 30
0.0
 10
6.5472967692
 20
4.6027862329
 30
0.0
 10
6.5528003479
 20
4.6032489649
 30
0.0
 10
6.5561548985
 20
4.6034867729
 30
0.0
 10
6.55894715
 20
4.6036341112
 30
0.0
 10
6.5606184788
 20
4.6036775148
 30
0.0
 10
6.5613547065
 20
4.6036772281
 30
0.0
  0
SPLINE
  5
535
100
AcDbEntity
  8
0
100
AcDbSpline
 62
9
  6
CONTINUOUS
 70
0
 71
3
 72
18
 73
14
 74
0
 42
0.0000001
 43
0.0000001
 44
0.0000000001
 40
0.0
 40
0.0
 40
0.0
 40
0.0
 40
0.0144113819
 40
0.0361157882
 40
0.0650326711
 40
0.1010420441
 40
0.1439835397
 40
0.1936747533
 40
0.3123699361
 40
0.455023204
 40
0.6191315056
 40
0.8018382322
 40
1.0
 40
1.0
 40
1.0
 40
1.0
 10
4.6533052429
 20
4.6036781535
 30
0.0
 10
4.6535035965
 20
4.6036781569
 30
0.0
 10
4.6540004087
 20
4.603652599
 30
0.0
 10
4.6548926637
 20
4.6035827713
 30
0.0
 10
4.6560796587
 20
4.6034687038
 30
0.0
 10
4.6575559786
 20
4.6033116978
 30
0.0
 10
4.659315245
 20
4.6031116011
 30
0.0
 10
4.6622034808
 20
4.6027675636
 30
0.0
 10
4.6664512417
 20
4.6022344193
 30
0.0
 10
4.6722577176
 20
4.6014755055
 30
0.0
 10
4.6789344192
 20
4.6005769304
 30
0.0
 10
4.6863652772
 20
4.5995543227
 30
0.0
 10
4.6915567038
 20
4.5988268005
 30
0.0
 10
4.694257348
 20
4.598445463
 30
0.0
  0
LINE
  5
536
100
AcDbEntity
  8
0
100
AcDbLine
 62
9
  6
CONTINUOUS
 10
4.694257348
 20
4.598445463
 11
4.6997919386
 21
4.5976600624
  0
LINE
  5
537
100
AcDbEntity
  8
0
100
AcDbLine
 62
9
  6
CONTINUOUS
 10
4.6997919386
 20
4.5976600624
 11
4.7005676001
 21
4.5975493906
  0
LINE
  5
538
100
AcDbEntity
  8
0
100
AcDbLine
 62
9
  6
CONTINUOUS
 10
6.5643843471
 20
4.5986809537
 11
6.5650696745
 21
4.5987800684
  0
SPLINE
  5
539
100
AcDbEntity
  8
0
100
AcDbSpline
 62
9
  6
CONTINUOUS
 70
0
 71
3
 72
20
 73
16
 74
0
 42
0.0000001
 43
0.0000001
 44
0.0000000001
 40
0.0
 40
0.0
 40
0.0
 40
0.0
 40
0.2086890032
 40
0.3986304043
 40
0.5668116599
 40
0.7106175826
 40
0.7725682524
 40
0.8275006162
 40
0.8752320521
 40
0.9155903726
 40
0.9484036421
 40
0.9735005025
 40
0.9907161406
 40
0.9963456758
 40
1.0
 40
1.0
 40
1.0
 40
1.0
 10
6.5650696745
 20
4.5987800684
 30
0.0
 10
6.5675413356
 20
4.5991374147
 30
0.0
 10
6.5722629488
 20
4.5998177044
 30
0.0
 10
6.5789777663
 20
4.6007768804
 30
0.0
 10
6.5849252117
 20
4.6016172897
 30
0.0
 10
6.589357274
 20
4.6022348451
 30
0.0
 10
6.5924480144
 20
4.6026584875
 30
0.0
 10
6.594400177
 20
4.6029224274
 30
0.0
 10
6.5960968054
 20
4.6031478295
 30
0.0
 10
6.59753163
 20
4.6033338208
 30
0.0
 10
6.5986985051
 20
4.6034799955
 30
0.0
 10
6.5995913268
 20
4.6035850669
 30
0.0
 10
6.6001618964
 20
4.6036461736
 30
0.0
 10
6.6004779614
 20
4.6036714568
 30
0.0
 10
6.6005890014
 20
4.6036773406
 30
0.0
 10
6.6006327322
 20
4.6036772281
 30
0.0
  0
SPLINE
  5
53A
100
AcDbEntity
  8
0
100
AcDbSpline
 62
9
  6
CONTINUOUS
 70
0
 71
3
 72
26
 73
22
 74
0
 42
0.0000001
 43
0.0000001
 44
0.0000000001
 40
0.0
 40
0.0
 40
0.0
 40
0.0
 40
0.1108302549
 40
0.2074622688
 40
0.2900633467
 40
0.3589734935
 40
0.4146545305
 40
0.4578291464
 40
0.4751327536
 40
0.4899030287
 40
0.5136581109
 40
0.5245627195
 40
0.5361889994
 40
0.5494815992
 40
0.5650968643
 40
0.6047670424
 40
0.6570944914
 40
0.7226799364
 40
0.8016980148
 40
0.8941605261
 40
1.0
 40
1.0
 40
1.0
 40
1.0
 10
4.9479764279
 20
4.5946075997
 30
0.0
 10
4.9484221307
 20
4.5946376246
 30
0.0
 10
4.9492558955
 20
4.594702799
 30
0.0
 10
4.9504183757
 20
4.5948295849
 30
0.0
 10
4.9514078329
 20
4.5949776216
 30
0.0
 10
4.952226559
 20
4.5951456062
 30
0.0
 10
4.9528769982
 20
4.5953328831
 30
0.0
 10
4.9533109587
 20
4.5955144841
 30
0.0
 10
4.9535684624
 20
4.5956770081
 30
0.0
 10
4.9537397213
 20
4.5958224547
 30
0.0
 10
4.9538542731
 20
4.5959997937
 30
0.0
 10
4.9538643594
 20
4.5961898055
 30
0.0
 10
4.9538254677
 20
4.5963309301
 30
0.0
 10
4.9537431193
 20
4.5964735244
 30
0.0
 10
4.9535622155
 20
4.5966839743
 30
0.0
 10
4.9532149592
 20
4.5969496748
 30
0.0
 10
4.9526620874
 20
4.5972634266
 30
0.0
 10
4.9519397715
 20
4.5975945741
 30
0.0
 10
4.9510493741
 20
4.5979420663
 30
0.0
 10
4.9499918618
 20
4.5983049033
 30
0.0
 10
4.949227986
 20
4.5985405138
 30
0.0
 10
4.9488189176
 20
4.5986615434
 30
0.0
  0
SPLINE
  5
53B
100
AcDbEntity
  8
0
100
AcDbSpline
 62
9
  6
CONTINUOUS
 70
0
 71
3
 72
21
 73
17
 74
0
 42
0.0000001
 43
0.0000001
 44
0.0000000001
 40
0.0
 40
0.0
 40
0.0
 40
0.0
 40
0.0151305091
 40
0.0326420717
 40
0.0744104341
 40
0.1245124671
 40
0.1821579253
 40
0.2463192481
 40
0.3157617359
 40
0.4652712317
 40
0.6197417612
 40
0.7676033535
 40
0.83558062
 40
0.8977494735
 40
0.9527813118
 40
1.0
 40
1.0
 40
1.0
 40
1.0
 10
4.9488189176
 20
4.5986615434
 30
0.0
 10
4.9481056452
 20
4.5988725769
 30
0.0
 10
4.9465578497
 20
4.5992974641
 30
0.0
 10
4.943005892
 20
4.6001733936
 30
0.0
 10
4.9377468658
 20
4.6013006154
 30
0.0
 10
4.9305232386
 20
4.6026621575
 30
0.0
 10
4.9221892461
 20
4.6040679093
 30
0.0
 10
4.912895474
 20
4.6054926855
 30
0.0
 10
4.8991123819
 20
4.6074295803
 30
0.0
 10
4.880892075
 20
4.6096848406
 30
0.0
 10
4.8587990014
 20
4.6120022175
 30
0.0
 10
4.840658941
 20
4.6135553095
 30
0.0
 10
4.8270231113
 20
4.6144855544
 30
0.0
 10
4.8179327961
 20
4.6149841553
 30
0.0
 10
4.8098549695
 20
4.615287081
 30
0.0
 10
4.804828297
 20
4.6153702806
 30
0.0
 10
4.8025069665
 20
4.6153748528
 30
0.0
  0
LINE
  5
53C
100
AcDbEntity
  8
0
100
AcDbLine
 62
9
  6
CONTINUOUS
 10
6.6090227045
 20
4.6150300368
 11
6.6106251197
 21
4.6152956674
  0
LINE
  5
53D
100
AcDbEntity
  8
0
100
AcDbLine
 62
9
  6
CONTINUOUS
 10
6.6106251197
 20
4.6152956674
 11
6.610871547
 21
4.6153614908
  0
SPLINE
  5
53E
100
AcDbEntity
  8
0
100
AcDbSpline
 62
9
  6
CONTINUOUS
 70
0
 71
3
 72
9
 73
5
 74
0
 42
0.0000001
 43
0.0000001
 44
0.0000000001
 40
0.0
 40
0.0
 40
0.0
 40
0.0
 40
0.2082936304
 40
1.0
 40
1.0
 40
1.0
 40
1.0
 10
6.6108488517
 20
4.6153725359
 30
0.0
 10
6.6108464109
 20
4.6153728327
 30
0.0
 10
6.6108346656
 20
4.6153740332
 30
0.0
 10
6.6108228629
 20
4.6153745698
 30
0.0
 10
6.6108135216
 20
4.6153748528
 30
0.0
  0
SPLINE
  5
53F
100
AcDbEntity
  8
0
100
AcDbSpline
 62
9
  6
CONTINUOUS
 70
0
 71
3
 72
31
 73
27
 74
0
 42
0.0000001
 43
0.0000001
 44
0.0000000001
 40
0.0
 40
0.0
 40
0.0
 40
0.0
 40
0.0251043365
 40
0.0472805219
 40
0.0665320932
 40
0.0828951429
 40
0.0964681971
 40
0.1074869655
 40
0.116431208
 40
0.1241942637
 40
0.1320991443
 40
0.1414184273
 40
0.152949822
 40
0.1671021725
 40
0.1840802413
 40
0.2039876553
 40
0.2268575116
 40
0.2526740656
 40
0.3129939399
 40
0.3845323005
 40
0.4665650929
 40
0.5582524723
 40
0.6586177572
 40
0.7665818221
 40
0.8808915455
 40
1.0
 40
1.0
 40
1.0
 40
1.0
 10
5.9421973016
 20
4.6033271731
 30
0.0
 10
5.9427630352
 20
4.6035020801
 30
0.0
 10
5.9438231224
 20
4.6038495593
 30
0.0
 10
5.9452915754
 20
4.6044049804
 30
0.0
 10
5.9465373887
 20
4.6049607597
 30
0.0
 10
5.9475582605
 20
4.6055153311
 30
0.0
 10
5.9483535742
 20
4.6060687174
 30
0.0
 10
5.94892427
 20
4.6066234002
 30
0.0
 10
5.9492713006
 20
4.6071906996
 30
0.0
 10
5.949364655
 20
4.6077832383
 30
0.0
 10
5.9491766956
 20
4.6083612012
 30
0.0
 10
5.9487445192
 20
4.6088960251
 30
0.0
 10
5.9480905078
 20
4.6094068553
 30
0.0
 10
5.9472117438
 20
4.6099023173
 30
0.0
 10
5.9461069366
 20
4.6103841036
 30
0.0
 10
5.9447760488
 20
4.6108510663
 30
0.0
 10
5.9432215544
 20
4.6113020465
 30
0.0
 10
5.9407231915
 20
4.6119122821
 30
0.0
 10
5.9370664774
 20
4.6126037006
 30
0.0
 10
5.9320705401
 20
4.613314428
 30
0.0
 10
5.9263177107
 20
4.6139334211
 30
0.0
 10
5.9198728005
 20
4.6144511104
 30
0.0
 10
5.9128074615
 20
4.6148608591
 30
0.0
 10
5.9052025141
 20
4.6151573734
 30
0.0
 10
5.897151741
 20
4.6153361832
 30
0.0
 10
5.891645838
 20
4.6153749937
 30
0.0
 10
5.8888363393
 20
4.6153748528
 30
0.0
  0
SPLINE
  5
540
100
AcDbEntity
  8
0
100
AcDbSpline
 62
9
  6
CONTINUOUS
 70
0
 71
3
 72
35
 73
31
 74
0
 42
0.0000001
 43
0.0000001
 44
0.0000000001
 40
0.0
 40
0.0
 40
0.0
 40
0.0
 40
0.0194360689
 40
0.0357837547
 40
0.0491226543
 40
0.0596264903
 40
0.0639332479
 40
0.0677130683
 40
0.0711002281
 40
0.0742836744
 40
0.0774931122
 40
0.0809572948
 40
0.084862045
 40
0.0893339032
 40
0.1002590002
 40
0.114095313
 40
0.1309686999
 40
0.1508989057
 40
0.1738487943
 40
0.1997586927
 40
0.2285491086
 40
0.26010692
 40
0.3310227782
 40
0.4113536334
 40
0.4996481545
 40
0.5942896934
 40
0.6935135396
 40
0.7954914549
 40
0.898336075
 40
1.0
 40
1.0
 40
1.0
 40
1.0
 10
5.505234281
 20
4.5987111875
 30
0.0
 10
5.5059291406
 20
4.5988910567
 30
0.0
 10
5.5072011512
 20
4.5992518798
 30
0.0
 10
5.5089112027
 20
4.5998640156
 30
0.0
 10
5.510256171
 20
4.6004965882
 30
0.0
 10
5.5111302868
 20
4.601073879
 30
0.0
 10
5.5116199431
 20
4.6015584821
 30
0.0
 10
5.5118686095
 20
4.6019046967
 30
0.0
 10
5.5120210866
 20
4.6022592795
 30
0.0
 10
5.5120721137
 20
4.6026216276
 30
0.0
 10
5.5120184108
 20
4.6029863986
 30
0.0
 10
5.511862377
 20
4.6033484673
 30
0.0
 10
5.5116083816
 20
4.6037073472
 30
0.0
 10
5.511108174
 20
4.6042182369
 30
0.0
 10
5.5102178464
 20
4.6048416979
 30
0.0
 10
5.5088495779
 20
4.6055471556
 30
0.0
 10
5.5071150978
 20
4.6062518698
 30
0.0
 10
5.5050216952
 20
4.6069525852
 30
0.0
 10
5.502577011
 20
4.6076459678
 30
0.0
 10
5.499791269
 20
4.6083281551
 30
0.0
 10
5.4966761061
 20
4.6089954654
 30
0.0
 10
5.4919127441
 20
4.6098967138
 30
0.0
 10
5.4852419802
 20
4.6109440316
 30
0.0
 10
5.4764644213
 20
4.6120509104
 30
0.0
 10
5.4667905377
 20
4.6130285609
 30
0.0
 10
5.4564029179
 20
4.6138576771
 30
0.0
 10
5.4454973872
 20
4.6145244338
 30
0.0
 10
5.4342791397
 20
4.6150123612
 30
0.0
 10
5.4229639343
 20
4.6153018534
 30
0.0
 10
5.4154114917
 20
4.6153705648
 30
0.0
 10
5.4116571064
 20
4.6153748528
 30
0.0
  0
SPLINE
  5
541
100
AcDbEntity
  8
0
100
AcDbSpline
 62
9
  6
CONTINUOUS
 70
0
 71
3
 72
24
 73
20
 74
0
 42
0.0000001
 43
0.0000001
 44
0.0000000001
 40
0.0
 40
0.0
 40
0.0
 40
0.0
 40
0.0649281628
 40
0.1172146142
 40
0.1568379827
 40
0.1839506243
 40
0.1930557001
 40
0.1995956238
 40
0.2045729416
 40
0.2099828539
 40
0.2175067039
 40
0.2278583427
 40
0.2580142639
 40
0.3014724421
 40
0.3586161494
 40
0.429690799
 40
0.5148917227
 40
0.7283484305
 40
1.0
 40
1.0
 40
1.0
 40
1.0
 10
4.6431666573
 20
4.6153748529
 30
0.0
 10
4.6431277118
 20
4.6153744126
 30
0.0
 10
4.6430574247
 20
4.6153728523
 30
0.0
 10
4.6429634002
 20
4.6153676136
 30
0.0
 10
4.6428925482
 20
4.6153595368
 30
0.0
 10
4.642847608
 20
4.6153503569
 30
0.0
 10
4.6428240775
 20
4.6153400593
 30
0.0
 10
4.6428138867
 20
4.615332521
 30
0.0
 10
4.6428099084
 20
4.6153222976
 30
0.0
 10
4.6428143851
 20
4.6153117382
 30
0.0
 10
4.6428244018
 20
4.6153019128
 30
0.0
 10
4.6428483511
 20
4.6152856818
 30
0.0
 10
4.6428944916
 20
4.6152649499
 30
0.0
 10
4.6429683299
 20
4.6152385404
 30
0.0
 10
4.6430670215
 20
4.615208933
 30
0.0
 10
4.6431907281
 20
4.6151759641
 30
0.0
 10
4.643406275
 20
4.6151236426
 30
0.0
 10
4.64374067
 20
4.6150512346
 30
0.0
 10
4.6440261468
 20
4.6149947781
 30
0.0
 10
4.6441861748
 20
4.6149640406
 30
0.0
  0
LINE
  5
542
100
AcDbEntity
  8
0
100
AcDbLine
 62
9
  6
CONTINUOUS
 10
6.5670165225
 20
4.6101912604
 11
6.5717929638
 21
4.6107832178
  0
LINE
  5
543
100
AcDbEntity
  8
0
100
AcDbLine
 62
9
  6
CONTINUOUS
 10
6.5994829201
 20
4.6141459699
 11
6.6108135216
 21
4.6153748528
  0
LINE
  5
544
100
AcDbEntity
  8
0
100
AcDbLine
 62
9
  6
CONTINUOUS
 10
4.6987915481
 20
4.6091854141
 11
4.6937858704
 21
4.609796366
  0
LINE
  5
545
100
AcDbEntity
  8
0
100
AcDbLine
 62
9
  6
CONTINUOUS
 10
4.6937858704
 20
4.609796366
 11
4.6547965058
 21
4.6143245309
  0
LINE
  5
546
100
AcDbEntity
  8
0
100
AcDbLine
 62
9
  6
CONTINUOUS
 10
4.6547965058
 20
4.6143245309
 11
4.6431666573
 21
4.6153748529
  0
SPLINE
  5
547
100
AcDbEntity
  8
0
100
AcDbSpline
 62
9
  6
CONTINUOUS
 70
0
 71
3
 72
17
 73
13
 74
0
 42
0.0000001
 43
0.0000001
 44
0.0000000001
 40
0.0
 40
0.0
 40
0.0
 40
0.0
 40
0.2243992094
 40
0.4195580169
 40
0.5854234659
 40
0.7220527813
 40
0.8297160433
 40
0.8729228416
 40
0.9092960993
 40
0.9392200332
 40
0.9633886861
 40
1.0
 40
1.0
 40
1.0
 40
1.0
 10
6.5613595102
 20
4.6036779878
 30
0.0
 10
6.5615862611
 20
4.6036779911
 30
0.0
 10
6.5620102389
 20
4.6036743303
 30
0.0
 10
6.5626015441
 20
4.6036550728
 30
0.0
 10
6.5631035167
 20
4.6036227291
 30
0.0
 10
6.5635156035
 20
4.6035773682
 30
0.0
 10
6.5638021252
 20
4.6035265255
 30
0.0
 10
6.5639846745
 20
4.6034761332
 30
0.0
 10
6.5640887093
 20
4.6034381164
 30
0.0
 10
6.5641705017
 20
4.6033961367
 30
0.0
 10
6.5642442347
 20
4.6033421764
 30
0.0
 10
6.5642775525
 20
4.6032817672
 30
0.0
 10
6.5642776451
 20
4.6032447723
 30
0.0
  0
SPLINE
  5
548
100
AcDbEntity
  8
0
100
AcDbSpline
 62
9
  6
CONTINUOUS
 70
0
 71
3
 72
26
 73
22
 74
0
 42
0.0000001
 43
0.0000001
 44
0.0000000001
 40
0.0
 40
0.0
 40
0.0
 40
0.0
 40
0.1173262232
 40
0.2192457487
 40
0.3056693701
 40
0.3765450493
 40
0.4319006185
 40
0.4538261008
 40
0.4719985288
 40
0.4865625813
 40
0.4978358952
 40
0.5065401411
 40
0.5140623953
 40
0.5323724589
 40
0.5617092272
 40
0.6037593896
 40
0.6585613703
 40
0.7257445116
 40
0.8048832813
 40
0.8961502418
 40
1.0
 40
1.0
 40
1.0
 40
1.0
 10
6.5711255465
 20
4.6153748528
 30
0.0
 10
6.5713948983
 20
4.6153769641
 30
0.0
 10
6.5718982794
 20
4.6153772773
 30
0.0
 10
6.5725999598
 20
4.6153637638
 30
0.0
 10
6.5731945799
 20
4.6153365669
 30
0.0
 10
6.5736811853
 20
4.6152958056
 30
0.0
 10
6.5740184513
 20
4.6152485438
 30
0.0
 10
6.5742324531
 20
4.6152006852
 30
0.0
 10
6.574352704
 20
4.6151643221
 30
0.0
 10
6.5744460166
 20
4.6151246617
 30
0.0
 10
6.5745129102
 20
4.6150812004
 30
0.0
 10
6.5745549859
 20
4.6150317448
 30
0.0
 10
6.5745703139
 20
4.614949633
 30
0.0
 10
6.5744885673
 20
4.6148365725
 30
0.0
 10
6.5743207721
 20
4.6147221842
 30
0.0
 10
6.5740610229
 20
4.6145891501
 30
0.0
 10
6.5737127046
 20
4.6144469805
 30
0.0
 10
6.5732771469
 20
4.6142927074
 30
0.0
 10
6.5727570702
 20
4.6141282253
 30
0.0
 10
6.5721520103
 20
4.6139537345
 30
0.0
 10
6.5717191111
 20
4.6138384893
 30
0.0
 10
6.5714882428
 20
4.613778956
 30
0.0
  0
SPLINE
  5
549
100
AcDbEntity
  8
0
100
AcDbSpline
 62
9
  6
CONTINUOUS
 70
0
 71
3
 72
13
 73
9
 74
0
 42
0.0000001
 43
0.0000001
 44
0.0000000001
 40
0.0
 40
0.0
 40
0.0
 40
0.0
 40
0.2772334368
 40
0.5231622427
 40
0.6332658192
 40
0.7476690284
 40
0.870382421
 40
1.0
 40
1.0
 40
1.0
 40
1.0
 10
6.5613595102
 20
4.6036779878
 30
0.0
 10
6.5613588042
 20
4.6052074974
 30
0.0
 10
6.5619069299
 20
4.6081241061
 30
0.0
 10
6.5637619941
 20
4.611168368
 30
0.0
 10
6.565629616
 20
4.6129839095
 30
0.0
 10
6.5672094823
 20
4.6140837467
 30
0.0
 10
6.5690555964
 20
4.6149376006
 30
0.0
 10
6.57041765
 20
4.615273678
 30
0.0
 10
6.5711253797
 20
4.6153761264
 30
0.0
  0
SPLINE
  5
54A
100
AcDbEntity
  8
0
100
AcDbSpline
 62
9
  6
CONTINUOUS
 70
0
 71
3
 72
13
 73
9
 74
0
 42
0.0000001
 43
0.0000001
 44
0.0000000001
 40
0.0
 40
0.0
 40
0.0
 40
0.0
 40
0.2937849657
 40
0.5732722404
 40
0.7002907037
 40
0.8153179242
 40
0.9160300785
 40
1.0
 40
1.0
 40
1.0
 40
1.0
 10
6.4823246541
 20
4.606656322
 30
0.0
 10
6.490220317
 20
4.6076521807
 30
0.0
 10
6.5056371924
 20
4.6095183115
 30
0.0
 10
6.5244921488
 20
4.6116073812
 30
0.0
 10
6.5385484052
 20
4.6130262291
 30
0.0
 10
6.5477930584
 20
4.6138902575
 30
0.0
 10
6.5558832369
 20
4.6145713445
 30
0.0
 10
6.5608734799
 20
4.6149291913
 30
0.0
 10
6.5631439595
 20
4.6150664702
 30
0.0
  0
LINE
  5
54B
100
AcDbEntity
  8
0
100
AcDbLine
 62
9
  6
CONTINUOUS
 10
6.5631439595
 20
4.6150664702
 11
6.5711255465
 21
4.6153748528
  0
LINE
  5
54C
100
AcDbEntity
  8
0
100
AcDbLine
 62
9
  6
CONTINUOUS
 10
4.794428506
 20
4.6056910561
 11
4.7933781634
 21
4.6058285588
  0
SPLINE
  5
54D
100
AcDbEntity
  8
0
100
AcDbSpline
 62
9
  6
CONTINUOUS
 70
0
 71
3
 72
13
 73
9
 74
0
 42
0.0000001
 43
0.0000001
 44
0.0000000001
 40
0.0
 40
0.0
 40
0.0
 40
0.0
 40
0.2820485561
 40
0.5593768917
 40
0.688180426
 40
0.8063325132
 40
0.9111871289
 40
1.0
 40
1.0
 40
1.0
 40
1.0
 10
4.7933781634
 20
4.6058285588
 30
0.0
 10
4.7850707735
 20
4.6069136313
 30
0.0
 10
4.7685804646
 20
4.6089550547
 30
0.0
 10
4.7482639797
 20
4.6112196441
 30
0.0
 10
4.7327684008
 20
4.6127749703
 30
0.0
 10
4.7223619412
 20
4.6137313431
 30
0.0
 10
4.7131303721
 20
4.6144865475
 30
0.0
 10
4.7073908262
 20
4.6148802463
 30
0.0
 10
4.7047570387
 20
4.6150308929
 30
0.0
  0
LINE
  5
54E
100
AcDbEntity
  8
0
100
AcDbLine
 62
9
  6
CONTINUOUS
 10
4.7047570387
 20
4.6150308929
 11
4.6952125489
 21
4.6153748528
  0
SPLINE
  5
54F
100
AcDbEntity
  8
0
100
AcDbSpline
 62
9
  6
CONTINUOUS
 70
0
 71
3
 72
35
 73
31
 74
0
 42
0.0000001
 43
0.0000001
 44
0.0000000001
 40
0.0
 40
0.0
 40
0.0
 40
0.0
 40
0.2163991526
 40
0.3209728346
 40
0.4209302247
 40
0.5148015121
 40
0.6012019325
 40
0.6788422886
 40
0.7466557883
 40
0.7765796209
 40
0.8037305548
 40
0.8280391628
 40
0.8494466703
 40
0.8679235659
 40
0.8834987335
 40
0.8962626834
 40
0.9064261249
 40
0.9106788934
 40
0.9145029703
 40
0.9180427509
 40
0.921478532
 40
0.925006473
 40
0.9288083945
 40
0.9330307872
 40
0.937781335
 40
0.9431348896
 40
0.9491397419
 40
0.9632120887
 40
0.980147752
 40
1.0
 40
1.0
 40
1.0
 40
1.0
 10
5.6510138436
 20
4.6153748529
 30
0.0
 10
5.6442144277
 20
4.6153738795
 30
0.0
 10
5.6341281417
 20
4.6152184696
 30
0.0
 10
5.6209124651
 20
4.6146862813
 30
0.0
 10
5.6115516149
 20
4.6141431487
 30
0.0
 10
5.6027725137
 20
4.6134603952
 30
0.0
 10
5.5947083869
 20
4.6126510495
 30
0.0
 10
5.587481264
 20
4.6117269256
 30
0.0
 10
5.5820402026
 20
4.6108442182
 30
0.0
 10
5.5781915687
 20
4.6100763623
 30
0.0
 10
5.5756984744
 20
4.6095058832
 30
0.0
 10
5.5734848297
 20
4.6089192076
 30
0.0
 10
5.5715584383
 20
4.6083186567
 30
0.0
 10
5.5699257799
 20
4.6077064419
 30
0.0
 10
5.5685899061
 20
4.6070850794
 30
0.0
 10
5.567553126
 20
4.6064569958
 30
0.0
 10
5.5668994395
 20
4.6058946241
 30
0.0
 10
5.5665546087
 20
4.6054338779
 30
0.0
 10
5.5663900682
 20
4.6051054323
 30
0.0
 10
5.5663059018
 20
4.6047735563
 30
0.0
 10
5.5663045336
 20
4.6044401392
 30
0.0
 10
5.5663860044
 20
4.6041086521
 30
0.0
 10
5.566547996
 20
4.6037811593
 30
0.0
 10
5.5667883399
 20
4.6034575587
 30
0.0
 10
5.5671061347
 20
4.6031370873
 30
0.0
 10
5.5675010686
 20
4.6028191958
 30
0.0
 10
5.5681660244
 20
4.6023746757
 30
0.0
 10
5.5692000711
 20
4.6018358863
 30
0.0
 10
5.5706796833
 20
4.6012289812
 30
0.0
 10
5.57177652
 20
4.6008616597
 30
0.0
 10
5.5723724062
 20
4.6006772395
 30
0.0
  0
LINE
  5
550
100
AcDbEntity
  8
0
100
AcDbLine
 62
9
  6
CONTINUOUS
 10
5.5723724062
 20
4.6006772395
 11
5.5745406893
 21
4.6000646237
  0
SPLINE
  5
551
100
AcDbEntity
  8
0
100
AcDbSpline
 62
9
  6
CONTINUOUS
 70
0
 71
3
 72
31
 73
27
 74
0
 42
0.0000001
 43
0.0000001
 44
0.0000000001
 40
0.0
 40
0.0
 40
0.0
 40
0.0
 40
0.0220158798
 40
0.0411027714
 40
0.0572537421
 40
0.07052027
 40
0.0810916525
 40
0.0894584862
 40
0.0931193026
 40
0.0966460983
 40
0.1002364413
 40
0.1040779308
 40
0.1083240842
 40
0.113086904
 40
0.1244356719
 40
0.1385092751
 40
0.1554747
 40
0.1753991156
 40
0.1982812584
 40
0.2527782565
 40
0.3185033252
 40
0.3946033713
 40
0.4800505882
 40
0.5735669377
 40
0.7793798431
 40
1.0
 40
1.0
 40
1.0
 40
1.0
 10
5.7242511726
 20
4.6008639651
 30
0.0
 10
5.7248927301
 20
4.6010494359
 30
0.0
 10
5.7260839783
 20
4.6014192869
 30
0.0
 10
5.7277131123
 20
4.6020243583
 30
0.0
 10
5.7290523964
 20
4.6026376925
 30
0.0
 10
5.7300983749
 20
4.6032591716
 30
0.0
 10
5.7308512194
 20
4.6038899524
 30
0.0
 10
5.731251525
 20
4.6044654789
 30
0.0
 10
5.7313836868
 20
4.6049227056
 30
0.0
 10
5.7313973715
 20
4.6052526399
 30
0.0
 10
5.731329598
 20
4.6055812352
 30
0.0
 10
5.7311823317
 20
4.6059060937
 30
0.0
 10
5.7309580701
 20
4.606227066
 30
0.0
 10
5.7305328566
 20
4.606677233
 30
0.0
 10
5.7297910341
 20
4.6072242792
 30
0.0
 10
5.7286582383
 20
4.6078367668
 30
0.0
 10
5.7272327742
 20
4.6084398432
 30
0.0
 10
5.7255178321
 20
4.6090312586
 30
0.0
 10
5.7226810054
 20
4.6098499252
 30
0.0
 10
5.7184408504
 20
4.6107961026
 30
0.0
 10
5.7125690857
 20
4.6117980123
 30
0.0
 10
5.7057334444
 20
4.6127039446
 30
0.0
 10
5.6980362683
 20
4.6134970596
 30
0.0
 10
5.6864001633
 20
4.6144198133
 30
0.0
 10
5.670642362
 20
4.615181067
 30
0.0
 10
5.6577061237
 20
4.6153673347
 30
0.0
 10
5.6510138436
 20
4.6153748529
 30
0.0
  0
SPLINE
  5
552
100
AcDbEntity
  8
0
100
AcDbSpline
 62
9
  6
CONTINUOUS
 70
0
 71
3
 72
19
 73
15
 74
0
 42
0.0000001
 43
0.0000001
 44
0.0000000001
 40
0.0
 40
0.0
 40
0.0
 40
0.0
 40
0.2217949457
 40
0.4159815496
 40
0.5820335841
 40
0.7195215003
 40
0.7774814993
 40
0.8282496738
 40
0.8718888456
 40
0.9085947542
 40
0.9387389611
 40
0.9629930767
 40
0.9826377304
 40
1.0
 40
1.0
 40
1.0
 40
1.0
 10
6.4664650837
 20
4.6036782036
 30
0.0
 10
6.4672179656
 20
4.6036782451
 30
0.0
 10
6.4686300733
 20
4.6036654441
 30
0.0
 10
6.4706049548
 20
4.6035993839
 30
0.0
 10
6.472291143
 20
4.6034885538
 30
0.0
 10
6.4735116412
 20
4.6033541411
 30
0.0
 10
6.474336466
 20
4.6032179781
 30
0.0
 10
6.4748426976
 20
4.6031109004
 30
0.0
 10
6.4752722539
 20
4.6029931263
 30
0.0
 10
6.4756252656
 20
4.602864818
 30
0.0
 10
6.4759026788
 20
4.6027258974
 30
0.0
 10
6.4761060211
 20
4.6025751229
 30
0.0
 10
6.4762359767
 20
4.6024075692
 30
0.0
 10
6.4762663804
 20
4.6022806121
 30
0.0
 10
6.4762665122
 20
4.6022216761
 30
0.0
  0
SPLINE
  5
553
100
AcDbEntity
  8
0
100
AcDbSpline
 62
9
  6
CONTINUOUS
 70
0
 71
3
 72
13
 73
9
 74
0
 42
0.0000001
 43
0.0000001
 44
0.0000000001
 40
0.0
 40
0.0
 40
0.0
 40
0.0
 40
0.2887839439
 40
0.5390200849
 40
0.6482498958
 40
0.7597934563
 40
0.8774324775
 40
1.0
 40
1.0
 40
1.0
 40
1.0
 10
6.4664650867
 20
4.6036780831
 30
0.0
 10
6.4664644512
 20
4.6052024492
 30
0.0
 10
6.466942253
 20
4.6080728095
 30
0.0
 10
6.4685997361
 20
4.6111387207
 30
0.0
 10
6.470290965
 20
4.6129736945
 30
0.0
 10
6.4717087432
 20
4.6140754382
 30
0.0
 10
6.4733681881
 20
4.6149330688
 30
0.0
 10
6.4746019149
 20
4.6152734176
 30
0.0
 10
6.4752406574
 20
4.6153763387
 30
0.0
  0
SPLINE
  5
554
100
AcDbEntity
  8
0
100
AcDbSpline
 62
7
  6
CONTINUOUS
 70
0
 71
3
 72
22
 73
18
 74
0
 42
0.0000001
 43
0.0000001
 44
0.0000000001
 40
0.0
 40
0.0
 40
0.0
 40
0.0
 40
0.0625117726
 40
0.0937904185
 40
0.1250596097
 40
0.156322848
 40
0.1875874401
 40
0.2501086579
 40
0.3126280995
 40
0.3751461399
 40
0.4376656257
 40
0.5001861355
 40
0.625104938
 40
0.7500290122
 40
0.8125513328
 40
0.8750708075
 40
1.0
 40
1.0
 40
1.0
 40
1.0
 10
5.5502689166
 20
9.0938311972
 30
0.0
 10
5.5497871639
 20
9.0913549803
 30
0.0
 10
5.5492663588
 20
9.087597295
 30
0.0
 10
5.548935487
 20
9.082560381
 30
0.0
 10
5.5488634828
 20
9.0787738083
 30
0.0
 10
5.5489722351
 20
9.0749887201
 30
0.0
 10
5.549362172
 20
9.0699558163
 30
0.0
 10
5.5503048316
 20
9.0637084387
 30
0.0
 10
5.5521422606
 20
9.0563542015
 30
0.0
 10
5.5546871523
 20
9.049213291
 30
0.0
 10
5.557910044
 20
9.0423517082
 30
0.0
 10
5.5630430484
 20
9.0336541938
 30
0.0
 10
5.5708991041
 20
9.0237064114
 30
0.0
 10
5.5803549948
 20
9.0152711729
 30
0.0
 10
5.5886967089
 20
9.009578637
 30
0.0
 10
5.5975053257
 20
9.004642298
 30
0.0
 10
5.6045801378
 20
9.0018298317
 30
0.0
 10
5.6094033185
 20
9.000362363
 30
0.0
  0
SPLINE
  5
555
100
AcDbEntity
  8
0
100
AcDbSpline
 62
7
  6
CONTINUOUS
 70
0
 71
3
 72
21
 73
17
 74
0
 42
0.0000001
 43
0.0000001
 44
0.0000000001
 40
0.0
 40
0.0
 40
0.0
 40
0.0
 40
0.124806285
 40
0.2496254503
 40
0.3121551628
 40
0.3746847035
 40
0.4372156693
 40
0.4997563465
 40
0.562297186
 40
0.6248094586
 40
0.6873215788
 40
0.7498483686
 40
0.8123716972
 40
0.8749135478
 40
0.9375163752
 40
1.0
 40
1.0
 40
1.0
 40
1.0
 10
5.7168430443
 20
9.123906701
 30
0.0
 10
5.7136325842
 20
9.1302403979
 30
0.0
 10
5.7058384413
 20
9.1422708992
 30
0.0
 10
5.6929376833
 20
9.1547199372
 30
0.0
 10
5.6811242735
 20
9.1626792714
 30
0.0
 10
5.6716089905
 20
9.1675722444
 30
0.0
 10
5.6615700835
 20
9.1712744493
 30
0.0
 10
5.6511570617
 20
9.1737374578
 30
0.0
 10
5.6405230595
 20
9.1749218694
 30
0.0
 10
5.6298232518
 20
9.1747773147
 30
0.0
 10
5.619232939
 20
9.1732372759
 30
0.0
 10
5.6089348776
 20
9.170323958
 30
0.0
 10
5.599108516
 20
9.1660779165
 30
0.0
 10
5.5899350097
 20
9.1605480774
 30
0.0
 10
5.5816168489
 20
9.1538050356
 30
0.0
 10
5.5767476758
 20
9.1485756757
 30
0.0
 10
5.5745204012
 20
9.1458048497
 30
0.0
  0
LINE
  5
556
100
AcDbEntity
  8
0
100
AcDbLine
 62
7
  6
CONTINUOUS
 10
5.6998245139
 20
9.087219834
 11
5.6251886126
 21
9.0850880835
  0
LINE
  5
557
100
AcDbEntity
  8
0
100
AcDbLine
 62
7
  6
CONTINUOUS
 10
5.6251886126
 20
9.1406480835
 11
5.5687046317
 21
9.1390418221
  0
LINE
  5
558
100
AcDbEntity
  8
0
100
AcDbLine
 62
7
  6
CONTINUOUS
 10
5.6968878007
 20
9.069998775
 11
5.555053888
 21
9.0655060823
  0
LINE
  5
559
100
AcDbEntity
  8
0
100
AcDbLine
 62
7
  6
CONTINUOUS
 10
5.555053888
 20
9.0655060823
 11
5.5546772433
 21
9.0654939021
  0
LINE
  5
55A
100
AcDbEntity
  8
0
100
AcDbLine
 62
7
  6
CONTINUOUS
 10
5.5762769304
 20
9.1468172498
 11
5.5758652277
 21
9.1468050515
  0
LINE
  5
55B
100
AcDbEntity
  8
0
100
AcDbLine
 62
7
  6
CONTINUOUS
 10
5.6706702793
 20
9.1494793305
 11
5.6251886126
 21
9.1482272871
  0
LINE
  5
55C
100
AcDbEntity
  8
0
100
AcDbLine
 62
7
  6
CONTINUOUS
 10
5.7002327702
 20
9.09473854
 11
5.6251886126
 21
9.0926672871
  0
LINE
  5
55D
100
AcDbEntity
  8
0
100
AcDbLine
 62
7
  6
CONTINUOUS
 10
5.6789046385
 20
9.0385846162
 11
5.6251886126
 21
9.0371072871
  0
LINE
  5
55E
100
AcDbEntity
  8
0
100
AcDbLine
 62
7
  6
CONTINUOUS
 10
5.6790716467
 20
9.1421812557
 11
5.6251886126
 21
9.1406480835
  0
LINE
  5
55F
100
AcDbEntity
  8
0
100
AcDbLine
 62
7
  6
CONTINUOUS
 10
5.5523933052
 20
9.1070912031
 11
5.6947597669
 21
9.1115982474
  0
LINE
  5
560
100
AcDbEntity
  8
0
100
AcDbLine
 62
7
  6
CONTINUOUS
 10
5.6947597669
 20
9.1115982474
 11
5.6970372094
 21
9.1116718509
  0
LINE
  5
561
100
AcDbEntity
  8
0
100
AcDbLine
 62
7
  6
CONTINUOUS
 10
5.6701283509
 20
9.0307992624
 11
5.6696041498
 21
9.0307839747
  0
LINE
  5
562
100
AcDbEntity
  8
0
100
AcDbLine
 62
7
  6
CONTINUOUS
 10
5.6910617318
 20
9.1253690609
 11
5.5577968632
 21
9.1211561207
  0
LINE
  5
563
100
AcDbEntity
  8
0
100
AcDbLine
 62
7
  6
CONTINUOUS
 10
5.5577968632
 20
9.1211561207
 11
5.5573461336
 21
9.1211415641
  0
LINE
  5
564
100
AcDbEntity
  8
0
100
AcDbLine
 62
7
  6
CONTINUOUS
 10
5.5573461336
 20
9.1211415641
 11
5.5568125362
 21
9.1211243235
  0
LINE
  5
565
100
AcDbEntity
  8
0
100
AcDbLine
 62
7
  6
CONTINUOUS
 10
5.5612973522
 20
9.0518173987
 11
5.6911143405
 21
9.0559223627
  0
LINE
  5
566
100
AcDbEntity
  8
0
100
AcDbLine
 62
7
  6
CONTINUOUS
 10
5.6911143405
 20
9.0559223627
 11
5.6915903303
 21
9.0559376956
  0
LINE
  5
567
100
AcDbEntity
  8
0
100
AcDbLine
 62
7
  6
CONTINUOUS
 10
5.6286771551
 20
9.1650667827
 11
5.6252068321
 21
9.1649580421
  0
LINE
  5
568
100
AcDbEntity
  8
0
100
AcDbLine
 62
7
  6
CONTINUOUS
 10
5.6252068321
 20
9.1649580421
 11
5.6195794185
 21
9.1647816972
  0
LINE
  5
569
100
AcDbEntity
  8
0
100
AcDbLine
 62
7
  6
CONTINUOUS
 10
5.6251886126
 20
9.0850880835
 11
5.5509387073
 21
9.0829675775
  0
LINE
  5
56A
100
AcDbEntity
  8
0
100
AcDbLine
 62
7
  6
CONTINUOUS
 10
3.9749693574
 20
4.7105982318
 11
3.9750559486
 21
4.6892241437
  0
SPLINE
  5
56B
100
AcDbEntity
  8
0
100
AcDbSpline
 62
7
  6
CONTINUOUS
 70
0
 71
3
 72
11
 73
7
 74
0
 42
0.0000001
 43
0.0000001
 44
0.0000000001
 40
0.0
 40
0.0
 40
0.0
 40
0.0
 40
0.2519148709
 40
0.502224629
 40
0.7514269423
 40
1.0
 40
1.0
 40
1.0
 40
1.0
 10
3.8287071924
 20
4.4944044301
 30
0.0
 10
3.8426373876
 20
4.4876875942
 30
0.0
 10
3.8711607241
 20
4.4757916747
 30
0.0
 10
3.9155343828
 20
4.4628454079
 30
0.0
 10
3.9608828591
 20
4.4550138255
 30
0.0
 10
3.9914695768
 20
4.4532655522
 30
0.0
 10
4.0067294235
 20
4.453267115
 30
0.0
  0
SPLINE
  5
56C
100
AcDbEntity
  8
0
100
AcDbSpline
 62
7
  6
CONTINUOUS
 70
0
 71
3
 72
17
 73
13
 74
0
 42
0.0000001
 43
0.0000001
 44
0.0000000001
 40
0.0
 40
0.0
 40
0.0
 40
0.0
 40
0.1295673961
 40
0.2575659547
 40
0.3840706142
 40
0.4468167567
 40
0.5092308834
 40
0.633096455
 40
0.755966881
 40
0.8171583919
 40
0.8782232199
 40
1.0
 40
1.0
 40
1.0
 40
1.0
 10
4.3769646254
 20
4.6555588915
 30
0.0
 10
4.366567664
 20
4.6401280998
 30
0.0
 10
4.3442042119
 20
4.610553021
 30
0.0
 10
4.306124339
 20
4.5704989419
 30
0.0
 10
4.271024225
 20
4.541271375
 30
0.0
 10
4.2412689912
 20
4.520724881
 30
0.0
 10
4.2106426595
 20
4.5022239461
 30
0.0
 10
4.1705838811
 20
4.4828043507
 30
0.0
 10
4.1285534503
 20
4.4686547933
 30
0.0
 10
4.0942417612
 20
4.4606884557
 30
0.0
 10
4.059645335
 20
4.454994006
 30
0.0
 10
4.0333466962
 20
4.4532657665
 30
0.0
 10
4.0158588577
 20
4.4532671705
 30
0.0
  0
SPLINE
  5
56D
100
AcDbEntity
  8
0
100
AcDbSpline
 62
9
  6
CONTINUOUS
 70
0
 71
3
 72
23
 73
19
 74
0
 42
0.0000001
 43
0.0000001
 44
0.0000000001
 40
0.0
 40
0.0
 40
0.0
 40
0.0
 40
0.0592867691
 40
0.1200497502
 40
0.1821463985
 40
0.2455126867
 40
0.3100060114
 40
0.3753219279
 40
0.4410880736
 40
0.5069039423
 40
0.5723650514
 40
0.6370982605
 40
0.700785853
 40
0.7631978061
 40
0.8242147128
 40
0.8839152819
 40
0.9424777003
 40
1.0
 40
1.0
 40
1.0
 40
1.0
 10
3.812218335
 20
4.5602205535
 30
0.0
 10
3.8092530418
 20
4.5617897288
 30
0.0
 10
3.8035182967
 20
4.5655014947
 30
0.0
 10
3.7958568836
 20
4.572459042
 30
0.0
 10
3.7892445208
 20
4.5807189684
 30
0.0
 10
3.7838357518
 20
4.5900529849
 30
0.0
 10
3.779767939
 20
4.6002389199
 30
0.0
 10
3.7771207473
 20
4.6110213419
 30
0.0
 10
3.7759793948
 20
4.6221397239
 30
0.0
 10
3.7763513881
 20
4.6333183795
 30
0.0
 10
3.7782455697
 20
4.6442829042
 30
0.0
 10
3.7815992805
 20
4.6547674816
 30
0.0
 10
3.7863515573
 20
4.6645069979
 30
0.0
 10
3.792367879
 20
4.6732696444
 30
0.0
 10
3.7995204738
 20
4.6808283144
 30
0.0
 10
3.8076307866
 20
4.6870025762
 30
0.0
 10
3.8164995134
 20
4.6916108561
 30
0.0
 10
3.8228055765
 20
4.6935927802
 30
0.0
 10
3.8259873729
 20
4.6942794144
 30
0.0
  0
SPLINE
  5
56E
100
AcDbEntity
  8
0
100
AcDbSpline
 62
9
  6
CONTINUOUS
 70
0
 71
3
 72
11
 73
7
 74
0
 42
0.0000001
 43
0.0000001
 44
0.0000000001
 40
0.0
 40
0.0
 40
0.0
 40
0.0
 40
0.2498664488
 40
0.4992234679
 40
0.7489731127
 40
1.0
 40
1.0
 40
1.0
 40
1.0
 10
3.8259873729
 20
4.6942794144
 30
0.0
 10
3.8382467043
 20
4.6969253383
 30
0.0
 10
3.8630912336
 20
4.7007162723
 30
0.0
 10
3.9007626661
 20
4.7017695148
 30
0.0
 10
3.9383335491
 20
4.6981575987
 30
0.0
 10
3.9629427474
 20
4.692692122
 30
0.0
 10
3.9750559486
 20
4.6892241437
 30
0.0
  0
SPLINE
  5
56F
100
AcDbEntity
  8
0
100
AcDbSpline
 62
9
  6
CONTINUOUS
 70
0
 71
3
 72
17
 73
13
 74
0
 42
0.0000001
 43
0.0000001
 44
0.0000000001
 40
0.0
 40
0.0
 40
0.0
 40
0.0
 40
0.1315774512
 40
0.2609880766
 40
0.3882697624
 40
0.4511659546
 40
0.5135727015
 40
0.6369805223
 40
0.7588776753
 40
0.8194387974
 40
0.8798023257
 40
1.0
 40
1.0
 40
1.0
 40
1.0
 10
4.3717031598
 20
4.6586481647
 30
0.0
 10
4.3614809752
 20
4.6429463376
 30
0.0
 10
4.3394832671
 20
4.6128789133
 30
0.0
 10
4.3019268998
 20
4.5721498457
 30
0.0
 10
4.2672870437
 20
4.5424529933
 30
0.0
 10
4.2379488661
 20
4.5216127515
 30
0.0
 10
4.2078512581
 20
4.5029110312
 30
0.0
 10
4.168533091
 20
4.4832930142
 30
0.0
 10
4.1272634757
 20
4.4689684603
 30
0.0
 10
4.0936181877
 20
4.4608960889
 30
0.0
 10
4.0597563861
 20
4.4551108823
 30
0.0
 10
4.0340077628
 20
4.4533112014
 30
0.0
 10
4.016892179
 20
4.453267008
 30
0.0
  0
SPLINE
  5
570
100
AcDbEntity
  8
0
100
AcDbSpline
 62
9
  6
CONTINUOUS
 70
0
 71
3
 72
17
 73
13
 74
0
 42
0.0000001
 43
0.0000001
 44
0.0000000001
 40
0.0
 40
0.0
 40
0.0
 40
0.0
 40
0.0400731604
 40
0.0819175301
 40
0.1262091254
 40
0.1734779407
 40
0.2781714024
 40
0.3973810873
 40
0.5308766456
 40
0.6773812077
 40
0.8348507466
 40
1.0
 40
1.0
 40
1.0
 40
1.0
 10
3.812234947
 20
4.5030517988
 30
0.0
 10
3.8116051976
 20
4.5035525445
 30
0.0
 10
3.8104042832
 20
4.5046890924
 30
0.0
 10
3.8088539593
 20
4.5067045473
 30
0.0
 10
3.8075307986
 20
4.5090425848
 30
0.0
 10
3.8060288108
 20
4.5126946068
 30
0.0
 10
3.8048184185
 20
4.518041002
 30
0.0
 10
3.8043796826
 20
4.5252250299
 30
0.0
 10
3.8049205063
 20
4.5332402631
 30
0.0
 10
3.8064198196
 20
4.5419080541
 30
0.0
 10
3.8088502533
 20
4.551018774
 30
0.0
 10
3.8110038177
 20
4.557135227
 30
0.0
 10
3.812217851
 20
4.5602207644
 30
0.0
  0
LINE
  5
571
100
AcDbEntity
  8
0
100
AcDbLine
 62
7
  6
CONTINUOUS
 10
3.9749693579
 20
4.7105982318
 11
3.9750559502
 21
4.6892237464
  0
SPLINE
  5
572
100
AcDbEntity
  8
0
100
AcDbSpline
 62
7
  6
CONTINUOUS
 70
0
 71
3
 72
11
 73
7
 74
0
 42
0.0000001
 43
0.0000001
 44
0.0000000001
 40
0.0
 40
0.0
 40
0.0
 40
0.0
 40
0.2519148717
 40
0.5022246294
 40
0.7514269422
 40
1.0
 40
1.0
 40
1.0
 40
1.0
 10
3.8287072007
 20
4.4944044499
 30
0.0
 10
3.8426374082
 20
4.4876876072
 30
0.0
 10
3.8711607706
 20
4.475791677
 30
0.0
 10
3.915534471
 20
4.4628454038
 30
0.0
 10
3.9608829902
 20
4.4550138251
 30
0.0
 10
3.9914697362
 20
4.4532655613
 30
0.0
 10
4.0067295966
 20
4.4532671306
 30
0.0
  0
SPLINE
  5
573
100
AcDbEntity
  8
0
100
AcDbSpline
 62
7
  6
CONTINUOUS
 70
0
 71
3
 72
17
 73
13
 74
0
 42
0.0000001
 43
0.0000001
 44
0.0000000001
 40
0.0
 40
0.0
 40
0.0
 40
0.0
 40
0.1295673948
 40
0.2575659526
 40
0.3840706121
 40
0.4468167546
 40
0.5092308816
 40
0.6330964538
 40
0.7559668804
 40
0.8171583915
 40
0.8782232196
 40
1.0
 40
1.0
 40
1.0
 40
1.0
 10
4.3769646093
 20
4.655558902
 30
0.0
 10
4.3665676528
 20
4.6401281162
 30
0.0
 10
4.3442042113
 20
4.610553048
 30
0.0
 10
4.3061243573
 20
4.5704989814
 30
0.0
 10
4.2710242611
 20
4.5412714216
 30
0.0
 10
4.2412690423
 20
4.5207249309
 30
0.0
 10
4.2106427258
 20
4.5022239978
 30
0.0
 10
4.1705839673
 20
4.4828044015
 30
0.0
 10
4.1285535565
 20
4.4686548388
 30
0.0
 10
4.0942418831
 20
4.4606884944
 30
0.0
 10
4.0596454723
 20
4.454994036
 30
0.0
 10
4.0333468445
 20
4.4532657882
 30
0.0
 10
4.0158590128
 20
4.4532671857
 30
0.0
  0
SPLINE
  5
574
100
AcDbEntity
  8
0
100
AcDbSpline
 62
7
  6
CONTINUOUS
 70
0
 71
3
 72
28
 73
24
 74
0
 42
0.0000001
 43
0.0000001
 44
0.0000000001
 40
0.0
 40
0.0
 40
0.0
 40
0.0
 40
0.061441365
 40
0.0922519735
 40
0.1230999276
 40
0.1849046455
 40
0.2469758638
 40
0.2781521453
 40
0.3094071143
 40
0.3721119328
 40
0.4351085529
 40
0.4667163245
 40
0.4983668137
 40
0.5616984789
 40
0.6250182303
 40
0.6566551472
 40
0.6882445341
 40
0.7511956817
 40
0.8138419968
 40
0.8761646858
 40
0.9072409619
 40
0.9382565034
 40
1.0
 40
1.0
 40
1.0
 40
1.0
 10
3.8453334542
 20
4.7602872829
 30
0.0
 10
3.8386639789
 20
4.7588480801
 30
0.0
 10
3.8288096334
 20
4.7558235991
 30
0.0
 10
3.8163318587
 20
4.7502131182
 30
0.0
 10
3.8043251914
 20
4.7435637513
 30
0.0
 10
3.7903609846
 20
4.7334159219
 30
0.0
 10
3.7781731046
 20
4.7211469324
 30
0.0
 10
3.7696214425
 20
4.7102682726
 30
0.0
 10
3.7618882995
 20
4.6987081157
 30
0.0
 10
3.7538654334
 20
4.6831568405
 30
0.0
 10
3.7481995056
 20
4.6665632222
 30
0.0
 10
3.7451232598
 20
4.6528737664
 30
0.0
 10
3.7430263859
 20
4.6389626733
 30
0.0
 10
3.742276464
 20
4.6213365057
 30
0.0
 10
3.7440223184
 20
4.6037824456
 30
0.0
 10
3.7469034912
 20
4.5900173181
 30
0.0
 10
3.7507486521
 20
4.5765327619
 30
0.0
 10
3.7573525943
 20
4.5603017157
 30
0.0
 10
3.7680069646
 20
4.5422719002
 30
0.0
 10
3.7790242193
 20
4.5287998222
 30
0.0
 10
3.7889684545
 20
4.5191894126
 30
0.0
 10
3.7995911824
 20
4.5104405333
 30
0.0
 10
3.8083163333
 20
4.5048544759
 30
0.0
 10
3.8143766417
 20
4.5016474781
 30
0.0
  0
SPLINE
  5
575
100
AcDbEntity
  8
0
100
AcDbSpline
 62
9
  6
CONTINUOUS
 70
0
 71
3
 72
21
 73
17
 74
0
 42
0.0000001
 43
0.0000001
 44
0.0000000001
 40
0.0
 40
0.0
 40
0.0
 40
0.0
 40
0.1308720875
 40
0.2588216463
 40
0.3218526328
 40
0.3842989296
 40
0.446245609
 40
0.5077923342
 40
0.5690511521
 40
0.6301417166
 40
0.6911866409
 40
0.7523074112
 40
0.8136362831
 40
0.8753080037
 40
0.9374199999
 40
1.0
 40
1.0
 40
1.0
 40
1.0
 10
4.2573325478
 20
4.6648129291
 30
0.0
 10
4.2439252353
 20
4.6477302099
 30
0.0
 10
4.2147688962
 20
4.6159184919
 30
0.0
 10
4.1725967359
 20
4.5827325089
 30
0.0
 10
4.136474428
 20
4.561115823
 30
0.0
 10
4.1084737821
 20
4.5474899005
 30
0.0
 10
4.079617728
 20
4.536457129
 30
0.0
 10
4.0500811604
 20
4.5280953853
 30
0.0
 10
4.0200519717
 20
4.5224468216
 30
0.0
 10
3.9897160001
 20
4.519560121
 30
0.0
 10
3.9592662537
 20
4.5194419437
 30
0.0
 10
3.9288926373
 20
4.5220986189
 30
0.0
 10
3.898782691
 20
4.527513231
 30
0.0
 10
3.8691219417
 20
4.5356535907
 30
0.0
 10
3.8401097176
 20
4.5464663028
 30
0.0
 10
3.8213964791
 20
4.5553637781
 30
0.0
 10
3.8122183122
 20
4.5602205674
 30
0.0
  0
SPLINE
  5
576
100
AcDbEntity
  8
0
100
AcDbSpline
 62
9
  6
CONTINUOUS
 70
0
 71
3
 72
23
 73
19
 74
0
 42
0.0000001
 43
0.0000001
 44
0.0000000001
 40
0.0
 40
0.0
 40
0.0
 40
0.0
 40
0.0592867204
 40
0.1200496403
 40
0.1821462129
 40
0.2455124105
 40
0.3100056409
 40
0.3753214722
 40
0.4410875493
 40
0.5069033804
 40
0.5723644901
 40
0.637097737
 40
0.7007854022
 40
0.7631974802
 40
0.8242145378
 40
0.8839152324
 40
0.942477732
 40
1.0
 40
1.0
 40
1.0
 40
1.0
 10
3.8122183122
 20
4.5602205674
 30
0.0
 10
3.8092530499
 20
4.5617897248
 30
0.0
 10
3.8035183649
 20
4.5655014481
 30
0.0
 10
3.7958570253
 20
4.5724589079
 30
0.0
 10
3.789244708
 20
4.5807187194
 30
0.0
 10
3.7838359532
 20
4.5900526036
 30
0.0
 10
3.7797681222
 20
4.6002383978
 30
0.0
 10
3.7771208772
 20
4.6110206791
 30
0.0
 10
3.7759794362
 20
4.6221389299
 30
0.0
 10
3.7763513074
 20
4.6333174727
 30
0.0
 10
3.7782453358
 20
4.6442819119
 30
0.0
 10
3.781598868
 20
4.6547664385
 30
0.0
 10
3.7863509493
 20
4.6645059452
 30
0.0
 10
3.7923670598
 20
4.6732686314
 30
0.0
 10
3.799519429
 20
4.6808274032
 30
0.0
 10
3.807629532
 20
4.6870018086
 30
0.0
 10
3.8164980835
 20
4.691610241
 30
0.0
 10
3.8228040783
 20
4.6935922047
 30
0.0
 10
3.8259858439
 20
4.6942788213
 30
0.0
  0
SPLINE
  5
577
100
AcDbEntity
  8
0
100
AcDbSpline
 62
9
  6
CONTINUOUS
 70
0
 71
3
 72
11
 73
7
 74
0
 42
0.0000001
 43
0.0000001
 44
0.0000000001
 40
0.0
 40
0.0
 40
0.0
 40
0.0
 40
0.2498664019
 40
0.4992235292
 40
0.7489729704
 40
1.0
 40
1.0
 40
1.0
 40
1.0
 10
3.8259858439
 20
4.6942788213
 30
0.0
 10
3.8382452772
 20
4.6969249255
 30
0.0
 10
3.8630900529
 20
4.7007161575
 30
0.0
 10
3.9007619008
 20
4.7017696306
 30
0.0
 10
3.9383332143
 20
4.6981576519
 30
0.0
 10
3.9629426478
 20
4.6926919083
 30
0.0
 10
3.9750559502
 20
4.6892237464
 30
0.0
  0
SPLINE
  5
578
100
AcDbEntity
  8
0
100
AcDbSpline
 62
9
  6
CONTINUOUS
 70
0
 71
3
 72
17
 73
13
 74
0
 42
0.0000001
 43
0.0000001
 44
0.0000000001
 40
0.0
 40
0.0
 40
0.0
 40
0.0
 40
0.1315774362
 40
0.2609880511
 40
0.388269733
 40
0.4511659261
 40
0.5135726749
 40
0.6369805032
 40
0.7588776583
 40
0.819438776
 40
0.8798023023
 40
1.0
 40
1.0
 40
1.0
 40
1.0
 10
4.3717031439
 20
4.6586481403
 30
0.0
 10
4.3614809926
 20
4.6429463666
 30
0.0
 10
4.3394833622
 20
4.6128790407
 30
0.0
 10
4.3019271419
 20
4.5721500888
 30
0.0
 10
4.2672874275
 20
4.5424533029
 30
0.0
 10
4.2379493728
 20
4.5216130904
 30
0.0
 10
4.2078518896
 20
4.5029113847
 30
0.0
 10
4.1685338861
 20
4.4832933575
 30
0.0
 10
4.1272644386
 20
4.4689687535
 30
0.0
 10
4.093619283
 20
4.4608963149
 30
0.0
 10
4.0597576061
 20
4.4551110257
 30
0.0
 10
4.03400907
 20
4.4533112673
 30
0.0
 10
4.0168935386
 20
4.4532670116
 30
0.0
  0
LINE
  5
579
100
AcDbEntity
  8
0
100
AcDbLine
 62
9
  6
CONTINUOUS
 10
4.0168935386
 20
4.4532670116
 11
4.0159062653
 21
4.4532657348
  0
SPLINE
  5
57A
100
AcDbEntity
  8
0
100
AcDbSpline
 62
9
  6
CONTINUOUS
 70
0
 71
3
 72
16
 73
12
 74
0
 42
0.0000001
 43
0.0000001
 44
0.0000000001
 40
0.0
 40
0.0
 40
0.0
 40
0.0
 40
0.1202372318
 40
0.2413294077
 40
0.3636102319
 40
0.4873531963
 40
0.6127640007
 40
0.7399581527
 40
0.8042693916
 40
0.8690529358
 40
1.0
 40
1.0
 40
1.0
 40
1.0
 10
4.0668796888
 20
4.4580115626
 30
0.0
 10
4.0816042948
 20
4.460344627
 30
0.0
 10
4.1109134146
 20
4.4667484372
 30
0.0
 10
4.1536630167
 20
4.4813549704
 30
0.0
 10
4.1948998577
 20
4.5008525092
 30
0.0
 10
4.2342051194
 20
4.525027909
 30
0.0
 10
4.2711764754
 20
4.5536385556
 30
0.0
 10
4.2996429688
 20
4.5808335943
 30
0.0
 10
4.3209024854
 20
4.6044678272
 30
0.0
 10
4.341253544
 20
4.6294891221
 30
0.0
 10
4.3551590945
 20
4.6494403667
 30
0.0
 10
4.3638007919
 20
4.6631857536
 30
0.0
  0
SPLINE
  5
57B
100
AcDbEntity
  8
0
100
AcDbSpline
 62
9
  6
CONTINUOUS
 70
0
 71
3
 72
19
 73
15
 74
0
 42
0.0000001
 43
0.0000001
 44
0.0000000001
 40
0.0
 40
0.0
 40
0.0
 40
0.0
 40
0.0410766959
 40
0.0832415864
 40
0.1273940458
 40
0.1742935213
 40
0.2244934224
 40
0.2783662074
 40
0.3361050042
 40
0.3976989076
 40
0.5318367026
 40
0.6790614838
 40
0.836538695
 40
1.0
 40
1.0
 40
1.0
 40
1.0
 10
3.8453332724
 20
4.7602845178
 30
0.0
 10
3.844340131
 20
4.7600691319
 30
0.0
 10
3.8423641118
 20
4.7594415944
 30
0.0
 10
3.8395690948
 20
4.7579514881
 30
0.0
 10
3.8369556086
 20
4.7559194808
 30
0.0
 10
3.8345469409
 20
4.753371585
 30
0.0
 10
3.8323559168
 20
4.7503350624
 30
0.0
 10
3.8303989504
 20
4.7468339998
 30
0.0
 10
3.8286911234
 20
4.7428971352
 30
0.0
 10
3.8267018814
 20
4.7369433869
 30
0.0
 10
3.8249723112
 20
4.7286055282
 30
0.0
 10
3.8240897767
 20
4.7177627841
 30
0.0
 10
3.8243785269
 20
4.7061652953
 30
0.0
 10
3.8253249353
 20
4.6982687081
 30
0.0
 10
3.8259875641
 20
4.694279367
 30
0.0
  0
SPLINE
  5
57C
100
AcDbEntity
  8
0
100
AcDbSpline
 62
7
  6
CONTINUOUS
 70
0
 71
3
 72
25
 73
21
 74
0
 42
0.0000001
 43
0.0000001
 44
0.0000000001
 40
0.0
 40
0.0
 40
0.0
 40
0.0
 40
0.0371329313
 40
0.071898901
 40
0.1050172291
 40
0.1370658205
 40
0.1993048953
 40
0.2599091251
 40
0.3195082742
 40
0.3785061627
 40
0.4958310111
 40
0.6137797304
 40
0.6735722291
 40
0.7342810628
 40
0.7962867863
 40
0.8601950604
 40
0.8931497425
 40
0.9271347451
 40
0.9625811286
 40
1.0
 40
1.0
 40
1.0
 40
1.0
 10
3.475480183
 20
4.9114666104
 30
0.0
 10
3.4757045954
 20
4.9092889256
 30
0.0
 10
3.4763376704
 20
4.9050896093
 30
0.0
 10
3.4778385161
 20
4.8990745844
 30
0.0
 10
3.4797477787
 20
4.8934942961
 30
0.0
 10
3.4826661205
 20
4.8865692516
 30
0.0
 10
3.4868142131
 20
4.8784181967
 30
0.0
 10
3.4925181587
 20
4.8692857113
 30
0.0
 10
3.4987751013
 20
4.8607612649
 30
0.0
 10
3.5077842492
 20
4.8501506108
 30
0.0
 10
3.5202938663
 20
4.8380678053
 30
0.0
 10
3.5340766982
 20
4.8273887817
 30
0.0
 10
3.5459538371
 20
4.8198507873
 30
0.0
 10
3.5554045334
 20
4.8146901204
 30
0.0
 10
3.565406713
 20
4.8100835237
 30
0.0
 10
3.5742069281
 20
4.8068429742
 30
0.0
 10
3.5816042133
 20
4.8046451168
 30
0.0
 10
3.5874827627
 20
4.8032561174
 30
0.0
 10
3.5937021176
 20
4.8022233283
 30
0.0
 10
3.5979855608
 20
4.8018368131
 30
0.0
 10
3.6001886126
 20
4.8017213561
 30
0.0
  0
SPLINE
  5
57D
100
AcDbEntity
  8
0
100
AcDbSpline
 62
7
  6
CONTINUOUS
 70
0
 71
3
 72
25
 73
21
 74
0
 42
0.0000001
 43
0.0000001
 44
0.0000000001
 40
0.0
 40
0.0
 40
0.0
 40
0.0
 40
0.0371329313
 40
0.071898901
 40
0.1050172291
 40
0.1370658205
 40
0.1993048953
 40
0.2599091251
 40
0.3195082742
 40
0.3785061627
 40
0.4958310111
 40
0.6137797304
 40
0.6735722291
 40
0.7342810628
 40
0.7962867863
 40
0.8601950604
 40
0.8931497425
 40
0.9271347451
 40
0.9625811286
 40
1.0
 40
1.0
 40
1.0
 40
1.0
 10
7.7748970422
 20
4.9114666104
 30
0.0
 10
7.7746726298
 20
4.9092889256
 30
0.0
 10
7.7740395548
 20
4.9050896093
 30
0.0
 10
7.7725387091
 20
4.8990745844
 30
0.0
 10
7.7706294465
 20
4.8934942961
 30
0.0
 10
7.7677111047
 20
4.8865692516
 30
0.0
 10
7.7635630121
 20
4.8784181967
 30
0.0
 10
7.7578590665
 20
4.8692857113
 30
0.0
 10
7.7516021239
 20
4.8607612649
 30
0.0
 10
7.742592976
 20
4.8501506108
 30
0.0
 10
7.7300833589
 20
4.8380678053
 30
0.0
 10
7.716300527
 20
4.8273887817
 30
0.0
 10
7.7044233881
 20
4.8198507873
 30
0.0
 10
7.6949726918
 20
4.8146901204
 30
0.0
 10
7.6849705122
 20
4.8100835237
 30
0.0
 10
7.6761702971
 20
4.8068429742
 30
0.0
 10
7.6687730119
 20
4.8046451168
 30
0.0
 10
7.6628944625
 20
4.8032561174
 30
0.0
 10
7.6566751076
 20
4.8022233283
 30
0.0
 10
7.6523916644
 20
4.8018368131
 30
0.0
 10
7.6501886126
 20
4.8017213561
 30
0.0
  0
SPLINE
  5
57E
100
AcDbEntity
  8
0
100
AcDbSpline
 62
9
  6
CONTINUOUS
 70
0
 71
3
 72
17
 73
13
 74
0
 42
0.0000001
 43
0.0000001
 44
0.0000000001
 40
0.0
 40
0.0
 40
0.0
 40
0.0
 40
0.1247729347
 40
0.187243113
 40
0.2497219489
 40
0.3745793293
 40
0.4995091655
 40
0.6244941344
 40
0.7495457659
 40
0.8122209957
 40
0.8749487058
 40
1.0
 40
1.0
 40
1.0
 40
1.0
 10
4.8473750654
 20
7.9915065361
 30
0.0
 10
4.8294484395
 20
7.988138847
 30
0.0
 10
4.8029549821
 20
7.9803856628
 30
0.0
 10
4.7697577065
 20
7.9650972802
 30
0.0
 10
4.7382123793
 20
7.9465937541
 30
0.0
 10
4.702396084
 20
7.9177783522
 30
0.0
 10
4.6670555122
 20
7.8754593593
 30
0.0
 10
4.6405884128
 20
7.8270622931
 30
0.0
 10
4.6268235208
 20
7.7831358245
 30
0.0
 10
4.6210970585
 20
7.746919159
 30
0.0
 10
4.6189626773
 20
7.7103266085
 30
0.0
 10
4.6213647306
 20
7.6827510703
 30
0.0
 10
4.6247399328
 20
7.6647844514
 30
0.0
  0
SPLINE
  5
57F
100
AcDbEntity
  8
0
100
AcDbSpline
 62
9
  6
CONTINUOUS
 70
0
 71
3
 72
23
 73
19
 74
0
 42
0.0000001
 43
0.0000001
 44
0.0000000001
 40
0.0
 40
0.0
 40
0.0
 40
0.0
 40
0.0314325635
 40
0.0436105017
 40
0.0577674628
 40
0.0739595609
 40
0.0922000989
 40
0.1124728347
 40
0.1347506772
 40
0.1851783539
 40
0.2431622272
 40
0.3082071258
 40
0.3796944357
 40
0.4569885815
 40
0.539400453
 40
0.6261757618
 40
0.8096759857
 40
1.0
 40
1.0
 40
1.0
 40
1.0
 10
7.8213402175
 20
8.5501944889
 30
0.0
 10
7.8242934513
 20
8.5507492823
 30
0.0
 10
7.8283904583
 20
8.5475890758
 30
0.0
 10
7.831878047
 20
8.5435078155
 30
0.0
 10
7.8342910396
 20
8.5401892298
 30
0.0
 10
7.8367634328
 20
8.5362669309
 30
0.0
 10
7.8393356831
 20
8.531707619
 30
0.0
 10
7.8419875522
 20
8.5265362279
 30
0.0
 10
7.8457852768
 20
8.5184980147
 30
0.0
 10
7.8506469669
 20
8.5069836434
 30
0.0
 10
7.8564899751
 20
8.4914619011
 30
0.0
 10
7.8625009934
 20
8.4738622911
 30
0.0
 10
7.8686234065
 20
8.4543574715
 30
0.0
 10
7.8747926505
 20
8.4331327851
 30
0.0
 10
7.8809489107
 20
8.4103868178
 30
0.0
 10
7.8892211718
 20
8.3776997927
 30
0.0
 10
7.8990399065
 20
8.3347696066
 30
0.0
 10
7.9060916415
 20
8.2997308117
 30
0.0
 10
7.9094509125
 20
8.2818489962
 30
0.0
  0
SPLINE
  5
580
100
AcDbEntity
  8
0
100
AcDbSpline
 62
9
  6
CONTINUOUS
 70
0
 71
3
 72
17
 73
13
 74
0
 42
0.0000001
 43
0.0000001
 44
0.0000000001
 40
0.0
 40
0.0
 40
0.0
 40
0.0
 40
0.1250512942
 40
0.1877790043
 40
0.2504542341
 40
0.3755058656
 40
0.5004908345
 40
0.6254206707
 40
0.7502780511
 40
0.812756887
 40
0.8752270653
 40
1.0
 40
1.0
 40
1.0
 40
1.0
 10
4.6247399328
 20
7.6647844514
 30
0.0
 10
4.6281151349
 20
7.6468178324
 30
0.0
 10
4.6358843286
 20
7.6202505631
 30
0.0
 10
4.6511530576
 20
7.5869273542
 30
0.0
 10
4.6696325592
 20
7.5552580119
 30
0.0
 10
4.6984004364
 20
7.5193217329
 30
0.0
 10
4.7406269615
 20
7.4838294247
 30
0.0
 10
4.7889161937
 20
7.4572210947
 30
0.0
 10
4.8327481061
 20
7.4433683746
 30
0.0
 10
4.86885793
 20
7.4375745193
 30
0.0
 10
4.9053402655
 20
7.4353761216
 30
0.0
 10
4.932841214
 20
7.4377663058
 30
0.0
 10
4.9507678399
 20
7.4411339948
 30
0.0
  0
SPLINE
  5
581
100
AcDbEntity
  8
0
100
AcDbSpline
 62
9
  6
CONTINUOUS
 70
0
 71
3
 72
23
 73
19
 74
0
 42
0.0000001
 43
0.0000001
 44
0.0000000001
 40
0.0
 40
0.0
 40
0.0
 40
0.0
 40
0.1903240143
 40
0.3738242382
 40
0.460599547
 40
0.5430114185
 40
0.6203055643
 40
0.6917928742
 40
0.7568377728
 40
0.8148216461
 40
0.8652493228
 40
0.8875271653
 40
0.9077999011
 40
0.9260404391
 40
0.9422325372
 40
0.9563894983
 40
0.9685674365
 40
1.0
 40
1.0
 40
1.0
 40
1.0
 10
7.9094509125
 20
8.2818489962
 30
0.0
 10
7.9128101835
 20
8.2639671807
 30
0.0
 10
7.918955197
 20
8.2287580494
 30
0.0
 10
7.9253857326
 20
8.1851913575
 30
0.0
 10
7.9295399464
 20
8.1517307177
 30
0.0
 10
7.9320581743
 20
8.128301311
 30
0.0
 10
7.9340122129
 20
8.1062847578
 30
0.0
 10
7.9353857302
 20
8.0858878123
 30
0.0
 10
7.9361716249
 20
8.0673066127
 30
0.0
 10
7.9363599931
 20
8.0507225918
 30
0.0
 10
7.9360084549
 20
8.0382288655
 30
0.0
 10
7.9353868068
 20
8.0293604307
 30
0.0
 10
7.9347924907
 20
8.0235792124
 30
0.0
 10
7.9340502346
 20
8.0183972386
 30
0.0
 10
7.9331698482
 20
8.0138450878
 30
0.0
 10
7.9321257183
 20
8.0098770485
 30
0.0
 10
7.9303570378
 20
8.0048083474
 30
0.0
 10
7.9276862258
 20
8.000376741
 30
0.0
 10
7.9247329921
 20
7.9998219477
 30
0.0
  0
ENDSEC
  0
SECTION
  2
OBJECTS
  0
DICTIONARY
  5
C
100
AcDbDictionary
280
0
281
1
  3
ACAD_GROUP
350
D
  3
ACAD_MLINESTYLE
350
17
  3
ACAD_LAYOUT
350
1A
  3
ACAD_PLOTSETTINGS
350
19
  3
ACAD_PLOTSTYLENAME
350
E
  0
DICTIONARY
  5
D
102
{ACAD_REACTORS
330
C
102
}
100
AcDbDictionary
280
0
281
1
  0
ACDBDICTIONARYWDFLT
  5
E
102
{ACAD_REACTORS
330
C
102
}
100
AcDbDictionary
281
1
  3
Normal
350
F
100
AcDbDictionaryWithDefault
340
F
  0
DICTIONARY
  5
17
102
{ACAD_REACTORS
330
C
102
}
100
AcDbDictionary
280
0
281
1
  3
Standard
350
18
  0
DICTIONARY
  5
19
102
{ACAD_REACTORS
330
C
102
}
100
AcDbDictionary
281
1
  0
DICTIONARY
  5
1A
102
{ACAD_REACTORS
330
C
102
}
100
AcDbDictionary
281
1
  3
Model
350
582
  3
Layout1
350
583
  0
ACDBPLACEHOLDER
  5
F
102
{ACAD_REACTORS
330
E
102
}
  0
MLINESTYLE
  5
18
102
{ACAD_REACTORS
330
17
102
}
100
AcDbMlineStyle
  2
STANDARD
 70
0
  3

 62
256
 51
90.0
 52
90.0
 71
2
 49
0.5
 62
256
  6
BYLAYER
 49
-0.5
 62
256
  6
BYLAYER
  0
LAYOUT
  5
582
102
{ACAD_REACTORS
330
1A
102
}
100
AcDbPlotSettings
  1

  2
none_device
  4
ANSI_C_(22.00_x_17.00_Inches)
  6

 40
0.0
 41
0.0
 42
0.0
 43
0.0
 44
558.8
 45
431.8
 46
0.0
 47
0.0
 48
0.0
 49
0.0
140
0.0
141
0.0
142
1.0
143
1.0
 70
1024
 72
0
 73
0
 74
0
  7

 75
0
147
1.0
148
0.0
149
0.0
100
AcDbLayout
  1
Model
 70
0
 71
0
 10
0.0
 20
0.0
 11
22.0
 21
17.0
 12
0.0
 22
0.0
 32
0.0
 14
0.0
 24
0.0
 34
0.0
 15
0.0
 25
0.0
 35
0.0
146
0.0
 13
0.0
 23
0.0
 33
0.0
 16
1.0
 26
0.0
 36
0.0
 17
0.0
 27
1.0
 37
0.0
 76
0
330
202
345
0
346
0
  0
LAYOUT
  5
583
102
{ACAD_REACTORS
330
1A
102
}
100
AcDbPlotSettings
  1

  2
none_device
  4
ANSI_C_(22.00_x_17.00_Inches)
  6

 40
0.0
 41
0.0
 42
0.0
 43
0.0
 44
558.8
 45
431.8
 46
0.0
 47
0.0
 48
0.0
 49
0.0
140
0.0
141
0.0
142
1.0
143
1.0
 70
0
 72
0
 73
0
 74
0
  7

 75
0
147
1.0
148
0.0
149
0.0
100
AcDbLayout
  1
Layout1
 70
0
 71
1
 10
0.0
 20
0.0
 11
22.0
 21
17.0
 12
0.0
 22
0.0
 32
0.0
 14
0.0
 24
0.0
 34
0.0
 15
0.0
 25
0.0
 35
0.0
146
0.0
 13
0.0
 23
0.0
 33
0.0
 16
1.0
 26
0.0
 36
0.0
 17
0.0
 27
1.0
 37
0.0
 76
0
330
203
345
0
346
0
  0
ENDSEC
  0
EOF
