999
DXF file: 281-1_FRONT.dxf
999
Pro/ENGINEER 2018400 by Parametric Technology Corporation
  0
SECTION
  2
HEADER
  9
$ACADVER
  1
AC1027
  9
$DWGCODEPAGE
  3
ANSI_1252
  9
$EXTMAX
 10
11.0
 20
8.5
 30
0.0
  9
$EXTMIN
 10
0.0
 20
0.0
 30
0.0
  9
$LIMMIN
 10
0.0
 20
0.0
  9
$LIMMAX
 10
11.0
 20
8.5
  9
$VIEWCTR
 10
5.5
 20
4.25
  9
$VIEWSIZE
 40
8.5
  9
$CLAYER
  8
0
  9
$LTSCALE
 40
0.605
  9
$CELTYPE
  6
BYLAYER
  9
$DIMSCALE
 40
1.0
  9
$DIMASZ
 40
0.1
  9
$DIMEXO
 40
0.0625
  9
$DIMDLI
 40
0.418
  9
$DIMEXE
 40
0.125
  9
$DIMCEN
 40
0.099
  9
$DIMLFAC
 40
1.0
  9
$DIMBLK
  1
_FILLED
  9
$DIMALT
 70
1
  9
$DIMALTD
 70
2
  9
$DIMALTTD
 70
2
  9
$DIMALTF
 40
25.4
  9
$DIMTXT
 40
0.08
  9
$DIMTOL
 70
1
  9
$DIMLIM
 70
0
  9
$DIMTFAC
 40
1.0
  9
$DIMTP
 40
0.001
  9
$DIMTM
 40
0.001
  9
$DIMGAP
 40
0.09
  9
$DIMDSEP
 70
46
  9
$AUNITS
 70
0
  9
$PDMODE
 70
3
  9
$PDSIZE
 40
0.3125
  9
$HANDSEED
  5
502
  9
$TILEMODE
 70
1
  9
$MEASUREMENT
 70
0
  9
$INSUNITS
 70
1
  0
ENDSEC
  0
SECTION
  2
CLASSES
  0
CLASS
  1
ACDBDICTIONARYWDFLT
  2
AcDbDictionaryWithDefault
  3
AutoCAD 2000
 90
0
 91
1
280
0
281
0
  0
CLASS
  1
ACDBPLACEHOLDER
  2
AcDbPlaceHolder
  3
AutoCAD 2000
 90
0
 91
1
280
0
281
0
  0
CLASS
  1
LAYOUT
  2
AcDbLayout
  3
AutoCAD 2000
 90
0
 91
0
280
0
281
0
  0
ENDSEC
  0
SECTION
  2
TABLES
  0
TABLE
  2
VPORT
  5
8
100
AcDbSymbolTable
 70
2
  0
VPORT
  5
1F4
100
AcDbSymbolTableRecord
100
AcDbViewportTableRecord
  2
*ACTIVE
 70
0
 10
0.0
 20
0.0
 11
1.0
 21
1.0
 12
5.5
 22
4.25
 13
0.0
 23
0.0
 14
1.0
 24
1.0
 15
0.0
 25
0.0
 16
0.0
 26
0.0
 36
1.0
 17
0.0
 27
0.0
 37
0.0
 40
8.5
 41
1.2941176471
 42
50.0
 43
0.0
 44
0.0
 50
0.0
 51
0.0
 71
0
 72
100
 73
1
 74
1
 75
0
 76
0
 77
0
 78
0
  0
ENDTAB
  0
TABLE
  2
LTYPE
  5
5
100
AcDbSymbolTable
 70
6
  0
LTYPE
  5
14
100
AcDbSymbolTableRecord
100
AcDbLinetypeTableRecord
  2
BYBLOCK
 70
0
  3

 72
65
 73
0
 40
0.0
  0
LTYPE
  5
15
100
AcDbSymbolTableRecord
100
AcDbLinetypeTableRecord
  2
BYLAYER
 70
0
  3

 72
65
 73
0
 40
0.0
  0
LTYPE
  5
16
100
AcDbSymbolTableRecord
100
AcDbLinetypeTableRecord
  2
CONTINUOUS
 70
64
  3
Solid line
 72
65
 73
0
 40
0.0
  0
LTYPE
  5
1F5
100
AcDbSymbolTableRecord
100
AcDbLinetypeTableRecord
  2
CENTER
 70
64
  3
____ _ ____ _ ____ _ ____ _ ____ _ ____ _ ____
 72
65
 73
4
 40
0.6
 49
0.375
 74
0
 49
-0.075
 74
0
 49
0.075
 74
0
 49
-0.075
 74
0
  0
LTYPE
  5
1F6
100
AcDbSymbolTableRecord
100
AcDbLinetypeTableRecord
  2
HIDDEN
 70
64
  3
- - - - - - - - - - - - - - - - - - - -
 72
65
 73
2
 40
0.2
 49
0.1
 74
0
 49
-0.1
 74
0
  0
LTYPE
  5
1F7
100
AcDbSymbolTableRecord
100
AcDbLinetypeTableRecord
  2
PHANTOM
 70
64
  3
_____ _ _ _____ _ _ _____ _ _ _____
 72
65
 73
6
 40
0.8
 49
0.45
 74
0
 49
-0.05
 74
0
 49
0.1
 74
0
 49
-0.05
 74
0
 49
0.1
 74
0
 49
-0.05
 74
0
  0
LTYPE
  5
1F8
100
AcDbSymbolTableRecord
100
AcDbLinetypeTableRecord
  2
DOT
 70
64
  3
. . . . . . . . . . . . . . . . . . . .
 72
65
 73
2
 40
0.2
 49
0.1
 74
0
 49
-0.1
 74
0
  0
LTYPE
  5
1F9
100
AcDbSymbolTableRecord
100
AcDbLinetypeTableRecord
  2
DASHED
 70
64
  3
- - - - - - - - - - - - - - - - - - - -
 72
65
 73
2
 40
0.2
 49
0.1
 74
0
 49
-0.1
 74
0
  0
ENDTAB
  0
TABLE
  2
LAYER
  5
2
100
AcDbSymbolTable
 70
36
  0
LAYER
  5
10
100
AcDbSymbolTableRecord
100
AcDbLayerTableRecord
  2
0
 70
0
 62
7
  6
CONTINUOUS
370
-3
390
F
  0
LAYER
  5
1FA
100
AcDbSymbolTableRecord
100
AcDbLayerTableRecord
  2
DEFAULT_1
 70
0
 62
7
  6
CENTER
370
-3
390
F
  0
LAYER
  5
1FB
100
AcDbSymbolTableRecord
100
AcDbLayerTableRecord
  2
DEFAULT_2
 70
0
 62
8
  6
HIDDEN
370
-3
390
F
  0
LAYER
  5
1FC
100
AcDbSymbolTableRecord
100
AcDbLayerTableRecord
  2
DEFAULT_3
 70
0
 62
7
  6
PHANTOM
370
-3
390
F
  0
LAYER
  5
1FD
100
AcDbSymbolTableRecord
100
AcDbLayerTableRecord
  2
_  SHELL
 70
0
 62
7
  6
CONTINUOUS
370
-3
390
F
  0
LAYER
  5
1FE
100
AcDbSymbolTableRecord
100
AcDbLayerTableRecord
  2
06___PRT_ALL_SURFS_15
 70
0
 62
7
  6
CONTINUOUS
370
-3
390
F
  0
LAYER
  5
1FF
100
AcDbSymbolTableRecord
100
AcDbLayerTableRecord
  2
11_9
 70
0
 62
7
  6
CONTINUOUS
370
-3
390
F
  0
LAYER
  5
200
100
AcDbSymbolTableRecord
100
AcDbLayerTableRecord
  2
1451A0A-0Z1-01
 70
0
 62
7
  6
CONTINUOUS
370
-3
390
F
  0
LAYER
  5
201
100
AcDbSymbolTableRecord
100
AcDbLayerTableRecord
  2
1451A0A-0Z1-02
 70
0
 62
7
  6
CONTINUOUS
370
-3
390
F
  0
LAYER
  5
202
100
AcDbSymbolTableRecord
100
AcDbLayerTableRecord
  2
1451A0A-0Z1-02_1
 70
0
 62
7
  6
CONTINUOUS
370
-3
390
F
  0
LAYER
  5
203
100
AcDbSymbolTableRecord
100
AcDbLayerTableRecord
  2
1451A0A-0Z1-03
 70
0
 62
7
  6
CONTINUOUS
370
-3
390
F
  0
LAYER
  5
204
100
AcDbSymbolTableRecord
100
AcDbLayerTableRecord
  2
1451A0A-0Z1-04
 70
0
 62
7
  6
CONTINUOUS
370
-3
390
F
  0
LAYER
  5
205
100
AcDbSymbolTableRecord
100
AcDbLayerTableRecord
  2
1451A0A-0Z1-05
 70
0
 62
7
  6
CONTINUOUS
370
-3
390
F
  0
LAYER
  5
206
100
AcDbSymbolTableRecord
100
AcDbLayerTableRecord
  2
1451A0A-0Z1-06
 70
0
 62
7
  6
CONTINUOUS
370
-3
390
F
  0
LAYER
  5
207
100
AcDbSymbolTableRecord
100
AcDbLayerTableRecord
  2
1451A0A-0Z1-07
 70
0
 62
7
  6
CONTINUOUS
370
-3
390
F
  0
LAYER
  5
208
100
AcDbSymbolTableRecord
100
AcDbLayerTableRecord
  2
22_4
 70
0
 62
7
  6
CONTINUOUS
370
-3
390
F
  0
LAYER
  5
209
100
AcDbSymbolTableRecord
100
AcDbLayerTableRecord
  2
22_5
 70
0
 62
7
  6
CONTINUOUS
370
-3
390
F
  0
LAYER
  5
20A
100
AcDbSymbolTableRecord
100
AcDbLayerTableRecord
  2
264X18
 70
0
 62
7
  6
CONTINUOUS
370
-3
390
F
  0
LAYER
  5
20B
100
AcDbSymbolTableRecord
100
AcDbLayerTableRecord
  2
30X15
 70
0
 62
7
  6
CONTINUOUS
370
-3
390
F
  0
LAYER
  5
20C
100
AcDbSymbolTableRecord
100
AcDbLayerTableRecord
  2
315X18
 70
0
 62
7
  6
CONTINUOUS
370
-3
390
F
  0
LAYER
  5
20D
100
AcDbSymbolTableRecord
100
AcDbLayerTableRecord
  2
59X178
 70
0
 62
7
  6
CONTINUOUS
370
-3
390
F
  0
LAYER
  5
20E
100
AcDbSymbolTableRecord
100
AcDbLayerTableRecord
  2
6X15
 70
0
 62
7
  6
CONTINUOUS
370
-3
390
F
  0
LAYER
  5
20F
100
AcDbSymbolTableRecord
100
AcDbLayerTableRecord
  2
925X178
 70
0
 62
7
  6
CONTINUOUS
370
-3
390
F
  0
LAYER
  5
210
100
AcDbSymbolTableRecord
100
AcDbLayerTableRecord
  2
ALL_ASSEMBLY_MEMBERS
 70
0
 62
7
  6
CONTINUOUS
370
-3
390
F
  0
LAYER
  5
211
100
AcDbSymbolTableRecord
100
AcDbLayerTableRecord
  2
ALL_FEATURES
 70
0
 62
7
  6
CONTINUOUS
370
-3
390
F
  0
LAYER
  5
212
100
AcDbSymbolTableRecord
100
AcDbLayerTableRecord
  2
AXES_FEATURES
 70
0
 62
7
  6
CONTINUOUS
370
-3
390
F
  0
LAYER
  5
213
100
AcDbSymbolTableRecord
100
AcDbLayerTableRecord
  2
COLOR14
 70
0
 62
7
  6
CONTINUOUS
370
-3
390
F
  0
LAYER
  5
214
100
AcDbSymbolTableRecord
100
AcDbLayerTableRecord
  2
COLOR33
 70
0
 62
7
  6
CONTINUOUS
370
-3
390
F
  0
LAYER
  5
215
100
AcDbSymbolTableRecord
100
AcDbLayerTableRecord
  2
COLOR9
 70
0
 62
7
  6
CONTINUOUS
370
-3
390
F
  0
LAYER
  5
216
100
AcDbSymbolTableRecord
100
AcDbLayerTableRecord
  2
CONSTR_CURVES
 70
0
 62
7
  6
CONTINUOUS
370
-3
390
F
  0
LAYER
  5
217
100
AcDbSymbolTableRecord
100
AcDbLayerTableRecord
  2
COSMETIC
 70
0
 62
7
  6
CONTINUOUS
370
-3
390
F
  0
LAYER
  5
218
100
AcDbSymbolTableRecord
100
AcDbLayerTableRecord
  2
CURVES
 70
0
 62
7
  6
CONTINUOUS
370
-3
390
F
  0
LAYER
  5
219
100
AcDbSymbolTableRecord
100
AcDbLayerTableRecord
  2
CUT_FEATURES
 70
0
 62
7
  6
CONTINUOUS
370
-3
390
F
  0
LAYER
  5
21A
100
AcDbSymbolTableRecord
100
AcDbLayerTableRecord
  2
DATUM_PLANES
 70
0
 62
7
  6
CONTINUOUS
370
-3
390
F
  0
LAYER
  5
21B
100
AcDbSymbolTableRecord
100
AcDbLayerTableRecord
  2
DEFAULT_COORDINATE_SYSTEM
 70
0
 62
7
  6
CONTINUOUS
370
-3
390
F
  0
LAYER
  5
21C
100
AcDbSymbolTableRecord
100
AcDbLayerTableRecord
  2
DEFAULT_DATUM_AXES
 70
0
 62
7
  6
CONTINUOUS
370
-3
390
F
  0
LAYER
  5
21D
100
AcDbSymbolTableRecord
100
AcDbLayerTableRecord
  2
DEFAULT_DATUM_CURVES
 70
0
 62
7
  6
CONTINUOUS
370
-3
390
F
  0
LAYER
  5
21E
100
AcDbSymbolTableRecord
100
AcDbLayerTableRecord
  2
DEFAULT_DATUM_PLANES
 70
0
 62
7
  6
CONTINUOUS
370
-3
390
F
  0
LAYER
  5
21F
100
AcDbSymbolTableRecord
100
AcDbLayerTableRecord
  2
DEFAULT_SURFACES
 70
0
 62
7
  6
CONTINUOUS
370
-3
390
F
  0
LAYER
  5
220
100
AcDbSymbolTableRecord
100
AcDbLayerTableRecord
  2
DIMENSIONS
 70
0
 62
7
  6
CONTINUOUS
370
-3
390
F
  0
LAYER
  5
221
100
AcDbSymbolTableRecord
100
AcDbLayerTableRecord
  2
DTM_PLANES
 70
0
 62
7
  6
CONTINUOUS
370
-3
390
F
  0
LAYER
  5
222
100
AcDbSymbolTableRecord
100
AcDbLayerTableRecord
  2
EXT_SURFACE
 70
0
 62
7
  6
CONTINUOUS
370
-3
390
F
  0
LAYER
  5
223
100
AcDbSymbolTableRecord
100
AcDbLayerTableRecord
  2
GTOL_DTMS
 70
0
 62
7
  6
CONTINUOUS
370
-3
390
F
  0
LAYER
  5
224
100
AcDbSymbolTableRecord
100
AcDbLayerTableRecord
  2
HIDE
 70
0
 62
7
  6
CONTINUOUS
370
-3
390
F
  0
LAYER
  5
225
100
AcDbSymbolTableRecord
100
AcDbLayerTableRecord
  2
HIDE_10
 70
0
 62
7
  6
CONTINUOUS
370
-3
390
F
  0
LAYER
  5
226
100
AcDbSymbolTableRecord
100
AcDbLayerTableRecord
  2
HIDE_7
 70
0
 62
7
  6
CONTINUOUS
370
-3
390
F
  0
LAYER
  5
227
100
AcDbSymbolTableRecord
100
AcDbLayerTableRecord
  2
HIDE_8
 70
0
 62
7
  6
CONTINUOUS
370
-3
390
F
  0
LAYER
  5
228
100
AcDbSymbolTableRecord
100
AcDbLayerTableRecord
  2
HIDE_9
 70
0
 62
7
  6
CONTINUOUS
370
-3
390
F
  0
LAYER
  5
229
100
AcDbSymbolTableRecord
100
AcDbLayerTableRecord
  2
IMPORT
 70
0
 62
7
  6
CONTINUOUS
370
-3
390
F
  0
LAYER
  5
22A
100
AcDbSymbolTableRecord
100
AcDbLayerTableRecord
  2
INTFCLR_33883
 70
0
 62
7
  6
CONTINUOUS
370
-3
390
F
  0
LAYER
  5
22B
100
AcDbSymbolTableRecord
100
AcDbLayerTableRecord
  2
INTFCLR_33883_1
 70
0
 62
7
  6
CONTINUOUS
370
-3
390
F
  0
LAYER
  5
22C
100
AcDbSymbolTableRecord
100
AcDbLayerTableRecord
  2
INTFCLR_33883_2
 70
0
 62
7
  6
CONTINUOUS
370
-3
390
F
  0
LAYER
  5
22D
100
AcDbSymbolTableRecord
100
AcDbLayerTableRecord
  2
INTFCLR_33883_3
 70
0
 62
7
  6
CONTINUOUS
370
-3
390
F
  0
LAYER
  5
22E
100
AcDbSymbolTableRecord
100
AcDbLayerTableRecord
  2
INTFCLR_33883_4
 70
0
 62
7
  6
CONTINUOUS
370
-3
390
F
  0
LAYER
  5
22F
100
AcDbSymbolTableRecord
100
AcDbLayerTableRecord
  2
INTFCLR_33883_5
 70
0
 62
7
  6
CONTINUOUS
370
-3
390
F
  0
LAYER
  5
230
100
AcDbSymbolTableRecord
100
AcDbLayerTableRecord
  2
INTF_BLANK
 70
0
 62
7
  6
CONTINUOUS
370
-3
390
F
  0
LAYER
  5
231
100
AcDbSymbolTableRecord
100
AcDbLayerTableRecord
  2
LOGO_CURVES
 70
0
 62
7
  6
CONTINUOUS
370
-3
390
F
  0
LAYER
  5
232
100
AcDbSymbolTableRecord
100
AcDbLayerTableRecord
  2
NONE
 70
0
 62
7
  6
CONTINUOUS
370
-3
390
F
  0
LAYER
  5
233
100
AcDbSymbolTableRecord
100
AcDbLayerTableRecord
  2
PROTRUSION_FEATURES
 70
0
 62
7
  6
CONTINUOUS
370
-3
390
F
  0
LAYER
  5
234
100
AcDbSymbolTableRecord
100
AcDbLayerTableRecord
  2
S01012-09A
 70
0
 62
7
  6
CONTINUOUS
370
-3
390
F
  0
LAYER
  5
235
100
AcDbSymbolTableRecord
100
AcDbLayerTableRecord
  2
S01012-10A
 70
0
 62
7
  6
CONTINUOUS
370
-3
390
F
  0
LAYER
  5
236
100
AcDbSymbolTableRecord
100
AcDbLayerTableRecord
  2
S02015-05
 70
0
 62
7
  6
CONTINUOUS
370
-3
390
F
  0
LAYER
  5
237
100
AcDbSymbolTableRecord
100
AcDbLayerTableRecord
  2
S02015-16B
 70
0
 62
7
  6
CONTINUOUS
370
-3
390
F
  0
LAYER
  5
238
100
AcDbSymbolTableRecord
100
AcDbLayerTableRecord
  2
S02015-17
 70
0
 62
7
  6
CONTINUOUS
370
-3
390
F
  0
LAYER
  5
239
100
AcDbSymbolTableRecord
100
AcDbLayerTableRecord
  2
S02015-18
 70
0
 62
7
  6
CONTINUOUS
370
-3
390
F
  0
LAYER
  5
23A
100
AcDbSymbolTableRecord
100
AcDbLayerTableRecord
  2
S02015-20A
 70
0
 62
7
  6
CONTINUOUS
370
-3
390
F
  0
LAYER
  5
23B
100
AcDbSymbolTableRecord
100
AcDbLayerTableRecord
  2
S02015-31A
 70
0
 62
7
  6
CONTINUOUS
370
-3
390
F
  0
LAYER
  5
23C
100
AcDbSymbolTableRecord
100
AcDbLayerTableRecord
  2
S02015-32A
 70
0
 62
7
  6
CONTINUOUS
370
-3
390
F
  0
LAYER
  5
23D
100
AcDbSymbolTableRecord
100
AcDbLayerTableRecord
  2
S02015-32A_1
 70
0
 62
7
  6
CONTINUOUS
370
-3
390
F
  0
LAYER
  5
23E
100
AcDbSymbolTableRecord
100
AcDbLayerTableRecord
  2
S02015-35
 70
0
 62
7
  6
CONTINUOUS
370
-3
390
F
  0
LAYER
  5
23F
100
AcDbSymbolTableRecord
100
AcDbLayerTableRecord
  2
S15025-04A
 70
0
 62
7
  6
CONTINUOUS
370
-3
390
F
  0
LAYER
  5
240
100
AcDbSymbolTableRecord
100
AcDbLayerTableRecord
  2
START_DTMS
 70
0
 62
7
  6
CONTINUOUS
370
-3
390
F
  0
LAYER
  5
241
100
AcDbSymbolTableRecord
100
AcDbLayerTableRecord
  2
SURFACE
 70
0
 62
7
  6
CONTINUOUS
370
-3
390
F
  0
LAYER
  5
242
100
AcDbSymbolTableRecord
100
AcDbLayerTableRecord
  2
SURFS
 70
0
 62
7
  6
CONTINUOUS
370
-3
390
F
  0
LAYER
  5
243
100
AcDbSymbolTableRecord
100
AcDbLayerTableRecord
  2
WETTED_SURFACE
 70
0
 62
7
  6
CONTINUOUS
370
-3
390
F
  0
LAYER
  5
244
100
AcDbSymbolTableRecord
100
AcDbLayerTableRecord
  2
WETTED_SURFACES
 70
0
 62
7
  6
CONTINUOUS
370
-3
390
F
  0
LAYER
  5
245
100
AcDbSymbolTableRecord
100
AcDbLayerTableRecord
  2
___SHELL
 70
0
 62
7
  6
CONTINUOUS
370
-3
390
F
  0
ENDTAB
  0
TABLE
  2
STYLE
  5
3
100
AcDbSymbolTable
 70
1
  0
STYLE
  5
11
100
AcDbSymbolTableRecord
100
AcDbTextStyleTableRecord
  2
STANDARD
 70
0
 40
0.0
 41
0.8
 50
0.0
 71
0
 42
0.2
  3
txt
  4

  0
STYLE
  5
246
100
AcDbSymbolTableRecord
100
AcDbTextStyleTableRecord
  2
TEXTSTYLE_1
 70
0
 40
0.0
 41
0.8
 50
0.0
 71
0
 42
0.2
  3
gdt
  4

  0
ENDTAB
  0
TABLE
  2
VIEW
  5
6
100
AcDbSymbolTable
 70
0
  0
ENDTAB
  0
TABLE
  2
UCS
  5
7
100
AcDbSymbolTable
 70
0
  0
ENDTAB
  0
TABLE
  2
APPID
  5
9
100
AcDbSymbolTable
 70
1
  0
APPID
  5
247
100
AcDbSymbolTableRecord
100
AcDbRegAppTableRecord
  2
ACAD
 70
0
  0
ENDTAB
  0
TABLE
  2
BLOCK_RECORD
  5
1
100
AcDbSymbolTable
 70
0
  0
BLOCK_RECORD
  5
248
100
AcDbSymbolTableRecord
100
AcDbBlockTableRecord
  2
*Model_Space
  0
BLOCK_RECORD
  5
249
100
AcDbSymbolTableRecord
100
AcDbBlockTableRecord
  2
*Paper_Space
  0
BLOCK_RECORD
  5
24A
100
AcDbSymbolTableRecord
100
AcDbBlockTableRecord
  2
_FILLED
  0
ENDTAB
  0
TABLE
  2
DIMSTYLE
  5
A
100
AcDbSymbolTable
 70
1
100
AcDbDimStyleTable
 71
0
  0
DIMSTYLE
105
24B
100
AcDbSymbolTableRecord
100
AcDbDimStyleTableRecord
  2
STANDARD
 70
0
  3

  4

 40
1.0
 41
0.1
 42
0.0625
 43
0.38
 44
0.125
 45
0.0
 46
0.0
 47
0.001
 48
0.001
140
0.08
141
0.09
142
0.0
143
25.4
144
1.0
145
0.0
146
1.0
147
0.09
 71
1.0
 72
0.0
 73
1
 74
1
 75
0
 76
0
 77
0
 78
4
 79
1
170
1
171
2
172
0
173
0
174
0
175
0
176
0
177
0
178
0
270
2
179
3
271
3
272
3
273
2
274
2
275
0
280
0
281
0
282
0
283
1
284
4
285
0
286
0
287
3
288
0
340
11
278
46
341
24A
342
24A
343
24A
344
24A
  0
ENDTAB
  0
ENDSEC
  0
SECTION
  2
BLOCKS
  0
BLOCK
  5
20
100
AcDbEntity
  8
0
100
AcDbBlockBegin
  2
*Model_Space
 70
0
 10
0.0
 20
0.0
 30
0.0
  3
*Model_Space
  1

  0
ENDBLK
  5
21
100
AcDbEntity
  8
0
100
AcDbBlockEnd
  0
BLOCK
  5
1C
100
AcDbEntity
  8
0
100
AcDbBlockBegin
  2
*Paper_Space
 70
0
 10
0.0
 20
0.0
 30
0.0
  3
*Paper_Space
  1

  0
ENDBLK
  5
1D
100
AcDbEntity
  8
0
100
AcDbBlockEnd
  0
BLOCK
  5
24C
100
AcDbEntity
  8
0
100
AcDbBlockBegin
  2
_FILLED
 70
64
 10
0.0
 20
0.0
  3
_FILLED
  1

  0
SOLID
  5
24D
100
AcDbEntity
  8
0
  6
BYBLOCK
 62
0
100
AcDbTrace
 10
0.0
 20
0.0
 11
-1.0
 21
0.2
 12
-1.0
 22
-0.2
 13
-1.0
 23
-0.2
  0
ENDBLK
  5
24E
100
AcDbEntity
  8
0
  6
BYBLOCK
 62
0
100
AcDbBlockEnd
  0
ENDSEC
  0
SECTION
  2
ENTITIES
  0
MTEXT
  5
24F
100
AcDbEntity
  8
0
100
AcDbMText
 62
2
  6
CONTINUOUS
  7
STANDARD
 71
3
 72
1
 10
5.3872875776
 20
0.3756279503
 30
0.0
 11
1.0
 21
0.0
 31
0.0
 73
2
 44
0.9
  1
SCALE  .750
 40
0.08
 41
0.704
  0
LINE
  5
250
100
AcDbEntity
  8
0
100
AcDbLine
 62
7
  6
CONTINUOUS
 10
0.0
 20
0.0
 11
0.0
 21
8.5
  0
LINE
  5
251
100
AcDbEntity
  8
0
100
AcDbLine
 62
7
  6
CONTINUOUS
 10
0.0
 20
0.0
 11
11.0
 21
0.0
  0
LINE
  5
252
100
AcDbEntity
  8
0
100
AcDbLine
 62
7
  6
CONTINUOUS
 10
0.0
 20
8.5
 11
11.0
 21
8.5
  0
LINE
  5
253
100
AcDbEntity
  8
0
100
AcDbLine
 62
7
  6
CONTINUOUS
 10
11.0
 20
0.0
 11
11.0
 21
8.5
  0
LINE
  5
254
100
AcDbEntity
  8
ALL_FEATURES
100
AcDbLine
 62
7
  6
CONTINUOUS
 10
5.1074379501
 20
0.8176552795
 11
5.0785165128
 21
0.8176552795
  0
LINE
  5
255
100
AcDbEntity
  8
ALL_FEATURES
100
AcDbLine
 62
7
  6
CONTINUOUS
 10
4.9368147995
 20
0.8176552795
 11
4.9657362369
 21
0.8176552795
  0
LINE
  5
256
100
AcDbEntity
  8
ALL_FEATURES
100
AcDbLine
 62
7
  6
CONTINUOUS
 10
4.9801263748
 20
0.8176552795
 11
5.0641263748
 21
0.8176552795
  0
LINE
  5
257
100
AcDbEntity
  8
ALL_FEATURES
100
AcDbLine
 62
7
  6
CONTINUOUS
 10
4.9368138748
 20
0.8251552795
 11
4.9478685627
 21
0.8251552795
  0
LINE
  5
258
100
AcDbEntity
  8
ALL_FEATURES
100
AcDbLine
 62
7
  6
CONTINUOUS
 10
4.9801263748
 20
0.8251552795
 11
5.0641263748
 21
0.8251552795
  0
LINE
  5
259
100
AcDbEntity
  8
ALL_FEATURES
100
AcDbLine
 62
7
  6
CONTINUOUS
 10
5.0963841869
 20
0.8251552795
 11
5.1074388748
 21
0.8251552795
  0
LINE
  5
25A
100
AcDbEntity
  8
0
100
AcDbLine
 62
7
  6
CONTINUOUS
 10
5.2958763748
 20
0.8326552795
 11
4.7483763748
 21
0.8326552795
  0
LINE
  5
25B
100
AcDbEntity
  8
0
100
AcDbLine
 62
7
  6
CONTINUOUS
 10
4.7483763748
 20
1.0501552795
 11
5.2958763748
 21
1.0501552795
  0
LINE
  5
25C
100
AcDbEntity
  8
0
100
AcDbLine
 62
7
  6
CONTINUOUS
 10
4.5758964258
 20
1.1064052795
 11
5.4683763748
 21
1.1064052795
  0
LINE
  5
25D
100
AcDbEntity
  8
0
100
AcDbLine
 62
7
  6
CONTINUOUS
 10
4.5458763748
 20
1.1364052795
 11
5.4983763748
 21
1.1364052795
  0
LINE
  5
25E
100
AcDbEntity
  8
0
100
AcDbLine
 62
7
  6
CONTINUOUS
 10
4.5458763748
 20
1.1889052795
 11
5.4983763748
 21
1.1889052795
  0
LINE
  5
25F
100
AcDbEntity
  8
0
100
AcDbLine
 62
7
  6
CONTINUOUS
 10
5.4700736044
 20
1.2188572312
 11
4.5741791452
 21
1.2188572312
  0
LINE
  5
260
100
AcDbEntity
  8
0
100
AcDbLine
 62
7
  6
CONTINUOUS
 10
5.427795895
 20
1.2677662414
 11
4.6164568547
 21
1.2677662414
  0
LINE
  5
261
100
AcDbEntity
  8
0
100
AcDbLine
 62
7
  6
CONTINUOUS
 10
3.844917133
 20
5.7552189882
 11
3.8445137169
 21
5.7549290393
  0
LINE
  5
262
100
AcDbEntity
  8
0
100
AcDbLine
 62
7
  6
CONTINUOUS
 10
3.8654306032
 20
5.7490567374
 11
3.8650287136
 21
5.7487681886
  0
LINE
  5
263
100
AcDbEntity
  8
0
100
AcDbLine
 62
7
  6
CONTINUOUS
 10
3.67272534
 20
5.6371010637
 11
3.6726535974
 21
5.637061772
  0
LINE
  5
264
100
AcDbEntity
  8
0
100
AcDbLine
 62
7
  6
CONTINUOUS
 10
3.8449169418
 20
5.7552193659
 11
3.8612563537
 21
5.7634595978
  0
LINE
  5
265
100
AcDbEntity
  8
0
100
AcDbLine
 62
7
  6
CONTINUOUS
 10
5.6223327622
 20
6.5266945223
 11
5.6128657241
 21
6.5238902423
  0
LINE
  5
266
100
AcDbEntity
  8
0
100
AcDbLine
 62
7
  6
CONTINUOUS
 10
5.7315790625
 20
6.5590547554
 11
5.7242509512
 21
6.556884034
  0
LINE
  5
267
100
AcDbEntity
  8
0
100
AcDbLine
 62
7
  6
CONTINUOUS
 10
4.5322257405
 20
5.9592207047
 11
4.5399529076
 21
5.9653671913
  0
LINE
  5
268
100
AcDbEntity
  8
0
100
AcDbLine
 62
7
  6
CONTINUOUS
 10
4.4430566668
 20
5.8882924343
 11
4.4490380333
 21
5.8930502699
  0
LINE
  5
269
100
AcDbEntity
  8
0
100
AcDbLine
 62
7
  6
CONTINUOUS
 10
4.4953161732
 20
5.9477387232
 11
4.4685374133
 21
5.9266700748
  0
LINE
  5
26A
100
AcDbEntity
  8
0
100
AcDbLine
 62
7
  6
CONTINUOUS
 10
4.4876996551
 20
5.9042093837
 11
4.5126339867
 21
5.9238180165
  0
LINE
  5
26B
100
AcDbEntity
  8
0
100
AcDbLine
 62
7
  6
CONTINUOUS
 10
3.9346805314
 20
5.6362851916
 11
3.9193745753
 21
5.6262549617
  0
LINE
  5
26C
100
AcDbEntity
  8
0
100
AcDbLine
 62
7
  6
CONTINUOUS
 10
3.7309851596
 20
5.5361913152
 11
3.7309153343
 21
5.5361488764
  0
LINE
  5
26D
100
AcDbEntity
  8
0
100
AcDbLine
 62
7
  6
CONTINUOUS
 10
5.6596654042
 20
6.7244444677
 11
5.6530834676
 21
6.7205674103
  0
LINE
  5
26E
100
AcDbEntity
  8
0
100
AcDbLine
 62
7
  6
CONTINUOUS
 10
5.5614923593
 20
6.6666161253
 11
5.5529855558
 21
6.6616052343
  0
LINE
  5
26F
100
AcDbEntity
  8
0
100
AcDbLine
 62
7
  6
CONTINUOUS
 10
4.1169326831
 20
5.826291458
 11
4.1032192194
 21
5.818373986
  0
LINE
  5
270
100
AcDbEntity
  8
0
100
AcDbLine
 62
7
  6
CONTINUOUS
 10
3.9238419267
 20
5.6468969007
 11
3.9242944131
 21
5.6471016279
  0
LINE
  5
271
100
AcDbEntity
  8
0
100
AcDbLine
 62
7
  6
CONTINUOUS
 10
3.9193743438
 20
5.6262553161
 11
3.9189217749
 21
5.6260505518
  0
LINE
  5
272
100
AcDbEntity
  8
0
100
AcDbLine
 62
7
  6
CONTINUOUS
 10
4.8722252092
 20
6.1899285169
 11
4.8795082205
 21
6.199419922
  0
LINE
  5
273
100
AcDbEntity
  8
0
100
AcDbLine
 62
7
  6
CONTINUOUS
 10
5.1295831467
 20
6.525323911
 11
5.136888859
 21
6.5348449006
  0
LINE
  5
274
100
AcDbEntity
  8
0
100
AcDbLine
 62
7
  6
CONTINUOUS
 10
4.6410515271
 20
5.8522788693
 11
4.6470617799
 21
5.8601115828
  0
LINE
  5
275
100
AcDbEntity
  8
0
100
AcDbLine
 62
7
  6
CONTINUOUS
 10
4.5716898386
 20
5.761884953
 11
4.5763427748
 21
5.7679488352
  0
LINE
  5
276
100
AcDbEntity
  8
0
100
AcDbLine
 62
7
  6
CONTINUOUS
 10
5.1720275404
 20
6.5078820421
 11
5.1647445292
 21
6.498390637
  0
LINE
  5
277
100
AcDbEntity
  8
0
100
AcDbLine
 62
7
  6
CONTINUOUS
 10
4.9146696029
 20
6.172486648
 11
4.9073638906
 21
6.1629656584
  0
LINE
  5
278
100
AcDbEntity
  8
0
100
AcDbLine
 62
7
  6
CONTINUOUS
 10
4.7725156038
 20
5.7748397879
 11
4.7764526987
 21
5.7838945143
  0
LINE
  5
279
100
AcDbEntity
  8
0
100
AcDbLine
 62
7
  6
CONTINUOUS
 10
4.7270828019
 20
5.6703515139
 11
4.7301303856
 21
5.6773605601
  0
LINE
  5
27A
100
AcDbEntity
  8
ALL_FEATURES
100
AcDbLine
 62
7
  6
CONTINUOUS
 10
4.9459358734
 20
0.8326550513
 11
4.9478685627
 21
0.8251552795
  0
LINE
  5
27B
100
AcDbEntity
  8
ALL_FEATURES
100
AcDbLine
 62
7
  6
CONTINUOUS
 10
4.9368138748
 20
0.8251552795
 11
4.9351263748
 21
0.8326552795
  0
LINE
  5
27C
100
AcDbEntity
  8
0
100
AcDbLine
 62
7
  6
CONTINUOUS
 10
5.1894134731
 20
6.9521231084
 11
5.1867748716
 21
6.9426085627
  0
LINE
  5
27D
100
AcDbEntity
  8
0
100
AcDbLine
 62
7
  6
CONTINUOUS
 10
5.2198621581
 20
7.0619175363
 11
5.217819727
 21
7.0545526383
  0
LINE
  5
27E
100
AcDbEntity
  8
0
100
AcDbLine
 62
7
  6
CONTINUOUS
 10
5.427795895
 20
3.9450443176
 11
4.6164568547
 21
3.9450443176
  0
LINE
  5
27F
100
AcDbEntity
  8
0
100
AcDbLine
 62
7
  6
CONTINUOUS
 10
5.4700736044
 20
3.9939533278
 11
4.5741791452
 21
3.9939533278
  0
LINE
  5
280
100
AcDbEntity
  8
0
100
AcDbLine
 62
7
  6
CONTINUOUS
 10
4.5458763748
 20
4.0239052795
 11
5.4983763748
 21
4.0239052795
  0
LINE
  5
281
100
AcDbEntity
  8
0
100
AcDbLine
 62
7
  6
CONTINUOUS
 10
4.5458763748
 20
4.0764052795
 11
5.4983763748
 21
4.0764052795
  0
LINE
  5
282
100
AcDbEntity
  8
0
100
AcDbLine
 62
7
  6
CONTINUOUS
 10
4.5758964258
 20
4.1064052795
 11
5.4683763748
 21
4.1064052795
  0
LINE
  5
283
100
AcDbEntity
  8
0
100
AcDbLine
 62
7
  6
CONTINUOUS
 10
3.6246065392
 20
5.5332601669
 11
3.6169970733
 21
5.5464401484
  0
LINE
  5
284
100
AcDbEntity
  8
0
100
AcDbLine
 62
7
  6
CONTINUOUS
 10
3.669350189
 20
5.5761795414
 11
3.6765381624
 21
5.5637296062
  0
LINE
  5
285
100
AcDbEntity
  8
0
100
AcDbLine
 62
7
  6
CONTINUOUS
 10
3.7845284937
 20
5.7016088987
 11
3.7842567
 21
5.7021286102
  0
LINE
  5
286
100
AcDbEntity
  8
0
100
AcDbLine
 62
7
  6
CONTINUOUS
 10
4.5458763748
 20
1.1364052795
 11
4.5458763748
 21
1.1889052795
  0
LINE
  5
287
100
AcDbEntity
  8
0
100
AcDbLine
 62
7
  6
CONTINUOUS
 10
4.5458763748
 20
4.0239052795
 11
4.5458763748
 21
4.0764052795
  0
LINE
  5
288
100
AcDbEntity
  8
0
100
AcDbLine
 62
7
  6
CONTINUOUS
 10
4.7408763748
 20
4.28620668
 11
4.7408763748
 21
4.7613852768
  0
LINE
  5
289
100
AcDbEntity
  8
0
100
AcDbLine
 62
7
  6
CONTINUOUS
 10
4.7483763748
 20
0.8326552795
 11
4.7483763748
 21
1.1064052795
  0
LINE
  5
28A
100
AcDbEntity
  8
0
100
AcDbLine
 62
7
  6
CONTINUOUS
 10
4.6216340441
 20
4.1230858619
 11
4.7295940373
 21
4.2564053505
  0
LINE
  5
28B
100
AcDbEntity
  8
0
100
AcDbLine
 62
7
  6
CONTINUOUS
 10
5.4226187055
 20
4.1230858619
 11
4.6216340441
 21
4.1230858619
  0
LINE
  5
28C
100
AcDbEntity
  8
0
100
AcDbLine
 62
7
  6
CONTINUOUS
 10
5.314658711
 20
4.2564053522
 11
4.7295940373
 21
4.2564053505
  0
LINE
  5
28D
100
AcDbEntity
  8
0
100
AcDbLine
 62
7
  6
CONTINUOUS
 10
5.3033763748
 20
4.2862066801
 11
4.7408763748
 21
4.28620668
  0
LINE
  5
28E
100
AcDbEntity
  8
0
100
AcDbLine
 62
7
  6
CONTINUOUS
 10
3.8430665121
 20
5.6002670308
 11
3.8427645617
 21
5.600765769
  0
LINE
  5
28F
100
AcDbEntity
  8
ALL_FEATURES
100
AcDbLine
 62
7
  6
CONTINUOUS
 10
4.9368138748
 20
0.8176552795
 11
4.9368138748
 21
0.8251552795
  0
LINE
  5
290
100
AcDbEntity
  8
ALL_FEATURES
100
AcDbLine
 62
7
  6
CONTINUOUS
 10
4.9478685627
 20
0.8176552795
 11
4.9478685627
 21
0.8251552795
  0
LINE
  5
291
100
AcDbEntity
  8
ALL_FEATURES
100
AcDbLine
 62
7
  6
CONTINUOUS
 10
4.9657362369
 20
0.8176552795
 11
4.9657362369
 21
0.8326552795
  0
LINE
  5
292
100
AcDbEntity
  8
ALL_FEATURES
100
AcDbLine
 62
7
  6
CONTINUOUS
 10
4.9801263748
 20
0.8176552795
 11
4.9801263748
 21
0.8326552795
  0
LINE
  5
293
100
AcDbEntity
  8
ALL_FEATURES
100
AcDbLine
 62
7
  6
CONTINUOUS
 10
5.0641263748
 20
0.8176552795
 11
5.0641263748
 21
0.8326552795
  0
LINE
  5
294
100
AcDbEntity
  8
ALL_FEATURES
100
AcDbLine
 62
7
  6
CONTINUOUS
 10
5.0785165128
 20
0.8176552795
 11
5.0785165128
 21
0.8326552795
  0
LINE
  5
295
100
AcDbEntity
  8
ALL_FEATURES
100
AcDbLine
 62
7
  6
CONTINUOUS
 10
5.0963841869
 20
0.8176552795
 11
5.0963841869
 21
0.8251552795
  0
LINE
  5
296
100
AcDbEntity
  8
0
100
AcDbLine
 62
7
  6
CONTINUOUS
 10
5.0414952946
 20
7.08857449
 11
5.0412953309
 21
7.0809381706
  0
LINE
  5
297
100
AcDbEntity
  8
0
100
AcDbLine
 62
7
  6
CONTINUOUS
 10
5.0385127224
 20
6.9746746625
 11
5.03825428
 21
6.9648051274
  0
LINE
  5
298
100
AcDbEntity
  8
0
100
AcDbLine
 62
7
  6
CONTINUOUS
 10
4.1074379258
 20
5.8110703088
 11
4.0990034032
 21
5.8256793316
  0
LINE
  5
299
100
AcDbEntity
  8
0
100
AcDbLine
 62
7
  6
CONTINUOUS
 10
4.1211412538
 20
5.8190087631
 11
4.1127299774
 21
5.8335775389
  0
LINE
  5
29A
100
AcDbEntity
  8
ALL_FEATURES
100
AcDbLine
 62
7
  6
CONTINUOUS
 10
5.1074388748
 20
0.8176552795
 11
5.1074388748
 21
0.8251552795
  0
LINE
  5
29B
100
AcDbEntity
  8
0
100
AcDbLine
 62
7
  6
CONTINUOUS
 10
5.2958763748
 20
0.8326552795
 11
5.2958763748
 21
1.1064052795
  0
LINE
  5
29C
100
AcDbEntity
  8
0
100
AcDbLine
 62
7
  6
CONTINUOUS
 10
5.3033763748
 20
4.2862066801
 11
5.3033763748
 21
4.7613852768
  0
LINE
  5
29D
100
AcDbEntity
  8
0
100
AcDbLine
 62
7
  6
CONTINUOUS
 10
5.4226187055
 20
4.1230858619
 11
5.314658711
 21
4.2564053522
  0
LINE
  5
29E
100
AcDbEntity
  8
0
100
AcDbLine
 62
7
  6
CONTINUOUS
 10
5.0269776091
 20
6.1423938865
 11
5.028543791
 21
6.1304956019
  0
LINE
  5
29F
100
AcDbEntity
  8
0
100
AcDbLine
 62
7
  6
CONTINUOUS
 10
4.9717965386
 20
6.5615337773
 11
4.9733588257
 21
6.5496726658
  0
LINE
  5
2A0
100
AcDbEntity
  8
0
100
AcDbLine
 62
7
  6
CONTINUOUS
 10
5.072456211
 20
6.1362767817
 11
5.0708942177
 21
6.1481379719
  0
LINE
  5
2A1
100
AcDbEntity
  8
0
100
AcDbLine
 62
7
  6
CONTINUOUS
 10
5.0172767721
 20
6.5554167336
 11
5.0157089587
 21
6.5673149571
  0
LINE
  5
2A2
100
AcDbEntity
  8
0
100
AcDbLine
 62
7
  6
CONTINUOUS
 10
5.4983763748
 20
1.1364052795
 11
5.4983763748
 21
1.1889052795
  0
LINE
  5
2A3
100
AcDbEntity
  8
0
100
AcDbLine
 62
7
  6
CONTINUOUS
 10
5.4983763748
 20
4.0239052795
 11
5.4983763748
 21
4.0764052795
  0
LINE
  5
2A4
100
AcDbEntity
  8
0
100
AcDbLine
 62
7
  6
CONTINUOUS
 10
4.8866384987
 20
6.9600515449
 11
4.8887755604
 21
6.9504119514
  0
LINE
  5
2A5
100
AcDbEntity
  8
0
100
AcDbLine
 62
7
  6
CONTINUOUS
 10
4.8619777442
 20
7.0712890655
 11
4.8636319927
 21
7.0638273829
  0
LINE
  5
2A6
100
AcDbEntity
  8
ALL_FEATURES
100
AcDbLine
 62
7
  6
CONTINUOUS
 10
5.1074388748
 20
0.8251552795
 11
5.1091263748
 21
0.8326552795
  0
LINE
  5
2A7
100
AcDbEntity
  8
0
100
AcDbLine
 62
7
  6
CONTINUOUS
 10
5.2812527882
 20
5.655840205
 11
5.2785775669
 21
5.6629954083
  0
LINE
  5
2A8
100
AcDbEntity
  8
0
100
AcDbLine
 62
7
  6
CONTINUOUS
 10
5.2413505697
 20
5.7625635396
 11
5.2378929854
 21
5.7718112639
  0
LINE
  5
2A9
100
AcDbEntity
  8
ALL_FEATURES
100
AcDbLine
 62
7
  6
CONTINUOUS
 10
5.0963841869
 20
0.8251552795
 11
5.0983168767
 21
0.8326550531
  0
LINE
  5
2AA
100
AcDbEntity
  8
0
100
AcDbLine
 62
7
  6
CONTINUOUS
 10
5.3766879667
 20
5.8330149812
 11
5.3710954622
 21
5.8411520992
  0
LINE
  5
2AB
100
AcDbEntity
  8
0
100
AcDbLine
 62
7
  6
CONTINUOUS
 10
5.4412233287
 20
5.7391154293
 11
5.4368943407
 21
5.7454140885
  0
LINE
  5
2AC
100
AcDbEntity
  8
0
100
AcDbLine
 62
7
  6
CONTINUOUS
 10
5.1811031374
 20
6.1990041139
 11
5.1716117323
 21
6.2062871252
  0
LINE
  5
2AD
100
AcDbEntity
  8
0
100
AcDbLine
 62
7
  6
CONTINUOUS
 10
4.8457077433
 20
6.4563620514
 11
4.8361867537
 21
6.4636677637
  0
LINE
  5
2AE
100
AcDbEntity
  8
0
100
AcDbLine
 62
7
  6
CONTINUOUS
 10
5.5522465123
 20
5.9040816677
 11
5.5355872663
 21
5.9180604348
  0
LINE
  5
2AF
100
AcDbEntity
  8
0
100
AcDbLine
 62
7
  6
CONTINUOUS
 10
5.4909610928
 20
5.9341153768
 11
5.4835662031
 21
5.9406577986
  0
LINE
  5
2B0
100
AcDbEntity
  8
0
100
AcDbLine
 62
7
  6
CONTINUOUS
 10
5.5762958768
 20
5.8586175215
 11
5.5705716327
 21
5.8636818607
  0
LINE
  5
2B1
100
AcDbEntity
  8
0
100
AcDbLine
 62
7
  6
CONTINUOUS
 10
5.2286378696
 20
6.353753795
 11
5.2405360524
 21
6.3553226957
  0
LINE
  5
2B2
100
AcDbEntity
  8
0
100
AcDbLine
 62
7
  6
CONTINUOUS
 10
5.2347548726
 20
6.3992351157
 11
5.2228940271
 21
6.3976718361
  0
LINE
  5
2B3
100
AcDbEntity
  8
0
100
AcDbLine
 62
7
  6
CONTINUOUS
 10
4.809497877
 20
6.2985754433
 11
4.8213592042
 21
6.3001369253
  0
LINE
  5
2B4
100
AcDbEntity
  8
0
100
AcDbLine
 62
7
  6
CONTINUOUS
 10
4.815614974
 20
6.3440542539
 11
4.8037166972
 21
6.3424878634
  0
LINE
  5
2B5
100
AcDbEntity
  8
0
100
AcDbLine
 62
7
  6
CONTINUOUS
 10
5.7613450458
 20
6.3811802646
 11
5.7537094657
 21
6.3808468554
  0
LINE
  5
2B6
100
AcDbEntity
  8
0
100
AcDbLine
 62
7
  6
CONTINUOUS
 10
5.647515178
 20
6.3762103551
 11
5.6376509347
 21
6.3757796579
  0
LINE
  5
2B7
100
AcDbEntity
  8
0
100
AcDbLine
 62
7
  6
CONTINUOUS
 10
4.4320473123
 20
6.5578632234
 11
4.4413546215
 21
6.5545673482
  0
LINE
  5
2B8
100
AcDbEntity
  8
0
100
AcDbLine
 62
7
  6
CONTINUOUS
 10
4.3246443359
 20
6.5958966226
 11
4.3318488198
 21
6.5933454155
  0
LINE
  5
2B9
100
AcDbEntity
  8
0
100
AcDbLine
 62
7
  6
CONTINUOUS
 10
4.5001266842
 20
6.6944093248
 11
4.5083601821
 21
6.6889597093
  0
LINE
  5
2BA
100
AcDbEntity
  8
0
100
AcDbLine
 62
7
  6
CONTINUOUS
 10
4.4051151472
 20
6.7572961011
 11
4.4114884349
 21
6.753077753
  0
LINE
  5
2BB
100
AcDbEntity
  8
0
100
AcDbLine
 62
7
  6
CONTINUOUS
 10
4.8631496123
 20
6.4988064451
 11
4.8726410173
 21
6.4915234338
  0
LINE
  5
2BC
100
AcDbEntity
  8
0
100
AcDbLine
 62
7
  6
CONTINUOUS
 10
5.1985450064
 20
6.2414485076
 11
5.208065996
 21
6.2341427953
  0
LINE
  5
2BD
100
AcDbEntity
  8
0
100
AcDbLine
 62
7
  6
CONTINUOUS
 10
4.3272934537
 20
6.402369759
 11
4.3628969609
 21
6.3996302184
  0
LINE
  5
2BE
100
AcDbEntity
  8
0
100
AcDbLine
 62
7
  6
CONTINUOUS
 10
4.3990246625
 20
6.4089031563
 11
4.408851882
 21
6.4079568943
  0
LINE
  5
2BF
100
AcDbEntity
  8
0
100
AcDbLine
 62
7
  6
CONTINUOUS
 10
4.2856099352
 20
6.4198237329
 11
4.2932171319
 21
6.4190912742
  0
ARC
  5
2C0
100
AcDbEntity
  8
0
100
AcDbCircle
 62
7
  6
CONTINUOUS
 10
-9.6441240918
 20
2.6064052795
 40
15.13125
100
AcDbArc
 50
354.9244926841
 51
5.0755073159
  0
ARC
  5
2C1
100
AcDbEntity
  8
0
100
AcDbCircle
 62
7
  6
CONTINUOUS
 10
-14.3725047144
 20
37.1439535335
 40
36.309492386
100
AcDbArc
 50
299.8157167066
 51
299.9924548026
  0
ARC
  5
2C2
100
AcDbEntity
  8
0
100
AcDbCircle
 62
7
  6
CONTINUOUS
 10
-13.2689148573
 20
35.0923060078
 40
34.0963417128
100
AcDbArc
 50
299.9063808943
 51
300.1233067151
  0
ARC
  5
2C3
100
AcDbEntity
  8
0
100
AcDbCircle
 62
7
  6
CONTINUOUS
 10
0.7920265059
 20
11.5888725625
 40
6.6445836693
100
AcDbArc
 50
299.8476467847
 51
299.9841858027
  0
ARC
  5
2C4
100
AcDbEntity
  8
0
100
AcDbCircle
 62
7
  6
CONTINUOUS
 10
0.7923374509
 20
11.5883336547
 40
6.6439614898
100
AcDbArc
 50
299.847633963
 51
299.9841859022
  0
ARC
  5
2C5
100
AcDbEntity
  8
0
100
AcDbCircle
 62
7
  6
CONTINUOUS
 10
5.4726194488
 20
1.2637851588
 40
0.045
100
AcDbArc
 50
174.9244926841
 51
266.7567985982
  0
ARC
  5
2C6
100
AcDbEntity
  8
0
100
AcDbCircle
 62
7
  6
CONTINUOUS
 10
4.5716333008
 20
1.2637851588
 40
0.045
100
AcDbArc
 50
273.2432014018
 51
5.0755073159
  0
ARC
  5
2C7
100
AcDbEntity
  8
0
100
AcDbCircle
 62
7
  6
CONTINUOUS
 10
5.4683763748
 20
1.1889052795
 40
0.03
100
AcDbArc
 50
0.0
 51
86.7567985982
  0
ARC
  5
2C8
100
AcDbEntity
  8
0
100
AcDbCircle
 62
7
  6
CONTINUOUS
 10
5.4683763748
 20
1.1364052795
 40
0.03
100
AcDbArc
 50
270.0
 51
360.0
  0
ARC
  5
2C9
100
AcDbEntity
  8
0
100
AcDbCircle
 62
7
  6
CONTINUOUS
 10
4.5758763748
 20
1.1889052795
 40
0.03
100
AcDbArc
 50
93.2432014018
 51
180.0
  0
ARC
  5
2CA
100
AcDbEntity
  8
0
100
AcDbCircle
 62
7
  6
CONTINUOUS
 10
4.5758763748
 20
1.1364052795
 40
0.03
100
AcDbArc
 50
180.0
 51
270.0
  0
ARC
  5
2CB
100
AcDbEntity
  8
0
100
AcDbCircle
 62
7
  6
CONTINUOUS
 10
4.5866624758
 20
4.1514052795
 40
0.045
100
AcDbArc
 50
270.0
 51
321.0
  0
ARC
  5
2CC
100
AcDbEntity
  8
0
100
AcDbCircle
 62
7
  6
CONTINUOUS
 10
4.5716333008
 20
3.9490254002
 40
0.045
100
AcDbArc
 50
354.9244926841
 51
86.7567985982
  0
ARC
  5
2CD
100
AcDbEntity
  8
0
100
AcDbCircle
 62
7
  6
CONTINUOUS
 10
4.6958763748
 20
4.28620668
 40
0.045
100
AcDbArc
 50
318.5281678499
 51
360.0
  0
ARC
  5
2CE
100
AcDbEntity
  8
0
100
AcDbCircle
 62
7
  6
CONTINUOUS
 10
4.5758763748
 20
4.0764052795
 40
0.03
100
AcDbArc
 50
90.0
 51
180.0
  0
ARC
  5
2CF
100
AcDbEntity
  8
0
100
AcDbCircle
 62
7
  6
CONTINUOUS
 10
4.5758763748
 20
4.0239052795
 40
0.03
100
AcDbArc
 50
180.0
 51
266.7567985982
  0
CIRCLE
  5
2D0
100
AcDbEntity
  8
0
100
AcDbCircle
 62
7
  6
CONTINUOUS
 10
4.166081748
 20
5.4928606527
 40
0.062007874
  0
CIRCLE
  5
2D1
100
AcDbEntity
  8
0
100
AcDbCircle
 62
7
  6
CONTINUOUS
 10
4.166081748
 20
5.4928606527
 40
0.0576832151
  0
CIRCLE
  5
2D2
100
AcDbEntity
  8
0
100
AcDbCircle
 62
7
  6
CONTINUOUS
 10
4.166081748
 20
5.4928606527
 40
0.0515680971
  0
CIRCLE
  5
2D3
100
AcDbEntity
  8
0
100
AcDbCircle
 62
7
  6
CONTINUOUS
 10
4.166081748
 20
5.4928606527
 40
0.0411284774
  0
CIRCLE
  5
2D4
100
AcDbEntity
  8
0
100
AcDbCircle
 62
7
  6
CONTINUOUS
 10
3.8527476678
 20
6.0355711993
 40
0.062007874
  0
CIRCLE
  5
2D5
100
AcDbEntity
  8
0
100
AcDbCircle
 62
7
  6
CONTINUOUS
 10
3.8527476678
 20
6.0355711993
 40
0.0576832151
  0
CIRCLE
  5
2D6
100
AcDbEntity
  8
0
100
AcDbCircle
 62
7
  6
CONTINUOUS
 10
4.1893396254
 20
5.7098855314
 40
0.0531496063
  0
CIRCLE
  5
2D7
100
AcDbEntity
  8
0
100
AcDbCircle
 62
7
  6
CONTINUOUS
 10
4.0523256648
 20
5.9472006726
 40
0.0531496063
  0
CIRCLE
  5
2D8
100
AcDbEntity
  8
0
100
AcDbCircle
 62
7
  6
CONTINUOUS
 10
3.8527476678
 20
6.0355711993
 40
0.0515680971
  0
CIRCLE
  5
2D9
100
AcDbEntity
  8
0
100
AcDbCircle
 62
7
  6
CONTINUOUS
 10
4.1893396254
 20
5.7098855314
 40
0.0488251759
  0
CIRCLE
  5
2DA
100
AcDbEntity
  8
0
100
AcDbCircle
 62
7
  6
CONTINUOUS
 10
4.0523256648
 20
5.9472006726
 40
0.0488251758
  0
CIRCLE
  5
2DB
100
AcDbEntity
  8
0
100
AcDbCircle
 62
7
  6
CONTINUOUS
 10
4.0523256648
 20
5.9472006726
 40
0.0427097959
  0
CIRCLE
  5
2DC
100
AcDbEntity
  8
0
100
AcDbCircle
 62
7
  6
CONTINUOUS
 10
4.1893396254
 20
5.7098855314
 40
0.0427097959
  0
CIRCLE
  5
2DD
100
AcDbEntity
  8
0
100
AcDbCircle
 62
7
  6
CONTINUOUS
 10
3.8527476678
 20
6.0355711993
 40
0.0411284774
  0
CIRCLE
  5
2DE
100
AcDbEntity
  8
0
100
AcDbCircle
 62
7
  6
CONTINUOUS
 10
4.0523256648
 20
5.9472006726
 40
0.0322701902
  0
CIRCLE
  5
2DF
100
AcDbEntity
  8
0
100
AcDbCircle
 62
7
  6
CONTINUOUS
 10
4.1893396254
 20
5.7098855314
 40
0.0322701902
  0
CIRCLE
  5
2E0
100
AcDbEntity
  8
0
100
AcDbCircle
 62
7
  6
CONTINUOUS
 10
4.7087922946
 20
5.1795265725
 40
0.062007874
  0
CIRCLE
  5
2E1
100
AcDbEntity
  8
0
100
AcDbCircle
 62
7
  6
CONTINUOUS
 10
4.4168114142
 20
5.3004690131
 40
0.062007874
  0
CIRCLE
  5
2E2
100
AcDbEntity
  8
0
100
AcDbCircle
 62
7
  6
CONTINUOUS
 10
4.7087922946
 20
5.1795265725
 40
0.0576832151
  0
CIRCLE
  5
2E3
100
AcDbEntity
  8
0
100
AcDbCircle
 62
7
  6
CONTINUOUS
 10
4.4168114142
 20
5.3004690131
 40
0.0576832151
  0
CIRCLE
  5
2E4
100
AcDbEntity
  8
0
100
AcDbCircle
 62
7
  6
CONTINUOUS
 10
4.6204217679
 20
5.3791045694
 40
0.0531496063
  0
CIRCLE
  5
2E5
100
AcDbEntity
  8
0
100
AcDbCircle
 62
7
  6
CONTINUOUS
 10
4.3831066268
 20
5.5161185301
 40
0.0531496063
  0
CIRCLE
  5
2E6
100
AcDbEntity
  8
0
100
AcDbCircle
 62
7
  6
CONTINUOUS
 10
4.7087922946
 20
5.1795265725
 40
0.0515680971
  0
CIRCLE
  5
2E7
100
AcDbEntity
  8
0
100
AcDbCircle
 62
7
  6
CONTINUOUS
 10
4.4168114142
 20
5.3004690131
 40
0.0515680971
  0
CIRCLE
  5
2E8
100
AcDbEntity
  8
0
100
AcDbCircle
 62
7
  6
CONTINUOUS
 10
4.3831066268
 20
5.5161185301
 40
0.0488251759
  0
CIRCLE
  5
2E9
100
AcDbEntity
  8
0
100
AcDbCircle
 62
7
  6
CONTINUOUS
 10
4.6204217679
 20
5.3791045694
 40
0.0488251759
  0
CIRCLE
  5
2EA
100
AcDbEntity
  8
0
100
AcDbCircle
 62
7
  6
CONTINUOUS
 10
4.3831066268
 20
5.5161185301
 40
0.0427097959
  0
CIRCLE
  5
2EB
100
AcDbEntity
  8
0
100
AcDbCircle
 62
7
  6
CONTINUOUS
 10
4.6204217679
 20
5.3791045694
 40
0.0427097959
  0
CIRCLE
  5
2EC
100
AcDbEntity
  8
0
100
AcDbCircle
 62
7
  6
CONTINUOUS
 10
4.7087922946
 20
5.1795265725
 40
0.0411284774
  0
CIRCLE
  5
2ED
100
AcDbEntity
  8
0
100
AcDbCircle
 62
7
  6
CONTINUOUS
 10
4.4168114142
 20
5.3004690131
 40
0.0411284774
  0
CIRCLE
  5
2EE
100
AcDbEntity
  8
0
100
AcDbCircle
 62
7
  6
CONTINUOUS
 10
4.3831066268
 20
5.5161185301
 40
0.0322701902
  0
CIRCLE
  5
2EF
100
AcDbEntity
  8
0
100
AcDbCircle
 62
7
  6
CONTINUOUS
 10
4.6204217679
 20
5.3791045694
 40
0.0322701902
  0
ARC
  5
2F0
100
AcDbEntity
  8
0
100
AcDbCircle
 62
7
  6
CONTINUOUS
 10
4.4877562579
 20
5.9232446881
 40
0.0670726761
100
AcDbArc
 50
38.9033998776
 51
43.7759960274
  0
ARC
  5
2F1
100
AcDbEntity
  8
0
100
AcDbCircle
 62
7
  6
CONTINUOUS
 10
4.4945673314
 20
5.9297373732
 40
0.0661140385
100
AcDbArc
 50
218.8197879212
 51
224.1594042845
  0
ARC
  5
2F2
100
AcDbEntity
  8
0
100
AcDbCircle
 62
7
  6
CONTINUOUS
 10
4.4947786478
 20
5.9288992379
 40
0.0657579667
100
AcDbArc
 50
212.6711743484
 51
218.1353745205
  0
ARC
  5
2F3
100
AcDbEntity
  8
0
100
AcDbCircle
 62
7
  6
CONTINUOUS
 10
4.4909251211
 20
5.9263540787
 40
0.0626553954
100
AcDbArc
 50
33.3057371718
 51
38.5104806239
  0
CIRCLE
  5
2F4
100
AcDbEntity
  8
0
100
AcDbCircle
 62
7
  6
CONTINUOUS
 10
4.4906306777
 20
5.9261345125
 40
0.0531496063
  0
CIRCLE
  5
2F5
100
AcDbEntity
  8
0
100
AcDbCircle
 62
7
  6
CONTINUOUS
 10
4.4906306777
 20
5.9261345125
 40
0.050555047
  0
CIRCLE
  5
2F6
100
AcDbEntity
  8
0
100
AcDbCircle
 62
7
  6
CONTINUOUS
 10
4.4906306777
 20
5.9261345125
 40
0.0409803256
  0
CIRCLE
  5
2F7
100
AcDbEntity
  8
0
100
AcDbCircle
 62
7
  6
CONTINUOUS
 10
4.4906306777
 20
5.9261345125
 40
0.034716572
  0
CIRCLE
  5
2F8
100
AcDbEntity
  8
0
100
AcDbCircle
 62
7
  6
CONTINUOUS
 10
4.4906306777
 20
5.9261345125
 40
0.0221456693
  0
ARC
  5
2F9
100
AcDbEntity
  8
0
100
AcDbCircle
 62
7
  6
CONTINUOUS
 10
4.6080652283
 20
5.8096474431
 40
0.0637754847
100
AcDbArc
 50
47.0815793079
 51
52.3046675786
  0
ARC
  5
2FA
100
AcDbEntity
  8
0
100
AcDbCircle
 62
7
  6
CONTINUOUS
 10
4.6092180793
 20
5.8107067903
 40
0.0622328882
100
AcDbArc
 50
52.548156321
 51
58.128153732
  0
ARC
  5
2FB
100
AcDbEntity
  8
0
100
AcDbCircle
 62
7
  6
CONTINUOUS
 10
4.6095472685
 20
5.8112576928
 40
0.0622164249
100
AcDbArc
 50
232.5201671086
 51
238.1708452923
  0
ARC
  5
2FC
100
AcDbEntity
  8
0
100
AcDbCircle
 62
7
  6
CONTINUOUS
 10
4.6093702463
 20
5.8109991695
 40
0.0619012579
100
AcDbArc
 50
58.1048691522
 51
223.9381943712
  0
ARC
  5
2FD
100
AcDbEntity
  8
0
100
AcDbCircle
 62
7
  6
CONTINUOUS
 10
4.6091108826
 20
5.8106817783
 40
0.061493865
100
AcDbArc
 50
223.8929289544
 51
232.5163171932
  0
CIRCLE
  5
2FE
100
AcDbEntity
  8
0
100
AcDbCircle
 62
7
  6
CONTINUOUS
 10
4.6086958768
 20
5.8101121645
 40
0.0531496063
  0
CIRCLE
  5
2FF
100
AcDbEntity
  8
0
100
AcDbCircle
 62
7
  6
CONTINUOUS
 10
4.6086958768
 20
5.8101121645
 40
0.050555047
  0
CIRCLE
  5
300
100
AcDbEntity
  8
0
100
AcDbCircle
 62
7
  6
CONTINUOUS
 10
4.6086958768
 20
5.8101121645
 40
0.0409803257
  0
CIRCLE
  5
301
100
AcDbEntity
  8
0
100
AcDbCircle
 62
7
  6
CONTINUOUS
 10
4.6086958768
 20
5.8101121645
 40
0.0347165721
  0
CIRCLE
  5
302
100
AcDbEntity
  8
0
100
AcDbCircle
 62
7
  6
CONTINUOUS
 10
4.6086958768
 20
5.8101121645
 40
0.0221456693
  0
ARC
  5
303
100
AcDbEntity
  8
0
100
AcDbCircle
 62
7
  6
CONTINUOUS
 10
5.4575902738
 20
4.1514052795
 40
0.045
100
AcDbArc
 50
219.0
 51
270.0
  0
ARC
  5
304
100
AcDbEntity
  8
0
100
AcDbCircle
 62
7
  6
CONTINUOUS
 10
5.4726194488
 20
3.9490254002
 40
0.045
100
AcDbArc
 50
93.2432014018
 51
185.0755073159
  0
ARC
  5
305
100
AcDbEntity
  8
0
100
AcDbCircle
 62
7
  6
CONTINUOUS
 10
5.3483763748
 20
4.2862066801
 40
0.045
100
AcDbArc
 50
180.0
 51
221.4718295506
  0
ARC
  5
306
100
AcDbEntity
  8
0
100
AcDbCircle
 62
7
  6
CONTINUOUS
 10
5.4683763748
 20
4.0764052795
 40
0.03
100
AcDbArc
 50
0.0
 51
90.0
  0
ARC
  5
307
100
AcDbEntity
  8
0
100
AcDbCircle
 62
7
  6
CONTINUOUS
 10
5.4683763748
 20
4.0239052795
 40
0.03
100
AcDbArc
 50
273.2432014018
 51
360.0
  0
CIRCLE
  5
308
100
AcDbEntity
  8
0
100
AcDbCircle
 62
7
  6
CONTINUOUS
 10
5.0221263748
 20
5.1382753582
 40
0.062007874
  0
CIRCLE
  5
309
100
AcDbEntity
  8
0
100
AcDbCircle
 62
7
  6
CONTINUOUS
 10
5.0221263748
 20
5.1382753582
 40
0.0576832151
  0
CIRCLE
  5
30A
100
AcDbEntity
  8
0
100
AcDbCircle
 62
7
  6
CONTINUOUS
 10
5.1591403355
 20
5.3081809245
 40
0.0531496063
  0
CIRCLE
  5
30B
100
AcDbEntity
  8
0
100
AcDbCircle
 62
7
  6
CONTINUOUS
 10
4.8851124142
 20
5.3081809245
 40
0.0531496063
  0
CIRCLE
  5
30C
100
AcDbEntity
  8
0
100
AcDbCircle
 62
7
  6
CONTINUOUS
 10
5.0221263748
 20
5.1382753582
 40
0.0515680971
  0
CIRCLE
  5
30D
100
AcDbEntity
  8
0
100
AcDbCircle
 62
7
  6
CONTINUOUS
 10
5.1591403355
 20
5.3081809245
 40
0.0488251759
  0
CIRCLE
  5
30E
100
AcDbEntity
  8
0
100
AcDbCircle
 62
7
  6
CONTINUOUS
 10
4.8851124142
 20
5.3081809245
 40
0.0488251759
  0
CIRCLE
  5
30F
100
AcDbEntity
  8
0
100
AcDbCircle
 62
7
  6
CONTINUOUS
 10
5.1591403355
 20
5.3081809245
 40
0.0427097959
  0
CIRCLE
  5
310
100
AcDbEntity
  8
0
100
AcDbCircle
 62
7
  6
CONTINUOUS
 10
4.8851124142
 20
5.3081809245
 40
0.0427097959
  0
CIRCLE
  5
311
100
AcDbEntity
  8
0
100
AcDbCircle
 62
7
  6
CONTINUOUS
 10
5.0221263748
 20
5.1382753582
 40
0.0411284774
  0
CIRCLE
  5
312
100
AcDbEntity
  8
0
100
AcDbCircle
 62
7
  6
CONTINUOUS
 10
5.1591403355
 20
5.3081809245
 40
0.0322701902
  0
CIRCLE
  5
313
100
AcDbEntity
  8
0
100
AcDbCircle
 62
7
  6
CONTINUOUS
 10
4.8851124142
 20
5.3081809245
 40
0.0322701902
  0
ARC
  5
314
100
AcDbEntity
  8
0
100
AcDbCircle
 62
7
  6
CONTINUOUS
 10
4.7501097229
 20
5.7220942154
 40
0.0671801894
100
AcDbArc
 50
66.9134029942
 51
71.7827031707
  0
ARC
  5
315
100
AcDbEntity
  8
0
100
AcDbCircle
 62
7
  6
CONTINUOUS
 10
4.7536632058
 20
5.7304473834
 40
0.065711989
100
AcDbArc
 50
240.6771090708
 51
246.1401931654
  0
ARC
  5
316
100
AcDbEntity
  8
0
100
AcDbCircle
 62
7
  6
CONTINUOUS
 10
4.7504552509
 20
5.724591358
 40
0.0647509231
100
AcDbArc
 50
61.2426971764
 51
66.3282066876
  0
CIRCLE
  5
317
100
AcDbEntity
  8
0
100
AcDbCircle
 62
7
  6
CONTINUOUS
 10
4.7513223812
 20
5.7260987329
 40
0.0531496063
  0
CIRCLE
  5
318
100
AcDbEntity
  8
0
100
AcDbCircle
 62
7
  6
CONTINUOUS
 10
4.7513223812
 20
5.7260987329
 40
0.050555047
  0
CIRCLE
  5
319
100
AcDbEntity
  8
0
100
AcDbCircle
 62
7
  6
CONTINUOUS
 10
4.7513223812
 20
5.7260987329
 40
0.0409803256
  0
CIRCLE
  5
31A
100
AcDbEntity
  8
0
100
AcDbCircle
 62
7
  6
CONTINUOUS
 10
4.7513223812
 20
5.7260987329
 40
0.034716572
  0
CIRCLE
  5
31B
100
AcDbEntity
  8
0
100
AcDbCircle
 62
7
  6
CONTINUOUS
 10
4.7513223812
 20
5.7260987329
 40
0.0221456693
  0
CIRCLE
  5
31C
100
AcDbEntity
  8
0
100
AcDbCircle
 62
7
  6
CONTINUOUS
 10
4.8091197921
 20
6.0713096964
 40
0.1079844241
  0
CIRCLE
  5
31D
100
AcDbEntity
  8
0
100
AcDbCircle
 62
7
  6
CONTINUOUS
 10
4.8091197921
 20
6.0713096964
 40
0.0975454248
  0
CIRCLE
  5
31E
100
AcDbEntity
  8
0
100
AcDbCircle
 62
7
  6
CONTINUOUS
 10
4.8091197921
 20
6.0713096964
 40
0.0914300427
  0
CIRCLE
  5
31F
100
AcDbEntity
  8
0
100
AcDbCircle
 62
7
  6
CONTINUOUS
 10
4.8091197921
 20
6.0713096964
 40
0.0809902366
  0
CIRCLE
  5
320
100
AcDbEntity
  8
0
100
AcDbCircle
 62
7
  6
CONTINUOUS
 10
4.8091197921
 20
6.0713096964
 40
0.0664370079
  0
CIRCLE
  5
321
100
AcDbEntity
  8
0
100
AcDbCircle
 62
7
  6
CONTINUOUS
 10
5.067797695
 20
6.0019971612
 40
0.1079844268
  0
CIRCLE
  5
322
100
AcDbEntity
  8
0
100
AcDbCircle
 62
7
  6
CONTINUOUS
 10
5.067797695
 20
6.0019971612
 40
0.097545426
  0
CIRCLE
  5
323
100
AcDbEntity
  8
0
100
AcDbCircle
 62
7
  6
CONTINUOUS
 10
5.067797695
 20
6.0019971612
 40
0.0914300427
  0
CIRCLE
  5
324
100
AcDbEntity
  8
0
100
AcDbCircle
 62
7
  6
CONTINUOUS
 10
5.067797695
 20
6.0019971612
 40
0.0809902366
  0
CIRCLE
  5
325
100
AcDbEntity
  8
0
100
AcDbCircle
 62
7
  6
CONTINUOUS
 10
5.067797695
 20
6.0019971612
 40
0.0664370079
  0
CIRCLE
  5
326
100
AcDbEntity
  8
0
100
AcDbCircle
 62
7
  6
CONTINUOUS
 10
4.9097846436
 20
5.9296402309
 40
0.0221456693
  0
CIRCLE
  5
327
100
AcDbEntity
  8
0
100
AcDbCircle
 62
7
  6
CONTINUOUS
 10
5.6274413355
 20
5.3004690131
 40
0.062007874
  0
CIRCLE
  5
328
100
AcDbEntity
  8
0
100
AcDbCircle
 62
7
  6
CONTINUOUS
 10
5.335460455
 20
5.1795265725
 40
0.062007874
  0
CIRCLE
  5
329
100
AcDbEntity
  8
0
100
AcDbCircle
 62
7
  6
CONTINUOUS
 10
5.6274413355
 20
5.3004690131
 40
0.0576832152
  0
CIRCLE
  5
32A
100
AcDbEntity
  8
0
100
AcDbCircle
 62
7
  6
CONTINUOUS
 10
5.335460455
 20
5.1795265725
 40
0.0576832151
  0
CIRCLE
  5
32B
100
AcDbEntity
  8
0
100
AcDbCircle
 62
7
  6
CONTINUOUS
 10
5.4238309817
 20
5.3791045694
 40
0.0531496063
  0
CIRCLE
  5
32C
100
AcDbEntity
  8
0
100
AcDbCircle
 62
7
  6
CONTINUOUS
 10
5.6274413355
 20
5.3004690131
 40
0.0515680971
  0
CIRCLE
  5
32D
100
AcDbEntity
  8
0
100
AcDbCircle
 62
7
  6
CONTINUOUS
 10
5.335460455
 20
5.1795265725
 40
0.0515680971
  0
CIRCLE
  5
32E
100
AcDbEntity
  8
0
100
AcDbCircle
 62
7
  6
CONTINUOUS
 10
5.4238309817
 20
5.3791045694
 40
0.0488251758
  0
CIRCLE
  5
32F
100
AcDbEntity
  8
0
100
AcDbCircle
 62
7
  6
CONTINUOUS
 10
5.4238309817
 20
5.3791045694
 40
0.0427097959
  0
CIRCLE
  5
330
100
AcDbEntity
  8
0
100
AcDbCircle
 62
7
  6
CONTINUOUS
 10
5.6274413355
 20
5.3004690131
 40
0.0411284774
  0
CIRCLE
  5
331
100
AcDbEntity
  8
0
100
AcDbCircle
 62
7
  6
CONTINUOUS
 10
5.335460455
 20
5.1795265725
 40
0.0411284774
  0
CIRCLE
  5
332
100
AcDbEntity
  8
0
100
AcDbCircle
 62
7
  6
CONTINUOUS
 10
5.4238309817
 20
5.3791045694
 40
0.0322701902
  0
ARC
  5
333
100
AcDbEntity
  8
0
100
AcDbCircle
 62
7
  6
CONTINUOUS
 10
5.2618882474
 20
5.7090258568
 40
0.0672140603
100
AcDbArc
 50
110.9158065583
 51
115.7838805162
  0
ARC
  5
334
100
AcDbEntity
  8
0
100
AcDbCircle
 62
7
  6
CONTINUOUS
 10
5.2589528818
 20
5.7164117945
 40
0.064546546
100
AcDbArc
 50
279.1962542902
 51
290.2115821098
  0
CIRCLE
  5
335
100
AcDbEntity
  8
0
100
AcDbCircle
 62
7
  6
CONTINUOUS
 10
5.2599640648
 20
5.7127794817
 40
0.0531496063
  0
ARC
  5
336
100
AcDbEntity
  8
0
100
AcDbCircle
 62
7
  6
CONTINUOUS
 10
5.2634358086
 20
5.7057951127
 40
0.0530375469
100
AcDbArc
 50
289.6293541937
 51
295.6713868358
  0
CIRCLE
  5
337
100
AcDbEntity
  8
0
100
AcDbCircle
 62
7
  6
CONTINUOUS
 10
5.2599640648
 20
5.7127794817
 40
0.050555047
  0
CIRCLE
  5
338
100
AcDbEntity
  8
0
100
AcDbCircle
 62
7
  6
CONTINUOUS
 10
5.2599640648
 20
5.7127794817
 40
0.0409803256
  0
CIRCLE
  5
339
100
AcDbEntity
  8
0
100
AcDbCircle
 62
7
  6
CONTINUOUS
 10
5.2599640648
 20
5.7127794817
 40
0.034716572
  0
CIRCLE
  5
33A
100
AcDbEntity
  8
0
100
AcDbCircle
 62
7
  6
CONTINUOUS
 10
5.2599640648
 20
5.7127794817
 40
0.0221456693
  0
CIRCLE
  5
33B
100
AcDbEntity
  8
0
100
AcDbCircle
 62
7
  6
CONTINUOUS
 10
5.2391539339
 20
5.9730025206
 40
0.0221456693
  0
ARC
  5
33C
100
AcDbEntity
  8
0
100
AcDbCircle
 62
7
  6
CONTINUOUS
 10
5.4095454404
 20
5.7860628178
 40
0.0671801896
100
AcDbArc
 50
124.9134030028
 51
129.7827031732
  0
ARC
  5
33D
100
AcDbEntity
  8
0
100
AcDbCircle
 62
7
  6
CONTINUOUS
 10
5.4034732782
 20
5.7933901996
 40
0.0661124173
100
AcDbArc
 50
304.8199970199
 51
310.1598067797
  0
ARC
  5
33E
100
AcDbEntity
  8
0
100
AcDbCircle
 62
7
  6
CONTINUOUS
 10
5.4043446111
 20
5.7935028472
 40
0.0657119893
100
AcDbArc
 50
298.6771090313
 51
304.1401931125
  0
ARC
  5
33F
100
AcDbEntity
  8
0
100
AcDbCircle
 62
7
  6
CONTINUOUS
 10
5.4068948704
 20
5.7889772226
 40
0.063275323
100
AcDbArc
 50
119.2857011525
 51
124.4556759387
  0
CIRCLE
  5
340
100
AcDbEntity
  8
0
100
AcDbCircle
 62
7
  6
CONTINUOUS
 10
5.4067920279
 20
5.7892132813
 40
0.0531496063
  0
CIRCLE
  5
341
100
AcDbEntity
  8
0
100
AcDbCircle
 62
7
  6
CONTINUOUS
 10
5.4067920279
 20
5.7892132813
 40
0.050555047
  0
CIRCLE
  5
342
100
AcDbEntity
  8
0
100
AcDbCircle
 62
7
  6
CONTINUOUS
 10
5.4067920279
 20
5.7892132813
 40
0.0409803256
  0
CIRCLE
  5
343
100
AcDbEntity
  8
0
100
AcDbCircle
 62
7
  6
CONTINUOUS
 10
5.4067920279
 20
5.7892132813
 40
0.034716572
  0
CIRCLE
  5
344
100
AcDbEntity
  8
0
100
AcDbCircle
 62
7
  6
CONTINUOUS
 10
5.4067920279
 20
5.7892132813
 40
0.0221456693
  0
ARC
  5
345
100
AcDbEntity
  8
0
100
AcDbCircle
 62
7
  6
CONTINUOUS
 10
5.5265402354
 20
5.902146821
 40
0.0661094401
100
AcDbArc
 50
318.8185647321
 51
324.1581329595
  0
ARC
  5
346
100
AcDbEntity
  8
0
100
AcDbCircle
 62
7
  6
CONTINUOUS
 10
5.5332103653
 20
5.8972266515
 40
0.0659602679
100
AcDbArc
 50
138.81897177
 51
143.7405747804
  0
ARC
  5
347
100
AcDbEntity
  8
0
100
AcDbCircle
 62
7
  6
CONTINUOUS
 10
5.527350731
 20
5.9024730505
 40
0.0657188621
100
AcDbArc
 50
312.6703633741
 51
318.1392204557
  0
ARC
  5
348
100
AcDbEntity
  8
0
100
AcDbCircle
 62
7
  6
CONTINUOUS
 10
5.5296709568
 20
5.9000401613
 40
0.0614442332
100
AcDbArc
 50
133.3463193424
 51
138.6203998888
  0
CIRCLE
  5
349
100
AcDbEntity
  8
0
100
AcDbCircle
 62
7
  6
CONTINUOUS
 10
5.5307675632
 20
5.8988975696
 40
0.0531496063
  0
CIRCLE
  5
34A
100
AcDbEntity
  8
0
100
AcDbCircle
 62
7
  6
CONTINUOUS
 10
5.5307675632
 20
5.8988975696
 40
0.0505550469
  0
CIRCLE
  5
34B
100
AcDbEntity
  8
0
100
AcDbCircle
 62
7
  6
CONTINUOUS
 10
5.5307675632
 20
5.8988975696
 40
0.040980326
  0
CIRCLE
  5
34C
100
AcDbEntity
  8
0
100
AcDbCircle
 62
7
  6
CONTINUOUS
 10
5.5307675632
 20
5.8988975696
 40
0.0347165725
  0
CIRCLE
  5
34D
100
AcDbEntity
  8
0
100
AcDbCircle
 62
7
  6
CONTINUOUS
 10
5.5307675632
 20
5.8988975696
 40
0.0221456693
  0
ARC
  5
34E
100
AcDbEntity
  8
0
100
AcDbCircle
 62
7
  6
CONTINUOUS
 10
7.4448037973
 20
0.0659267186
 40
6.6441467276
100
AcDbArc
 50
120.015825746
 51
120.1523807932
  0
ARC
  5
34F
100
AcDbEntity
  8
0
100
AcDbCircle
 62
7
  6
CONTINUOUS
 10
7.4444996967
 20
0.0664531092
 40
6.6435388104
100
AcDbArc
 50
120.0158256489
 51
120.1523933269
  0
CIRCLE
  5
350
100
AcDbEntity
  8
0
100
AcDbCircle
 62
7
  6
CONTINUOUS
 10
5.8781710017
 20
5.4928606527
 40
0.062007874
  0
CIRCLE
  5
351
100
AcDbEntity
  8
0
100
AcDbCircle
 62
7
  6
CONTINUOUS
 10
5.8781710017
 20
5.4928606527
 40
0.0576832151
  0
CIRCLE
  5
352
100
AcDbEntity
  8
0
100
AcDbCircle
 62
7
  6
CONTINUOUS
 10
5.6611461229
 20
5.5161185301
 40
0.0531496063
  0
CIRCLE
  5
353
100
AcDbEntity
  8
0
100
AcDbCircle
 62
7
  6
CONTINUOUS
 10
5.8549131243
 20
5.7098855314
 40
0.0531496063
  0
CIRCLE
  5
354
100
AcDbEntity
  8
0
100
AcDbCircle
 62
7
  6
CONTINUOUS
 10
5.8781710017
 20
5.4928606527
 40
0.0515680971
  0
CIRCLE
  5
355
100
AcDbEntity
  8
0
100
AcDbCircle
 62
7
  6
CONTINUOUS
 10
5.6611461229
 20
5.5161185301
 40
0.0488251759
  0
CIRCLE
  5
356
100
AcDbEntity
  8
0
100
AcDbCircle
 62
7
  6
CONTINUOUS
 10
5.8549131243
 20
5.7098855314
 40
0.0488251759
  0
CIRCLE
  5
357
100
AcDbEntity
  8
0
100
AcDbCircle
 62
7
  6
CONTINUOUS
 10
5.6611461229
 20
5.5161185301
 40
0.0427097959
  0
CIRCLE
  5
358
100
AcDbEntity
  8
0
100
AcDbCircle
 62
7
  6
CONTINUOUS
 10
5.8549131243
 20
5.7098855314
 40
0.0427097959
  0
CIRCLE
  5
359
100
AcDbEntity
  8
0
100
AcDbCircle
 62
7
  6
CONTINUOUS
 10
5.8781710017
 20
5.4928606527
 40
0.0411284774
  0
CIRCLE
  5
35A
100
AcDbEntity
  8
0
100
AcDbCircle
 62
7
  6
CONTINUOUS
 10
5.6611461229
 20
5.5161185301
 40
0.0322701902
  0
CIRCLE
  5
35B
100
AcDbEntity
  8
0
100
AcDbCircle
 62
7
  6
CONTINUOUS
 10
5.8549131243
 20
5.7098855314
 40
0.0322701902
  0
CIRCLE
  5
35C
100
AcDbEntity
  8
0
100
AcDbCircle
 62
7
  6
CONTINUOUS
 10
6.0705626412
 20
5.7435903189
 40
0.062007874
  0
CIRCLE
  5
35D
100
AcDbEntity
  8
0
100
AcDbCircle
 62
7
  6
CONTINUOUS
 10
6.0705626412
 20
5.7435903189
 40
0.0576832151
  0
CIRCLE
  5
35E
100
AcDbEntity
  8
0
100
AcDbCircle
 62
7
  6
CONTINUOUS
 10
6.0705626412
 20
5.7435903189
 40
0.0515680971
  0
CIRCLE
  5
35F
100
AcDbEntity
  8
0
100
AcDbCircle
 62
7
  6
CONTINUOUS
 10
6.0705626412
 20
5.7435903189
 40
0.0411284774
  0
CIRCLE
  5
360
100
AcDbEntity
  8
0
100
AcDbCircle
 62
7
  6
CONTINUOUS
 10
6.1915050818
 20
6.0355711993
 40
0.062007874
  0
CIRCLE
  5
361
100
AcDbEntity
  8
0
100
AcDbCircle
 62
7
  6
CONTINUOUS
 10
6.1915050818
 20
6.0355711993
 40
0.0576832151
  0
CIRCLE
  5
362
100
AcDbEntity
  8
0
100
AcDbCircle
 62
7
  6
CONTINUOUS
 10
5.9919270849
 20
5.9472006726
 40
0.0531496063
  0
CIRCLE
  5
363
100
AcDbEntity
  8
0
100
AcDbCircle
 62
7
  6
CONTINUOUS
 10
6.1915050818
 20
6.0355711993
 40
0.0515680971
  0
CIRCLE
  5
364
100
AcDbEntity
  8
0
100
AcDbCircle
 62
7
  6
CONTINUOUS
 10
5.9919270849
 20
5.9472006726
 40
0.0488251759
  0
CIRCLE
  5
365
100
AcDbEntity
  8
0
100
AcDbCircle
 62
7
  6
CONTINUOUS
 10
5.9919270849
 20
5.9472006726
 40
0.0427097959
  0
CIRCLE
  5
366
100
AcDbEntity
  8
0
100
AcDbCircle
 62
7
  6
CONTINUOUS
 10
6.1915050818
 20
6.0355711993
 40
0.0411284774
  0
CIRCLE
  5
367
100
AcDbEntity
  8
0
100
AcDbCircle
 62
7
  6
CONTINUOUS
 10
5.9919270849
 20
5.9472006726
 40
0.0322701902
  0
ARC
  5
368
100
AcDbEntity
  8
0
100
AcDbCircle
 62
7
  6
CONTINUOUS
 10
21.4357189716
 20
-24.881437737
 40
35.1959492673
100
AcDbArc
 50
120.0047491301
 51
120.1870788596
  0
ARC
  5
369
100
AcDbEntity
  8
0
100
AcDbCircle
 62
7
  6
CONTINUOUS
 10
20.9208862513
 20
-24.1262159881
 40
34.3999145716
100
AcDbArc
 50
119.8777608052
 51
120.0927517816
  0
ARC
  5
36A
100
AcDbEntity
  8
0
100
AcDbCircle
 62
7
  6
CONTINUOUS
 10
20.6241142908
 20
-23.6118230864
 40
33.8060542483
100
AcDbArc
 50
119.9226675083
 51
120.0455562447
  0
ARC
  5
36B
100
AcDbEntity
  8
0
100
AcDbCircle
 62
7
  6
CONTINUOUS
 10
20.5419276855
 20
-23.469380216
 40
33.6416018904
100
AcDbArc
 50
119.9223673917
 51
120.0458568533
  0
ARC
  5
36C
100
AcDbEntity
  8
0
100
AcDbCircle
 62
7
  6
CONTINUOUS
 10
19.6883768415
 20
2.6064052795
 40
15.13125
100
AcDbArc
 50
174.9244926841
 51
185.0755073159
  0
CIRCLE
  5
36D
100
AcDbEntity
  8
0
100
AcDbCircle
 62
7
  6
CONTINUOUS
 10
3.8114964536
 20
6.3489052795
 40
0.062007874
  0
CIRCLE
  5
36E
100
AcDbEntity
  8
0
100
AcDbCircle
 62
7
  6
CONTINUOUS
 10
3.8114964536
 20
6.3489052795
 40
0.0576832151
  0
CIRCLE
  5
36F
100
AcDbEntity
  8
0
100
AcDbCircle
 62
7
  6
CONTINUOUS
 10
4.3461191141
 20
6.4139973752
 40
0.0531496063
  0
CIRCLE
  5
370
100
AcDbEntity
  8
0
100
AcDbCircle
 62
7
  6
CONTINUOUS
 10
3.9814020198
 20
6.2118913189
 40
0.0531496063
  0
CIRCLE
  5
371
100
AcDbEntity
  8
0
100
AcDbCircle
 62
7
  6
CONTINUOUS
 10
3.8114964536
 20
6.3489052795
 40
0.0515680971
  0
CIRCLE
  5
372
100
AcDbEntity
  8
0
100
AcDbCircle
 62
7
  6
CONTINUOUS
 10
4.3461191141
 20
6.4139973752
 40
0.050555047
  0
CIRCLE
  5
373
100
AcDbEntity
  8
0
100
AcDbCircle
 62
7
  6
CONTINUOUS
 10
3.9814020198
 20
6.2118913189
 40
0.0488251759
  0
CIRCLE
  5
374
100
AcDbEntity
  8
0
100
AcDbCircle
 62
7
  6
CONTINUOUS
 10
3.9814020198
 20
6.2118913189
 40
0.0427097959
  0
CIRCLE
  5
375
100
AcDbEntity
  8
0
100
AcDbCircle
 62
7
  6
CONTINUOUS
 10
3.8114964536
 20
6.3489052795
 40
0.0411284774
  0
CIRCLE
  5
376
100
AcDbEntity
  8
0
100
AcDbCircle
 62
7
  6
CONTINUOUS
 10
4.3461191141
 20
6.4139973752
 40
0.0409803256
  0
CIRCLE
  5
377
100
AcDbEntity
  8
0
100
AcDbCircle
 62
7
  6
CONTINUOUS
 10
4.3461191141
 20
6.4139973752
 40
0.034716572
  0
CIRCLE
  5
378
100
AcDbEntity
  8
0
100
AcDbCircle
 62
7
  6
CONTINUOUS
 10
3.9814020198
 20
6.2118913189
 40
0.0322701902
  0
CIRCLE
  5
379
100
AcDbEntity
  8
0
100
AcDbCircle
 62
7
  6
CONTINUOUS
 10
4.3461191141
 20
6.4139973752
 40
0.0221456693
  0
CIRCLE
  5
37A
100
AcDbEntity
  8
0
100
AcDbCircle
 62
7
  6
CONTINUOUS
 10
3.9814020198
 20
6.4859192401
 40
0.0531496063
  0
CIRCLE
  5
37B
100
AcDbEntity
  8
0
100
AcDbCircle
 62
7
  6
CONTINUOUS
 10
3.9814020198
 20
6.4859192401
 40
0.0488251759
  0
CIRCLE
  5
37C
100
AcDbEntity
  8
0
100
AcDbCircle
 62
7
  6
CONTINUOUS
 10
3.9814020198
 20
6.4859192401
 40
0.0427097959
  0
CIRCLE
  5
37D
100
AcDbEntity
  8
0
100
AcDbCircle
 62
7
  6
CONTINUOUS
 10
3.9814020198
 20
6.4859192401
 40
0.0322701902
  0
CIRCLE
  5
37E
100
AcDbEntity
  8
0
100
AcDbCircle
 62
7
  6
CONTINUOUS
 10
3.8527476678
 20
6.6622393597
 40
0.062007874
  0
CIRCLE
  5
37F
100
AcDbEntity
  8
0
100
AcDbCircle
 62
7
  6
CONTINUOUS
 10
3.8527476678
 20
6.6622393597
 40
0.0576832151
  0
CIRCLE
  5
380
100
AcDbEntity
  8
0
100
AcDbCircle
 62
7
  6
CONTINUOUS
 10
4.0523256648
 20
6.7506098864
 40
0.0531496063
  0
CIRCLE
  5
381
100
AcDbEntity
  8
0
100
AcDbCircle
 62
7
  6
CONTINUOUS
 10
3.8527476678
 20
6.6622393597
 40
0.0515680971
  0
CIRCLE
  5
382
100
AcDbEntity
  8
0
100
AcDbCircle
 62
7
  6
CONTINUOUS
 10
4.0523256648
 20
6.7506098864
 40
0.0488251759
  0
CIRCLE
  5
383
100
AcDbEntity
  8
0
100
AcDbCircle
 62
7
  6
CONTINUOUS
 10
4.0523256648
 20
6.7506098864
 40
0.0427097959
  0
CIRCLE
  5
384
100
AcDbEntity
  8
0
100
AcDbCircle
 62
7
  6
CONTINUOUS
 10
3.8527476678
 20
6.6622393597
 40
0.0411284774
  0
CIRCLE
  5
385
100
AcDbEntity
  8
0
100
AcDbCircle
 62
7
  6
CONTINUOUS
 10
4.0523256648
 20
6.7506098864
 40
0.0322701902
  0
ARC
  5
386
100
AcDbEntity
  8
0
100
AcDbCircle
 62
7
  6
CONTINUOUS
 10
4.3864479673
 20
6.5735730436
 40
0.0657119893
100
AcDbArc
 50
154.6771090312
 51
160.140193112
  0
ARC
  5
387
100
AcDbEntity
  8
0
100
AcDbCircle
 62
7
  6
CONTINUOUS
 10
4.3817246688
 20
6.5757353459
 40
0.063275323
100
AcDbArc
 50
335.2857011528
 51
340.455675939
  0
CIRCLE
  5
388
100
AcDbEntity
  8
0
100
AcDbCircle
 62
7
  6
CONTINUOUS
 10
4.381946622
 20
6.5756048197
 40
0.0531496063
  0
CIRCLE
  5
389
100
AcDbEntity
  8
0
100
AcDbCircle
 62
7
  6
CONTINUOUS
 10
4.381946622
 20
6.5756048197
 40
0.050555047
  0
CIRCLE
  5
38A
100
AcDbEntity
  8
0
100
AcDbCircle
 62
7
  6
CONTINUOUS
 10
4.381946622
 20
6.5756048197
 40
0.0409803256
  0
CIRCLE
  5
38B
100
AcDbEntity
  8
0
100
AcDbCircle
 62
7
  6
CONTINUOUS
 10
4.381946622
 20
6.5756048197
 40
0.034716572
  0
CIRCLE
  5
38C
100
AcDbEntity
  8
0
100
AcDbCircle
 62
7
  6
CONTINUOUS
 10
4.381946622
 20
6.5756048197
 40
0.0221456693
  0
ARC
  5
38D
100
AcDbEntity
  8
0
100
AcDbCircle
 62
7
  6
CONTINUOUS
 10
4.705452869
 20
6.1685195318
 40
0.6807918969
100
AcDbArc
 50
209.4703708124
 51
210.1782617081
  0
CIRCLE
  5
38E
100
AcDbEntity
  8
0
100
AcDbCircle
 62
7
  6
CONTINUOUS
 10
4.6752182565
 20
6.3032339593
 40
0.1079844268
  0
CIRCLE
  5
38F
100
AcDbEntity
  8
0
100
AcDbCircle
 62
7
  6
CONTINUOUS
 10
4.6752182565
 20
6.3032339593
 40
0.097545426
  0
CIRCLE
  5
390
100
AcDbEntity
  8
0
100
AcDbCircle
 62
7
  6
CONTINUOUS
 10
4.6752182565
 20
6.3032339593
 40
0.0914300427
  0
CIRCLE
  5
391
100
AcDbEntity
  8
0
100
AcDbCircle
 62
7
  6
CONTINUOUS
 10
4.6752182565
 20
6.3032339593
 40
0.0809902366
  0
CIRCLE
  5
392
100
AcDbEntity
  8
0
100
AcDbCircle
 62
7
  6
CONTINUOUS
 10
4.6752182565
 20
6.3032339593
 40
0.0664370079
  0
CIRCLE
  5
393
100
AcDbEntity
  8
0
100
AcDbCircle
 62
7
  6
CONTINUOUS
 10
4.6462236159
 20
6.1318777204
 40
0.0221456693
  0
CIRCLE
  5
394
100
AcDbEntity
  8
0
100
AcDbCircle
 62
7
  6
CONTINUOUS
 10
4.6028613262
 20
6.4612470107
 40
0.0221456693
  0
ARC
  5
395
100
AcDbEntity
  8
0
100
AcDbCircle
 62
7
  6
CONTINUOUS
 10
4.4522362838
 20
6.7255473999
 40
0.0669962634
100
AcDbArc
 50
326.8992955004
 51
331.7763815978
  0
ARC
  5
396
100
AcDbEntity
  8
0
100
AcDbCircle
 62
7
  6
CONTINUOUS
 10
4.4604486422
 20
6.7211145579
 40
0.0661130429
100
AcDbArc
 50
146.8200717954
 51
152.1598925308
  0
ARC
  5
397
100
AcDbEntity
  8
0
100
AcDbCircle
 62
7
  6
CONTINUOUS
 10
4.4596828302
 20
6.7206835231
 40
0.0657126121
100
AcDbArc
 50
140.6761065751
 51
146.1400818418
  0
ARC
  5
398
100
AcDbEntity
  8
0
100
AcDbCircle
 62
7
  6
CONTINUOUS
 10
4.455622536
 20
6.723924686
 40
0.0632752719
100
AcDbArc
 50
321.2857140953
 51
326.4556802313
  0
CIRCLE
  5
399
100
AcDbEntity
  8
0
100
AcDbCircle
 62
7
  6
CONTINUOUS
 10
4.4558062791
 20
6.7237443739
 40
0.0531496063
  0
CIRCLE
  5
39A
100
AcDbEntity
  8
0
100
AcDbCircle
 62
7
  6
CONTINUOUS
 10
4.4558062791
 20
6.7237443739
 40
0.050555047
  0
CIRCLE
  5
39B
100
AcDbEntity
  8
0
100
AcDbCircle
 62
7
  6
CONTINUOUS
 10
4.4558062791
 20
6.7237443739
 40
0.0409803253
  0
CIRCLE
  5
39C
100
AcDbEntity
  8
0
100
AcDbCircle
 62
7
  6
CONTINUOUS
 10
4.4558062791
 20
6.7237443739
 40
0.0347165716
  0
CIRCLE
  5
39D
100
AcDbEntity
  8
0
100
AcDbCircle
 62
7
  6
CONTINUOUS
 10
4.4558062791
 20
6.7237443739
 40
0.0221456693
  0
CIRCLE
  5
39E
100
AcDbEntity
  8
0
100
AcDbCircle
 62
7
  6
CONTINUOUS
 10
4.7445307917
 20
6.5619118622
 40
0.1079844241
  0
CIRCLE
  5
39F
100
AcDbEntity
  8
0
100
AcDbCircle
 62
7
  6
CONTINUOUS
 10
4.7445307917
 20
6.5619118622
 40
0.0975454248
  0
CIRCLE
  5
3A0
100
AcDbEntity
  8
0
100
AcDbCircle
 62
7
  6
CONTINUOUS
 10
4.7445307917
 20
6.5619118622
 40
0.0914300427
  0
CIRCLE
  5
3A1
100
AcDbEntity
  8
0
100
AcDbCircle
 62
7
  6
CONTINUOUS
 10
4.7445307917
 20
6.5619118622
 40
0.0809902366
  0
CIRCLE
  5
3A2
100
AcDbEntity
  8
0
100
AcDbCircle
 62
7
  6
CONTINUOUS
 10
4.7445307917
 20
6.5619118622
 40
0.0664370079
  0
CIRCLE
  5
3A3
100
AcDbEntity
  8
0
100
AcDbCircle
 62
7
  6
CONTINUOUS
 10
4.9764550546
 20
6.6958133978
 40
0.1079844268
  0
CIRCLE
  5
3A4
100
AcDbEntity
  8
0
100
AcDbCircle
 62
7
  6
CONTINUOUS
 10
4.9764550546
 20
6.6958133978
 40
0.097545426
  0
CIRCLE
  5
3A5
100
AcDbEntity
  8
0
100
AcDbCircle
 62
7
  6
CONTINUOUS
 10
4.9764550546
 20
6.6958133978
 40
0.0914300427
  0
CIRCLE
  5
3A6
100
AcDbEntity
  8
0
100
AcDbCircle
 62
7
  6
CONTINUOUS
 10
4.9764550546
 20
6.6958133978
 40
0.0809902366
  0
CIRCLE
  5
3A7
100
AcDbEntity
  8
0
100
AcDbCircle
 62
7
  6
CONTINUOUS
 10
4.9764550546
 20
6.6958133978
 40
0.0664370079
  0
CIRCLE
  5
3A8
100
AcDbEntity
  8
0
100
AcDbCircle
 62
7
  6
CONTINUOUS
 10
4.8050988158
 20
6.7248080384
 40
0.0221456693
  0
CIRCLE
  5
3A9
100
AcDbEntity
  8
0
100
AcDbCircle
 62
7
  6
CONTINUOUS
 10
4.166081748
 20
7.2049499063
 40
0.062007874
  0
CIRCLE
  5
3AA
100
AcDbEntity
  8
0
100
AcDbCircle
 62
7
  6
CONTINUOUS
 10
3.9736901084
 20
6.9542202401
 40
0.062007874
  0
CIRCLE
  5
3AB
100
AcDbEntity
  8
0
100
AcDbCircle
 62
7
  6
CONTINUOUS
 10
4.166081748
 20
7.2049499063
 40
0.0576832151
  0
CIRCLE
  5
3AC
100
AcDbEntity
  8
0
100
AcDbCircle
 62
7
  6
CONTINUOUS
 10
3.9736901084
 20
6.9542202401
 40
0.0576832151
  0
CIRCLE
  5
3AD
100
AcDbEntity
  8
0
100
AcDbCircle
 62
7
  6
CONTINUOUS
 10
4.3831066268
 20
7.1816920289
 40
0.0531496063
  0
CIRCLE
  5
3AE
100
AcDbEntity
  8
0
100
AcDbCircle
 62
7
  6
CONTINUOUS
 10
4.1893396254
 20
6.9879250276
 40
0.0531496063
  0
CIRCLE
  5
3AF
100
AcDbEntity
  8
0
100
AcDbCircle
 62
7
  6
CONTINUOUS
 10
4.166081748
 20
7.2049499063
 40
0.0515680971
  0
CIRCLE
  5
3B0
100
AcDbEntity
  8
0
100
AcDbCircle
 62
7
  6
CONTINUOUS
 10
3.9736901084
 20
6.9542202401
 40
0.0515680971
  0
CIRCLE
  5
3B1
100
AcDbEntity
  8
0
100
AcDbCircle
 62
7
  6
CONTINUOUS
 10
4.3831066268
 20
7.1816920289
 40
0.0488251759
  0
CIRCLE
  5
3B2
100
AcDbEntity
  8
0
100
AcDbCircle
 62
7
  6
CONTINUOUS
 10
4.1893396254
 20
6.9879250276
 40
0.0488251759
  0
CIRCLE
  5
3B3
100
AcDbEntity
  8
0
100
AcDbCircle
 62
7
  6
CONTINUOUS
 10
4.3831066268
 20
7.1816920289
 40
0.0427097959
  0
CIRCLE
  5
3B4
100
AcDbEntity
  8
0
100
AcDbCircle
 62
7
  6
CONTINUOUS
 10
4.1893396254
 20
6.9879250276
 40
0.0427097959
  0
CIRCLE
  5
3B5
100
AcDbEntity
  8
0
100
AcDbCircle
 62
7
  6
CONTINUOUS
 10
4.166081748
 20
7.2049499063
 40
0.0411284774
  0
CIRCLE
  5
3B6
100
AcDbEntity
  8
0
100
AcDbCircle
 62
7
  6
CONTINUOUS
 10
3.9736901084
 20
6.9542202401
 40
0.0411284774
  0
CIRCLE
  5
3B7
100
AcDbEntity
  8
0
100
AcDbCircle
 62
7
  6
CONTINUOUS
 10
4.3831066268
 20
7.1816920289
 40
0.0322701902
  0
CIRCLE
  5
3B8
100
AcDbEntity
  8
0
100
AcDbCircle
 62
7
  6
CONTINUOUS
 10
4.1893396254
 20
6.9879250276
 40
0.0322701902
  0
CIRCLE
  5
3B9
100
AcDbEntity
  8
0
100
AcDbCircle
 62
7
  6
CONTINUOUS
 10
4.4168114142
 20
7.3973415459
 40
0.062007874
  0
CIRCLE
  5
3BA
100
AcDbEntity
  8
0
100
AcDbCircle
 62
7
  6
CONTINUOUS
 10
4.4168114142
 20
7.3973415459
 40
0.0576832152
  0
CIRCLE
  5
3BB
100
AcDbEntity
  8
0
100
AcDbCircle
 62
7
  6
CONTINUOUS
 10
4.4168114142
 20
7.3973415459
 40
0.0515680971
  0
CIRCLE
  5
3BC
100
AcDbEntity
  8
0
100
AcDbCircle
 62
7
  6
CONTINUOUS
 10
4.4168114142
 20
7.3973415459
 40
0.0411284774
  0
ARC
  5
3BD
100
AcDbEntity
  8
0
100
AcDbCircle
 62
7
  6
CONTINUOUS
 10
4.8766472946
 20
7.0068249569
 40
0.0661124173
100
AcDbArc
 50
102.8199970198
 51
108.1598067798
  0
CIRCLE
  5
3BE
100
AcDbEntity
  8
0
100
AcDbCircle
 62
7
  6
CONTINUOUS
 10
4.8751349047
 20
7.0119409536
 40
0.0531496063
  0
CIRCLE
  5
3BF
100
AcDbEntity
  8
0
100
AcDbCircle
 62
7
  6
CONTINUOUS
 10
4.8751349047
 20
7.0119409536
 40
0.050555047
  0
CIRCLE
  5
3C0
100
AcDbEntity
  8
0
100
AcDbCircle
 62
7
  6
CONTINUOUS
 10
4.8751349047
 20
7.0119409536
 40
0.0409803256
  0
CIRCLE
  5
3C1
100
AcDbEntity
  8
0
100
AcDbCircle
 62
7
  6
CONTINUOUS
 10
4.8751349047
 20
7.0119409536
 40
0.034716572
  0
CIRCLE
  5
3C2
100
AcDbEntity
  8
0
100
AcDbCircle
 62
7
  6
CONTINUOUS
 10
4.8751349047
 20
7.0119409536
 40
0.0221456693
  0
CIRCLE
  5
3C3
100
AcDbEntity
  8
0
100
AcDbCircle
 62
7
  6
CONTINUOUS
 10
4.7087922946
 20
7.5182839865
 40
0.062007874
  0
CIRCLE
  5
3C4
100
AcDbEntity
  8
0
100
AcDbCircle
 62
7
  6
CONTINUOUS
 10
4.7087922946
 20
7.5182839865
 40
0.0576832151
  0
CIRCLE
  5
3C5
100
AcDbEntity
  8
0
100
AcDbCircle
 62
7
  6
CONTINUOUS
 10
4.8851124142
 20
7.3896296345
 40
0.0531496063
  0
CIRCLE
  5
3C6
100
AcDbEntity
  8
0
100
AcDbCircle
 62
7
  6
CONTINUOUS
 10
4.6204217679
 20
7.3187059896
 40
0.0531496063
  0
CIRCLE
  5
3C7
100
AcDbEntity
  8
0
100
AcDbCircle
 62
7
  6
CONTINUOUS
 10
4.7087922946
 20
7.5182839865
 40
0.0515680971
  0
CIRCLE
  5
3C8
100
AcDbEntity
  8
0
100
AcDbCircle
 62
7
  6
CONTINUOUS
 10
4.8851124142
 20
7.3896296345
 40
0.0488251759
  0
CIRCLE
  5
3C9
100
AcDbEntity
  8
0
100
AcDbCircle
 62
7
  6
CONTINUOUS
 10
4.6204217679
 20
7.3187059896
 40
0.0488251758
  0
CIRCLE
  5
3CA
100
AcDbEntity
  8
0
100
AcDbCircle
 62
7
  6
CONTINUOUS
 10
4.8851124142
 20
7.3896296345
 40
0.0427097959
  0
CIRCLE
  5
3CB
100
AcDbEntity
  8
0
100
AcDbCircle
 62
7
  6
CONTINUOUS
 10
4.6204217679
 20
7.3187059896
 40
0.0427097959
  0
CIRCLE
  5
3CC
100
AcDbEntity
  8
0
100
AcDbCircle
 62
7
  6
CONTINUOUS
 10
4.7087922946
 20
7.5182839865
 40
0.0411284774
  0
CIRCLE
  5
3CD
100
AcDbEntity
  8
0
100
AcDbCircle
 62
7
  6
CONTINUOUS
 10
4.8851124142
 20
7.3896296345
 40
0.0322701902
  0
CIRCLE
  5
3CE
100
AcDbEntity
  8
0
100
AcDbCircle
 62
7
  6
CONTINUOUS
 10
4.6204217679
 20
7.3187059896
 40
0.0322701902
  0
ARC
  5
3CF
100
AcDbEntity
  8
0
100
AcDbCircle
 62
7
  6
CONTINUOUS
 10
5.0221263748
 20
6.3489052795
 40
1.6124528561
100
AcDbArc
 50
211.1392445418
 51
208.8595850755
  0
ARC
  5
3D0
100
AcDbEntity
  8
0
100
AcDbCircle
 62
7
  6
CONTINUOUS
 10
5.0221263748
 20
6.3489052795
 40
1.51875
100
AcDbArc
 50
212.1928118224
 51
207.8071998134
  0
ARC
  5
3D1
100
AcDbEntity
  8
0
100
AcDbCircle
 62
7
  6
CONTINUOUS
 10
5.0221263748
 20
6.3489052795
 40
1.40775
100
AcDbArc
 50
212.3930401667
 51
207.6069261793
  0
ARC
  5
3D2
100
AcDbEntity
  8
0
100
AcDbCircle
 62
7
  6
CONTINUOUS
 10
5.0221263748
 20
6.3489052795
 40
1.4061799213
100
AcDbArc
 50
212.39252197
 51
207.6074443384
  0
ARC
  5
3D3
100
AcDbEntity
  8
0
100
AcDbCircle
 62
7
  6
CONTINUOUS
 10
5.0221263748
 20
6.3489052795
 40
1.39875
100
AcDbArc
 50
212.3879980057
 51
207.6121409099
  0
ARC
  5
3D4
100
AcDbEntity
  8
0
100
AcDbCircle
 62
7
  6
CONTINUOUS
 10
5.0221263748
 20
6.3489052795
 40
1.3966535433
100
AcDbArc
 50
212.4133021808
 51
207.5866955061
  0
ARC
  5
3D5
100
AcDbEntity
  8
0
100
AcDbCircle
 62
7
  6
CONTINUOUS
 10
5.0221263748
 20
6.3489052795
 40
1.3262718279
100
AcDbArc
 50
213.1646653084
 51
206.835334688
  0
ARC
  5
3D6
100
AcDbEntity
  8
0
100
AcDbCircle
 62
7
  6
CONTINUOUS
 10
5.0221263748
 20
6.3489052795
 40
1.3189311375
100
AcDbArc
 50
213.2340721625
 51
206.7659278375
  0
ARC
  5
3D7
100
AcDbEntity
  8
0
100
AcDbCircle
 62
7
  6
CONTINUOUS
 10
5.0221263748
 20
6.3489052795
 40
1.3184403715
100
AcDbArc
 50
213.2374465008
 51
206.7625534992
  0
ARC
  5
3D8
100
AcDbEntity
  8
0
100
AcDbCircle
 62
7
  6
CONTINUOUS
 10
5.0221263748
 20
6.3489052795
 40
1.3001407047
100
AcDbArc
 50
213.2374456713
 51
206.7625543287
  0
CIRCLE
  5
3D9
100
AcDbEntity
  8
0
100
AcDbCircle
 62
7
  6
CONTINUOUS
 10
5.0221263748
 20
6.3489052795
 40
0.9648008796
  0
CIRCLE
  5
3DA
100
AcDbEntity
  8
0
100
AcDbCircle
 62
7
  6
CONTINUOUS
 10
5.0221263748
 20
6.3489052795
 40
0.9527588797
  0
CIRCLE
  5
3DB
100
AcDbEntity
  8
0
100
AcDbCircle
 62
7
  6
CONTINUOUS
 10
5.0221263748
 20
6.3489052795
 40
0.9514666067
  0
CIRCLE
  5
3DC
100
AcDbEntity
  8
0
100
AcDbCircle
 62
7
  6
CONTINUOUS
 10
5.0221263748
 20
6.3489052795
 40
0.9466239204
  0
CIRCLE
  5
3DD
100
AcDbEntity
  8
0
100
AcDbCircle
 62
7
  6
CONTINUOUS
 10
5.0221263748
 20
6.3489052795
 40
0.8799114926
  0
CIRCLE
  5
3DE
100
AcDbEntity
  8
0
100
AcDbCircle
 62
7
  6
CONTINUOUS
 10
5.0221263748
 20
6.3489052795
 40
0.8740053731
  0
CIRCLE
  5
3DF
100
AcDbEntity
  8
0
100
AcDbCircle
 62
7
  6
CONTINUOUS
 10
5.0221263748
 20
6.3489052795
 40
0.8710629921
  0
ARC
  5
3E0
100
AcDbEntity
  8
0
100
AcDbCircle
 62
7
  6
CONTINUOUS
 10
5.0221263748
 20
6.3489052795
 40
0.6702755906
100
AcDbArc
 50
316.7804523358
 51
320.0
  0
ARC
  5
3E1
100
AcDbEntity
  8
0
100
AcDbCircle
 62
7
  6
CONTINUOUS
 10
5.0221263748
 20
6.3489052795
 40
0.6702755906
100
AcDbArc
 50
14.7803957589
 51
18.219264252
  0
ARC
  5
3E2
100
AcDbEntity
  8
0
100
AcDbCircle
 62
7
  6
CONTINUOUS
 10
5.0221263748
 20
6.3489052795
 40
0.6702755906
100
AcDbArc
 50
72.7805573533
 51
76.2194529295
  0
CIRCLE
  5
3E3
100
AcDbEntity
  8
0
100
AcDbCircle
 62
7
  6
CONTINUOUS
 10
5.0221263748
 20
6.3489052795
 40
0.5425331412
  0
CIRCLE
  5
3E4
100
AcDbEntity
  8
0
100
AcDbCircle
 62
7
  6
CONTINUOUS
 10
5.0221263748
 20
6.3489052795
 40
0.517765875
  0
CIRCLE
  5
3E5
100
AcDbEntity
  8
0
100
AcDbCircle
 62
7
  6
CONTINUOUS
 10
5.0221263748
 20
6.3489052795
 40
0.4964831273
  0
CIRCLE
  5
3E6
100
AcDbEntity
  8
0
100
AcDbCircle
 62
7
  6
CONTINUOUS
 10
5.0221263748
 20
6.3489052795
 40
0.4826096587
  0
CIRCLE
  5
3E7
100
AcDbEntity
  8
0
100
AcDbCircle
 62
7
  6
CONTINUOUS
 10
5.0221263748
 20
6.3489052795
 40
0.218503937
  0
CIRCLE
  5
3E8
100
AcDbEntity
  8
0
100
AcDbCircle
 62
7
  6
CONTINUOUS
 10
5.0221263748
 20
6.3489052795
 40
0.2066929134
  0
CIRCLE
  5
3E9
100
AcDbEntity
  8
0
100
AcDbCircle
 62
7
  6
CONTINUOUS
 10
5.0221263748
 20
6.3489052795
 40
0.1987519624
  0
CIRCLE
  5
3EA
100
AcDbEntity
  8
0
100
AcDbCircle
 62
7
  6
CONTINUOUS
 10
5.299721958
 20
6.1358986968
 40
0.1079844241
  0
CIRCLE
  5
3EB
100
AcDbEntity
  8
0
100
AcDbCircle
 62
7
  6
CONTINUOUS
 10
5.299721958
 20
6.1358986968
 40
0.0975454248
  0
CIRCLE
  5
3EC
100
AcDbEntity
  8
0
100
AcDbCircle
 62
7
  6
CONTINUOUS
 10
5.299721958
 20
6.1358986968
 40
0.0914300427
  0
CIRCLE
  5
3ED
100
AcDbEntity
  8
0
100
AcDbCircle
 62
7
  6
CONTINUOUS
 10
5.299721958
 20
6.1358986968
 40
0.0809902366
  0
CIRCLE
  5
3EE
100
AcDbEntity
  8
0
100
AcDbCircle
 62
7
  6
CONTINUOUS
 10
5.299721958
 20
6.1358986968
 40
0.0664370079
  0
CIRCLE
  5
3EF
100
AcDbEntity
  8
0
100
AcDbCircle
 62
7
  6
CONTINUOUS
 10
5.4413914234
 20
6.2365635483
 40
0.0221456693
  0
CIRCLE
  5
3F0
100
AcDbEntity
  8
0
100
AcDbCircle
 62
7
  6
CONTINUOUS
 10
5.3690344931
 20
6.3945765997
 40
0.1079844268
  0
CIRCLE
  5
3F1
100
AcDbEntity
  8
0
100
AcDbCircle
 62
7
  6
CONTINUOUS
 10
5.3690344931
 20
6.3945765997
 40
0.097545426
  0
CIRCLE
  5
3F2
100
AcDbEntity
  8
0
100
AcDbCircle
 62
7
  6
CONTINUOUS
 10
5.3690344931
 20
6.3945765997
 40
0.0914300427
  0
CIRCLE
  5
3F3
100
AcDbEntity
  8
0
100
AcDbCircle
 62
7
  6
CONTINUOUS
 10
5.3690344931
 20
6.3945765997
 40
0.0809902366
  0
CIRCLE
  5
3F4
100
AcDbEntity
  8
0
100
AcDbCircle
 62
7
  6
CONTINUOUS
 10
5.3690344931
 20
6.3945765997
 40
0.0664370079
  0
CIRCLE
  5
3F5
100
AcDbEntity
  8
0
100
AcDbCircle
 62
7
  6
CONTINUOUS
 10
5.2351329575
 20
6.6265008626
 40
0.1079844241
  0
CIRCLE
  5
3F6
100
AcDbEntity
  8
0
100
AcDbCircle
 62
7
  6
CONTINUOUS
 10
5.2351329575
 20
6.6265008626
 40
0.0975454248
  0
CIRCLE
  5
3F7
100
AcDbEntity
  8
0
100
AcDbCircle
 62
7
  6
CONTINUOUS
 10
5.2351329575
 20
6.6265008626
 40
0.0914300427
  0
CIRCLE
  5
3F8
100
AcDbEntity
  8
0
100
AcDbCircle
 62
7
  6
CONTINUOUS
 10
5.2351329575
 20
6.6265008626
 40
0.0809902366
  0
ARC
  5
3F9
100
AcDbEntity
  8
0
100
AcDbCircle
 62
7
  6
CONTINUOUS
 10
5.6106227719
 20
6.6961187088
 40
0.0671801938
100
AcDbArc
 50
210.9134033268
 51
215.7827032789
  0
CIRCLE
  5
3FA
100
AcDbEntity
  8
0
100
AcDbCircle
 62
7
  6
CONTINUOUS
 10
5.2351329575
 20
6.6265008626
 40
0.0664370079
  0
ARC
  5
3FB
100
AcDbEntity
  8
0
100
AcDbCircle
 62
7
  6
CONTINUOUS
 10
5.603772056
 20
6.6919167765
 40
0.0646697029
100
AcDbArc
 50
19.1952268461
 51
30.1976936754
  0
ARC
  5
3FC
100
AcDbEntity
  8
0
100
AcDbCircle
 62
7
  6
CONTINUOUS
 10
5.6063140732
 20
6.6929832435
 40
0.061874583
100
AcDbArc
 50
204.9462154525
 51
210.4721636852
  0
ARC
  5
3FD
100
AcDbEntity
  8
0
100
AcDbCircle
 62
7
  6
CONTINUOUS
 10
5.6065936167
 20
6.6932024341
 40
0.0615851456
100
AcDbArc
 50
30.4842574563
 51
39.1544901208
  0
CIRCLE
  5
3FE
100
AcDbEntity
  8
0
100
AcDbCircle
 62
7
  6
CONTINUOUS
 10
5.6072879109
 20
6.6935917662
 40
0.0531496063
  0
CIRCLE
  5
3FF
100
AcDbEntity
  8
0
100
AcDbCircle
 62
7
  6
CONTINUOUS
 10
5.6072879109
 20
6.6935917662
 40
0.050555047
  0
CIRCLE
  5
400
100
AcDbEntity
  8
0
100
AcDbCircle
 62
7
  6
CONTINUOUS
 10
5.6072879109
 20
6.6935917662
 40
0.0409803256
  0
CIRCLE
  5
401
100
AcDbEntity
  8
0
100
AcDbCircle
 62
7
  6
CONTINUOUS
 10
5.6072879109
 20
6.6935917662
 40
0.034716572
  0
CIRCLE
  5
402
100
AcDbEntity
  8
0
100
AcDbCircle
 62
7
  6
CONTINUOUS
 10
5.3980291337
 20
6.5659328386
 40
0.0221456693
  0
CIRCLE
  5
403
100
AcDbEntity
  8
0
100
AcDbCircle
 62
7
  6
CONTINUOUS
 10
5.134468106
 20
6.7681703281
 40
0.0221456693
  0
CIRCLE
  5
404
100
AcDbEntity
  8
0
100
AcDbCircle
 62
7
  6
CONTINUOUS
 10
5.6072879109
 20
6.6935917662
 40
0.0221456693
  0
CIRCLE
  5
405
100
AcDbEntity
  8
0
100
AcDbCircle
 62
7
  6
CONTINUOUS
 10
6.2327562961
 20
6.3489052795
 40
0.062007874
  0
CIRCLE
  5
406
100
AcDbEntity
  8
0
100
AcDbCircle
 62
7
  6
CONTINUOUS
 10
6.2327562961
 20
6.3489052795
 40
0.0576832151
  0
CIRCLE
  5
407
100
AcDbEntity
  8
0
100
AcDbCircle
 62
7
  6
CONTINUOUS
 10
6.0628507298
 20
6.2118913189
 40
0.0531496063
  0
CIRCLE
  5
408
100
AcDbEntity
  8
0
100
AcDbCircle
 62
7
  6
CONTINUOUS
 10
5.7006138481
 20
6.3785286823
 40
0.0531496063
  0
CIRCLE
  5
409
100
AcDbEntity
  8
0
100
AcDbCircle
 62
7
  6
CONTINUOUS
 10
6.2327562961
 20
6.3489052795
 40
0.0515680971
  0
CIRCLE
  5
40A
100
AcDbEntity
  8
0
100
AcDbCircle
 62
7
  6
CONTINUOUS
 10
5.7006138481
 20
6.3785286823
 40
0.050555047
  0
CIRCLE
  5
40B
100
AcDbEntity
  8
0
100
AcDbCircle
 62
7
  6
CONTINUOUS
 10
6.0628507298
 20
6.2118913189
 40
0.0488251759
  0
CIRCLE
  5
40C
100
AcDbEntity
  8
0
100
AcDbCircle
 62
7
  6
CONTINUOUS
 10
6.0628507298
 20
6.2118913189
 40
0.0427097959
  0
CIRCLE
  5
40D
100
AcDbEntity
  8
0
100
AcDbCircle
 62
7
  6
CONTINUOUS
 10
6.2327562961
 20
6.3489052795
 40
0.0411284774
  0
CIRCLE
  5
40E
100
AcDbEntity
  8
0
100
AcDbCircle
 62
7
  6
CONTINUOUS
 10
5.7006138481
 20
6.3785286823
 40
0.0409803256
  0
CIRCLE
  5
40F
100
AcDbEntity
  8
0
100
AcDbCircle
 62
7
  6
CONTINUOUS
 10
5.7006138481
 20
6.3785286823
 40
0.034716572
  0
CIRCLE
  5
410
100
AcDbEntity
  8
0
100
AcDbCircle
 62
7
  6
CONTINUOUS
 10
6.0628507298
 20
6.2118913189
 40
0.0322701902
  0
CIRCLE
  5
411
100
AcDbEntity
  8
0
100
AcDbCircle
 62
7
  6
CONTINUOUS
 10
5.7006138481
 20
6.3785286823
 40
0.0221456693
  0
ARC
  5
412
100
AcDbEntity
  8
0
100
AcDbCircle
 62
7
  6
CONTINUOUS
 10
5.6682952861
 20
6.5399241369
 40
0.0661124165
100
AcDbArc
 50
16.8199969686
 51
22.1598067676
  0
CIRCLE
  5
413
100
AcDbEntity
  8
0
100
AcDbCircle
 62
7
  6
CONTINUOUS
 10
5.6732933207
 20
6.5417897164
 40
0.0531496063
  0
CIRCLE
  5
414
100
AcDbEntity
  8
0
100
AcDbCircle
 62
7
  6
CONTINUOUS
 10
5.6732933207
 20
6.5417897164
 40
0.050555047
  0
CIRCLE
  5
415
100
AcDbEntity
  8
0
100
AcDbCircle
 62
7
  6
CONTINUOUS
 10
5.6732933207
 20
6.5417897164
 40
0.0409803256
  0
CIRCLE
  5
416
100
AcDbEntity
  8
0
100
AcDbCircle
 62
7
  6
CONTINUOUS
 10
5.6732933207
 20
6.5417897164
 40
0.034716572
  0
CIRCLE
  5
417
100
AcDbEntity
  8
0
100
AcDbCircle
 62
7
  6
CONTINUOUS
 10
5.6732933207
 20
6.5417897164
 40
0.0221456693
  0
CIRCLE
  5
418
100
AcDbEntity
  8
0
100
AcDbCircle
 62
7
  6
CONTINUOUS
 10
6.0628507298
 20
6.4859192401
 40
0.0531496063
  0
CIRCLE
  5
419
100
AcDbEntity
  8
0
100
AcDbCircle
 62
7
  6
CONTINUOUS
 10
6.0628507298
 20
6.4859192401
 40
0.0488251759
  0
CIRCLE
  5
41A
100
AcDbEntity
  8
0
100
AcDbCircle
 62
7
  6
CONTINUOUS
 10
6.0628507298
 20
6.4859192401
 40
0.0427097959
  0
CIRCLE
  5
41B
100
AcDbEntity
  8
0
100
AcDbCircle
 62
7
  6
CONTINUOUS
 10
6.0628507298
 20
6.4859192401
 40
0.0322701902
  0
CIRCLE
  5
41C
100
AcDbEntity
  8
0
100
AcDbCircle
 62
7
  6
CONTINUOUS
 10
6.1915050818
 20
6.6622393597
 40
0.062007874
  0
CIRCLE
  5
41D
100
AcDbEntity
  8
0
100
AcDbCircle
 62
7
  6
CONTINUOUS
 10
6.1915050818
 20
6.6622393597
 40
0.0576832151
  0
CIRCLE
  5
41E
100
AcDbEntity
  8
0
100
AcDbCircle
 62
7
  6
CONTINUOUS
 10
5.9919270849
 20
6.7506098864
 40
0.0531496063
  0
CIRCLE
  5
41F
100
AcDbEntity
  8
0
100
AcDbCircle
 62
7
  6
CONTINUOUS
 10
6.1915050818
 20
6.6622393597
 40
0.0515680971
  0
CIRCLE
  5
420
100
AcDbEntity
  8
0
100
AcDbCircle
 62
7
  6
CONTINUOUS
 10
5.9919270849
 20
6.7506098864
 40
0.0488251758
  0
CIRCLE
  5
421
100
AcDbEntity
  8
0
100
AcDbCircle
 62
7
  6
CONTINUOUS
 10
5.9919270849
 20
6.7506098864
 40
0.0427097959
  0
CIRCLE
  5
422
100
AcDbEntity
  8
0
100
AcDbCircle
 62
7
  6
CONTINUOUS
 10
6.1915050818
 20
6.6622393597
 40
0.0411284774
  0
CIRCLE
  5
423
100
AcDbEntity
  8
0
100
AcDbCircle
 62
7
  6
CONTINUOUS
 10
5.9919270849
 20
6.7506098864
 40
0.0322701902
  0
ARC
  5
424
100
AcDbEntity
  8
0
100
AcDbCircle
 62
7
  6
CONTINUOUS
 10
5.2034713563
 20
7.0027103227
 40
0.0614343941
100
AcDbArc
 50
65.9140376858
 51
74.5258794629
  0
CIRCLE
  5
425
100
AcDbEntity
  8
0
100
AcDbCircle
 62
7
  6
CONTINUOUS
 10
5.0399040267
 20
7.0278064156
 40
0.0531496063
  0
CIRCLE
  5
426
100
AcDbEntity
  8
0
100
AcDbCircle
 62
7
  6
CONTINUOUS
 10
5.2036170042
 20
7.0033393471
 40
0.0531496063
  0
CIRCLE
  5
427
100
AcDbEntity
  8
0
100
AcDbCircle
 62
7
  6
CONTINUOUS
 10
5.0399040267
 20
7.0278064156
 40
0.050555047
  0
CIRCLE
  5
428
100
AcDbEntity
  8
0
100
AcDbCircle
 62
7
  6
CONTINUOUS
 10
5.2036170042
 20
7.0033393471
 40
0.050555047
  0
CIRCLE
  5
429
100
AcDbEntity
  8
0
100
AcDbCircle
 62
7
  6
CONTINUOUS
 10
5.0399040267
 20
7.0278064156
 40
0.0409803256
  0
CIRCLE
  5
42A
100
AcDbEntity
  8
0
100
AcDbCircle
 62
7
  6
CONTINUOUS
 10
5.2036170042
 20
7.0033393471
 40
0.0409803256
  0
CIRCLE
  5
42B
100
AcDbEntity
  8
0
100
AcDbCircle
 62
7
  6
CONTINUOUS
 10
5.0399040267
 20
7.0278064156
 40
0.034716572
  0
CIRCLE
  5
42C
100
AcDbEntity
  8
0
100
AcDbCircle
 62
7
  6
CONTINUOUS
 10
5.2036170042
 20
7.0033393471
 40
0.034716572
  0
CIRCLE
  5
42D
100
AcDbEntity
  8
0
100
AcDbCircle
 62
7
  6
CONTINUOUS
 10
5.0399040267
 20
7.0278064156
 40
0.0221456693
  0
CIRCLE
  5
42E
100
AcDbEntity
  8
0
100
AcDbCircle
 62
7
  6
CONTINUOUS
 10
5.2036170042
 20
7.0033393471
 40
0.0221456693
  0
CIRCLE
  5
42F
100
AcDbEntity
  8
0
100
AcDbCircle
 62
7
  6
CONTINUOUS
 10
5.335460455
 20
7.5182839865
 40
0.062007874
  0
CIRCLE
  5
430
100
AcDbEntity
  8
0
100
AcDbCircle
 62
7
  6
CONTINUOUS
 10
5.0221263748
 20
7.5595352008
 40
0.062007874
  0
CIRCLE
  5
431
100
AcDbEntity
  8
0
100
AcDbCircle
 62
7
  6
CONTINUOUS
 10
5.335460455
 20
7.5182839865
 40
0.0576832151
  0
CIRCLE
  5
432
100
AcDbEntity
  8
0
100
AcDbCircle
 62
7
  6
CONTINUOUS
 10
5.0221263748
 20
7.5595352008
 40
0.0576832151
  0
CIRCLE
  5
433
100
AcDbEntity
  8
0
100
AcDbCircle
 62
7
  6
CONTINUOUS
 10
5.4238309817
 20
7.3187059896
 40
0.0531496063
  0
CIRCLE
  5
434
100
AcDbEntity
  8
0
100
AcDbCircle
 62
7
  6
CONTINUOUS
 10
5.1591403355
 20
7.3896296345
 40
0.0531496063
  0
CIRCLE
  5
435
100
AcDbEntity
  8
0
100
AcDbCircle
 62
7
  6
CONTINUOUS
 10
5.335460455
 20
7.5182839865
 40
0.0515680971
  0
CIRCLE
  5
436
100
AcDbEntity
  8
0
100
AcDbCircle
 62
7
  6
CONTINUOUS
 10
5.0221263748
 20
7.5595352008
 40
0.0515680971
  0
CIRCLE
  5
437
100
AcDbEntity
  8
0
100
AcDbCircle
 62
7
  6
CONTINUOUS
 10
5.4238309817
 20
7.3187059896
 40
0.0488251759
  0
CIRCLE
  5
438
100
AcDbEntity
  8
0
100
AcDbCircle
 62
7
  6
CONTINUOUS
 10
5.1591403355
 20
7.3896296345
 40
0.0488251759
  0
CIRCLE
  5
439
100
AcDbEntity
  8
0
100
AcDbCircle
 62
7
  6
CONTINUOUS
 10
5.4238309817
 20
7.3187059896
 40
0.0427097959
  0
CIRCLE
  5
43A
100
AcDbEntity
  8
0
100
AcDbCircle
 62
7
  6
CONTINUOUS
 10
5.1591403355
 20
7.3896296345
 40
0.0427097959
  0
CIRCLE
  5
43B
100
AcDbEntity
  8
0
100
AcDbCircle
 62
7
  6
CONTINUOUS
 10
5.335460455
 20
7.5182839865
 40
0.0411284774
  0
CIRCLE
  5
43C
100
AcDbEntity
  8
0
100
AcDbCircle
 62
7
  6
CONTINUOUS
 10
5.0221263748
 20
7.5595352008
 40
0.0411284774
  0
CIRCLE
  5
43D
100
AcDbEntity
  8
0
100
AcDbCircle
 62
7
  6
CONTINUOUS
 10
5.4238309817
 20
7.3187059896
 40
0.0322701902
  0
CIRCLE
  5
43E
100
AcDbEntity
  8
0
100
AcDbCircle
 62
7
  6
CONTINUOUS
 10
5.1591403355
 20
7.3896296345
 40
0.0322701902
  0
CIRCLE
  5
43F
100
AcDbEntity
  8
0
100
AcDbCircle
 62
7
  6
CONTINUOUS
 10
6.0705626412
 20
6.9542202401
 40
0.062007874
  0
CIRCLE
  5
440
100
AcDbEntity
  8
0
100
AcDbCircle
 62
7
  6
CONTINUOUS
 10
5.8781710017
 20
7.2049499063
 40
0.062007874
  0
CIRCLE
  5
441
100
AcDbEntity
  8
0
100
AcDbCircle
 62
7
  6
CONTINUOUS
 10
6.0705626412
 20
6.9542202401
 40
0.0576834767
  0
CIRCLE
  5
442
100
AcDbEntity
  8
0
100
AcDbCircle
 62
7
  6
CONTINUOUS
 10
5.8781710017
 20
7.2049499063
 40
0.0576832151
  0
CIRCLE
  5
443
100
AcDbEntity
  8
0
100
AcDbCircle
 62
7
  6
CONTINUOUS
 10
5.8549131243
 20
6.9879250276
 40
0.0531496063
  0
CIRCLE
  5
444
100
AcDbEntity
  8
0
100
AcDbCircle
 62
7
  6
CONTINUOUS
 10
5.6611461229
 20
7.1816920289
 40
0.0531496063
  0
CIRCLE
  5
445
100
AcDbEntity
  8
0
100
AcDbCircle
 62
7
  6
CONTINUOUS
 10
6.0705626412
 20
6.9542202401
 40
0.0515681165
  0
CIRCLE
  5
446
100
AcDbEntity
  8
0
100
AcDbCircle
 62
7
  6
CONTINUOUS
 10
5.8781710017
 20
7.2049499063
 40
0.0515680971
  0
CIRCLE
  5
447
100
AcDbEntity
  8
0
100
AcDbCircle
 62
7
  6
CONTINUOUS
 10
5.8549131243
 20
6.9879250276
 40
0.0488251759
  0
CIRCLE
  5
448
100
AcDbEntity
  8
0
100
AcDbCircle
 62
7
  6
CONTINUOUS
 10
5.6611461229
 20
7.1816920289
 40
0.0488251759
  0
CIRCLE
  5
449
100
AcDbEntity
  8
0
100
AcDbCircle
 62
7
  6
CONTINUOUS
 10
5.8549131243
 20
6.9879250276
 40
0.0427097959
  0
CIRCLE
  5
44A
100
AcDbEntity
  8
0
100
AcDbCircle
 62
7
  6
CONTINUOUS
 10
5.6611461229
 20
7.1816920289
 40
0.0427097959
  0
CIRCLE
  5
44B
100
AcDbEntity
  8
0
100
AcDbCircle
 62
7
  6
CONTINUOUS
 10
6.0705626412
 20
6.9542202401
 40
0.0411285027
  0
CIRCLE
  5
44C
100
AcDbEntity
  8
0
100
AcDbCircle
 62
7
  6
CONTINUOUS
 10
5.8781710017
 20
7.2049499063
 40
0.0411284774
  0
CIRCLE
  5
44D
100
AcDbEntity
  8
0
100
AcDbCircle
 62
7
  6
CONTINUOUS
 10
5.8549131243
 20
6.9879250276
 40
0.0322701902
  0
CIRCLE
  5
44E
100
AcDbEntity
  8
0
100
AcDbCircle
 62
7
  6
CONTINUOUS
 10
5.6611461229
 20
7.1816920289
 40
0.0322701902
  0
CIRCLE
  5
44F
100
AcDbEntity
  8
0
100
AcDbCircle
 62
7
  6
CONTINUOUS
 10
5.6274413355
 20
7.3973415459
 40
0.062007874
  0
CIRCLE
  5
450
100
AcDbEntity
  8
0
100
AcDbCircle
 62
7
  6
CONTINUOUS
 10
5.6274413355
 20
7.3973415459
 40
0.0576832151
  0
CIRCLE
  5
451
100
AcDbEntity
  8
0
100
AcDbCircle
 62
7
  6
CONTINUOUS
 10
5.6274413355
 20
7.3973415459
 40
0.0515680971
  0
CIRCLE
  5
452
100
AcDbEntity
  8
0
100
AcDbCircle
 62
7
  6
CONTINUOUS
 10
5.6274413355
 20
7.3973415459
 40
0.0411284774
  0
SPLINE
  5
453
100
AcDbEntity
  8
0
100
AcDbSpline
 62
7
  6
CONTINUOUS
 70
0
 71
3
 72
27
 73
23
 74
0
 42
0.0000001
 43
0.0000001
 44
0.0000000001
 40
0.0
 40
0.0
 40
0.0
 40
0.0
 40
0.0186096891
 40
0.0395094169
 40
0.0625899565
 40
0.0877400093
 40
0.1437786128
 40
0.2065674611
 40
0.2573773094
 40
0.3107752215
 40
0.4230364917
 40
0.5385732982
 40
0.6524682531
 40
0.7072770861
 40
0.7598744315
 40
0.8096992328
 40
0.8562213898
 40
0.8989440198
 40
0.9374100561
 40
0.9712198773
 40
0.9862616585
 40
1.0
 40
1.0
 40
1.0
 40
1.0
 10
4.7483763748
 20
0.9809970097
 30
0.0
 10
4.7517683703
 20
0.9812047099
 30
0.0
 10
4.7589716911
 20
0.9816143686
 30
0.0
 10
4.7703866973
 20
0.9821939284
 30
0.0
 10
4.7829974028
 20
0.9827742417
 30
0.0
 10
4.8020212491
 20
0.9835779849
 30
0.0
 10
4.8282947689
 20
0.9845666405
 30
0.0
 10
4.8592549834
 20
0.9856106696
 30
0.0
 10
4.8897355362
 20
0.9865673809
 30
0.0
 10
4.92924771
 20
0.987747956
 30
0.0
 10
4.9805769381
 20
0.9891986417
 30
0.0
 10
5.0429505194
 20
0.9909141242
 30
0.0
 10
5.0948360591
 20
0.9923604469
 30
0.0
 10
5.1352311386
 20
0.9935367174
 30
0.0
 10
5.1639301786
 20
0.9944072236
 30
0.0
 10
5.1911152677
 20
0.9952770769
 30
0.0
 10
5.2164961686
 20
0.9961460486
 30
0.0
 10
5.2398015757
 20
0.997013663
 30
0.0
 10
5.2607838581
 20
0.9978795555
 30
0.0
 10
5.2767118091
 20
0.9986247537
 30
0.0
 10
5.2881254721
 20
0.9992298999
 30
0.0
 10
5.2933722818
 20
0.9995341334
 30
0.0
 10
5.2958763748
 20
0.9996874651
 30
0.0
  0
SPLINE
  5
454
100
AcDbEntity
  8
0
100
AcDbSpline
 62
7
  6
CONTINUOUS
 70
0
 71
3
 72
14
 73
10
 74
0
 42
0.0000001
 43
0.0000001
 44
0.0000000001
 40
0.0
 40
0.0
 40
0.0
 40
0.0
 40
0.3083793962
 40
0.4507324206
 40
0.5836180033
 40
0.7059480711
 40
0.8167051574
 40
0.9150073032
 40
1.0
 40
1.0
 40
1.0
 40
1.0
 10
5.1347961399
 20
0.9339052795
 30
0.0
 10
5.1513593739
 20
0.9343972848
 30
0.0
 10
5.1755678078
 20
0.9351398806
 30
0.0
 10
5.2069105885
 20
0.9361881006
 30
0.0
 10
5.2282599927
 20
0.9369525543
 30
0.0
 10
5.2479104805
 20
0.9377159854
 30
0.0
 10
5.2657011924
 20
0.9384781077
 30
0.0
 10
5.2814836287
 20
0.9392384583
 30
0.0
 10
5.2913178927
 20
0.9397838802
 30
0.0
 10
5.2958763748
 20
0.9400630072
 30
0.0
  0
SPLINE
  5
455
100
AcDbEntity
  8
0
100
AcDbSpline
 62
7
  6
CONTINUOUS
 70
0
 71
3
 72
27
 73
23
 74
0
 42
0.0000001
 43
0.0000001
 44
0.0000000001
 40
0.0
 40
0.0
 40
0.0
 40
0.0
 40
0.0186096891
 40
0.0395094169
 40
0.0625899565
 40
0.0877400093
 40
0.1437786128
 40
0.2065674611
 40
0.2573773094
 40
0.3107752215
 40
0.4230364917
 40
0.5385732982
 40
0.6524682531
 40
0.7072770861
 40
0.7598744315
 40
0.8096992328
 40
0.8562213898
 40
0.8989440198
 40
0.9374100561
 40
0.9712198773
 40
0.9862616585
 40
1.0
 40
1.0
 40
1.0
 40
1.0
 10
4.7483763748
 20
0.9277470097
 30
0.0
 10
4.7517683703
 20
0.9279547099
 30
0.0
 10
4.7589716911
 20
0.9283643686
 30
0.0
 10
4.7703866973
 20
0.9289439284
 30
0.0
 10
4.7829974028
 20
0.9295242417
 30
0.0
 10
4.8020212491
 20
0.9303279849
 30
0.0
 10
4.8282947689
 20
0.9313166405
 30
0.0
 10
4.8592549834
 20
0.9323606696
 30
0.0
 10
4.8897355362
 20
0.9333173809
 30
0.0
 10
4.92924771
 20
0.934497956
 30
0.0
 10
4.9805769381
 20
0.9359486417
 30
0.0
 10
5.0429505194
 20
0.9376641242
 30
0.0
 10
5.0948360591
 20
0.9391104469
 30
0.0
 10
5.1352311386
 20
0.9402867174
 30
0.0
 10
5.1639301786
 20
0.9411572236
 30
0.0
 10
5.1911152677
 20
0.9420270769
 30
0.0
 10
5.2164961686
 20
0.9428960486
 30
0.0
 10
5.2398015757
 20
0.943763663
 30
0.0
 10
5.2607838581
 20
0.9446295555
 30
0.0
 10
5.2767118091
 20
0.9453747537
 30
0.0
 10
5.2881254721
 20
0.9459798999
 30
0.0
 10
5.2933722818
 20
0.9462841334
 30
0.0
 10
5.2958763748
 20
0.9464374651
 30
0.0
  0
SPLINE
  5
456
100
AcDbEntity
  8
0
100
AcDbSpline
 62
7
  6
CONTINUOUS
 70
0
 71
3
 72
41
 73
37
 74
0
 42
0.0000001
 43
0.0000001
 44
0.0000000001
 40
0.0
 40
0.0
 40
0.0
 40
0.0
 40
0.0042822776
 40
0.0095059361
 40
0.0156620668
 40
0.02274052
 40
0.0307290008
 40
0.0396118009
 40
0.0599947546
 40
0.0837412037
 40
0.1106686925
 40
0.140573644
 40
0.1732271145
 40
0.2268109018
 40
0.2850941277
 40
0.3470742405
 40
0.4116849763
 40
0.4778150846
 40
0.5443270689
 40
0.6100763898
 40
0.6739317047
 40
0.7347948525
 40
0.7916194258
 40
0.8434283759
 40
0.867169172
 40
0.8893311598
 40
0.9098176752
 40
0.9285412202
 40
0.9454228496
 40
0.9603881413
 40
0.9733779393
 40
0.9843377538
 40
0.9890419119
 40
0.9932229224
 40
0.996876775
 40
1.0
 40
1.0
 40
1.0
 40
1.0
 10
4.7483763748
 20
0.8354609564
 30
0.0
 10
4.7491463773
 20
0.8355998096
 30
0.0
 10
4.7508629038
 20
0.8358675846
 30
0.0
 10
4.7537013214
 20
0.8362326814
 30
0.0
 10
4.7570540294
 20
0.8365994018
 30
0.0
 10
4.7609143363
 20
0.8369671746
 30
0.0
 10
4.7652747682
 20
0.8373355236
 30
0.0
 10
4.7720620449
 20
0.8378512578
 30
0.0
 10
4.7817275128
 20
0.8384843948
 30
0.0
 10
4.7946898531
 20
0.8392168835
 30
0.0
 10
4.809394308
 20
0.8399513038
 30
0.0
 10
4.8257279047
 20
0.8406871299
 30
0.0
 10
4.8469303992
 20
0.841562803
 30
0.0
 10
4.8733173567
 20
0.8425558397
 30
0.0
 10
4.9050621992
 20
0.8436565211
 30
0.0
 10
4.9388228773
 20
0.8447585132
 30
0.0
 10
4.9740179662
 20
0.8458613861
 30
0.0
 10
5.0100414602
 20
0.8469646991
 30
0.0
 10
5.0462730794
 20
0.8480681185
 30
0.0
 10
5.0820888817
 20
0.8491713169
 30
0.0
 10
5.1168720948
 20
0.8502739595
 30
0.0
 10
5.150023842
 20
0.8513755501
 30
0.0
 10
5.1809733414
 20
0.8524756552
 30
0.0
 10
5.2051414833
 20
0.8534154472
 30
0.0
 10
5.2229783381
 20
0.8541766791
 30
0.0
 10
5.2350958091
 20
0.8547304756
 30
0.0
 10
5.2462955645
 20
0.8552838418
 30
0.0
 10
5.2565292945
 20
0.8558366433
 30
0.0
 10
5.2657526739
 20
0.856388497
 30
0.0
 10
5.2739264452
 20
0.8569391854
 30
0.0
 10
5.2810155445
 20
0.8574882456
 30
0.0
 10
5.2862295333
 20
0.857964431
 30
0.0
 10
5.2898346111
 20
0.8583532765
 30
0.0
 10
5.2921090396
 20
0.8586293183
 30
0.0
 10
5.2940923013
 20
0.8589045727
 30
0.0
 10
5.2953147833
 20
0.8591027897
 30
0.0
 10
5.2958763748
 20
0.8592040605
 30
0.0
  0
SPLINE
  5
457
100
AcDbEntity
  8
0
100
AcDbSpline
 62
7
  6
CONTINUOUS
 70
0
 71
3
 72
18
 73
14
 74
0
 42
0.0000001
 43
0.0000001
 44
0.0000000001
 40
0.0
 40
0.0
 40
0.0
 40
0.0
 40
0.036112474
 40
0.0779663671
 40
0.1251844999
 40
0.1773762545
 40
0.2340969008
 40
0.2948628541
 40
0.4264275712
 40
0.5675942104
 40
0.7135583237
 40
0.8593427684
 40
1.0
 40
1.0
 40
1.0
 40
1.0
 10
4.7483763748
 20
0.9213725518
 30
0.0
 10
4.7530217597
 20
0.9216570001
 30
0.0
 10
4.7630546811
 20
0.922212404
 30
0.0
 10
4.7791696734
 20
0.9229859077
 30
0.0
 10
4.7973589489
 20
0.9237612703
 30
0.0
 10
4.8174657012
 20
0.9245380295
 30
0.0
 10
4.839319612
 20
0.9253158586
 30
0.0
 10
4.8713990269
 20
0.9263822123
 30
0.0
 10
4.9143594037
 20
0.9276928946
 30
0.0
 10
4.9682979061
 20
0.929231263
 30
0.0
 10
5.0240696835
 20
0.9307711567
 30
0.0
 10
5.0797757779
 20
0.9323111023
 30
0.0
 10
5.1166765796
 20
0.9333670441
 30
0.0
 10
5.1347961399
 20
0.9339052795
 30
0.0
  0
SPLINE
  5
458
100
AcDbEntity
  8
0
100
AcDbSpline
 62
7
  6
CONTINUOUS
 70
0
 71
3
 72
23
 73
19
 74
0
 42
0.0000001
 43
0.0000001
 44
0.0000000001
 40
0.0
 40
0.0
 40
0.0
 40
0.0
 40
0.0175957309
 40
0.0370662954
 40
0.0583358926
 40
0.0813275214
 40
0.1321608207
 40
0.188881561
 40
0.250708947
 40
0.3167936537
 40
0.3862285009
 40
0.4580601337
 40
0.6049475115
 40
0.7494121114
 40
0.8182472709
 40
0.8835401404
 40
0.9444122163
 40
1.0
 40
1.0
 40
1.0
 40
1.0
 10
4.7483763748
 20
1.0342470097
 30
0.0
 10
4.7512363389
 20
1.0344221323
 30
0.0
 10
4.7572623647
 20
1.034768814
 30
0.0
 10
4.7667490564
 20
1.0352629932
 30
0.0
 10
4.777115485
 20
1.0357577431
 30
0.0
 10
4.7925858027
 20
1.0364407994
 30
0.0
 10
4.8138274878
 20
1.0372834358
 30
0.0
 10
4.8413923854
 20
1.0382664933
 30
0.0
 10
4.8714422344
 20
1.0392511343
 30
0.0
 10
4.903563457
 20
1.0402369901
 30
0.0
 10
4.937314489
 20
1.0412236357
 30
0.0
 10
4.9842192518
 20
1.0425495733
 30
0.0
 10
5.0433384221
 20
1.0441736504
 30
0.0
 10
5.1019691472
 20
1.0458095966
 30
0.0
 10
5.1473159861
 20
1.0471464474
 30
0.0
 10
5.1790548741
 20
1.0481321201
 30
0.0
 10
5.2086354675
 20
1.0491165745
 30
0.0
 10
5.2275875314
 20
1.049805683
 30
0.0
 10
5.2366327933
 20
1.0501552795
 30
0.0
  0
SPLINE
  5
459
100
AcDbEntity
  8
0
100
AcDbSpline
 62
7
  6
CONTINUOUS
 70
0
 71
3
 72
27
 73
23
 74
0
 42
0.0000001
 43
0.0000001
 44
0.0000000001
 40
0.0
 40
0.0
 40
0.0
 40
0.0
 40
0.0037985354
 40
0.0081505012
 40
0.01305301
 40
0.0185026994
 40
0.0310286698
 40
0.0456942369
 40
0.0624540132
 40
0.0812599213
 40
0.1020581399
 40
0.1247822417
 40
0.1757288256
 40
0.2334748136
 40
0.2973139502
 40
0.3664607015
 40
0.4400639089
 40
0.517219252
 40
0.5969764812
 40
0.6783554571
 40
0.8419528699
 40
1.0
 40
1.0
 40
1.0
 40
1.0
 10
4.7483763748
 20
0.8887109564
 30
0.0
 10
4.748845072
 20
0.8887954757
 30
0.0
 10
4.749853461
 20
0.8889618632
 30
0.0
 10
4.751473392
 20
0.8891951808
 30
0.0
 10
4.7533021659
 20
0.8894289905
 30
0.0
 10
4.7561518984
 20
0.889756595
 30
0.0
 10
4.7602248068
 20
0.8901592496
 30
0.0
 10
4.7657158157
 20
0.8906244779
 30
0.0
 10
4.7719965654
 20
0.8910908238
 30
0.0
 10
4.7790480121
 20
0.8915580385
 30
0.0
 10
4.7868486945
 20
0.8920258277
 30
0.0
 10
4.7986753375
 20
0.8926752684
 30
0.0
 10
4.8151329732
 20
0.8934748756
 30
0.0
 10
4.8367449046
 20
0.8944047881
 30
0.0
 10
4.8606405807
 20
0.895336498
 30
0.0
 10
4.8865257384
 20
0.8962696319
 30
0.0
 10
4.9140814469
 20
0.8972036906
 30
0.0
 10
4.9429681882
 20
0.8981383681
 30
0.0
 10
4.972830324
 20
0.8990734607
 30
0.0
 10
5.0135259513
 20
0.9003227025
 30
0.0
 10
5.0640333888
 20
0.9018558917
 30
0.0
 10
5.1043410842
 20
0.9031202897
 30
0.0
 10
5.1241462301
 20
0.9037700084
 30
0.0
  0
SPLINE
  5
45A
100
AcDbEntity
  8
0
100
AcDbSpline
 62
7
  6
CONTINUOUS
 70
0
 71
3
 72
27
 73
23
 74
0
 42
0.0000001
 43
0.0000001
 44
0.0000000001
 40
0.0
 40
0.0
 40
0.0
 40
0.0
 40
0.0186084466
 40
0.0395085381
 40
0.0625902689
 40
0.0877408763
 40
0.1437787274
 40
0.2065677755
 40
0.2573771042
 40
0.3107753194
 40
0.4230363874
 40
0.5385732305
 40
0.6524683535
 40
0.7072768289
 40
0.7598744889
 40
0.8096993094
 40
0.8562212849
 40
0.8989437611
 40
0.9374097482
 40
0.9712210884
 40
0.9862627737
 40
1.0
 40
1.0
 40
1.0
 40
1.0
 10
5.2958763748
 20
1.0465630072
 30
0.0
 10
5.2924846058
 20
1.0463553209
 30
0.0
 10
5.2852814445
 20
1.0459456844
 30
0.0
 10
5.2738663817
 20
1.0453661165
 30
0.0
 10
5.2612552923
 20
1.0447857644
 30
0.0
 10
5.2422312642
 20
1.0439820267
 30
0.0
 10
5.2159577437
 20
1.0429933817
 30
0.0
 10
5.1849977252
 20
1.0419493505
 30
0.0
 10
5.1545171758
 20
1.0409926275
 30
0.0
 10
5.1150050779
 20
1.0398120706
 30
0.0
 10
5.0636758252
 20
1.038361371
 30
0.0
 10
5.0013022434
 20
1.0366458894
 30
0.0
 10
4.9494167313
 20
1.0351995797
 30
0.0
 10
4.9090216295
 20
1.0340232903
 30
0.0
 10
4.8803225935
 20
1.0331527973
 30
0.0
 10
4.8531374764
 20
1.0322829474
 30
0.0
 10
4.8277566341
 20
1.0314139511
 30
0.0
 10
4.8044512962
 20
1.0305463668
 30
0.0
 10
4.7834687735
 20
1.029680467
 30
0.0
 10
4.7675405735
 20
1.0289352257
 30
0.0
 10
4.7561268539
 20
1.0283300849
 30
0.0
 10
4.7508802646
 20
1.0280258711
 30
0.0
 10
4.7483763748
 20
1.0278725518
 30
0.0
  0
SPLINE
  5
45B
100
AcDbEntity
  8
0
100
AcDbSpline
 62
7
  6
CONTINUOUS
 70
0
 71
3
 72
27
 73
23
 74
0
 42
0.0000001
 43
0.0000001
 44
0.0000000001
 40
0.0
 40
0.0
 40
0.0
 40
0.0
 40
0.0037985354
 40
0.0081505012
 40
0.01305301
 40
0.0185026994
 40
0.0310286698
 40
0.0456942369
 40
0.0624540132
 40
0.0812599213
 40
0.1020581399
 40
0.1247822417
 40
0.1757288256
 40
0.2334748136
 40
0.2973139502
 40
0.3664607015
 40
0.4400639089
 40
0.517219252
 40
0.5969764812
 40
0.6783554571
 40
0.8419528699
 40
1.0
 40
1.0
 40
1.0
 40
1.0
 10
4.7483763748
 20
0.9021059564
 30
0.0
 10
4.748845072
 20
0.9021904757
 30
0.0
 10
4.749853461
 20
0.9023568632
 30
0.0
 10
4.751473392
 20
0.9025901808
 30
0.0
 10
4.7533021659
 20
0.9028239905
 30
0.0
 10
4.7561518984
 20
0.903151595
 30
0.0
 10
4.7602248068
 20
0.9035542496
 30
0.0
 10
4.7657158157
 20
0.9040194779
 30
0.0
 10
4.7719965654
 20
0.9044858238
 30
0.0
 10
4.7790480121
 20
0.9049530385
 30
0.0
 10
4.7868486945
 20
0.9054208277
 30
0.0
 10
4.7986753375
 20
0.9060702684
 30
0.0
 10
4.8151329732
 20
0.9068698756
 30
0.0
 10
4.8367449046
 20
0.9077997881
 30
0.0
 10
4.8606405807
 20
0.908731498
 30
0.0
 10
4.8865257384
 20
0.9096646319
 30
0.0
 10
4.9140814469
 20
0.9105986906
 30
0.0
 10
4.9429681882
 20
0.9115333681
 30
0.0
 10
4.972830324
 20
0.9124684607
 30
0.0
 10
5.0135259513
 20
0.9137177025
 30
0.0
 10
5.0640333888
 20
0.9152508917
 30
0.0
 10
5.1043410842
 20
0.9165152897
 30
0.0
 10
5.1241462301
 20
0.9171650084
 30
0.0
  0
SPLINE
  5
45C
100
AcDbEntity
  8
0
100
AcDbSpline
 62
7
  6
CONTINUOUS
 70
0
 71
3
 72
30
 73
26
 74
0
 42
0.0000001
 43
0.0000001
 44
0.0000000001
 40
0.0
 40
0.0
 40
0.0
 40
0.0
 40
0.0056975012
 40
0.0121629822
 40
0.0273482807
 40
0.0454534132
 40
0.0663609137
 40
0.0899450916
 40
0.1160568958
 40
0.144535216
 40
0.1752030523
 40
0.2423455174
 40
0.3158512118
 40
0.3939485712
 40
0.4747721297
 40
0.5564078147
 40
0.6369386149
 40
0.7144894737
 40
0.7872699505
 40
0.8536153543
 40
0.9120206968
 40
0.9378271545
 40
0.9611796873
 40
0.9819457708
 40
1.0
 40
1.0
 40
1.0
 40
1.0
 10
4.7490593656
 20
0.8326552795
 30
0.0
 10
4.7500954556
 20
0.8327307269
 30
0.0
 10
4.7523081962
 20
0.8328794341
 30
0.0
 10
4.7572859381
 20
0.8331745697
 30
0.0
 10
4.7645258691
 20
0.8335349621
 30
0.0
 10
4.7743992088
 20
0.8339494591
 30
0.0
 10
4.7858050642
 20
0.8343647107
 30
0.0
 10
4.7986716083
 20
0.8347803774
 30
0.0
 10
4.81291919
 20
0.8351961926
 30
0.0
 10
4.8284588462
 20
0.8356118841
 30
0.0
 10
4.8514781498
 20
0.8361831991
 30
0.0
 10
4.8827065871
 20
0.8368850457
 30
0.0
 10
4.9225823657
 20
0.8377040668
 30
0.0
 10
4.9649531469
 20
0.83852207
 30
0.0
 10
5.0088065693
 20
0.8393385772
 30
0.0
 10
5.0531037967
 20
0.8401530608
 30
0.0
 10
5.0968042529
 20
0.8409650969
 30
0.0
 10
5.1388898958
 20
0.8417742548
 30
0.0
 10
5.1783886713
 20
0.8425798406
 30
0.0
 10
5.2143959195
 20
0.8433813194
 30
0.0
 10
5.2418386723
 20
0.8440694485
 30
0.0
 10
5.261443042
 20
0.8446297769
 30
0.0
 10
5.2741862776
 20
0.8450313739
 30
0.0
 10
5.2855152993
 20
0.8454316471
 30
0.0
 10
5.2925877457
 20
0.8457174036
 30
0.0
 10
5.2958763748
 20
0.845863054
 30
0.0
  0
SPLINE
  5
45D
100
AcDbEntity
  8
0
100
AcDbSpline
 62
7
  6
CONTINUOUS
 70
0
 71
3
 72
41
 73
37
 74
0
 42
0.0000001
 43
0.0000001
 44
0.0000000001
 40
0.0
 40
0.0
 40
0.0
 40
0.0
 40
0.0042822776
 40
0.0095059361
 40
0.0156620668
 40
0.02274052
 40
0.0307290008
 40
0.0396118009
 40
0.0599947546
 40
0.0837412037
 40
0.1106686925
 40
0.140573644
 40
0.1732271145
 40
0.2268109018
 40
0.2850941277
 40
0.3470742405
 40
0.4116849763
 40
0.4778150846
 40
0.5443270689
 40
0.6100763898
 40
0.6739317047
 40
0.7347948525
 40
0.7916194258
 40
0.8434283759
 40
0.867169172
 40
0.8893311598
 40
0.9098176752
 40
0.9285412202
 40
0.9454228496
 40
0.9603881413
 40
0.9733779393
 40
0.9843377538
 40
0.9890419119
 40
0.9932229224
 40
0.996876775
 40
1.0
 40
1.0
 40
1.0
 40
1.0
 10
4.7483763748
 20
1.0086059564
 30
0.0
 10
4.7491463773
 20
1.0087448096
 30
0.0
 10
4.7508629038
 20
1.0090125846
 30
0.0
 10
4.7537013214
 20
1.0093776814
 30
0.0
 10
4.7570540294
 20
1.0097444018
 30
0.0
 10
4.7609143363
 20
1.0101121746
 30
0.0
 10
4.7652747682
 20
1.0104805236
 30
0.0
 10
4.7720620449
 20
1.0109962578
 30
0.0
 10
4.7817275128
 20
1.0116293948
 30
0.0
 10
4.7946898531
 20
1.0123618835
 30
0.0
 10
4.809394308
 20
1.0130963038
 30
0.0
 10
4.8257279047
 20
1.0138321299
 30
0.0
 10
4.8469303992
 20
1.014707803
 30
0.0
 10
4.8733173567
 20
1.0157008397
 30
0.0
 10
4.9050621992
 20
1.0168015211
 30
0.0
 10
4.9388228773
 20
1.0179035132
 30
0.0
 10
4.9740179662
 20
1.0190063861
 30
0.0
 10
5.0100414602
 20
1.0201096991
 30
0.0
 10
5.0462730794
 20
1.0212131185
 30
0.0
 10
5.0820888817
 20
1.0223163169
 30
0.0
 10
5.1168720948
 20
1.0234189595
 30
0.0
 10
5.150023842
 20
1.0245205501
 30
0.0
 10
5.1809733414
 20
1.0256206552
 30
0.0
 10
5.2051414833
 20
1.0265604472
 30
0.0
 10
5.2229783381
 20
1.0273216791
 30
0.0
 10
5.2350958091
 20
1.0278754756
 30
0.0
 10
5.2462955645
 20
1.0284288418
 30
0.0
 10
5.2565292945
 20
1.0289816433
 30
0.0
 10
5.2657526739
 20
1.029533497
 30
0.0
 10
5.2739264452
 20
1.0300841854
 30
0.0
 10
5.2810155445
 20
1.0306332456
 30
0.0
 10
5.2862295333
 20
1.031109431
 30
0.0
 10
5.2898346111
 20
1.0314982765
 30
0.0
 10
5.2921090396
 20
1.0317743183
 30
0.0
 10
5.2940923013
 20
1.0320495727
 30
0.0
 10
5.2953147833
 20
1.0322477897
 30
0.0
 10
5.2958763748
 20
1.0323490605
 30
0.0
  0
SPLINE
  5
45E
100
AcDbEntity
  8
0
100
AcDbSpline
 62
7
  6
CONTINUOUS
 70
0
 71
3
 72
41
 73
37
 74
0
 42
0.0000001
 43
0.0000001
 44
0.0000000001
 40
0.0
 40
0.0
 40
0.0
 40
0.0
 40
0.0042822776
 40
0.0095059361
 40
0.0156620668
 40
0.02274052
 40
0.0307290008
 40
0.0396118009
 40
0.0599947546
 40
0.0837412037
 40
0.1106686925
 40
0.140573644
 40
0.1732271145
 40
0.2268109018
 40
0.2850941277
 40
0.3470742405
 40
0.4116849763
 40
0.4778150846
 40
0.5443270689
 40
0.6100763898
 40
0.6739317047
 40
0.7347948525
 40
0.7916194258
 40
0.8434283759
 40
0.867169172
 40
0.8893311598
 40
0.9098176752
 40
0.9285412202
 40
0.9454228496
 40
0.9603881413
 40
0.9733779393
 40
0.9843377538
 40
0.9890419119
 40
0.9932229224
 40
0.996876775
 40
1.0
 40
1.0
 40
1.0
 40
1.0
 10
4.7483763748
 20
0.8488559564
 30
0.0
 10
4.7491463773
 20
0.8489948096
 30
0.0
 10
4.7508629038
 20
0.8492625846
 30
0.0
 10
4.7537013214
 20
0.8496276814
 30
0.0
 10
4.7570540294
 20
0.8499944018
 30
0.0
 10
4.7609143363
 20
0.8503621746
 30
0.0
 10
4.7652747682
 20
0.8507305236
 30
0.0
 10
4.7720620449
 20
0.8512462578
 30
0.0
 10
4.7817275128
 20
0.8518793948
 30
0.0
 10
4.7946898531
 20
0.8526118835
 30
0.0
 10
4.809394308
 20
0.8533463038
 30
0.0
 10
4.8257279047
 20
0.8540821299
 30
0.0
 10
4.8469303992
 20
0.854957803
 30
0.0
 10
4.8733173567
 20
0.8559508397
 30
0.0
 10
4.9050621992
 20
0.8570515211
 30
0.0
 10
4.9388228773
 20
0.8581535132
 30
0.0
 10
4.9740179662
 20
0.8592563861
 30
0.0
 10
5.0100414602
 20
0.8603596991
 30
0.0
 10
5.0462730794
 20
0.8614631185
 30
0.0
 10
5.0820888817
 20
0.8625663169
 30
0.0
 10
5.1168720948
 20
0.8636689595
 30
0.0
 10
5.150023842
 20
0.8647705501
 30
0.0
 10
5.1809733414
 20
0.8658706552
 30
0.0
 10
5.2051414833
 20
0.8668104472
 30
0.0
 10
5.2229783381
 20
0.8675716791
 30
0.0
 10
5.2350958091
 20
0.8681254756
 30
0.0
 10
5.2462955645
 20
0.8686788418
 30
0.0
 10
5.2565292945
 20
0.8692316433
 30
0.0
 10
5.2657526739
 20
0.869783497
 30
0.0
 10
5.2739264452
 20
0.8703341854
 30
0.0
 10
5.2810155445
 20
0.8708832456
 30
0.0
 10
5.2862295333
 20
0.871359431
 30
0.0
 10
5.2898346111
 20
0.8717482765
 30
0.0
 10
5.2921090396
 20
0.8720243183
 30
0.0
 10
5.2940923013
 20
0.8722995727
 30
0.0
 10
5.2953147833
 20
0.8724977897
 30
0.0
 10
5.2958763748
 20
0.8725990605
 30
0.0
  0
SPLINE
  5
45F
100
AcDbEntity
  8
0
100
AcDbSpline
 62
7
  6
CONTINUOUS
 70
0
 71
3
 72
22
 73
18
 74
0
 42
0.0000001
 43
0.0000001
 44
0.0000000001
 40
0.0
 40
0.0
 40
0.0
 40
0.0
 40
0.1870953163
 40
0.3614368863
 40
0.5201361299
 40
0.5928115994
 40
0.6606272409
 40
0.7233126081
 40
0.7806081205
 40
0.832285777
 40
0.8781321336
 40
0.9179667285
 40
0.9516379044
 40
0.9661195481
 40
0.9790143892
 40
0.9903111124
 40
1.0
 40
1.0
 40
1.0
 40
1.0
 10
5.1241462301
 20
0.9171650084
 30
0.0
 10
5.1348671259
 20
0.9175167133
 30
0.0
 10
5.1555775782
 20
0.9182125306
 30
0.0
 10
5.1853790555
 20
0.9192857689
 30
0.0
 10
5.2086218219
 20
0.92020294
 30
0.0
 10
5.2257591248
 20
0.9209455698
 30
0.0
 10
5.2373952509
 20
0.9214858169
 30
0.0
 10
5.2481486104
 20
0.9220255414
 30
0.0
 10
5.2579755045
 20
0.9225647745
 30
0.0
 10
5.26683543
 20
0.9231031626
 30
0.0
 10
5.2746923244
 20
0.9236403368
 30
0.0
 10
5.2815142129
 20
0.9241760591
 30
0.0
 10
5.2865376453
 20
0.9246404008
 30
0.0
 10
5.2900171602
 20
0.9250194232
 30
0.0
 10
5.292218069
 20
0.9252887364
 30
0.0
 10
5.2941419611
 20
0.9255573391
 30
0.0
 10
5.2953297029
 20
0.9257504801
 30
0.0
 10
5.2958763748
 20
0.9258490605
 30
0.0
  0
SPLINE
  5
460
100
AcDbEntity
  8
0
100
AcDbSpline
 62
7
  6
CONTINUOUS
 70
0
 71
3
 72
22
 73
18
 74
0
 42
0.0000001
 43
0.0000001
 44
0.0000000001
 40
0.0
 40
0.0
 40
0.0
 40
0.0
 40
0.1870760764
 40
0.3614441364
 40
0.5201339884
 40
0.592806266
 40
0.6606282724
 40
0.7233115384
 40
0.7806089698
 40
0.8322846809
 40
0.8781280113
 40
0.9179674538
 40
0.9516397899
 40
0.9661218472
 40
0.9790169173
 40
0.9903130758
 40
1.0
 40
1.0
 40
1.0
 40
1.0
 10
5.1241462301
 20
0.9037700084
 30
0.0
 10
5.1348660232
 20
0.9041216772
 30
0.0
 10
5.1555768901
 20
0.9048175203
 30
0.0
 10
5.1853782442
 20
0.9058907474
 30
0.0
 10
5.2086218082
 20
0.9068079194
 30
0.0
 10
5.2257587518
 20
0.9075505926
 30
0.0
 10
5.2373949427
 20
0.9080907642
 30
0.0
 10
5.2481486515
 20
0.9086305993
 30
0.0
 10
5.257975426
 20
0.9091697752
 30
0.0
 10
5.2668351794
 20
0.9097081133
 30
0.0
 10
5.2746920624
 20
0.9102453415
 30
0.0
 10
5.2815141277
 20
0.9107810015
 30
0.0
 10
5.2865379154
 20
0.9112455008
 30
0.0
 10
5.2900175307
 20
0.9116245521
 30
0.0
 10
5.292218446
 20
0.9118938485
 30
0.0
 10
5.2941422117
 20
0.9121624013
 30
0.0
 10
5.2953298137
 20
0.9123555001
 30
0.0
 10
5.2958763748
 20
0.9124540605
 30
0.0
  0
SPLINE
  5
461
100
AcDbEntity
  8
0
100
AcDbSpline
 62
7
  6
CONTINUOUS
 70
0
 71
3
 72
41
 73
37
 74
0
 42
0.0000001
 43
0.0000001
 44
0.0000000001
 40
0.0
 40
0.0
 40
0.0
 40
0.0
 40
0.0042822776
 40
0.0095059361
 40
0.0156620668
 40
0.02274052
 40
0.0307290008
 40
0.0396118009
 40
0.0599947546
 40
0.0837412037
 40
0.1106686925
 40
0.140573644
 40
0.1732271145
 40
0.2268109018
 40
0.2850941277
 40
0.3470742405
 40
0.4116849763
 40
0.4778150846
 40
0.5443270689
 40
0.6100763898
 40
0.6739317047
 40
0.7347948525
 40
0.7916194258
 40
0.8434283759
 40
0.867169172
 40
0.8893311598
 40
0.9098176752
 40
0.9285412202
 40
0.9454228496
 40
0.9603881413
 40
0.9733779393
 40
0.9843377538
 40
0.9890419119
 40
0.9932229224
 40
0.996876775
 40
1.0
 40
1.0
 40
1.0
 40
1.0
 10
4.7483763748
 20
0.9553559564
 30
0.0
 10
4.7491463773
 20
0.9554948096
 30
0.0
 10
4.7508629038
 20
0.9557625846
 30
0.0
 10
4.7537013214
 20
0.9561276814
 30
0.0
 10
4.7570540294
 20
0.9564944018
 30
0.0
 10
4.7609143363
 20
0.9568621746
 30
0.0
 10
4.7652747682
 20
0.9572305236
 30
0.0
 10
4.7720620449
 20
0.9577462578
 30
0.0
 10
4.7817275128
 20
0.9583793948
 30
0.0
 10
4.7946898531
 20
0.9591118835
 30
0.0
 10
4.809394308
 20
0.9598463038
 30
0.0
 10
4.8257279047
 20
0.9605821299
 30
0.0
 10
4.8469303992
 20
0.961457803
 30
0.0
 10
4.8733173567
 20
0.9624508397
 30
0.0
 10
4.9050621992
 20
0.9635515211
 30
0.0
 10
4.9388228773
 20
0.9646535132
 30
0.0
 10
4.9740179662
 20
0.9657563861
 30
0.0
 10
5.0100414602
 20
0.9668596991
 30
0.0
 10
5.0462730794
 20
0.9679631185
 30
0.0
 10
5.0820888817
 20
0.9690663169
 30
0.0
 10
5.1168720948
 20
0.9701689595
 30
0.0
 10
5.150023842
 20
0.9712705501
 30
0.0
 10
5.1809733414
 20
0.9723706552
 30
0.0
 10
5.2051414833
 20
0.9733104472
 30
0.0
 10
5.2229783381
 20
0.9740716791
 30
0.0
 10
5.2350958091
 20
0.9746254756
 30
0.0
 10
5.2462955645
 20
0.9751788418
 30
0.0
 10
5.2565292945
 20
0.9757316433
 30
0.0
 10
5.2657526739
 20
0.976283497
 30
0.0
 10
5.2739264452
 20
0.9768341854
 30
0.0
 10
5.2810155445
 20
0.9773832456
 30
0.0
 10
5.2862295333
 20
0.977859431
 30
0.0
 10
5.2898346111
 20
0.9782482765
 30
0.0
 10
5.2921090396
 20
0.9785243183
 30
0.0
 10
5.2940923013
 20
0.9787995727
 30
0.0
 10
5.2953147833
 20
0.9789977897
 30
0.0
 10
5.2958763748
 20
0.9790990605
 30
0.0
  0
SPLINE
  5
462
100
AcDbEntity
  8
0
100
AcDbSpline
 62
7
  6
CONTINUOUS
 70
0
 71
3
 72
12
 73
8
 74
0
 42
0.0000001
 43
0.0000001
 44
0.0000000001
 40
0.0
 40
0.0
 40
0.0
 40
0.0
 40
0.0857934226
 40
0.1828945481
 40
0.4108607664
 40
0.6834707517
 40
1.0
 40
1.0
 40
1.0
 40
1.0
 10
4.7483763748
 20
1.0484609564
 30
0.0
 10
4.748795347
 20
1.0485365089
 30
0.0
 10
4.7496906656
 20
1.0486856888
 30
0.0
 10
4.7517078646
 20
1.0489822561
 30
0.0
 10
4.7546517736
 20
1.0493451767
 30
0.0
 10
4.7586850146
 20
1.0497630237
 30
0.0
 10
4.7615969748
 20
1.0500231964
 30
0.0
 10
4.763162114
 20
1.0501552795
 30
0.0
  0
SPLINE
  5
463
100
AcDbEntity
  8
0
100
AcDbSpline
 62
7
  6
CONTINUOUS
 70
0
 71
3
 72
21
 73
17
 74
0
 42
0.0000001
 43
0.0000001
 44
0.0000000001
 40
0.0
 40
0.0
 40
0.0
 40
0.0
 40
0.0102130276
 40
0.0219565965
 40
0.0352223291
 40
0.0500004907
 40
0.0840509253
 40
0.1240084449
 40
0.1697413184
 40
0.2211105303
 40
0.2779583463
 40
0.3400917963
 40
0.4794053076
 40
0.6372338661
 40
0.8115246367
 40
1.0
 40
1.0
 40
1.0
 40
1.0
 10
4.7483763748
 20
0.9419609564
 30
0.0
 10
4.7488606307
 20
0.9420482814
 30
0.0
 10
4.7499046047
 20
0.9422200331
 30
0.0
 10
4.7515845865
 20
0.9424604624
 30
0.0
 10
4.7534864221
 20
0.942701431
 30
0.0
 10
4.7564590554
 20
0.9430393922
 30
0.0
 10
4.7607168537
 20
0.9434545319
 30
0.0
 10
4.7664661546
 20
0.9439339688
 30
0.0
 10
4.7730523041
 20
0.9444146093
 30
0.0
 10
4.7804540597
 20
0.9448961701
 30
0.0
 10
4.7886474584
 20
0.9453783488
 30
0.0
 10
4.8010741904
 20
0.946047809
 30
0.0
 10
4.8183647093
 20
0.946871838
 30
0.0
 10
4.8410583084
 20
0.947830207
 30
0.0
 10
4.8661223622
 20
0.9487904648
 30
0.0
 10
4.8835895609
 20
0.949410177
 30
0.0
 10
4.8926649592
 20
0.9497231692
 30
0.0
  0
LINE
  5
464
100
AcDbEntity
  8
0
100
AcDbLine
 62
7
  6
CONTINUOUS
 10
4.8926649592
 20
0.9497231692
 11
4.9096116981
 21
0.9502978146
  0
LINE
  5
465
100
AcDbEntity
  8
0
100
AcDbLine
 62
7
  6
CONTINUOUS
 10
4.9096116981
 20
0.9502978146
 11
4.9109034152
 21
0.9503408755
  0
LINE
  5
466
100
AcDbEntity
  8
0
100
AcDbLine
 62
7
  6
CONTINUOUS
 10
4.9109034152
 20
0.9503408755
 11
4.9342475367
 21
0.9511042194
  0
LINE
  5
467
100
AcDbEntity
  8
0
100
AcDbLine
 62
7
  6
CONTINUOUS
 10
4.9342475367
 20
0.9511042194
 11
4.9741838933
 21
0.9523622978
  0
LINE
  5
468
100
AcDbEntity
  8
0
100
AcDbLine
 62
7
  6
CONTINUOUS
 10
4.9741838933
 20
0.9523622978
 11
4.9917316206
 21
0.9529032261
  0
LINE
  5
469
100
AcDbEntity
  8
0
100
AcDbLine
 62
7
  6
CONTINUOUS
 10
4.9917316206
 20
0.9529032261
 11
4.9943528176
 21
0.9529836483
  0
LINE
  5
46A
100
AcDbEntity
  8
0
100
AcDbLine
 62
7
  6
CONTINUOUS
 10
4.9943528176
 20
0.9529836483
 11
5.0127227208
 21
0.953545525
  0
SPLINE
  5
46B
100
AcDbEntity
  8
0
100
AcDbSpline
 62
7
  6
CONTINUOUS
 70
0
 71
3
 72
23
 73
19
 74
0
 42
0.0000001
 43
0.0000001
 44
0.0000000001
 40
0.0
 40
0.0
 40
0.0
 40
0.0
 40
0.1752838902
 40
0.3460146184
 40
0.5067222047
 40
0.5816923235
 40
0.6522594645
 40
0.7178603535
 40
0.7779679083
 40
0.8321022183
 40
0.8798314124
 40
0.9207727054
 40
0.9385968993
 40
0.9546111768
 40
0.9687826076
 40
0.9810849362
 40
0.9914969414
 40
1.0
 40
1.0
 40
1.0
 40
1.0
 10
5.0127227208
 20
0.953545525
 30
0.0
 10
5.0292778985
 20
0.9540509542
 30
0.0
 10
5.0619583121
 20
0.9550456263
 30
0.0
 10
5.1098160865
 20
0.9565400942
 30
0.0
 10
5.1481973911
 20
0.9578103517
 30
0.0
 10
5.177116642
 20
0.9588420033
 30
0.0
 10
5.197053186
 20
0.9595972722
 30
0.0
 10
5.2155843004
 20
0.9603517421
 30
0.0
 10
5.2325612994
 20
0.9611052514
 30
0.0
 10
5.2478478363
 20
0.9618572569
 30
0.0
 10
5.2613209581
 20
0.9626073127
 30
0.0
 10
5.2713631661
 20
0.9632556776
 30
0.0
 10
5.278409525
 20
0.9637840012
 30
0.0
 10
5.2829304301
 20
0.9641611835
 30
0.0
 10
5.2869275914
 20
0.9645377435
 30
0.0
 10
5.2903928908
 20
0.9649131993
 30
0.0
 10
5.2933190735
 20
0.9652869305
 30
0.0
 10
5.295085659
 20
0.9655614721
 30
0.0
 10
5.2958763748
 20
0.9657040605
 30
0.0
  0
SPLINE
  5
46C
100
AcDbEntity
  8
0
100
AcDbSpline
 62
7
  6
CONTINUOUS
 70
0
 71
3
 72
14
 73
10
 74
0
 42
0.0000001
 43
0.0000001
 44
0.0000000001
 40
0.0
 40
0.0
 40
0.0
 40
0.0
 40
0.0849916911
 40
0.1832916566
 40
0.2940473542
 40
0.4163783058
 40
0.5492657173
 40
0.6916210082
 40
1.0
 40
1.0
 40
1.0
 40
1.0
 10
5.2958763748
 20
0.8931874651
 30
0.0
 10
5.2913179466
 20
0.8929083414
 30
0.0
 10
5.2814838538
 20
0.8923629255
 30
0.0
 10
5.2657016629
 20
0.8916025885
 30
0.0
 10
5.2479110954
 20
0.8908404677
 30
0.0
 10
5.2282605365
 20
0.8900770331
 30
0.0
 10
5.206910865
 20
0.8893125675
 30
0.0
 10
5.1755678861
 20
0.8882643415
 30
0.0
 10
5.1513593522
 20
0.887521742
 30
0.0
 10
5.1347961399
 20
0.8870297374
 30
0.0
  0
SPLINE
  5
46D
100
AcDbEntity
  8
0
100
AcDbSpline
 62
7
  6
CONTINUOUS
 70
0
 71
3
 72
18
 73
14
 74
0
 42
0.0000001
 43
0.0000001
 44
0.0000000001
 40
0.0
 40
0.0
 40
0.0
 40
0.0
 40
0.036112474
 40
0.0779663674
 40
0.1251845003
 40
0.177376255
 40
0.2340969014
 40
0.2948628548
 40
0.4264275721
 40
0.5675942113
 40
0.7135583244
 40
0.8593427688
 40
1.0
 40
1.0
 40
1.0
 40
1.0
 10
4.7483763748
 20
0.8744970097
 30
0.0
 10
4.7530217597
 20
0.874781458
 30
0.0
 10
4.7630546811
 20
0.8753368619
 30
0.0
 10
4.7791696735
 20
0.8761103656
 30
0.0
 10
4.797358949
 20
0.8768857282
 30
0.0
 10
4.8174657014
 20
0.8776624874
 30
0.0
 10
4.8393196122
 20
0.8784403165
 30
0.0
 10
4.8713990272
 20
0.8795066702
 30
0.0
 10
4.9143594041
 20
0.8808173525
 30
0.0
 10
4.9682979064
 20
0.8823557209
 30
0.0
 10
5.0240696838
 20
0.8838956146
 30
0.0
 10
5.079775778
 20
0.8854355602
 30
0.0
 10
5.1166765796
 20
0.8864915019
 30
0.0
 10
5.1347961399
 20
0.8870297374
 30
0.0
  0
SPLINE
  5
46E
100
AcDbEntity
  8
0
100
AcDbSpline
 62
7
  6
CONTINUOUS
 70
0
 71
3
 72
27
 73
23
 74
0
 42
0.0000001
 43
0.0000001
 44
0.0000000001
 40
0.0
 40
0.0
 40
0.0
 40
0.0
 40
0.018608447
 40
0.0395085393
 40
0.0625902715
 40
0.0877408804
 40
0.1437787341
 40
0.2065677854
 40
0.2573771165
 40
0.3107753341
 40
0.4230364055
 40
0.53857325
 40
0.6524683715
 40
0.7072768451
 40
0.7598745025
 40
0.8096993196
 40
0.8562212916
 40
0.8989437641
 40
0.9374097482
 40
0.9712210876
 40
0.9862627734
 40
1.0
 40
1.0
 40
1.0
 40
1.0
 10
5.2958763748
 20
0.8868130072
 30
0.0
 10
5.2924846057
 20
0.8866053209
 30
0.0
 10
5.2852814442
 20
0.8861956844
 30
0.0
 10
5.2738663809
 20
0.8856161165
 30
0.0
 10
5.2612552908
 20
0.8850357643
 30
0.0
 10
5.2422312617
 20
0.8842320266
 30
0.0
 10
5.2159577399
 20
0.8832433816
 30
0.0
 10
5.1849977199
 20
0.8821993503
 30
0.0
 10
5.1545171691
 20
0.8812426273
 30
0.0
 10
5.1150050697
 20
0.8800620704
 30
0.0
 10
5.0636758157
 20
0.8786113707
 30
0.0
 10
5.0013022333
 20
0.8768958891
 30
0.0
 10
4.9494167215
 20
0.8754495794
 30
0.0
 10
4.9090216208
 20
0.8742732901
 30
0.0
 10
4.8803225862
 20
0.8734027971
 30
0.0
 10
4.8531374708
 20
0.8725329472
 30
0.0
 10
4.8277566305
 20
0.871663951
 30
0.0
 10
4.8044512945
 20
0.8707963667
 30
0.0
 10
4.7834687731
 20
0.8699304669
 30
0.0
 10
4.7675405736
 20
0.8691852257
 30
0.0
 10
4.756126854
 20
0.8685800849
 30
0.0
 10
4.7508802646
 20
0.8682758711
 30
0.0
 10
4.7483763748
 20
0.8681225518
 30
0.0
  0
SPLINE
  5
46F
100
AcDbEntity
  8
0
100
AcDbSpline
 62
7
  6
CONTINUOUS
 70
0
 71
3
 72
41
 73
37
 74
0
 42
0.0000001
 43
0.0000001
 44
0.0000000001
 40
0.0
 40
0.0
 40
0.0
 40
0.0
 40
0.0042822776
 40
0.0095059361
 40
0.0156620668
 40
0.02274052
 40
0.0307290008
 40
0.0396118009
 40
0.0599947546
 40
0.0837412037
 40
0.1106686925
 40
0.140573644
 40
0.1732271145
 40
0.2268109018
 40
0.2850941277
 40
0.3470742405
 40
0.4116849763
 40
0.4778150846
 40
0.5443270689
 40
0.6100763898
 40
0.6739317047
 40
0.7347948525
 40
0.7916194258
 40
0.8434283759
 40
0.867169172
 40
0.8893311598
 40
0.9098176752
 40
0.9285412202
 40
0.9454228496
 40
0.9603881413
 40
0.9733779393
 40
0.9843377538
 40
0.9890419119
 40
0.9932229224
 40
0.996876775
 40
1.0
 40
1.0
 40
1.0
 40
1.0
 10
4.7483763748
 20
0.9952109564
 30
0.0
 10
4.7491463773
 20
0.9953498096
 30
0.0
 10
4.7508629038
 20
0.9956175846
 30
0.0
 10
4.7537013214
 20
0.9959826814
 30
0.0
 10
4.7570540294
 20
0.9963494018
 30
0.0
 10
4.7609143363
 20
0.9967171746
 30
0.0
 10
4.7652747682
 20
0.9970855236
 30
0.0
 10
4.7720620449
 20
0.9976012578
 30
0.0
 10
4.7817275128
 20
0.9982343948
 30
0.0
 10
4.7946898531
 20
0.9989668835
 30
0.0
 10
4.809394308
 20
0.9997013038
 30
0.0
 10
4.8257279047
 20
1.0004371299
 30
0.0
 10
4.8469303992
 20
1.001312803
 30
0.0
 10
4.8733173567
 20
1.0023058397
 30
0.0
 10
4.9050621992
 20
1.0034065211
 30
0.0
 10
4.9388228773
 20
1.0045085132
 30
0.0
 10
4.9740179662
 20
1.0056113861
 30
0.0
 10
5.0100414602
 20
1.0067146991
 30
0.0
 10
5.0462730794
 20
1.0078181185
 30
0.0
 10
5.0820888817
 20
1.0089213169
 30
0.0
 10
5.1168720948
 20
1.0100239595
 30
0.0
 10
5.150023842
 20
1.0111255501
 30
0.0
 10
5.1809733414
 20
1.0122256552
 30
0.0
 10
5.2051414833
 20
1.0131654472
 30
0.0
 10
5.2229783381
 20
1.0139266791
 30
0.0
 10
5.2350958091
 20
1.0144804756
 30
0.0
 10
5.2462955645
 20
1.0150338418
 30
0.0
 10
5.2565292945
 20
1.0155866433
 30
0.0
 10
5.2657526739
 20
1.016138497
 30
0.0
 10
5.2739264452
 20
1.0166891854
 30
0.0
 10
5.2810155445
 20
1.0172382456
 30
0.0
 10
5.2862295333
 20
1.017714431
 30
0.0
 10
5.2898346111
 20
1.0181032765
 30
0.0
 10
5.2921090396
 20
1.0183793183
 30
0.0
 10
5.2940923013
 20
1.0186545727
 30
0.0
 10
5.2953147833
 20
1.0188527897
 30
0.0
 10
5.2958763748
 20
1.0189540605
 30
0.0
  0
SPLINE
  5
470
100
AcDbEntity
  8
0
100
AcDbSpline
 62
7
  6
CONTINUOUS
 70
0
 71
3
 72
16
 73
12
 74
0
 42
0.0000001
 43
0.0000001
 44
0.0000000001
 40
0.0
 40
0.0
 40
0.0
 40
0.0
 40
0.0383531378
 40
0.0808181323
 40
0.1272283723
 40
0.1774147971
 40
0.2884237455
 40
0.4123180391
 40
0.5473662849
 40
0.6916883204
 40
1.0
 40
1.0
 40
1.0
 40
1.0
 10
4.7483763748
 20
0.9746225518
 30
0.0
 10
4.7512596357
 20
0.9747991009
 30
0.0
 10
4.7573366622
 20
0.9751485484
 30
0.0
 10
4.7669062676
 20
0.9756464844
 30
0.0
 10
4.7773681997
 20
0.9761449512
 30
0.0
 10
4.7929893951
 20
0.9768333012
 30
0.0
 10
4.8144449336
 20
0.9776823525
 30
0.0
 10
4.8422911764
 20
0.9786728241
 30
0.0
 10
4.8726478662
 20
0.9796649518
 30
0.0
 10
4.9168898763
 20
0.9810193307
 30
0.0
 10
4.9509673583
 20
0.9819883374
 30
0.0
 10
4.9741795333
 20
0.982637631
 30
0.0
  0
SPLINE
  5
471
100
AcDbEntity
  8
0
100
AcDbSpline
 62
7
  6
CONTINUOUS
 70
0
 71
3
 72
18
 73
14
 74
0
 42
0.0000001
 43
0.0000001
 44
0.0000000001
 40
0.0
 40
0.0
 40
0.0
 40
0.0
 40
0.1494954236
 40
0.2989789639
 40
0.4447552122
 40
0.5832208161
 40
0.7109533696
 40
0.7697964702
 40
0.8247984862
 40
0.8756158374
 40
0.92194341
 40
0.9634975331
 40
1.0
 40
1.0
 40
1.0
 40
1.0
 10
4.9741795333
 20
0.982637631
 30
0.0
 10
4.9902132719
 20
0.9830861286
 30
0.0
 10
5.0222797839
 20
0.9839719918
 30
0.0
 10
5.0699812888
 20
0.9852899396
 30
0.0
 10
5.1164989286
 20
0.9866070083
 30
0.0
 10
5.1606818852
 20
0.9879224373
 30
0.0
 10
5.1955389852
 20
0.9890442861
 30
0.0
 10
5.2214429284
 20
0.9899545538
 30
0.0
 10
5.2390978385
 20
0.9906179586
 30
0.0
 10
5.2554089122
 20
0.9912807208
 30
0.0
 10
5.2702758584
 20
0.9919425876
 30
0.0
 10
5.2836052638
 20
0.9926033742
 30
0.0
 10
5.2919671891
 20
0.9930736382
 30
0.0
 10
5.2958763748
 20
0.9933130072
 30
0.0
  0
LINE
  5
472
100
AcDbEntity
  8
0
100
AcDbLine
 62
7
  6
CONTINUOUS
 10
3.7237454271
 20
5.5320318901
 11
3.7309153343
 21
5.5361488764
  0
SPLINE
  5
473
100
AcDbEntity
  8
0
100
AcDbSpline
 62
7
  6
CONTINUOUS
 70
0
 71
3
 72
29
 73
25
 74
0
 42
0.0000001
 43
0.0000001
 44
0.0000000001
 40
0.0
 40
0.0
 40
0.0
 40
0.0
 40
0.1395205161
 40
0.2009323887
 40
0.2545579849
 40
0.2992018028
 40
0.3344835329
 40
0.3490921633
 40
0.3628736492
 40
0.3792901249
 40
0.3910989988
 40
0.4061966705
 40
0.4233529013
 40
0.4414644853
 40
0.4783219358
 40
0.5526339067
 40
0.6270766801
 40
0.6643709187
 40
0.7016746155
 40
0.776185076
 40
0.8507402827
 40
0.8880665125
 40
0.9253972766
 40
1.0
 40
1.0
 40
1.0
 40
1.0
 10
3.6726531554
 20
5.637061927
 30
0.0
 10
3.6677399376
 20
5.634214603
 30
0.0
 10
3.6606697383
 20
5.630104232
 30
0.0
 10
3.6517280588
 20
5.624870442
 30
0.0
 10
3.6461270252
 20
5.6215737411
 30
0.0
 10
3.6414517544
 20
5.6188009106
 30
0.0
 10
3.6381523839
 20
5.6168213167
 30
0.0
 10
3.6359407764
 20
5.6154704201
 30
0.0
 10
3.6343937302
 20
5.6145047812
 30
0.0
 10
3.6329575377
 20
5.6135766658
 30
0.0
 10
3.6315076331
 20
5.6125728575
 30
0.0
 10
3.630060623
 20
5.6115128236
 30
0.0
 10
3.6284559335
 20
5.6102362344
 30
0.0
 10
3.6262346246
 20
5.6083157207
 30
0.0
 10
3.6224895185
 20
5.6046104875
 30
0.0
 10
3.617853831
 20
5.5985903371
 30
0.0
 10
3.6143716623
 20
5.5918161213
 30
0.0
 10
3.6123536714
 20
5.5860878122
 30
0.0
 10
3.6108598192
 20
5.5801981452
 30
0.0
 10
3.6100062089
 20
5.5726161795
 30
0.0
 10
3.6105361978
 20
5.56500398
 30
0.0
 10
3.611778977
 20
5.5590516068
 30
0.0
 10
3.6135542397
 20
5.5532355044
 30
0.0
 10
3.6154790153
 20
5.549069834
 30
0.0
 10
3.6169970644
 20
5.5464401309
 30
0.0
  0
LINE
  5
474
100
AcDbEntity
  8
0
100
AcDbLine
 62
7
  6
CONTINUOUS
 10
3.7845263975
 20
5.7016129064
 11
3.7606177782
 21
5.6878661483
  0
LINE
  5
475
100
AcDbEntity
  8
0
100
AcDbLine
 62
7
  6
CONTINUOUS
 10
3.6978142581
 20
5.6516297356
 11
3.6726535385
 21
5.6370617379
  0
LINE
  5
476
100
AcDbEntity
  8
0
100
AcDbLine
 62
7
  6
CONTINUOUS
 10
3.7237454273
 20
5.5320318902
 11
3.7309153496
 21
5.5361488747
  0
SPLINE
  5
477
100
AcDbEntity
  8
0
100
AcDbSpline
 62
7
  6
CONTINUOUS
 70
0
 71
3
 72
29
 73
25
 74
0
 42
0.0000001
 43
0.0000001
 44
0.0000000001
 40
0.0
 40
0.0
 40
0.0
 40
0.0
 40
0.1395205813
 40
0.2009324761
 40
0.2545580782
 40
0.2992018763
 40
0.3344835437
 40
0.3490921165
 40
0.3628735099
 40
0.3792898807
 40
0.3910987079
 40
0.4061964202
 40
0.4233526797
 40
0.4414642718
 40
0.4783217483
 40
0.552633753
 40
0.6270765507
 40
0.6643708028
 40
0.701674512
 40
0.7761849999
 40
0.85074023
 40
0.8880664733
 40
0.9253972511
 40
1.0
 40
1.0
 40
1.0
 40
1.0
 10
3.67265317
 20
5.6370619322
 30
0.0
 10
3.6677399564
 20
5.6342146053
 30
0.0
 10
3.6606697632
 20
5.6301042305
 30
0.0
 10
3.6517280918
 20
5.6248704366
 30
0.0
 10
3.6461270648
 20
5.6215737346
 30
0.0
 10
3.6414518023
 20
5.6188009053
 30
0.0
 10
3.6381524404
 20
5.6168213143
 30
0.0
 10
3.6359408426
 20
5.6154704227
 30
0.0
 10
3.6343938067
 20
5.6145047897
 30
0.0
 10
3.6329576235
 20
5.613576681
 30
0.0
 10
3.6315077238
 20
5.6125728761
 30
0.0
 10
3.630060714
 20
5.6115128428
 30
0.0
 10
3.6284560228
 20
5.6102362535
 30
0.0
 10
3.6262347142
 20
5.6083157393
 30
0.0
 10
3.6224896086
 20
5.6046105081
 30
0.0
 10
3.6178539228
 20
5.5985903601
 30
0.0
 10
3.6143717552
 20
5.5918161478
 30
0.0
 10
3.6123537646
 20
5.5860878418
 30
0.0
 10
3.6108599125
 20
5.5801981779
 30
0.0
 10
3.6100063015
 20
5.5726162161
 30
0.0
 10
3.6105362889
 20
5.5650040204
 30
0.0
 10
3.6117790662
 20
5.55905165
 30
0.0
 10
3.6135543267
 20
5.55323555
 30
0.0
 10
3.6154791003
 20
5.5490698812
 30
0.0
 10
3.6169971479
 20
5.5464401791
 30
0.0
  0
LINE
  5
478
100
AcDbEntity
  8
0
100
AcDbLine
 62
7
  6
CONTINUOUS
 10
3.784526304
 20
5.7016130853
 11
3.7606177784
 21
5.6878661477
  0
LINE
  5
479
100
AcDbEntity
  8
0
100
AcDbLine
 62
7
  6
CONTINUOUS
 10
3.6978142583
 20
5.6516297353
 11
3.6726533948
 21
5.6370619014
  0
LINE
  5
47A
100
AcDbEntity
  8
0
100
AcDbLine
 62
7
  6
CONTINUOUS
 10
3.9346797395
 20
5.6362846726
 11
4.0959492638
 21
5.7298286338
  0
SPLINE
  5
47B
100
AcDbEntity
  8
0
100
AcDbSpline
 62
7
  6
CONTINUOUS
 70
0
 71
3
 72
19
 73
15
 74
0
 42
0.0000001
 43
0.0000001
 44
0.0000000001
 40
0.0
 40
0.0
 40
0.0
 40
0.0
 40
0.1731350862
 40
0.349635986
 40
0.5199419988
 40
0.6733155601
 40
0.7404266585
 40
0.8001444146
 40
0.8520377686
 40
0.8957494987
 40
0.9312427988
 40
0.9593841502
 40
0.9816008402
 40
1.0
 40
1.0
 40
1.0
 40
1.0
 10
4.0959498147
 20
5.7298290116
 30
0.0
 10
4.0955039691
 20
5.7305930759
 30
0.0
 10
4.0945744416
 20
5.7321192064
 30
0.0
 10
4.0931051356
 20
5.7343335706
 30
0.0
 10
4.0915922251
 20
5.7363944137
 30
0.0
 10
4.0903238344
 20
5.7379388762
 30
0.0
 10
4.089346325
 20
5.7389855751
 30
0.0
 10
4.0886904665
 20
5.7396216315
 30
0.0
 10
4.0880879687
 20
5.7401390992
 30
0.0
 10
4.0875461712
 20
5.7405346381
 30
0.0
 10
4.0870678287
 20
5.7408063842
 30
0.0
 10
4.0866537667
 20
5.7409591523
 30
0.0
 10
4.0863000126
 20
5.7410001542
 30
0.0
 10
4.086092339
 20
5.7409473484
 30
0.0
 10
4.0860090691
 20
5.7409037131
 30
0.0
  0
SPLINE
  5
47C
100
AcDbEntity
  8
0
100
AcDbSpline
 62
7
  6
CONTINUOUS
 70
0
 71
3
 72
13
 73
9
 74
0
 42
0.0000001
 43
0.0000001
 44
0.0000000001
 40
0.0
 40
0.0
 40
0.0
 40
0.0
 40
0.2954131258
 40
0.5717418657
 40
0.6972620123
 40
0.8116510808
 40
0.9130298829
 40
1.0
 40
1.0
 40
1.0
 40
1.0
 10
3.8422109394
 20
5.6017275086
 30
0.0
 10
3.8661519033
 20
5.6155478889
 30
0.0
 10
3.9125157323
 20
5.6422464055
 30
0.0
 10
3.9691319787
 20
5.6746780188
 30
0.0
 10
4.011101202
 20
5.6985990301
 30
0.0
 10
4.0388735446
 20
5.7143672509
 30
0.0
 10
4.0635378789
 20
5.7283031793
 30
0.0
 10
4.0789056413
 20
5.7369329937
 30
0.0
 10
4.0860094335
 20
5.7409039849
 30
0.0
  0
LINE
  5
47D
100
AcDbEntity
  8
0
100
AcDbLine
 62
7
  6
CONTINUOUS
 10
3.7842566995
 20
5.7021286103
 11
3.8428138834
 21
5.7357587668
  0
SPLINE
  5
47E
100
AcDbEntity
  8
0
100
AcDbSpline
 62
7
  6
CONTINUOUS
 70
0
 71
3
 72
21
 73
17
 74
0
 42
0.0000001
 43
0.0000001
 44
0.0000000001
 40
0.0
 40
0.0
 40
0.0
 40
0.0
 40
0.0354092665
 40
0.072588926
 40
0.1127332155
 40
0.1567321723
 40
0.2051532991
 40
0.258286456
 40
0.3162293316
 40
0.3788518283
 40
0.4458704101
 40
0.5169368801
 40
0.591626781
 40
0.6694507074
 40
0.8322989248
 40
1.0
 40
1.0
 40
1.0
 40
1.0
 10
3.6623981284
 20
5.6301258647
 30
0.0
 10
3.6618106576
 20
5.6297716253
 30
0.0
 10
3.6606908281
 20
5.628896303
 30
0.0
 10
3.6593020557
 20
5.6271911482
 30
0.0
 10
3.658192263
 20
5.6251045626
 30
0.0
 10
3.6573734824
 20
5.6226602673
 30
0.0
 10
3.6568449644
 20
5.6198832596
 30
0.0
 10
3.65660689
 20
5.6167970904
 30
0.0
 10
3.6566624597
 20
5.6134282586
 30
0.0
 10
3.6570083921
 20
5.609807364
 30
0.0
 10
3.6576402888
 20
5.6059679281
 30
0.0
 10
3.6585549213
 20
5.6019461361
 30
0.0
 10
3.6597438902
 20
5.597778901
 30
0.0
 10
3.6617088
 20
5.5919915116
 30
0.0
 10
3.6647763969
 20
5.5846871093
 30
0.0
 10
3.6677351457
 20
5.5789986855
 30
0.0
 10
3.6693503185
 20
5.5761796162
 30
0.0
  0
SPLINE
  5
47F
100
AcDbEntity
  8
0
100
AcDbSpline
 62
7
  6
CONTINUOUS
 70
0
 71
3
 72
36
 73
32
 74
0
 42
0.0000001
 43
0.0000001
 44
0.0000000001
 40
0.0
 40
0.0
 40
0.0
 40
0.0
 40
0.0313075583
 40
0.0627216768
 40
0.0941884971
 40
0.1256007348
 40
0.1569424778
 40
0.1882354515
 40
0.2507156435
 40
0.2819650025
 40
0.3131718729
 40
0.3443454574
 40
0.3754995737
 40
0.4066449583
 40
0.4377805533
 40
0.4689040299
 40
0.5000199393
 40
0.5311326687
 40
0.5622479682
 40
0.624446368
 40
0.6556198767
 40
0.6868171252
 40
0.7180334877
 40
0.7492747025
 40
0.8117869474
 40
0.8431289263
 40
0.8744837517
 40
0.9058496708
 40
0.9372449737
 40
0.9686535965
 40
1.0
 40
1.0
 40
1.0
 40
1.0
 10
4.2856096581
 20
6.419823773
 30
0.0
 10
4.2857596843
 20
6.421846497
 30
0.0
 10
4.2863160376
 20
6.4258833615
 30
0.0
 10
4.287826972
 20
6.4318065163
 30
0.0
 10
4.2899283622
 20
6.4375526399
 30
0.0
 10
4.2925487552
 20
6.443075192
 30
0.0
 10
4.295676067
 20
6.4483159373
 30
0.0
 10
4.3004915355
 20
6.4548488329
 30
0.0
 10
4.3062682768
 20
6.4606170072
 30
0.0
 10
4.3127782847
 20
6.4654427229
 30
0.0
 10
4.3179904551
 20
6.4685658769
 30
0.0
 10
4.3234757503
 20
6.4711631843
 30
0.0
 10
4.3291852298
 20
6.4732106795
 30
0.0
 10
4.3350653298
 20
6.4746881053
 30
0.0
 10
4.3410591297
 20
6.4755872026
 30
0.0
 10
4.347110428
 20
6.4758951919
 30
0.0
 10
4.3531610196
 20
6.4756103901
 30
0.0
 10
4.3591555742
 20
6.4747385613
 30
0.0
 10
4.3669902626
 20
6.4728010796
 30
0.0
 10
4.3745102647
 20
6.4697197109
 30
0.0
 10
4.3814552927
 20
6.4655899533
 30
0.0
 10
4.3863486601
 20
6.4619928982
 30
0.0
 10
4.3908684754
 20
6.4579294622
 30
0.0
 10
4.3963334338
 20
6.4519425612
 30
0.0
 10
4.4009033587
 20
6.4451755944
 30
0.0
 10
4.4044204367
 20
6.4378551047
 30
0.0
 10
4.4065095966
 20
6.4321190489
 30
0.0
 10
4.4080069768
 20
6.4261972969
 30
0.0
 10
4.4088851715
 20
6.4201495248
 30
0.0
 10
4.4091842693
 20
6.4140490978
 30
0.0
 10
4.4090197469
 20
6.409980749
 30
0.0
 10
4.4088514823
 20
6.4079569352
 30
0.0
  0
SPLINE
  5
480
100
AcDbEntity
  8
0
100
AcDbSpline
 62
7
  6
CONTINUOUS
 70
0
 71
3
 72
21
 73
17
 74
0
 42
0.0000001
 43
0.0000001
 44
0.0000000001
 40
0.0
 40
0.0
 40
0.0
 40
0.0
 40
0.0354092161
 40
0.0725887883
 40
0.1127329534
 40
0.1567317599
 40
0.2051527324
 40
0.2582857965
 40
0.316228679
 40
0.3788512137
 40
0.4458698671
 40
0.5169364524
 40
0.5916264879
 40
0.6694505321
 40
0.8322988462
 40
1.0
 40
1.0
 40
1.0
 40
1.0
 10
3.7197811491
 20
5.5307358405
 30
0.0
 10
3.7191806358
 20
5.5304041912
 30
0.0
 10
3.7178626744
 20
5.5298720416
 30
0.0
 10
3.7156915852
 20
5.5295218914
 30
0.0
 10
3.7133296556
 20
5.5296040629
 30
0.0
 10
3.7108034461
 20
5.5301171152
 30
0.0
 10
3.7081342276
 20
5.5310478971
 30
0.0
 10
3.7053424861
 20
5.532384796
 30
0.0
 10
3.7024527711
 20
5.5341173344
 30
0.0
 10
3.6994899403
 20
5.5362273664
 30
0.0
 10
3.6964808282
 20
5.5386943246
 30
0.0
 10
3.6934551592
 20
5.5414973215
 30
0.0
 10
3.6904407014
 20
5.5446106243
 30
0.0
 10
3.6864111177
 20
5.5492059906
 30
0.0
 10
3.6816191054
 20
5.5555148203
 30
0.0
 10
3.6781721541
 20
5.5609213948
 30
0.0
 10
3.6765383518
 20
5.5637297155
 30
0.0
  0
LINE
  5
481
100
AcDbEntity
  8
0
100
AcDbLine
 62
7
  6
CONTINUOUS
 10
4.0229017197
 20
5.8563506972
 11
3.8612552932
 21
5.7634595981
  0
SPLINE
  5
482
100
AcDbEntity
  8
0
100
AcDbSpline
 62
7
  6
CONTINUOUS
 70
0
 71
3
 72
19
 73
15
 74
0
 42
0.0000001
 43
0.0000001
 44
0.0000000001
 40
0.0
 40
0.0
 40
0.0
 40
0.0
 40
0.0183992904
 40
0.0406163297
 40
0.0687581396
 40
0.1042519351
 40
0.1479641214
 40
0.1998578373
 40
0.2595758538
 40
0.3266871098
 40
0.4800606011
 40
0.6503660503
 40
0.8268660368
 40
1.0
 40
1.0
 40
1.0
 40
1.0
 10
4.0275231001
 20
5.8422048006
 30
0.0
 10
4.027602523
 20
5.8422551006
 30
0.0
 10
4.0277520867
 20
5.8424085563
 30
0.0
 10
4.0278934488
 20
5.8427354258
 30
0.0
 10
4.0279681734
 20
5.8431704067
 30
0.0
 10
4.0279720007
 20
5.8437205452
 30
0.0
 10
4.0279003484
 20
5.844387533
 30
0.0
 10
4.0277534538
 20
5.8451680524
 30
0.0
 10
4.0275305394
 20
5.8460540767
 30
0.0
 10
4.0271128242
 20
5.8474239793
 30
0.0
 10
4.0264094764
 20
5.8492946723
 30
0.0
 10
4.0253811932
 20
5.8516353133
 30
0.0
 10
4.0241981579
 20
5.8540149484
 30
0.0
 10
4.02334126
 20
5.855583005
 30
0.0
 10
4.0229024871
 20
5.8563511488
 30
0.0
  0
SPLINE
  5
483
100
AcDbEntity
  8
0
100
AcDbSpline
 62
7
  6
CONTINUOUS
 70
0
 71
3
 72
26
 73
22
 74
0
 42
0.0000001
 43
0.0000001
 44
0.0000000001
 40
0.0
 40
0.0
 40
0.0
 40
0.0
 40
0.0627295055
 40
0.0941174063
 40
0.1254935488
 40
0.1881140265
 40
0.2506417763
 40
0.3130727234
 40
0.3754167467
 40
0.437695701
 40
0.4999411829
 40
0.5621875846
 40
0.6244703839
 40
0.6868202069
 40
0.7492589881
 40
0.8117951143
 40
0.8744225155
 40
0.9058004496
 40
0.9371899513
 40
0.9686001132
 40
1.0
 40
1.0
 40
1.0
 40
1.0
 10
5.0382542897
 20
6.9648055005
 30
0.0
 10
5.0341947242
 20
6.9649123562
 30
0.0
 10
5.0280983591
 20
6.9656823386
 30
0.0
 10
5.020264954
 20
6.9678712369
 30
0.0
 10
5.0126891244
 20
6.9708187045
 30
0.0
 10
5.0038268497
 20
6.9758765533
 30
0.0
 10
4.9946031537
 20
6.9838925447
 30
0.0
 10
4.987127911
 20
6.9935391827
 30
0.0
 10
4.9816834215
 20
7.0044423331
 30
0.0
 10
4.9784634025
 20
7.0161837105
 30
0.0
 10
4.9775911277
 20
7.0283209987
 30
0.0
 10
4.9790937978
 20
7.0403966626
 30
0.0
 10
4.9829205756
 20
7.0519553724
 30
0.0
 10
4.9889280725
 20
7.062560187
 30
0.0
 10
4.9968990451
 20
7.071803481
 30
0.0
 10
5.006531864
 20
7.0793251918
 30
0.0
 10
5.0156486809
 20
7.0839118264
 30
0.0
 10
5.0233681159
 20
7.0864582978
 30
0.0
 10
5.0293284292
 20
7.0877899925
 30
0.0
 10
5.0353901077
 20
7.0885349493
 30
0.0
 10
5.0394633313
 20
7.0886314267
 30
0.0
 10
5.0414953056
 20
7.0885749027
 30
0.0
  0
SPLINE
  5
484
100
AcDbEntity
  8
0
100
AcDbSpline
 62
7
  6
CONTINUOUS
 70
0
 71
3
 72
34
 73
30
 74
0
 42
0.0000001
 43
0.0000001
 44
0.0000000001
 40
0.0
 40
0.0
 40
0.0
 40
0.0
 40
0.0000966458
 40
0.0003117576
 40
0.000658301
 40
0.0011387113
 40
0.0025039844
 40
0.004410442
 40
0.0068589188
 40
0.0098497754
 40
0.013383189
 40
0.0174590769
 40
0.0272311086
 40
0.0391476605
 40
0.0531895506
 40
0.0693375101
 40
0.0875722247
 40
0.1078743537
 40
0.1302244592
 40
0.1545964425
 40
0.209254465
 40
0.27153952
 40
0.3411414926
 40
0.41772995
 40
0.5009142663
 40
0.5902927017
 40
0.685457078
 40
0.7858820549
 40
1.0
 40
1.0
 40
1.0
 40
1.0
 10
3.6246075277
 20
5.5332607436
 30
0.0
 10
3.6246065617
 20
5.5332624257
 30
0.0
 10
3.6246104903
 20
5.5332692161
 30
0.0
 10
3.6246190925
 20
5.5332777295
 30
0.0
 10
3.6246352697
 20
5.5332919231
 30
0.0
 10
3.6246698192
 20
5.5333186228
 30
0.0
 10
3.6247314305
 20
5.5333624109
 30
0.0
 10
3.6248265596
 20
5.5334264783
 30
0.0
 10
3.6249500729
 20
5.5335070906
 30
0.0
 10
3.6251018238
 20
5.5336040445
 30
0.0
 10
3.625281893
 20
5.5337173782
 30
0.0
 10
3.6255780884
 20
5.5339017005
 30
0.0
 10
3.6260187859
 20
5.534172276
 30
0.0
 10
3.6266317342
 20
5.5345445793
 30
0.0
 10
3.627355567
 20
5.5349808289
 30
0.0
 10
3.6281892881
 20
5.5354804141
 30
0.0
 10
3.6291319083
 20
5.5360427158
 30
0.0
 10
3.6301824293
 20
5.5366671248
 30
0.0
 10
3.6313397357
 20
5.5373529641
 30
0.0
 10
3.6330913987
 20
5.5383884415
 30
0.0
 10
3.6355351074
 20
5.5398283473
 30
0.0
 10
3.6387635271
 20
5.5417247534
 30
0.0
 10
3.6423737589
 20
5.5438402241
 30
0.0
 10
3.6463479546
 20
5.5461642721
 30
0.0
 10
3.6506666766
 20
5.5486854878
 30
0.0
 10
3.6553091353
 20
5.551391683
 30
0.0
 10
3.6602522172
 20
5.5542692881
 30
0.0
 10
3.6673611272
 20
5.5584029322
 30
0.0
 10
3.6728208827
 20
5.5615728924
 30
0.0
 10
3.6765381624
 20
5.5637296062
 30
0.0
  0
LINE
  5
485
100
AcDbEntity
  8
0
100
AcDbLine
 62
7
  6
CONTINUOUS
 10
4.1169327001
 20
5.8262914678
 11
4.1211412305
 21
5.8190087495
  0
SPLINE
  5
486
100
AcDbEntity
  8
0
100
AcDbSpline
 62
7
  6
CONTINUOUS
 70
0
 71
3
 72
22
 73
18
 74
0
 42
0.0000001
 43
0.0000001
 44
0.0000000001
 40
0.0
 40
0.0
 40
0.0
 40
0.0
 40
0.1262222318
 40
0.1894406302
 40
0.2525072562
 40
0.3154462544
 40
0.3782763331
 40
0.4409779862
 40
0.5035175116
 40
0.5659106113
 40
0.6282122674
 40
0.6904164756
 40
0.7524879167
 40
0.8144315397
 40
0.8763144323
 40
0.9382018974
 40
1.0
 40
1.0
 40
1.0
 40
1.0
 10
4.1211595917
 20
5.8190195525
 30
0.0
 10
4.1233547972
 20
5.8152864018
 30
0.0
 10
4.1260180611
 20
5.8092844429
 30
0.0
 10
4.1282816783
 20
5.8009128548
 30
0.0
 10
4.129341895
 20
5.7944954286
 30
0.0
 10
4.1297553357
 20
5.7880190705
 30
0.0
 10
4.1295195607
 20
5.7815459551
 30
0.0
 10
4.1286401584
 20
5.7751424329
 30
0.0
 10
4.1271219822
 20
5.7688746038
 30
0.0
 10
4.1249768833
 20
5.7628077696
 30
0.0
 10
4.122256987
 20
5.7569899382
 30
0.0
 10
4.1190112527
 20
5.7514615366
 30
0.0
 10
4.1152714539
 20
5.7462694852
 30
0.0
 10
4.1110546321
 20
5.7414697718
 30
0.0
 10
4.1063780478
 20
5.737126602
 30
0.0
 10
4.1013294219
 20
5.7332349617
 30
0.0
 10
4.0977671317
 20
5.730920013
 30
0.0
 10
4.0959492614
 20
5.7298286322
 30
0.0
  0
SPLINE
  5
487
100
AcDbEntity
  8
0
100
AcDbSpline
 62
7
  6
CONTINUOUS
 70
0
 71
3
 72
19
 73
15
 74
0
 42
0.0000001
 43
0.0000001
 44
0.0000000001
 40
0.0
 40
0.0
 40
0.0
 40
0.0
 40
0.1731358365
 40
0.3496374237
 40
0.5199439999
 40
0.6733179554
 40
0.7404291663
 40
0.8001469662
 40
0.8520402811
 40
0.8957518673
 40
0.9312448861
 40
0.9593857742
 40
0.9816017691
 40
1.0
 40
1.0
 40
1.0
 40
1.0
 10
4.0959497746
 20
5.7298289883
 30
0.0
 10
4.0955039277
 20
5.730593051
 30
0.0
 10
4.0945743995
 20
5.7321191787
 30
0.0
 10
4.0931050983
 20
5.7343335419
 30
0.0
 10
4.0915921994
 20
5.7363943875
 30
0.0
 10
4.0903238237
 20
5.7379388558
 30
0.0
 10
4.0893463296
 20
5.7389855626
 30
0.0
 10
4.0886904833
 20
5.7396216256
 30
0.0
 10
4.0880879985
 20
5.740139101
 30
0.0
 10
4.0875462147
 20
5.7405346485
 30
0.0
 10
4.0870678863
 20
5.7408064044
 30
0.0
 10
4.0866538389
 20
5.7409591833
 30
0.0
 10
4.0863000991
 20
5.7410001979
 30
0.0
 10
4.0860924326
 20
5.740947401
 30
0.0
 10
4.0860091665
 20
5.7409037696
 30
0.0
  0
LINE
  5
488
100
AcDbEntity
  8
0
100
AcDbLine
 62
7
  6
CONTINUOUS
 10
4.0860094335
 20
5.7409039849
 11
3.9242944131
 21
5.6471016279
  0
LINE
  5
489
100
AcDbEntity
  8
0
100
AcDbLine
 62
7
  6
CONTINUOUS
 10
3.9238419267
 20
5.6468969007
 11
3.9014700066
 21
5.634164137
  0
LINE
  5
48A
100
AcDbEntity
  8
0
100
AcDbLine
 62
7
  6
CONTINUOUS
 10
3.9014700066
 20
5.634164137
 11
3.8430665121
 21
5.6002670308
  0
SPLINE
  5
48B
100
AcDbEntity
  8
0
100
AcDbSpline
 62
7
  6
CONTINUOUS
 70
0
 71
3
 72
53
 73
49
 74
0
 42
0.0000001
 43
0.0000001
 44
0.0000000001
 40
0.0
 40
0.0
 40
0.0
 40
0.0
 40
0.1086185628
 40
0.2116877211
 40
0.3060583172
 40
0.349258997
 40
0.3894632703
 40
0.4264240466
 40
0.4599279974
 40
0.4897708482
 40
0.5157483797
 40
0.5272259494
 40
0.5376739051
 40
0.5470803931
 40
0.5554335839
 40
0.5627216869
 40
0.5689329781
 40
0.5740558591
 40
0.5780789975
 40
0.5809939094
 40
0.582803121
 40
0.5832981852
 40
0.583447148
 40
0.5835375924
 40
0.5835992124
 40
0.5836942536
 40
0.5838487849
 40
0.5840686274
 40
0.5843556421
 40
0.5847106247
 40
0.5856258836
 40
0.5868160619
 40
0.5882817408
 40
0.5900231556
 40
0.5920403846
 40
0.5969022055
 40
0.602864056
 40
0.6099124609
 40
0.6180314942
 40
0.6272051503
 40
0.6374173793
 40
0.6486521036
 40
0.6741246371
 40
0.7034836501
 40
0.7365515888
 40
0.813067834
 40
0.9018765579
 40
1.0
 40
1.0
 40
1.0
 40
1.0
 10
3.7309851564
 20
5.5361912814
 30
0.0
 10
3.7286507105
 20
5.5348488044
 30
0.0
 10
3.724099416
 20
5.5322353432
 30
0.0
 10
3.7175136633
 20
5.5284663688
 30
0.0
 10
3.7123302396
 20
5.5255123168
 30
0.0
 10
3.7084972647
 20
5.5233364355
 30
0.0
 10
3.7059002499
 20
5.5218664643
 30
0.0
 10
3.7035104888
 20
5.5205183887
 30
0.0
 10
3.7013423629
 20
5.5193002685
 30
0.0
 10
3.6994093332
 20
5.5182196379
 30
0.0
 10
3.6979507618
 20
5.5174094319
 30
0.0
 10
3.6969108566
 20
5.5168357713
 30
0.0
 10
3.6962298339
 20
5.5164621027
 30
0.0
 10
3.6956158006
 20
5.5161273766
 30
0.0
 10
3.6950695473
 20
5.515832005
 30
0.0
 10
3.6945918429
 20
5.5155763908
 30
0.0
 10
3.6941835358
 20
5.5153609305
 30
0.0
 10
3.6938452633
 20
5.5151859846
 30
0.0
 10
3.6935782314
 20
5.5150518649
 30
0.0
 10
3.693381909
 20
5.5149585197
 30
0.0
 10
3.6932638822
 20
5.514907524
 30
0.0
 10
3.6932050019
 20
5.5148884248
 30
0.0
 10
3.6931874423
 20
5.5148863042
 30
0.0
 10
3.6931791435
 20
5.5148866607
 30
0.0
 10
3.6931759933
 20
5.5148930026
 30
0.0
 10
3.6931801996
 20
5.5149002922
 30
0.0
 10
3.6931870265
 20
5.5149093347
 30
0.0
 10
3.693198704
 20
5.5149211053
 30
0.0
 10
3.6932145041
 20
5.5149354004
 30
0.0
 10
3.6932442164
 20
5.5149601168
 30
0.0
 10
3.6932926929
 20
5.5149971401
 30
0.0
 10
3.6933645376
 20
5.5150489046
 30
0.0
 10
3.6934541622
 20
5.515110978
 30
0.0
 10
3.693561579
 20
5.5151833591
 30
0.0
 10
3.6937399517
 20
5.5153010949
 30
0.0
 10
3.6940076133
 20
5.5154734756
 30
0.0
 10
3.6943822531
 20
5.515710077
 30
0.0
 10
3.6948269234
 20
5.5159870052
 30
0.0
 10
3.6953406554
 20
5.5163036546
 30
0.0
 10
3.695922438
 20
5.5166593817
 30
0.0
 10
3.6965712491
 20
5.517053557
 30
0.0
 10
3.6975668254
 20
5.5176552128
 30
0.0
 10
3.6989712244
 20
5.5184981606
 30
0.0
 10
3.7008428953
 20
5.5196144044
 30
0.0
 10
3.7038053546
 20
5.5213723015
 30
0.0
 10
3.7080422837
 20
5.5238706624
 30
0.0
 10
3.7136768568
 20
5.527174132
 30
0.0
 10
3.7176792304
 20
5.5295107673
 30
0.0
 10
3.7197810295
 20
5.5307357654
 30
0.0
  0
LINE
  5
48C
100
AcDbEntity
  8
0
100
AcDbLine
 62
7
  6
CONTINUOUS
 10
3.7197810295
 20
5.5307357654
 11
3.730388619
 21
5.536913585
  0
LINE
  5
48D
100
AcDbEntity
  8
0
100
AcDbLine
 62
7
  6
CONTINUOUS
 10
3.730388619
 20
5.536913585
 11
3.7383148782
 21
5.5415261748
  0
LINE
  5
48E
100
AcDbEntity
  8
0
100
AcDbLine
 62
7
  6
CONTINUOUS
 10
3.8352179249
 20
5.5976896739
 11
3.8422215247
 21
5.6017336192
  0
SPLINE
  5
48F
100
AcDbEntity
  8
0
100
AcDbSpline
 62
7
  6
CONTINUOUS
 70
0
 71
3
 72
15
 73
11
 74
0
 42
0.0000001
 43
0.0000001
 44
0.0000000001
 40
0.0
 40
0.0
 40
0.0
 40
0.0
 40
0.1162351473
 40
0.2396667748
 40
0.3688009721
 40
0.5006164433
 40
0.6323242917
 40
0.7611700972
 40
0.8841985889
 40
1.0
 40
1.0
 40
1.0
 40
1.0
 10
3.9189217492
 20
5.6260505348
 30
0.0
 10
3.9184145725
 20
5.6268265355
 30
0.0
 10
3.9175192319
 20
5.6285298679
 30
0.0
 10
3.9166647304
 20
5.6313648572
 30
0.0
 10
3.9164091479
 20
5.6344419075
 30
0.0
 10
3.9167874736
 20
5.6375750417
 30
0.0
 10
3.9178489997
 20
5.6405446616
 30
0.0
 10
3.9194518222
 20
5.6431764409
 30
0.0
 10
3.9214816423
 20
5.645320104
 30
0.0
 10
3.9230424642
 20
5.6464344481
 30
0.0
 10
3.9238419558
 20
5.6468968511
 30
0.0
  0
SPLINE
  5
490
100
AcDbEntity
  8
0
100
AcDbSpline
 62
7
  6
CONTINUOUS
 70
0
 71
3
 72
15
 73
11
 74
0
 42
0.0000001
 43
0.0000001
 44
0.0000000001
 40
0.0
 40
0.0
 40
0.0
 40
0.0
 40
0.1158010706
 40
0.2388290886
 40
0.3676743794
 40
0.4993818562
 40
0.6311971486
 40
0.7603315846
 40
0.8837638181
 40
1.0
 40
1.0
 40
1.0
 40
1.0
 10
3.8650270339
 20
5.7487672853
 30
0.0
 10
3.8642268524
 20
5.7483061165
 30
0.0
 10
3.8624814312
 20
5.7475115912
 30
0.0
 10
3.8596101227
 20
5.7468255435
 30
0.0
 10
3.8565295927
 20
5.7467533173
 30
0.0
 10
3.8534271209
 20
5.7473187581
 30
0.0
 10
3.8505246159
 20
5.7485576039
 30
0.0
 10
3.8479876056
 20
5.7503173816
 30
0.0
 10
3.8459596515
 20
5.7524748119
 30
0.0
 10
3.8449321589
 20
5.754101818
 30
0.0
 10
3.8445136895
 20
5.7549290256
 30
0.0
  0
LINE
  5
491
100
AcDbEntity
  8
0
100
AcDbLine
 62
7
  6
CONTINUOUS
 10
3.7842567
 20
5.7021286102
 11
3.8428138834
 21
5.7357587668
  0
LINE
  5
492
100
AcDbEntity
  8
0
100
AcDbLine
 62
7
  6
CONTINUOUS
 10
3.8428138834
 20
5.7357587668
 11
3.8650287136
 21
5.7487681886
  0
LINE
  5
493
100
AcDbEntity
  8
0
100
AcDbLine
 62
7
  6
CONTINUOUS
 10
3.8654306032
 20
5.7490567374
 11
4.02752334
 21
5.8422048761
  0
SPLINE
  5
494
100
AcDbEntity
  8
0
100
AcDbSpline
 62
7
  6
CONTINUOUS
 70
0
 71
3
 72
13
 73
9
 74
0
 42
0.0000001
 43
0.0000001
 44
0.0000000001
 40
0.0
 40
0.0
 40
0.0
 40
0.0
 40
0.0869699149
 40
0.1883487002
 40
0.3027378823
 40
0.4282583349
 40
0.7045876623
 40
1.0
 40
1.0
 40
1.0
 40
1.0
 10
4.02752334
 20
5.8422048761
 30
0.0
 10
4.0205321728
 20
5.8380381338
 30
0.0
 10
4.0053740025
 20
5.8290437843
 30
0.0
 10
3.9809718996
 20
5.8146511827
 30
0.0
 10
3.9534288012
 20
5.7984830118
 30
0.0
 10
3.9117260642
 20
5.7740959902
 30
0.0
 10
3.8553288406
 20
5.7412792526
 30
0.0
 10
3.8090233024
 20
5.7144750994
 30
0.0
 10
3.7850830251
 20
5.700651243
 30
0.0
  0
LINE
  5
495
100
AcDbEntity
  8
0
100
AcDbLine
 62
7
  6
CONTINUOUS
 10
3.7850830251
 20
5.700651243
 11
3.7781003826
 21
5.6966202294
  0
LINE
  5
496
100
AcDbEntity
  8
0
100
AcDbLine
 62
7
  6
CONTINUOUS
 10
3.6810097995
 20
5.6407814548
 11
3.6730520629
 21
5.6362234148
  0
LINE
  5
497
100
AcDbEntity
  8
0
100
AcDbLine
 62
7
  6
CONTINUOUS
 10
3.6730520629
 20
5.6362234148
 11
3.6623980666
 21
5.6301258518
  0
SPLINE
  5
498
100
AcDbEntity
  8
0
100
AcDbSpline
 62
7
  6
CONTINUOUS
 70
0
 71
3
 72
53
 73
49
 74
0
 42
0.0000001
 43
0.0000001
 44
0.0000000001
 40
0.0
 40
0.0
 40
0.0
 40
0.0
 40
0.0981227624
 40
0.1869313318
 40
0.2634476865
 40
0.2965156892
 40
0.3258747589
 40
0.3513473195
 40
0.3625820446
 40
0.3727942701
 40
0.3819679216
 40
0.390086952
 40
0.3971353593
 40
0.4030972202
 40
0.4079590518
 40
0.4099762823
 40
0.4117176966
 40
0.4131833734
 40
0.4143735483
 40
0.4152888028
 40
0.415643783
 40
0.4159307953
 40
0.4161506352
 40
0.4163051641
 40
0.4164002034
 40
0.4164618234
 40
0.4165522695
 40
0.4167012344
 40
0.4171963024
 40
0.4190055177
 40
0.4219204258
 40
0.4259435611
 40
0.4310664478
 40
0.4372777506
 40
0.4445658684
 40
0.4529190743
 40
0.4623255749
 40
0.4727735378
 40
0.4842511064
 40
0.5102286446
 40
0.5400715238
 40
0.5735755049
 40
0.6105362931
 40
0.6507405604
 40
0.6939412309
 40
0.7883118082
 40
0.8913810821
 40
1.0
 40
1.0
 40
1.0
 40
1.0
 10
3.6623980666
 20
5.6301258518
 30
0.0
 10
3.660286303
 20
5.6289181489
 30
0.0
 10
3.6562615506
 20
5.6266203216
 30
0.0
 10
3.6505833942
 20
5.6233923839
 30
0.0
 10
3.6463012876
 20
5.6209722771
 30
0.0
 10
3.6432976712
 20
5.6192856588
 30
0.0
 10
3.6413951382
 20
5.618222865
 30
0.0
 10
3.6399629234
 20
5.6174280931
 30
0.0
 10
3.6389440861
 20
5.6168667266
 30
0.0
 10
3.6382783152
 20
5.6165019277
 30
0.0
 10
3.6376793558
 20
5.6161759531
 30
0.0
 10
3.6371482637
 20
5.615889373
 30
0.0
 10
3.6366861018
 20
5.6156427414
 30
0.0
 10
3.6362938788
 20
5.6154365944
 30
0.0
 10
3.6360107617
 20
5.6152909828
 30
0.0
 10
3.635819613
 20
5.6151953753
 30
0.0
 10
3.6357032207
 20
5.6151385402
 30
0.0
 10
3.6356046515
 20
5.6150919599
 30
0.0
 10
3.6355239
 20
5.6150556229
 30
0.0
 10
3.6354675989
 20
5.6150321529
 30
0.0
 10
3.6354313379
 20
5.6150187795
 30
0.0
 10
3.6354110582
 20
5.615012244
 30
0.0
 10
3.6353950259
 20
5.6150080163
 30
0.0
 10
3.6353837816
 20
5.6150066254
 30
0.0
 10
3.6353753656
 20
5.6150066276
 30
0.0
 10
3.6353714488
 20
5.6150125268
 30
0.0
 10
3.6353752896
 20
5.615019892
 30
0.0
 10
3.6353859059
 20
5.6150340389
 30
0.0
 10
3.6354318867
 20
5.6150754812
 30
0.0
 10
3.6355350637
 20
5.6151521976
 30
0.0
 10
3.635714064
 20
5.6152755451
 30
0.0
 10
3.6359637309
 20
5.6154397416
 30
0.0
 10
3.6362843748
 20
5.6156452213
 30
0.0
 10
3.6366751229
 20
5.6158910957
 30
0.0
 10
3.6371353441
 20
5.6161769931
 30
0.0
 10
3.6376642707
 20
5.6165023769
 30
0.0
 10
3.6382611691
 20
5.6168667825
 30
0.0
 10
3.6389252869
 20
5.6172697312
 30
0.0
 10
3.6399420439
 20
5.617883485
 30
0.0
 10
3.6413729885
 20
5.6187415418
 30
0.0
 10
3.6432753572
 20
5.6198752796
 30
0.0
 10
3.6454143435
 20
5.6211438717
 30
0.0
 10
3.6477766912
 20
5.6225394274
 30
0.0
 10
3.6503482295
 20
5.6240535216
 30
0.0
 10
3.6541490826
 20
5.626285033
 30
0.0
 10
3.6592990774
 20
5.629296983
 30
0.0
 10
3.6658559873
 20
5.6331159284
 30
0.0
 10
3.6703949662
 20
5.6357507384
 30
0.0
 10
3.6727248149
 20
5.6371011926
 30
0.0
  0
LINE
  5
499
100
AcDbEntity
  8
0
100
AcDbLine
 62
7
  6
CONTINUOUS
 10
3.8386827582
 20
5.7501885424
 11
3.7775689245
 21
5.7150899929
  0
LINE
  5
49A
100
AcDbEntity
  8
0
100
AcDbLine
 62
7
  6
CONTINUOUS
 10
3.8509476195
 20
5.587994386
 11
3.9119006622
 21
5.623371412
  0
SPLINE
  5
49B
100
AcDbEntity
  8
0
100
AcDbSpline
 62
7
  6
CONTINUOUS
 70
0
 71
3
 72
21
 73
17
 74
0
 42
0.0000001
 43
0.0000001
 44
0.0000000001
 40
0.0
 40
0.0
 40
0.0
 40
0.0
 40
0.0354092704
 40
0.0725889196
 40
0.1127331896
 40
0.1567321225
 40
0.2051532249
 40
0.2582863599
 40
0.3162292181
 40
0.3788517029
 40
0.4458702789
 40
0.5169367497
 40
0.5916266581
 40
0.6694505984
 40
0.8322988614
 40
1.0
 40
1.0
 40
1.0
 40
1.0
 10
3.662398132
 20
5.6301258584
 30
0.0
 10
3.6618106601
 20
5.6297716203
 30
0.0
 10
3.660690828
 20
5.6288963008
 30
0.0
 10
3.6593020516
 20
5.627191149
 30
0.0
 10
3.6581922551
 20
5.6251045656
 30
0.0
 10
3.657373471
 20
5.622660272
 30
0.0
 10
3.6568449498
 20
5.6198832654
 30
0.0
 10
3.6566068727
 20
5.6167970967
 30
0.0
 10
3.6566624399
 20
5.6134282647
 30
0.0
 10
3.6570083701
 20
5.6098073695
 30
0.0
 10
3.657640265
 20
5.6059679324
 30
0.0
 10
3.658554896
 20
5.6019461387
 30
0.0
 10
3.6597438639
 20
5.5977789015
 30
0.0
 10
3.6617087729
 20
5.5919915085
 30
0.0
 10
3.6647763699
 20
5.5846871009
 30
0.0
 10
3.6677351193
 20
5.5789986729
 30
0.0
 10
3.6693502927
 20
5.5761796012
 30
0.0
  0
SPLINE
  5
49C
100
AcDbEntity
  8
0
100
AcDbSpline
 62
7
  6
CONTINUOUS
 70
0
 71
3
 72
17
 73
13
 74
0
 42
0.0000001
 43
0.0000001
 44
0.0000000001
 40
0.0
 40
0.0
 40
0.0
 40
0.0
 40
0.1239513686
 40
0.2479728462
 40
0.3721716764
 40
0.434486512
 40
0.4968776041
 40
0.6217802402
 40
0.7472368861
 40
0.8102192206
 40
0.8733539173
 40
1.0
 40
1.0
 40
1.0
 40
1.0
 10
4.1074390381
 20
5.8110709497
 30
0.0
 10
4.109127538
 20
5.8081581837
 30
0.0
 10
4.1118818173
 20
5.8019457432
 30
0.0
 10
4.1139768056
 20
5.7919840094
 30
0.0
 10
4.1139308036
 20
5.7834819907
 30
0.0
 10
4.1128687603
 20
5.7767957823
 30
0.0
 10
4.1111364153
 20
5.7702299687
 30
0.0
 10
4.1077334042
 20
5.7623829427
 30
0.0
 10
4.1029035412
 20
5.7553119265
 30
0.0
 10
4.0983005051
 20
5.7502499912
 30
0.0
 10
4.0932383799
 20
5.7456020555
 30
0.0
 10
4.0889866191
 20
5.7426272474
 30
0.0
 10
4.086009436
 20
5.7409039269
 30
0.0
  0
SPLINE
  5
49D
100
AcDbEntity
  8
0
100
AcDbSpline
 62
7
  6
CONTINUOUS
 70
0
 71
3
 72
21
 73
17
 74
0
 42
0.0000001
 43
0.0000001
 44
0.0000000001
 40
0.0
 40
0.0
 40
0.0
 40
0.0
 40
0.0354092161
 40
0.0725887919
 40
0.1127329628
 40
0.1567317759
 40
0.2051527547
 40
0.258285824
 40
0.3162287104
 40
0.3788512472
 40
0.4458699011
 40
0.5169364851
 40
0.5916265178
 40
0.6694505578
 40
0.83229886
 40
1.0
 40
1.0
 40
1.0
 40
1.0
 10
3.7197811483
 20
5.5307358419
 30
0.0
 10
3.7191806348
 20
5.530404193
 30
0.0
 10
3.7178626733
 20
5.5298720444
 30
0.0
 10
3.7156915839
 20
5.5295218955
 30
0.0
 10
3.7133296544
 20
5.5296040681
 30
0.0
 10
3.7108034451
 20
5.5301171213
 30
0.0
 10
3.7081342269
 20
5.5310479039
 30
0.0
 10
3.7053424858
 20
5.5323848034
 30
0.0
 10
3.7024527712
 20
5.5341173421
 30
0.0
 10
3.699489941
 20
5.5362273742
 30
0.0
 10
3.6964808295
 20
5.5386943324
 30
0.0
 10
3.6934551612
 20
5.541497329
 30
0.0
 10
3.690440704
 20
5.5446106314
 30
0.0
 10
3.6864111214
 20
5.549205997
 30
0.0
 10
3.6816191102
 20
5.5555148255
 30
0.0
 10
3.6781721596
 20
5.5609213988
 30
0.0
 10
3.6765383576
 20
5.5637297189
 30
0.0
  0
SPLINE
  5
49E
100
AcDbEntity
  8
0
100
AcDbSpline
 62
7
  6
CONTINUOUS
 70
0
 71
3
 72
16
 73
12
 74
0
 42
0.0000001
 43
0.0000001
 44
0.0000000001
 40
0.0
 40
0.0
 40
0.0
 40
0.0
 40
0.1365225496
 40
0.2795637371
 40
0.4241093795
 40
0.5650926208
 40
0.6975715784
 40
0.8169026741
 40
0.9189036373
 40
0.9622749827
 40
1.0
 40
1.0
 40
1.0
 40
1.0
 10
3.6765381624
 20
5.5637296062
 30
0.0
 10
3.6960793791
 20
5.57510341
 30
0.0
 10
3.7361164478
 20
5.5983570107
 30
0.0
 10
3.7969056345
 20
5.6335450601
 30
0.0
 10
3.858384379
 20
5.6690163685
 30
0.0
 10
3.9183971465
 20
5.7035280914
 30
0.0
 10
3.9748400616
 20
5.7358706745
 30
0.0
 10
4.025734009
 20
5.7649114107
 30
0.0
 10
4.0638603832
 20
5.7865502459
 30
0.0
 10
4.0902712986
 20
5.8014496752
 30
0.0
 10
4.1019839712
 20
5.8080223729
 30
0.0
 10
4.1074379258
 20
5.8110703088
 30
0.0
  0
SPLINE
  5
49F
100
AcDbEntity
  8
0
100
AcDbSpline
 62
7
  6
CONTINUOUS
 70
0
 71
3
 72
20
 73
16
 74
0
 42
0.0000001
 43
0.0000001
 44
0.0000000001
 40
0.0
 40
0.0
 40
0.0
 40
0.0
 40
0.1262666552
 40
0.2523964527
 40
0.378054473
 40
0.4407664889
 40
0.503307955
 40
0.5657173104
 40
0.6280522366
 40
0.6902977354
 40
0.752399305
 40
0.8143503038
 40
0.876240447
 40
0.9381624788
 40
1.0
 40
1.0
 40
1.0
 40
1.0
 10
4.1127484824
 20
5.8335880208
 30
0.0
 10
4.110601837
 20
5.8373492541
 30
0.0
 10
4.105468451
 20
5.844415781
 30
0.0
 10
4.0958092944
 20
5.8531873218
 30
0.0
 10
4.0864742903
 20
5.8587481755
 30
0.0
 10
4.0784959173
 20
5.8620053373
 30
0.0
 10
4.072308943
 20
5.8638227001
 30
0.0
 10
4.0659828069
 20
5.8649965838
 30
0.0
 10
4.0595840128
 20
5.8655520782
 30
0.0
 10
4.0531721587
 20
5.8655135404
 30
0.0
 10
4.0468047239
 20
5.8648747808
 30
0.0
 10
4.0405417458
 20
5.8636127117
 30
0.0
 10
4.0344506191
 20
5.8617089526
 30
0.0
 10
4.0285599131
 20
5.8592739445
 30
0.0
 10
4.024765586
 20
5.8573627417
 30
0.0
 10
4.0229017171
 20
5.8563506959
 30
0.0
  0
SPLINE
  5
4A0
100
AcDbEntity
  8
0
100
AcDbSpline
 62
7
  6
CONTINUOUS
 70
0
 71
3
 72
19
 73
15
 74
0
 42
0.0000001
 43
0.0000001
 44
0.0000000001
 40
0.0
 40
0.0
 40
0.0
 40
0.0
 40
0.018398359
 40
0.0406147011
 40
0.0687560462
 40
0.1042495595
 40
0.1479616013
 40
0.1998552778
 40
0.2595733381
 40
0.326684707
 40
0.4800585938
 40
0.6503646083
 40
0.8268652843
 40
1.0
 40
1.0
 40
1.0
 40
1.0
 10
4.0275231979
 20
5.8422048568
 30
0.0
 10
4.0276026156
 20
5.8422551555
 30
0.0
 10
4.027752168
 20
5.8424086094
 30
0.0
 10
4.0278935119
 20
5.8427354729
 30
0.0
 10
4.0279682198
 20
5.8431704466
 30
0.0
 10
4.0279720315
 20
5.8437205777
 30
0.0
 10
4.0279003649
 20
5.844387558
 30
0.0
 10
4.027753457
 20
5.8451680699
 30
0.0
 10
4.0275305308
 20
5.8460540868
 30
0.0
 10
4.027112801
 20
5.8474239802
 30
0.0
 10
4.0264094407
 20
5.8492946631
 30
0.0
 10
4.0253811495
 20
5.8516352953
 30
0.0
 10
4.0241981126
 20
5.8540149256
 30
0.0
 10
4.0233412175
 20
5.8555829814
 30
0.0
 10
4.0229024466
 20
5.8563511256
 30
0.0
  0
SPLINE
  5
4A1
100
AcDbEntity
  8
0
100
AcDbSpline
 62
7
  6
CONTINUOUS
 70
0
 71
3
 72
17
 73
13
 74
0
 42
0.0000001
 43
0.0000001
 44
0.0000000001
 40
0.0
 40
0.0
 40
0.0
 40
0.0
 40
0.1266459719
 40
0.1897810232
 40
0.2527636677
 40
0.3782203293
 40
0.5031228072
 40
0.5655140261
 40
0.6278290603
 40
0.7520278201
 40
0.876048077
 40
1.0
 40
1.0
 40
1.0
 40
1.0
 10
4.0275232894
 20
5.8422049069
 30
0.0
 10
4.0305043184
 20
5.8439215595
 30
0.0
 10
4.0352064687
 20
5.84611628
 30
0.0
 10
4.0417627745
 20
5.8481762468
 30
0.0
 10
4.0484480722
 20
5.8496316392
 30
0.0
 10
4.0569866875
 20
5.8502789281
 30
0.0
 10
4.0654839155
 20
5.8493024849
 30
0.0
 10
4.0720362443
 20
5.8475197995
 30
0.0
 10
4.0783576882
 20
5.845096424
 30
0.0
 10
4.0857436264
 20
5.8408852788
 30
0.0
 10
4.093323277
 20
5.8340901611
 30
0.0
 10
4.0973262369
 20
5.8285986594
 30
0.0
 10
4.0990045137
 20
5.8256799741
 30
0.0
  0
SPLINE
  5
4A2
100
AcDbEntity
  8
0
100
AcDbSpline
 62
7
  6
CONTINUOUS
 70
0
 71
3
 72
16
 73
12
 74
0
 42
0.0000001
 43
0.0000001
 44
0.0000000001
 40
0.0
 40
0.0
 40
0.0
 40
0.0
 40
0.0377250182
 40
0.0810963657
 40
0.1830973324
 40
0.3024284299
 40
0.4349073879
 40
0.575890628
 40
0.7204362683
 40
0.8634774525
 40
1.0
 40
1.0
 40
1.0
 40
1.0
 10
4.0990034032
 20
5.8256793316
 30
0.0
 10
4.0936368361
 20
5.8224800358
 30
0.0
 10
4.0820883766
 20
5.8156229117
 30
0.0
 10
4.0559796342
 20
5.8002001012
 30
0.0
 10
4.018176665
 20
5.7780011096
 30
0.0
 10
3.9675796754
 20
5.7484460253
 30
0.0
 10
3.9113487191
 20
5.7157363184
 30
0.0
 10
3.8514543068
 20
5.6810195991
 30
0.0
 10
3.7899958809
 20
5.6455130998
 30
0.0
 10
3.7291275434
 20
5.6104621459
 30
0.0
 10
3.6889708004
 20
5.5874158288
 30
0.0
 10
3.6693501891
 20
5.5761795412
 30
0.0
  0
SPLINE
  5
4A3
100
AcDbEntity
  8
0
100
AcDbSpline
 62
7
  6
CONTINUOUS
 70
0
 71
3
 72
19
 73
15
 74
0
 42
0.0000001
 43
0.0000001
 44
0.0000000001
 40
0.0
 40
0.0
 40
0.0
 40
0.0
 40
0.1819193872
 40
0.3583140256
 40
0.5214252117
 40
0.6656321559
 40
0.7292177345
 40
0.7865946345
 40
0.8375514022
 40
0.8820376593
 40
0.9202298211
 40
0.9523194465
 40
0.9786257604
 40
1.0
 40
1.0
 40
1.0
 40
1.0
 10
3.8612563537
 20
5.7634595978
 30
0.0
 10
3.8617741414
 20
5.7626717718
 30
0.0
 10
3.8626793518
 20
5.7610441838
 30
0.0
 10
3.8637783954
 20
5.7585746914
 30
0.0
 10
3.8647117971
 20
5.7562476871
 30
0.0
 10
3.8653371531
 20
5.754428507
 30
0.0
 10
3.8657047812
 20
5.7531039744
 30
0.0
 10
3.8658983766
 20
5.7522337885
 30
0.0
 10
3.8660167014
 20
5.7514499333
 30
0.0
 10
3.8660550161
 20
5.7507569162
 30
0.0
 10
3.8660070468
 20
5.7501618968
 30
0.0
 10
3.8658842344
 20
5.7496735763
 30
0.0
 10
3.865700341
 20
5.7492994219
 30
0.0
 10
3.8655243305
 20
5.7491159355
 30
0.0
 10
3.8654306769
 20
5.7490567903
 30
0.0
  0
SPLINE
  5
4A4
100
AcDbEntity
  8
0
100
AcDbSpline
 62
7
  6
CONTINUOUS
 70
0
 71
3
 72
11
 73
7
 74
0
 42
0.0000001
 43
0.0000001
 44
0.0000000001
 40
0.0
 40
0.0
 40
0.0
 40
0.0
 40
0.2495184502
 40
0.4993680307
 40
0.7495910566
 40
1.0
 40
1.0
 40
1.0
 40
1.0
 10
3.8654306031
 20
5.7490567373
 30
0.0
 10
3.863715098
 20
5.7480680531
 30
0.0
 10
3.8598291269
 20
5.7467815601
 30
0.0
 10
3.8537445772
 20
5.7473304204
 30
0.0
 10
3.8483602521
 20
5.7502300281
 30
0.0
 10
3.8458140622
 20
5.753445854
 30
0.0
 10
3.844917133
 20
5.7552189882
 30
0.0
  0
SPLINE
  5
4A5
100
AcDbEntity
  8
0
100
AcDbSpline
 62
7
  6
CONTINUOUS
 70
0
 71
3
 72
11
 73
7
 74
0
 42
0.0000001
 43
0.0000001
 44
0.0000000001
 40
0.0
 40
0.0
 40
0.0
 40
0.0
 40
0.250314117
 40
0.5006677598
 40
0.7504768888
 40
1.0
 40
1.0
 40
1.0
 40
1.0
 10
3.9193743471
 20
5.6262553183
 30
0.0
 10
3.9182866058
 20
5.6279173659
 30
0.0
 10
3.916772879
 20
5.6317307481
 30
0.0
 10
3.9169584952
 20
5.6378432451
 30
0.0
 10
3.9195223907
 20
5.6433888858
 30
0.0
 10
3.9225803506
 20
5.6461103264
 30
0.0
 10
3.9242944125
 20
5.6471016276
 30
0.0
  0
SPLINE
  5
4A6
100
AcDbEntity
  8
0
100
AcDbSpline
 62
7
  6
CONTINUOUS
 70
0
 71
3
 72
19
 73
15
 74
0
 42
0.0000001
 43
0.0000001
 44
0.0000000001
 40
0.0
 40
0.0
 40
0.0
 40
0.0
 40
0.0228198131
 40
0.0490082783
 40
0.0804499956
 40
0.1181410289
 40
0.1625302443
 40
0.2136151253
 40
0.2711781455
 40
0.3349074527
 40
0.4791200716
 40
0.6418857153
 40
0.8178882218
 40
1.0
 40
1.0
 40
1.0
 40
1.0
 10
3.9242942765
 20
5.6471015486
 30
0.0
 10
3.9243986853
 20
5.6471571126
 30
0.0
 10
3.9246503248
 20
5.6472277472
 30
0.0
 10
3.9250714637
 20
5.6471979205
 30
0.0
 10
3.9255458982
 20
5.6470497823
 30
0.0
 10
3.926073481
 20
5.6467852994
 30
0.0
 10
3.9266512623
 20
5.6464057551
 30
0.0
 10
3.9272754398
 20
5.6459151899
 30
0.0
 10
3.9279406423
 20
5.6453180184
 30
0.0
 10
3.9289147827
 20
5.644345354
 30
0.0
 10
3.9301805608
 20
5.6428970826
 30
0.0
 10
3.9317049434
 20
5.6409099174
 30
0.0
 10
3.9332295481
 20
5.6386805539
 30
0.0
 10
3.9342041927
 20
5.6371000492
 30
0.0
 10
3.9346805314
 20
5.6362851916
 30
0.0
  0
SPLINE
  5
4A7
100
AcDbEntity
  8
0
100
AcDbSpline
 62
7
  6
CONTINUOUS
 70
0
 71
3
 72
27
 73
23
 74
0
 42
0.0000001
 43
0.0000001
 44
0.0000000001
 40
0.0
 40
0.0
 40
0.0
 40
0.0
 40
0.0627352582
 40
0.1253894328
 40
0.1567330573
 40
0.1880523722
 40
0.2193400246
 40
0.2505981338
 40
0.3130020828
 40
0.375346092
 40
0.4376264534
 40
0.4998843383
 40
0.5310456375
 40
0.5622107898
 40
0.6245084995
 40
0.6868712969
 40
0.7181101457
 40
0.7493665825
 40
0.8118933961
 40
0.8745183027
 40
0.9372123024
 40
1.0
 40
1.0
 40
1.0
 40
1.0
 10
5.3665583329
 20
5.8376892301
 30
0.0
 10
5.3636299172
 20
5.8352490094
 30
0.0
 10
5.3581848534
 20
5.8298480625
 30
0.0
 10
5.3528038337
 20
5.8219180745
 30
0.0
 10
5.3494249286
 20
5.8150851332
 30
0.0
 10
5.3473634978
 20
5.8097530913
 30
0.0
 10
5.3457970698
 20
5.8042604589
 30
0.0
 10
5.3443982894
 20
5.7967889061
 30
0.0
 10
5.3439737021
 20
5.7872599701
 30
0.0
 10
5.3455536556
 20
5.7759440084
 30
0.0
 10
5.3491577847
 20
5.7651093726
 30
0.0
 10
5.353771325
 20
5.756783718
 30
0.0
 10
5.3583164573
 20
5.7507187863
 30
0.0
 10
5.3634030491
 20
5.7450966636
 30
0.0
 10
5.3706972654
 20
5.7389720497
 30
0.0
 10
5.3789936991
 20
5.734283885
 30
0.0
 10
5.3860566892
 20
5.7314887501
 30
0.0
 10
5.3933583678
 20
5.7293585031
 30
0.0
 10
5.4028195785
 20
5.7279775221
 30
0.0
 10
5.4142877297
 20
5.7284060068
 30
0.0
 10
5.4255013006
 20
5.7309387656
 30
0.0
 10
5.4325307743
 20
5.7340207792
 30
0.0
 10
5.4358780218
 20
5.7358512249
 30
0.0
  0
SPLINE
  5
4A8
100
AcDbEntity
  8
0
100
AcDbSpline
 62
7
  6
CONTINUOUS
 70
0
 71
3
 72
29
 73
25
 74
0
 42
0.0000001
 43
0.0000001
 44
0.0000000001
 40
0.0
 40
0.0
 40
0.0
 40
0.0
 40
0.0627690487
 40
0.0941447189
 40
0.1255047045
 40
0.1568575684
 40
0.1881929696
 40
0.250699303
 40
0.2819406108
 40
0.3131703813
 40
0.3755254673
 40
0.4378059355
 40
0.4689626436
 40
0.5001203198
 40
0.5623692799
 40
0.5935294475
 40
0.6247056155
 40
0.6870609793
 40
0.7494572664
 40
0.8119343286
 40
0.8432638258
 40
0.8746109805
 40
0.9372572456
 40
1.0
 40
1.0
 40
1.0
 40
1.0
 10
5.4461106123
 20
5.7428638752
 30
0.0
 10
5.4490266891
 20
5.7453262131
 30
0.0
 10
5.4530911857
 20
5.7494184933
 30
0.0
 10
5.4576326157
 20
5.7555621986
 30
0.0
 10
5.4605882374
 20
5.7604707482
 30
0.0
 10
5.4630797201
 20
5.7656271442
 30
0.0
 10
5.465766011
 20
5.7727576677
 30
0.0
 10
5.4674769999
 20
5.7802208999
 30
0.0
 10
5.4681166826
 20
5.787802395
 30
0.0
 10
5.4680439261
 20
5.7954017912
 30
0.0
 10
5.4666432201
 20
5.8048318293
 30
0.0
 10
5.4635553991
 20
5.8138464719
 30
0.0
 10
5.4601362881
 20
5.8206178203
 30
0.0
 10
5.4561082545
 20
5.8270418506
 30
0.0
 10
5.4512098522
 20
5.8328857525
 30
0.0
 10
5.4455784959
 20
5.8379655274
 30
0.0
 10
5.4395024681
 20
5.8425157724
 30
0.0
 10
5.4311650603
 20
5.8471465063
 30
0.0
 10
5.4203120088
 20
5.850794473
 30
0.0
 10
5.4108358238
 20
5.852049567
 30
0.0
 10
5.4032179138
 20
5.8520219803
 30
0.0
 10
5.3956212708
 20
5.8513236027
 30
0.0
 10
5.3862782402
 20
5.8491663921
 30
0.0
 10
5.379270324
 20
5.8460314412
 30
0.0
 10
5.3759428096
 20
5.8441654137
 30
0.0
  0
SPLINE
  5
4A9
100
AcDbEntity
  8
0
100
AcDbSpline
 62
7
  6
CONTINUOUS
 70
0
 71
3
 72
34
 73
30
 74
0
 42
0.0000001
 43
0.0000001
 44
0.0000000001
 40
0.0
 40
0.0
 40
0.0
 40
0.0
 40
0.031306115
 40
0.062710911
 40
0.0784360671
 40
0.0941490257
 40
0.1255120135
 40
0.1568148401
 40
0.1880949194
 40
0.2193744916
 40
0.2506398626
 40
0.3130019883
 40
0.3441786815
 40
0.3753383915
 40
0.4064862307
 40
0.4376246727
 40
0.4998151039
 40
0.5620122704
 40
0.5931629619
 40
0.6243298367
 40
0.686660205
 40
0.7491070653
 40
0.7803964964
 40
0.8116933863
 40
0.8743236485
 40
0.9057692774
 40
0.9372534362
 40
0.9686795052
 40
1.0
 40
1.0
 40
1.0
 40
1.0
 10
5.6128660932
 20
6.5238903561
 30
0.0
 10
5.6133984693
 20
6.521933614
 30
0.0
 10
5.6147197681
 20
6.5180798905
 30
0.0
 10
5.616903789
 20
6.5134822025
 30
0.0
 10
5.6189180156
 20
6.5099433022
 30
0.0
 10
5.6210915468
 20
6.5065032241
 30
0.0
 10
5.624099567
 20
6.5024032435
 30
0.0
 10
5.6281573185
 20
6.4978553537
 30
0.0
 10
5.6326441961
 20
6.493737394
 30
0.0
 10
5.6375176557
 20
6.4900885425
 30
0.0
 10
5.644445513
 20
6.4858903284
 30
0.0
 10
5.6519550022
 20
6.482733287
 30
0.0
 10
5.6597888945
 20
6.4807246123
 30
0.0
 10
5.6657842082
 20
6.4798031041
 30
0.0
 10
5.6718379914
 20
6.4794702018
 30
0.0
 10
5.6799042919
 20
6.4798178283
 30
0.0
 10
5.689866457
 20
6.4817245548
 30
0.0
 10
5.6992652716
 20
6.4855391101
 30
0.0
 10
5.7062279686
 20
6.4896323735
 30
0.0
 10
5.7127632058
 20
6.4943930541
 30
0.0
 10
5.7200243039
 20
6.5015140569
 30
0.0
 10
5.7257556415
 20
6.509925721
 30
0.0
 10
5.72929196
 20
6.5172249897
 30
0.0
 10
5.7320895715
 20
6.5248500283
 30
0.0
 10
5.7337381817
 20
6.5328643157
 30
0.0
 10
5.7342278502
 20
6.5409914785
 30
0.0
 10
5.734014073
 20
6.5471102631
 30
0.0
 10
5.7331823039
 20
6.5531676969
 30
0.0
 10
5.7321897943
 20
6.5571200387
 30
0.0
 10
5.7315793184
 20
6.5590548156
 30
0.0
  0
SPLINE
  5
4AA
100
AcDbEntity
  8
0
100
AcDbSpline
 62
7
  6
CONTINUOUS
 70
0
 71
3
 72
31
 73
27
 74
0
 42
0.0000001
 43
0.0000001
 44
0.0000000001
 40
0.0
 40
0.0
 40
0.0
 40
0.0
 40
0.0627516883
 40
0.1253990307
 40
0.1567447049
 40
0.1880698717
 40
0.2505451497
 40
0.3129262217
 40
0.3752532891
 40
0.4375068074
 40
0.4997402468
 40
0.5308922682
 40
0.5620436442
 40
0.6243214925
 40
0.6555298282
 40
0.6867529542
 40
0.7179799878
 40
0.749219632
 40
0.7804961568
 40
0.8118135591
 40
0.8431535428
 40
0.8744983897
 40
0.9058537189
 40
0.9372458094
 40
0.9686515291
 40
1.0
 40
1.0
 40
1.0
 40
1.0
 10
5.7295243363
 20
6.5648611581
 30
0.0
 10
5.7280388761
 20
6.5685052066
 30
0.0
 10
5.7244010172
 20
6.575540615
 30
0.0
 10
5.7181960766
 20
6.5832493023
 30
0.0
 10
5.7124468141
 20
6.5886212265
 30
0.0
 10
5.7062352121
 20
6.5934329613
 30
0.0
 10
5.697677413
 20
6.5983286381
 30
0.0
 10
5.6864835019
 20
6.602094286
 30
0.0
 10
5.6747972599
 20
6.6036833493
 30
0.0
 10
5.6630297357
 20
6.6030652575
 30
0.0
 10
5.6534944282
 20
6.6007006048
 30
0.0
 10
5.6462468999
 20
6.5977635425
 30
0.0
 10
5.6393102627
 20
6.5941483743
 30
0.0
 10
5.6329166434
 20
6.5895578025
 30
0.0
 10
5.6272554129
 20
6.5841499587
 30
0.0
 10
5.6234016334
 20
6.5797053825
 30
0.0
 10
5.6199886726
 20
6.574911726
 30
0.0
 10
5.6170642173
 20
6.5698009792
 30
0.0
 10
5.6146479109
 20
6.5644258377
 30
0.0
 10
5.6127426751
 20
6.5588430658
 30
0.0
 10
5.6113522571
 20
6.5531060218
 30
0.0
 10
5.6104977911
 20
6.5472622162
 30
0.0
 10
5.6102053496
 20
6.5413593744
 30
0.0
 10
5.6105033882
 20
6.5354527228
 30
0.0
 10
5.6113695612
 20
6.5296041376
 30
0.0
 10
5.6123093648
 20
6.525775753
 30
0.0
 10
5.6128660932
 20
6.5238903561
 30
0.0
  0
SPLINE
  5
4AB
100
AcDbEntity
  8
0
100
AcDbSpline
 62
7
  6
CONTINUOUS
 70
0
 71
3
 72
26
 73
22
 74
0
 42
0.0000001
 43
0.0000001
 44
0.0000000001
 40
0.0
 40
0.0
 40
0.0
 40
0.0
 40
0.0627524914
 40
0.1254246951
 40
0.1880464325
 40
0.2505547784
 40
0.3129813151
 40
0.3753537165
 40
0.4376613469
 40
0.4999357903
 40
0.5622086468
 40
0.6245063971
 40
0.6557046792
 40
0.6869208146
 40
0.7493395563
 40
0.8118351841
 40
0.8744354502
 40
0.9057973752
 40
0.9371743071
 40
0.9685715282
 40
1.0
 40
1.0
 40
1.0
 40
1.0
 10
5.5561234865
 20
6.6568375896
 30
0.0
 10
5.5582789275
 20
6.6538494499
 30
0.0
 10
5.5631011038
 20
6.6482222063
 30
0.0
 10
5.5717632593
 20
6.6412799295
 30
0.0
 10
5.5814945907
 20
6.6359772265
 30
0.0
 10
5.5919897551
 20
6.6324533363
 30
0.0
 10
5.6029355716
 20
6.6308861903
 30
0.0
 10
5.6139710714
 20
6.6312744424
 30
0.0
 10
5.6247599239
 20
6.6335896885
 30
0.0
 10
5.6349619463
 20
6.6377803363
 30
0.0
 10
5.6442642064
 20
6.6437013931
 30
0.0
 10
5.6510262491
 20
6.6499363089
 30
0.0
 10
5.6557131405
 20
6.6555728381
 30
0.0
 10
5.659884254
 20
6.6616095149
 30
0.0
 10
5.6640769704
 20
6.66982153
 30
0.0
 10
5.6672606488
 20
6.6804195783
 30
0.0
 10
5.6683206359
 20
6.6895970125
 30
0.0
 10
5.6681901566
 20
6.6969628671
 30
0.0
 10
5.6675992537
 20
6.7024661662
 30
0.0
 10
5.6665102742
 20
6.7078964406
 30
0.0
 10
5.6654520967
 20
6.7114363753
 30
0.0
 10
5.6648463669
 20
6.713179397
 30
0.0
  0
SPLINE
  5
4AC
100
AcDbEntity
  8
0
100
AcDbSpline
 62
7
  6
CONTINUOUS
 70
0
 71
3
 72
28
 73
24
 74
0
 42
0.0000001
 43
0.0000001
 44
0.0000000001
 40
0.0
 40
0.0
 40
0.0
 40
0.0
 40
0.0314021045
 40
0.0627884204
 40
0.0941642925
 40
0.125523281
 40
0.1881147562
 40
0.2506181287
 40
0.2818682248
 40
0.3130973959
 40
0.3754367597
 40
0.4377216016
 40
0.4999799386
 40
0.562241521
 40
0.6245357188
 40
0.6868893907
 40
0.7181267389
 40
0.7493854873
 40
0.8119070398
 40
0.8745163906
 40
0.9058831049
 40
0.937263632
 40
1.0
 40
1.0
 40
1.0
 40
1.0
 10
5.6543495877
 20
6.7320881305
 30
0.0
 10
5.6531667588
 20
6.7335413409
 30
0.0
 10
5.6506691982
 20
6.7363420779
 30
0.0
 10
5.6465600453
 20
6.7401848275
 30
0.0
 10
5.6421200787
 20
6.7436372941
 30
0.0
 10
5.6358183231
 20
6.7476792821
 30
0.0
 10
5.6273006486
 20
6.7516320029
 30
0.0
 10
5.6182163976
 20
6.7539816024
 30
0.0
 10
5.6108012864
 20
6.7548565309
 30
0.0
 10
5.6033474917
 20
6.7550596434
 30
0.0
 10
5.5940475562
 20
6.7540495595
 30
0.0
 10
5.5833011175
 20
6.7508573148
 30
0.0
 10
5.5733049822
 20
6.7457896034
 30
0.0
 10
5.5643790919
 20
6.7390112616
 30
0.0
 10
5.5568119606
 20
6.7307377932
 30
0.0
 10
5.5518387054
 20
6.7228125375
 30
0.0
 10
5.5487628585
 20
6.7160178916
 30
0.0
 10
5.5463083764
 20
6.7089640946
 30
0.0
 10
5.5444510886
 20
6.6997637284
 30
0.0
 10
5.5442835164
 20
6.6903728016
 30
0.0
 10
5.5451663048
 20
6.6829357066
 30
0.0
 10
5.546719185
 20
6.6756034173
 30
0.0
 10
5.5486331278
 20
6.6702806844
 30
0.0
 10
5.5502121347
 20
6.6668865671
 30
0.0
  0
SPLINE
  5
4AD
100
AcDbEntity
  8
0
100
AcDbSpline
 62
7
  6
CONTINUOUS
 70
0
 71
3
 72
27
 73
23
 74
0
 42
0.0000001
 43
0.0000001
 44
0.0000000001
 40
0.0
 40
0.0
 40
0.0
 40
0.0
 40
0.06273682
 40
0.1253913437
 40
0.1567333035
 40
0.1880520609
 40
0.2193396952
 40
0.2505976801
 40
0.3130012642
 40
0.3753457309
 40
0.437626049
 40
0.4998840415
 40
0.5310454187
 40
0.56221062
 40
0.624508315
 40
0.6868711465
 40
0.7181099342
 40
0.7493663142
 40
0.8118931354
 40
0.874518122
 40
0.9372121377
 40
1.0
 40
1.0
 40
1.0
 40
1.0
 10
5.4800234799
 20
5.9362383441
 30
0.0
 10
5.4777693079
 20
5.9331633574
 30
0.0
 10
5.4737934046
 20
5.9266028558
 30
0.0
 10
5.470484569
 20
5.9176074915
 30
0.0
 10
5.4688528074
 20
5.9101599551
 30
0.0
 10
5.4681380466
 20
5.9044871465
 30
0.0
 10
5.4679428205
 20
5.8987777344
 30
0.0
 10
5.4683888069
 20
5.8911879396
 30
0.0
 10
5.4702784795
 20
5.8818366181
 30
0.0
 10
5.4745446979
 20
5.8712348566
 30
0.0
 10
5.4806591297
 20
5.8615887948
 30
0.0
 10
5.4871481491
 20
5.8546223505
 30
0.0
 10
5.4930248216
 20
5.8498338674
 30
0.0
 10
5.4993201132
 20
5.8456060872
 30
0.0
 10
5.5078795463
 20
5.8414240672
 30
0.0
 10
5.5170647396
 20
5.8388787449
 30
0.0
 10
5.5245953385
 20
5.8378728665
 30
0.0
 10
5.5321969194
 20
5.8375702647
 30
0.0
 10
5.541713335
 20
5.8385170015
 30
0.0
 10
5.5527401142
 20
5.8417053675
 30
0.0
 10
5.5630108711
 20
5.8468749647
 30
0.0
 10
5.5690877557
 20
5.8515662138
 30
0.0
 10
5.5718936245
 20
5.854152253
 30
0.0
  0
SPLINE
  5
4AE
100
AcDbEntity
  8
0
100
AcDbSpline
 62
7
  6
CONTINUOUS
 70
0
 71
3
 72
29
 73
25
 74
0
 42
0.0000001
 43
0.0000001
 44
0.0000000001
 40
0.0
 40
0.0
 40
0.0
 40
0.0
 40
0.062768388
 40
0.0941435813
 40
0.1255031946
 40
0.1568558543
 40
0.1881910911
 40
0.2506966031
 40
0.2819374483
 40
0.3131668919
 40
0.3755214564
 40
0.4378011572
 40
0.4689574999
 40
0.5001148884
 40
0.562363346
 40
0.5935233313
 40
0.6246993103
 40
0.6870539363
 40
0.7494500187
 40
0.8119294804
 40
0.8432582416
 40
0.8746025542
 40
0.9372518661
 40
1.0
 40
1.0
 40
1.0
 40
1.0
 10
5.5801309384
 20
5.8634364266
 30
0.0
 10
5.5823654328
 20
5.8665319144
 30
0.0
 10
5.5853200266
 20
5.8714874033
 30
0.0
 10
5.58824043
 20
5.878549597
 30
0.0
 10
5.5899205527
 20
5.8840291661
 30
0.0
 10
5.5910901371
 20
5.8896369339
 30
0.0
 10
5.5919709097
 20
5.8972078157
 30
0.0
 10
5.5918245211
 20
5.9048654983
 30
0.0
 10
5.5906091141
 20
5.9123784442
 30
0.0
 10
5.5886976295
 20
5.9197361452
 30
0.0
 10
5.5850535148
 20
5.9285486859
 30
0.0
 10
5.579872456
 20
5.9365491843
 30
0.0
 10
5.5749131296
 20
5.9422919861
 30
0.0
 10
5.5694468678
 20
5.9475499877
 30
0.0
 10
5.5632763277
 20
5.9520337611
 30
0.0
 10
5.5565796461
 20
5.9555980767
 30
0.0
 10
5.549579807
 20
5.9585406067
 30
0.0
 10
5.5403658069
 20
5.9610128447
 30
0.0
 10
5.5289484895
 20
5.9619202372
 30
0.0
 10
5.5194479078
 20
5.9608383487
 30
0.0
 10
5.5120623925
 20
5.9589618898
 30
0.0
 10
5.5048606657
 20
5.9564383444
 30
0.0
 10
5.4963188996
 20
5.952076785
 30
0.0
 10
5.4902706092
 20
5.9473432357
 30
0.0
 10
5.4874952371
 20
5.944723519
 30
0.0
  0
SPLINE
  5
4AF
100
AcDbEntity
  8
0
100
AcDbSpline
 62
7
  6
CONTINUOUS
 70
0
 71
3
 72
27
 73
23
 74
0
 42
0.0000001
 43
0.0000001
 44
0.0000000001
 40
0.0
 40
0.0
 40
0.0
 40
0.0
 40
0.0627352582
 40
0.1253894328
 40
0.1567330573
 40
0.1880523722
 40
0.2193400246
 40
0.2505981338
 40
0.3130020828
 40
0.375346092
 40
0.4376264534
 40
0.4998843383
 40
0.5310456375
 40
0.5622107898
 40
0.6245084995
 40
0.6868712969
 40
0.7181101457
 40
0.7493665825
 40
0.8118933961
 40
0.8745183027
 40
0.9372123024
 40
1.0
 40
1.0
 40
1.0
 40
1.0
 10
4.7711117072
 20
5.7859071805
 30
0.0
 10
4.7674904587
 20
5.7870974978
 30
0.0
 10
4.7600247518
 20
5.788853108
 30
0.0
 10
4.7504482346
 20
5.7892142182
 30
0.0
 10
4.7428630249
 20
5.7884587849
 30
0.0
 10
4.737248805
 20
5.7873814257
 30
0.0
 10
4.7317607082
 20
5.7857991802
 30
0.0
 10
4.7246832314
 20
5.7830260935
 30
0.0
 10
4.7163772383
 20
5.7783365972
 30
0.0
 10
4.7076180064
 20
5.7710001746
 30
0.0
 10
4.7003396115
 20
5.7622022175
 30
0.0
 10
4.6957238599
 20
5.7538777887
 30
0.0
 10
4.6929890593
 20
5.7468093737
 30
0.0
 10
4.6909167118
 20
5.7395164281
 30
0.0
 10
4.6895880904
 20
5.730085031
 30
0.0
 10
4.6900087413
 20
5.7205649074
 30
0.0
 10
4.691381147
 20
5.7130939562
 30
0.0
 10
4.6934438952
 20
5.7057729227
 30
0.0
 10
4.6972864348
 20
5.6970175525
 30
0.0
 10
4.7037270046
 20
5.687519071
 30
0.0
 10
4.7118171931
 20
5.6793515813
 30
0.0
 10
4.7181559424
 20
5.6750234679
 30
0.0
 10
4.7214820193
 20
5.6731548295
 30
0.0
  0
SPLINE
  5
4B0
100
AcDbEntity
  8
0
100
AcDbSpline
 62
7
  6
CONTINUOUS
 70
0
 71
3
 72
9
 73
5
 74
0
 42
0.0000001
 43
0.0000001
 44
0.0000000001
 40
0.0
 40
0.0
 40
0.0
 40
0.0
 40
0.249678922
 40
1.0
 40
1.0
 40
1.0
 40
1.0
 10
4.7270826974
 20
5.6703512764
 30
0.0
 10
4.7280192785
 20
5.6699517921
 30
0.0
 10
4.7318059079
 20
5.6684367276
 30
0.0
 10
4.7357327317
 20
5.6672686285
 30
0.0
 10
4.7387216029
 20
5.6666131726
 30
0.0
  0
SPLINE
  5
4B1
100
AcDbEntity
  8
0
100
AcDbSpline
 62
7
  6
CONTINUOUS
 70
0
 71
3
 72
32
 73
28
 74
0
 42
0.0000001
 43
0.0000001
 44
0.0000000001
 40
0.0
 40
0.0
 40
0.0
 40
0.0
 40
0.0314075419
 40
0.0627820833
 40
0.0941415883
 40
0.1254921889
 40
0.1880684699
 40
0.2193409787
 40
0.2505874524
 40
0.2818196402
 40
0.3130396002
 40
0.3442424427
 40
0.3754259533
 40
0.4376946811
 40
0.4999496321
 40
0.5311044796
 40
0.5622568644
 40
0.6245416726
 40
0.6869132784
 40
0.7181417191
 40
0.7493743867
 40
0.8118675548
 40
0.8432013434
 40
0.8745496145
 40
0.9058991302
 40
0.937259527
 40
1.0
 40
1.0
 40
1.0
 40
1.0
 10
4.7387216029
 20
5.6666131726
 30
0.0
 10
4.7405249431
 20
5.6662177023
 30
0.0
 10
4.7441672009
 20
5.6655861968
 30
0.0
 10
4.7496919017
 20
5.6651560883
 30
0.0
 10
4.7552298998
 20
5.6652330835
 30
0.0
 10
4.762562493
 20
5.665991237
 30
0.0
 10
4.7697650132
 20
5.6677095981
 30
0.0
 10
4.7766370909
 20
5.6703468138
 30
0.0
 10
4.7815909964
 20
5.6727792993
 30
0.0
 10
4.7863013365
 20
5.6756479076
 30
0.0
 10
4.7907360427
 20
5.6789219801
 30
0.0
 10
4.7948613269
 20
5.6825745648
 30
0.0
 10
4.7999003447
 20
5.6879052187
 30
0.0
 10
4.8052873487
 20
5.6953680572
 30
0.0
 10
4.8092628311
 20
5.7036676154
 30
0.0
 10
4.8115247969
 20
5.7106403498
 30
0.0
 10
4.8131527145
 20
5.7177899452
 30
0.0
 10
4.8139794972
 20
5.726961796
 30
0.0
 10
4.8132035723
 20
5.7361419409
 30
0.0
 10
4.8116203823
 20
5.743316153
 30
0.0
 10
4.809387776
 20
5.7503228759
 30
0.0
 10
4.806183704
 20
5.756991571
 30
0.0
 10
4.8021622744
 20
5.7631609068
 30
0.0
 10
4.7987567001
 20
5.7675236683
 30
0.0
 10
4.7949800336
 20
5.7715723267
 30
0.0
 10
4.7894756407
 20
5.77649129
 30
0.0
 10
4.7848399304
 20
5.7795816505
 30
0.0
 10
4.7816069531
 20
5.7813562547
 30
0.0
  0
SPLINE
  5
4B2
100
AcDbEntity
  8
0
100
AcDbSpline
 62
7
  6
CONTINUOUS
 70
0
 71
3
 72
26
 73
22
 74
0
 42
0.0000001
 43
0.0000001
 44
0.0000000001
 40
0.0
 40
0.0
 40
0.0
 40
0.0
 40
0.0627523948
 40
0.12542448
 40
0.188046288
 40
0.2505545366
 40
0.3129809768
 40
0.3753533223
 40
0.4376608728
 40
0.4999352577
 40
0.5622081029
 40
0.6245059019
 40
0.6557041836
 40
0.6869202605
 40
0.7493387232
 40
0.811834291
 40
0.8744345065
 40
0.9057962596
 40
0.9371732338
 40
0.9685709006
 40
1.0
 40
1.0
 40
1.0
 40
1.0
 10
5.2326516242
 20
5.7695481647
 30
0.0
 10
5.2293344903
 20
5.7679442085
 30
0.0
 10
5.2229550979
 20
5.7641723009
 30
0.0
 10
5.2146140558
 20
5.7568465692
 30
0.0
 10
5.2077022084
 20
5.748183184
 30
0.0
 10
5.2024095683
 20
5.7384587337
 30
0.0
 10
5.1989659888
 20
5.7279506776
 30
0.0
 10
5.1974327383
 20
5.717014837
 30
0.0
 10
5.1978401887
 20
5.7059874087
 30
0.0
 10
5.2001965615
 20
5.695212399
 30
0.0
 10
5.2044134013
 20
5.6850231904
 30
0.0
 10
5.2093803243
 20
5.6772813181
 30
0.0
 10
5.2141180921
 20
5.6716870646
 30
0.0
 10
5.2193394652
 20
5.6665313551
 30
0.0
 10
5.2266995932
 20
5.6609768998
 30
0.0
 10
5.2365849818
 20
5.6560025451
 30
0.0
 10
5.2454397068
 20
5.6533663088
 30
0.0
 10
5.2527167801
 20
5.6522167078
 30
0.0
 10
5.2582393784
 20
5.651843604
 30
0.0
 10
5.2637765421
 20
5.6519734635
 30
0.0
 10
5.267446666
 20
5.6524009318
 30
0.0
 10
5.2692684948
 20
5.6526948836
 30
0.0
  0
SPLINE
  5
4B3
100
AcDbEntity
  8
0
100
AcDbSpline
 62
7
  6
CONTINUOUS
 70
0
 71
3
 72
34
 73
30
 74
0
 42
0.0000001
 43
0.0000001
 44
0.0000000001
 40
0.0
 40
0.0
 40
0.0
 40
0.0
 40
0.0627720358
 40
0.0941723852
 40
0.1255152484
 40
0.1568157382
 40
0.1881001496
 40
0.2193757833
 40
0.2506362634
 40
0.3130277809
 40
0.3442279029
 40
0.3754084931
 40
0.406572236
 40
0.4377184644
 40
0.4688506863
 40
0.4999803707
 40
0.5311162082
 40
0.5622654964
 40
0.6245317043
 40
0.6868556643
 40
0.718085183
 40
0.7493406779
 40
0.8118600979
 40
0.8431882698
 40
0.8745308972
 40
0.9058861423
 40
0.9372657906
 40
0.9686582413
 40
1.0
 40
1.0
 40
1.0
 40
1.0
 10
5.2864121533
 20
5.6579927177
 30
0.0
 10
5.289973544
 20
5.6596996611
 30
0.0
 10
5.2950594306
 20
5.6628354065
 30
0.0
 10
5.3011579757
 20
5.6678617512
 30
0.0
 10
5.3053619541
 20
5.6720389828
 30
0.0
 10
5.3091467812
 20
5.6765889991
 30
0.0
 10
5.3124700909
 20
5.6814814487
 30
0.0
 10
5.3153089576
 20
5.6866675225
 30
0.0
 10
5.3184138313
 20
5.6938980132
 30
0.0
 10
5.3204659258
 20
5.7015390044
 30
0.0
 10
5.3214098422
 20
5.7093410815
 30
0.0
 10
5.3215560531
 20
5.7152341884
 30
0.0
 10
5.3211432548
 20
5.7211103178
 30
0.0
 10
5.3201764817
 20
5.72691832
 30
0.0
 10
5.3186587582
 20
5.7326050615
 30
0.0
 10
5.3166087888
 20
5.7381212707
 30
0.0
 10
5.3140462633
 20
5.7434206988
 30
0.0
 10
5.309975917
 20
5.7501281238
 30
0.0
 10
5.3037230012
 20
5.757753946
 30
0.0
 10
5.2961265693
 20
5.7640506349
 30
0.0
 10
5.2894226248
 20
5.7681595833
 30
0.0
 10
5.2823471446
 20
5.7716150344
 30
0.0
 10
5.2748029631
 20
5.7740496036
 30
0.0
 10
5.2670303505
 20
5.7753791094
 30
0.0
 10
5.2611210175
 20
5.7758147608
 30
0.0
 10
5.255194191
 20
5.7756745305
 30
0.0
 10
5.2493077323
 20
5.7749442391
 30
0.0
 10
5.243517808
 20
5.7736680912
 30
0.0
 10
5.2397474771
 20
5.7724814719
 30
0.0
 10
5.2378931162
 20
5.7718109153
 30
0.0
  0
SPLINE
  5
4B4
100
AcDbEntity
  8
0
100
AcDbSpline
 62
7
  6
CONTINUOUS
 70
0
 71
3
 72
31
 73
27
 74
0
 42
0.0000001
 43
0.0000001
 44
0.0000000001
 40
0.0
 40
0.0
 40
0.0
 40
0.0
 40
0.0313475707
 40
0.0627432849
 40
0.0941211472
 40
0.1254733244
 40
0.1568147522
 40
0.1881394589
 40
0.2506199613
 40
0.3130016339
 40
0.3753236427
 40
0.4375763382
 40
0.4998025644
 40
0.5309525042
 40
0.562107405
 40
0.6243800998
 40
0.6867241796
 40
0.7179590521
 40
0.7492171818
 40
0.8117467069
 40
0.8430860172
 40
0.8744425306
 40
0.9058196083
 40
0.9372302977
 40
0.9686472261
 40
1.0
 40
1.0
 40
1.0
 40
1.0
 10
5.6376513203
 20
6.375779679
 30
0.0
 10
5.6377547169
 20
6.373752306
 30
0.0
 10
5.6381434989
 20
6.3697012169
 30
0.0
 10
5.6392867084
 20
6.3637053015
 30
0.0
 10
5.6410146925
 20
6.3578488158
 30
0.0
 10
5.6433338785
 20
6.3522044989
 30
0.0
 10
5.6461976108
 20
6.3468200737
 30
0.0
 10
5.6506828376
 20
6.3400582367
 30
0.0
 10
5.6574736604
 20
6.3324668204
 30
0.0
 10
5.6672525475
 20
6.3251717535
 30
0.0
 10
5.6782486498
 20
6.3199247176
 30
0.0
 10
5.6900399693
 20
6.3169018796
 30
0.0
 10
5.7001736754
 20
6.316353492
 30
0.0
 10
5.7082148747
 20
6.3170963911
 30
0.0
 10
5.7161476263
 20
6.3186251534
 30
0.0
 10
5.7257346733
 20
6.3219756921
 30
0.0
 10
5.7344896151
 20
6.3271337465
 30
0.0
 10
5.7407883616
 20
6.3322201146
 30
0.0
 10
5.7465589557
 20
6.3379139989
 30
0.0
 10
5.751469658
 20
6.3444362822
 30
0.0
 10
5.7553568469
 20
6.3515643496
 30
0.0
 10
5.7577400773
 20
6.3571822362
 30
0.0
 10
5.7595525087
 20
6.3630140293
 30
0.0
 10
5.7607618183
 20
6.3690040615
 30
0.0
 10
5.7613851995
 20
6.3750798001
 30
0.0
 10
5.7614207287
 20
6.3791513317
 30
0.0
 10
5.7613453081
 20
6.3811802753
 30
0.0
  0
SPLINE
  5
4B5
100
AcDbEntity
  8
0
100
AcDbSpline
 62
7
  6
CONTINUOUS
 70
0
 71
3
 72
34
 73
30
 74
0
 42
0.0000001
 43
0.0000001
 44
0.0000000001
 40
0.0
 40
0.0
 40
0.0
 40
0.0
 40
0.0313477679
 40
0.0627566274
 40
0.0941508224
 40
0.1255080411
 40
0.1568519267
 40
0.1881868373
 40
0.2506995894
 40
0.2819382415
 40
0.313157755
 40
0.3443672779
 40
0.3755608364
 40
0.4378114739
 40
0.4689541804
 40
0.5000971684
 40
0.5623081297
 40
0.6245471867
 40
0.6557374831
 40
0.6869484657
 40
0.7181655226
 40
0.749390342
 40
0.8118738133
 40
0.8432025752
 40
0.874538052
 40
0.9058820701
 40
0.9372617835
 40
0.9686590995
 40
1.0
 40
1.0
 40
1.0
 40
1.0
 10
5.7613453081
 20
6.3811802753
 30
0.0
 10
5.7612452433
 20
6.383208312
 30
0.0
 10
5.7608593982
 20
6.3872617552
 30
0.0
 10
5.7597146682
 20
6.3932607893
 30
0.0
 10
5.7579878133
 20
6.3991214549
 30
0.0
 10
5.7556651383
 20
6.4047678151
 30
0.0
 10
5.7527918479
 20
6.4101504278
 30
0.0
 10
5.7482926085
 20
6.4169078106
 30
0.0
 10
5.7428467548
 20
6.4229884564
 30
0.0
 10
5.7366089251
 20
6.4281641166
 30
0.0
 10
5.7315646064
 20
6.4315543874
 30
0.0
 10
5.7262140079
 20
6.4344300108
 30
0.0
 10
5.7187547425
 20
6.4375459785
 30
0.0
 10
5.7108766246
 20
6.439556823
 30
0.0
 10
5.7028428044
 20
6.440391473
 30
0.0
 10
5.694767346
 20
6.4404322716
 30
0.0
 10
5.6847211
 20
6.4390024514
 30
0.0
 10
5.6751486447
 20
6.4356283316
 30
0.0
 10
5.6679900274
 20
6.4318734069
 30
0.0
 10
5.6629087063
 20
6.4285460075
 30
0.0
 10
5.6581753745
 20
6.4247352644
 30
0.0
 10
5.6524088431
 20
6.4190424045
 30
0.0
 10
5.6475378228
 20
6.4124945675
 30
0.0
 10
5.643659175
 20
6.4053669791
 30
0.0
 10
5.6412649772
 20
6.3997571611
 30
0.0
 10
5.639432238
 20
6.3939361147
 30
0.0
 10
5.6382065421
 20
6.3879529703
 30
0.0
 10
5.6375854486
 20
6.3818789779
 30
0.0
 10
5.6375645031
 20
6.3778078807
 30
0.0
 10
5.6376513203
 20
6.375779679
 30
0.0
  0
SPLINE
  5
4B6
100
AcDbEntity
  8
0
100
AcDbSpline
 62
7
  6
CONTINUOUS
 70
0
 71
3
 72
28
 73
24
 74
0
 42
0.0000001
 43
0.0000001
 44
0.0000000001
 40
0.0
 40
0.0
 40
0.0
 40
0.0
 40
0.0627552398
 40
0.125433305
 40
0.1567682888
 40
0.1880772897
 40
0.250561229
 40
0.3129660445
 40
0.3441688284
 40
0.3753507399
 40
0.4376139729
 40
0.4998589862
 40
0.5310124576
 40
0.5621705399
 40
0.6244580716
 40
0.6868118738
 40
0.718046604
 40
0.7493013408
 40
0.7805843718
 40
0.811894892
 40
0.8745098422
 40
0.9372078497
 40
1.0
 40
1.0
 40
1.0
 40
1.0
 10
4.6514935494
 20
5.8563517617
 30
0.0
 10
4.6542865552
 20
5.8537545764
 30
0.0
 10
4.6594168114
 20
5.8480486541
 30
0.0
 10
4.6643807487
 20
5.8398487204
 30
0.0
 10
4.6673937255
 20
5.8328432301
 30
0.0
 10
4.6697433419
 20
5.8256007759
 30
0.0
 10
4.6714171256
 20
5.8161984966
 30
0.0
 10
4.6713338195
 20
5.8066552438
 30
0.0
 10
4.6702263431
 20
5.7991429315
 30
0.0
 10
4.6684307371
 20
5.7917736312
 30
0.0
 10
4.6649324396
 20
5.782921192
 30
0.0
 10
4.6598760436
 20
5.774858965
 30
0.0
 10
4.655010058
 20
5.7690479635
 30
0.0
 10
4.6496265625
 20
5.7637091307
 30
0.0
 10
4.6420103525
 20
5.757989014
 30
0.0
 10
4.6334717482
 20
5.7537558231
 30
0.0
 10
4.6262670814
 20
5.7513477536
 30
0.0
 10
4.6207088583
 20
5.7500504908
 30
0.0
 10
4.6150497962
 20
5.7492745609
 30
0.0
 10
4.6074392916
 20
5.748932795
 30
0.0
 10
4.5979027098
 20
5.7498133626
 30
0.0
 10
4.5868431101
 20
5.7529446081
 30
0.0
 10
4.5799773271
 20
5.7563843685
 30
0.0
 10
4.5767350607
 20
5.7583970974
 30
0.0
  0
SPLINE
  5
4B7
100
AcDbEntity
  8
0
100
AcDbSpline
 62
7
  6
CONTINUOUS
 70
0
 71
3
 72
31
 73
27
 74
0
 42
0.0000001
 43
0.0000001
 44
0.0000000001
 40
0.0
 40
0.0
 40
0.0
 40
0.0
 40
0.0313475707
 40
0.0627432849
 40
0.0941211472
 40
0.1254733244
 40
0.1568147522
 40
0.1881394589
 40
0.2506199613
 40
0.3130016339
 40
0.3753236427
 40
0.4375763382
 40
0.4998025644
 40
0.5309525042
 40
0.562107405
 40
0.6243800998
 40
0.6867241797
 40
0.7179590521
 40
0.7492171818
 40
0.8117467069
 40
0.8430860173
 40
0.8744425307
 40
0.9058196083
 40
0.9372302977
 40
0.9686472261
 40
1.0
 40
1.0
 40
1.0
 40
1.0
 10
5.0382542897
 20
6.9648055005
 30
0.0
 10
5.0402839367
 20
6.9647672228
 30
0.0
 10
5.0443522776
 20
6.9648724681
 30
0.0
 10
5.0504133335
 20
6.9655946389
 30
0.0
 10
5.0563760912
 20
6.9669098858
 30
0.0
 10
5.0621684371
 20
6.9688296948
 30
0.0
 10
5.0677395099
 20
6.9713108527
 30
0.0
 10
5.0747977491
 20
6.9753134718
 30
0.0
 10
5.0828443769
 20
6.981558202
 30
0.0
 10
5.0908038141
 20
6.9908043901
 30
0.0
 10
5.0968051178
 20
7.0014076918
 30
0.0
 10
5.1006431132
 20
7.0129594256
 30
0.0
 10
5.1018970565
 20
7.0230301929
 30
0.0
 10
5.1017168928
 20
7.0311036263
 30
0.0
 10
5.1007452152
 20
7.0391236952
 30
0.0
 10
5.0980715969
 20
7.0489211104
 30
0.0
 10
5.0935368212
 20
7.0580145333
 30
0.0
 10
5.0889022216
 20
7.0646527434
 30
0.0
 10
5.0836247436
 20
7.070806466
 30
0.0
 10
5.0774609015
 20
7.0761601775
 30
0.0
 10
5.0706213543
 20
7.0805351263
 30
0.0
 10
5.0651833984
 20
7.0833044353
 30
0.0
 10
5.0594922401
 20
7.085519257
 30
0.0
 10
5.0536011565
 20
7.0871434643
 30
0.0
 10
5.047583703
 20
7.0881891491
 30
0.0
 10
5.0435245678
 20
7.0885086075
 30
0.0
 10
5.0414953056
 20
7.0885749027
 30
0.0
  0
SPLINE
  5
4B8
100
AcDbEntity
  8
0
100
AcDbSpline
 62
7
  6
CONTINUOUS
 70
0
 71
3
 72
31
 73
27
 74
0
 42
0.0000001
 43
0.0000001
 44
0.0000000001
 40
0.0
 40
0.0
 40
0.0
 40
0.0
 40
0.0313479737
 40
0.0627451815
 40
0.0941275293
 40
0.1254832911
 40
0.1568279774
 40
0.1881585439
 40
0.2506627189
 40
0.2819052716
 40
0.3131332149
 40
0.3443485607
 40
0.3755459691
 40
0.4067251617
 40
0.4378887819
 40
0.4690427203
 40
0.5001946419
 40
0.5313461768
 40
0.5624990243
 40
0.6247633197
 40
0.6870900846
 40
0.7494849891
 40
0.8119759365
 40
0.8745707993
 40
0.9372372659
 40
1.0
 40
1.0
 40
1.0
 40
1.0
 10
4.441354256
 20
6.5545674732
 30
0.0
 10
4.4419965206
 20
6.5564242735
 30
0.0
 10
4.4431217753
 20
6.560198639
 30
0.0
 10
4.4442958012
 20
6.5659881925
 30
0.0
 10
4.4449167234
 20
6.5718650803
 30
0.0
 10
4.4449492839
 20
6.5777710458
 30
0.0
 10
4.4444148819
 20
6.5836496455
 30
0.0
 10
4.442972766
 20
6.5913700785
 30
0.0
 10
4.4404579228
 20
6.598854045
 30
0.0
 10
4.4369170056
 20
6.6058514659
 30
0.0
 10
4.4337685456
 20
6.6108190226
 30
0.0
 10
4.430166517
 20
6.6154634746
 30
0.0
 10
4.4261439744
 20
6.6197449377
 30
0.0
 10
4.4217390157
 20
6.6236267177
 30
0.0
 10
4.4169910161
 20
6.6270760564
 30
0.0
 10
4.4119378512
 20
6.630057476
 30
0.0
 10
4.4066257102
 20
6.6325458273
 30
0.0
 10
4.4011024517
 20
6.6345232414
 30
0.0
 10
4.3935261523
 20
6.6364481442
 30
0.0
 10
4.3837575483
 20
6.6374976437
 30
0.0
 10
4.37200968
 20
6.6365297201
 30
0.0
 10
4.3606368308
 20
6.6333618031
 30
0.0
 10
4.3500634595
 20
6.6280756636
 30
0.0
 10
4.3406499425
 20
6.6208992441
 30
0.0
 10
4.3327497048
 20
6.6120577624
 30
0.0
 10
4.3287329458
 20
6.6052348549
 30
0.0
 10
4.3270501288
 20
6.601679312
 30
0.0
  0
SPLINE
  5
4B9
100
AcDbEntity
  8
0
100
AcDbSpline
 62
7
  6
CONTINUOUS
 70
0
 71
3
 72
9
 73
5
 74
0
 42
0.0000001
 43
0.0000001
 44
0.0000000001
 40
0.0
 40
0.0
 40
0.0
 40
0.0
 40
0.2496738792
 40
1.0
 40
1.0
 40
1.0
 40
1.0
 10
4.3246440887
 20
6.5958967109
 30
0.0
 10
4.3243105793
 20
6.5949376701
 30
0.0
 10
4.3230626531
 20
6.5910666552
 30
0.0
 10
4.3221725247
 20
6.5870791029
 30
0.0
 10
4.3217277569
 20
6.584060259
 30
0.0
  0
SPLINE
  5
4BA
100
AcDbEntity
  8
0
100
AcDbSpline
 62
7
  6
CONTINUOUS
 70
0
 71
3
 72
30
 73
26
 74
0
 42
0.0000001
 43
0.0000001
 44
0.0000000001
 40
0.0
 40
0.0
 40
0.0
 40
0.0
 40
0.0314126072
 40
0.0627898401
 40
0.0941517665
 40
0.1255069602
 40
0.1880970914
 40
0.2193724259
 40
0.2506191535
 40
0.2818526754
 40
0.3130770235
 40
0.3754135701
 40
0.4376843012
 40
0.4999412168
 40
0.5311005959
 40
0.5622590343
 40
0.6245529665
 40
0.6869297818
 40
0.7181629988
 40
0.74940167
 40
0.8119050376
 40
0.8432412133
 40
0.8745910372
 40
0.9372474687
 40
1.0
 40
1.0
 40
1.0
 40
1.0
 10
4.3217277569
 20
6.584060259
 30
0.0
 10
4.3214585415
 20
6.5822329705
 30
0.0
 10
4.3210824585
 20
6.5785540053
 30
0.0
 10
4.3210393922
 20
6.5730105928
 30
0.0
 10
4.3215028802
 20
6.5674893605
 30
0.0
 10
4.3227696261
 20
6.5602240916
 30
0.0
 10
4.324978922
 20
6.5531535449
 30
0.0
 10
4.3280830797
 20
6.5464758285
 30
0.0
 10
4.3308536703
 20
6.541700627
 30
0.0
 10
4.3340462304
 20
6.5372007145
 30
0.0
 10
4.3388129488
 20
6.5316116649
 30
0.0
 10
4.3456690768
 20
6.525454933
 30
0.0
 10
4.3550507558
 20
6.5196306515
 30
0.0
 10
4.3636125415
 20
6.5162437719
 30
0.0
 10
4.3707289541
 20
6.5144745985
 30
0.0
 10
4.3779777282
 20
6.5133482671
 30
0.0
 10
4.3871886008
 20
6.5131580375
 30
0.0
 10
4.3962962484
 20
6.5145742346
 30
0.0
 10
4.4033443101
 20
6.5166587341
 30
0.0
 10
4.4101797162
 20
6.5193798947
 30
0.0
 10
4.4166099141
 20
6.5230451351
 30
0.0
 10
4.4224842673
 20
6.5274919643
 30
0.0
 10
4.4279663457
 20
6.5324295544
 30
0.0
 10
4.4339817159
 20
6.5394833799
 30
0.0
 10
4.4376614043
 20
6.5459286081
 30
0.0
 10
4.4392042168
 20
6.5492803262
 30
0.0
  0
SPLINE
  5
4BB
100
AcDbEntity
  8
0
100
AcDbSpline
 62
7
  6
CONTINUOUS
 70
0
 71
3
 72
33
 73
29
 74
0
 42
0.0000001
 43
0.0000001
 44
0.0000000001
 40
0.0
 40
0.0
 40
0.0
 40
0.0
 40
0.0313472695
 40
0.0627558737
 40
0.0941556701
 40
0.1255218865
 40
0.1568692613
 40
0.1882004513
 40
0.2507115966
 40
0.2819588831
 40
0.3131849965
 40
0.3755140287
 40
0.4377734352
 40
0.4689218534
 40
0.5000677194
 40
0.5622911182
 40
0.6245445098
 40
0.6557305611
 40
0.6869365559
 40
0.7181587588
 40
0.74939542
 40
0.8118759087
 40
0.8432013
 40
0.8745431724
 40
0.9058909792
 40
0.9372601017
 40
0.968652172
 40
1.0
 40
1.0
 40
1.0
 40
1.0
 10
4.2856096581
 20
6.419823773
 30
0.0
 10
4.2854271653
 20
6.417801703
 30
0.0
 10
4.285247985
 20
6.4137342264
 30
0.0
 10
4.2855517195
 20
6.4076347789
 30
0.0
 10
4.2864477102
 20
6.4015909087
 30
0.0
 10
4.2879553736
 20
6.3956741521
 30
0.0
 10
4.2900426192
 20
6.3899407383
 30
0.0
 10
4.2935510279
 20
6.3826202152
 30
0.0
 10
4.2981081692
 20
6.3758477338
 30
0.0
 10
4.3035713052
 20
6.3698597489
 30
0.0
 10
4.3095946286
 20
6.3644515815
 30
0.0
 10
4.3180664225
 20
6.3588427894
 30
0.0
 10
4.3274623876
 20
6.35499076
 30
0.0
 10
4.3353037572
 20
6.3530481628
 30
0.0
 10
4.3432956883
 20
6.3518859688
 30
0.0
 10
4.3534433812
 20
6.3519022323
 30
0.0
 10
4.3633955698
 20
6.353899351
 30
0.0
 10
4.3710058421
 20
6.3566252854
 30
0.0
 10
4.3764948682
 20
6.3592241389
 30
0.0
 10
4.3817068333
 20
6.362348484
 30
0.0
 10
4.3882112972
 20
6.3671796358
 30
0.0
 10
4.3939694993
 20
6.3729619864
 30
0.0
 10
4.3988072106
 20
6.3794771219
 30
0.0
 10
4.4019496127
 20
6.3847049501
 30
0.0
 10
4.4045560669
 20
6.3902228982
 30
0.0
 10
4.4065745643
 20
6.3959856094
 30
0.0
 10
4.4080226008
 20
6.4019149778
 30
0.0
 10
4.4086317183
 20
6.4059385394
 30
0.0
 10
4.4088514823
 20
6.4079569352
 30
0.0
  0
SPLINE
  5
4BC
100
AcDbEntity
  8
0
100
AcDbSpline
 62
7
  6
CONTINUOUS
 70
0
 71
3
 72
31
 73
27
 74
0
 42
0.0000001
 43
0.0000001
 44
0.0000000001
 40
0.0
 40
0.0
 40
0.0
 40
0.0
 40
0.0313475707
 40
0.0627432849
 40
0.0941211472
 40
0.1254733244
 40
0.1568147522
 40
0.1881394589
 40
0.2506199613
 40
0.3130016339
 40
0.3753236427
 40
0.4375763382
 40
0.4998025644
 40
0.5309525042
 40
0.562107405
 40
0.6243800998
 40
0.6867241796
 40
0.7179590521
 40
0.7492171818
 40
0.8117467069
 40
0.8430860172
 40
0.8744425306
 40
0.9058196083
 40
0.9372302977
 40
0.9686472261
 40
1.0
 40
1.0
 40
1.0
 40
1.0
 10
4.8887754727
 20
6.9504123275
 30
0.0
 10
4.8907540908
 20
6.9508662029
 30
0.0
 10
4.8946761235
 20
6.9519525427
 30
0.0
 10
4.9003824312
 20
6.954119564
 30
0.0
 10
4.9058498824
 20
6.9568382642
 30
0.0
 10
4.911005727
 20
6.9601023419
 30
0.0
 10
4.9158110688
 20
6.9638575633
 30
0.0
 10
4.9216913269
 20
6.9694488301
 30
0.0
 10
4.9279881984
 20
6.9774547206
 30
0.0
 10
4.933474351
 20
6.9883518196
 30
0.0
 10
4.9367322195
 20
7.0000920046
 30
0.0
 10
4.9376615927
 20
7.0122290977
 30
0.0
 10
4.9364419494
 20
7.0223040766
 30
0.0
 10
4.934313997
 20
7.030094109
 30
0.0
 10
4.9314309521
 20
7.0376408774
 30
0.0
 10
4.9264665425
 20
7.0465004607
 30
0.0
 10
4.9198665708
 20
7.0542267085
 30
0.0
 10
4.9137637102
 20
7.0595465243
 30
0.0
 10
4.9071542757
 20
7.0642407176
 30
0.0
 10
4.899878346
 20
7.0679442327
 30
0.0
 10
4.8921835667
 20
7.0705345905
 30
0.0
 10
4.8862371848
 20
7.0719060785
 30
0.0
 10
4.8801792643
 20
7.0726782948
 30
0.0
 10
4.8740702397
 20
7.072829074
 30
0.0
 10
4.8679785563
 20
7.0723879437
 30
0.0
 10
4.8639627108
 20
7.0717159191
 30
0.0
 10
4.8619776881
 20
7.071289322
 30
0.0
  0
SPLINE
  5
4BD
100
AcDbEntity
  8
0
100
AcDbSpline
 62
7
  6
CONTINUOUS
 70
0
 71
3
 72
31
 73
27
 74
0
 42
0.0000001
 43
0.0000001
 44
0.0000000001
 40
0.0
 40
0.0
 40
0.0
 40
0.0
 40
0.0627516883
 40
0.1253990307
 40
0.1567447049
 40
0.1880698717
 40
0.2505451497
 40
0.3129262217
 40
0.3752532891
 40
0.4375068074
 40
0.4997402468
 40
0.5308922682
 40
0.5620436442
 40
0.6243214925
 40
0.6555298282
 40
0.6867529542
 40
0.7179799878
 40
0.749219632
 40
0.7804961568
 40
0.8118135591
 40
0.8431535428
 40
0.8744983897
 40
0.9058537189
 40
0.9372458094
 40
0.9686515291
 40
1.0
 40
1.0
 40
1.0
 40
1.0
 10
4.8560421412
 20
7.0696443756
 30
0.0
 10
4.852303349
 20
7.06841673
 30
0.0
 10
4.8450313143
 20
7.065278498
 30
0.0
 10
4.8369085701
 20
7.0596264032
 30
0.0
 10
4.8311486834
 20
7.054265872
 30
0.0
 10
4.8259153703
 20
7.0484050509
 30
0.0
 10
4.8204346573
 20
7.0402096032
 30
0.0
 10
4.8158973345
 20
7.0293056382
 30
0.0
 10
4.813496951
 20
7.0177587109
 30
0.0
 10
4.8132926763
 20
7.0059767358
 30
0.0
 10
4.8149864193
 20
6.9962997061
 30
0.0
 10
4.8174107651
 20
6.9888649532
 30
0.0
 10
4.8205332515
 20
6.981693032
 30
0.0
 10
4.8246666446
 20
6.9749947651
 30
0.0
 10
4.8296664077
 20
6.968970093
 30
0.0
 10
4.8338313311
 20
6.964815663
 30
0.0
 10
4.8383752343
 20
6.9610766275
 30
0.0
 10
4.843269532
 20
6.9578027884
 30
0.0
 10
4.8484630268
 20
6.955017417
 30
0.0
 10
4.8538992968
 20
6.9527273878
 30
0.0
 10
4.859525375
 20
6.9509401608
 30
0.0
 10
4.8652953409
 20
6.9496801331
 30
0.0
 10
4.871163404
 20
6.9489766425
 30
0.0
 10
4.8770764574
 20
6.9488619279
 30
0.0
 10
4.882971217
 20
6.9493180142
 30
0.0
 10
4.8868558331
 20
6.9499884739
 30
0.0
 10
4.8887754727
 20
6.9504123275
 30
0.0
  0
SPLINE
  5
4BE
100
AcDbEntity
  8
0
100
AcDbSpline
 62
7
  6
CONTINUOUS
 70
0
 71
3
 72
30
 73
26
 74
0
 42
0.0000001
 43
0.0000001
 44
0.0000000001
 40
0.0
 40
0.0
 40
0.0
 40
0.0
 40
0.0313941126
 40
0.0627965016
 40
0.0941818472
 40
0.1255551361
 40
0.1881821359
 40
0.250722511
 40
0.2819920414
 40
0.3132383958
 40
0.344462611
 40
0.3756667573
 40
0.4379585612
 40
0.5002080092
 40
0.5624465728
 40
0.6247047155
 40
0.6870146952
 40
0.7182304516
 40
0.7494676976
 40
0.8119425576
 40
0.8745091607
 40
0.9058590902
 40
0.9372269502
 40
0.9686054247
 40
1.0
 40
1.0
 40
1.0
 40
1.0
 10
5.1867749707
 20
6.942608936
 30
0.0
 10
5.1886416605
 20
6.9420930515
 30
0.0
 10
5.1924260984
 20
6.9412349385
 30
0.0
 10
5.198195238
 20
6.9404829626
 30
0.0
 10
5.2040092137
 20
6.9402747388
 30
0.0
 10
5.211740497
 20
6.9407241767
 30
0.0
 10
5.2212668099
 20
6.9426412388
 30
0.0
 10
5.2302617618
 20
6.9463000801
 30
0.0
 10
5.2369394603
 20
6.9501818509
 30
0.0
 10
5.2416533316
 20
6.9535462934
 30
0.0
 10
5.2460298545
 20
6.9573331002
 30
0.0
 10
5.2513600663
 20
6.9628941362
 30
0.0
 10
5.2570135953
 20
6.9707374724
 30
0.0
 10
5.2619270833
 20
6.9812317597
 30
0.0
 10
5.2648107844
 20
6.9924550364
 30
0.0
 10
5.2655637988
 20
7.0040198062
 30
0.0
 10
5.2643916327
 20
7.0136193428
 30
0.0
 10
5.2623988025
 20
7.0210633335
 30
0.0
 10
5.2597178429
 20
7.0282991272
 30
0.0
 10
5.2551102794
 20
7.0368354561
 30
0.0
 10
5.2489876646
 20
7.0443692355
 30
0.0
 10
5.2433152378
 20
7.049632386
 30
0.0
 10
5.2387023309
 20
7.0531707736
 30
0.0
 10
5.233775924
 20
7.0562611576
 30
0.0
 10
5.2303114326
 20
7.0580059728
 30
0.0
 10
5.2285431503
 20
7.0587958816
 30
0.0
  0
SPLINE
  5
4BF
100
AcDbEntity
  8
0
100
AcDbSpline
 62
7
  6
CONTINUOUS
 70
0
 71
3
 72
34
 73
30
 74
0
 42
0.0000001
 43
0.0000001
 44
0.0000000001
 40
0.0
 40
0.0
 40
0.0
 40
0.0
 40
0.0313477679
 40
0.0627566274
 40
0.0941508224
 40
0.1255080411
 40
0.1568519267
 40
0.1881868373
 40
0.2506995894
 40
0.2819382415
 40
0.313157755
 40
0.3443672779
 40
0.3755608364
 40
0.4378114739
 40
0.4689541804
 40
0.5000971684
 40
0.5623081297
 40
0.6245471867
 40
0.6557374831
 40
0.6869484657
 40
0.7181655226
 40
0.749390342
 40
0.8118738133
 40
0.8432025752
 40
0.874538052
 40
0.9058820701
 40
0.9372617835
 40
0.9686590995
 40
1.0
 40
1.0
 40
1.0
 40
1.0
 10
5.2198622427
 20
7.0619177852
 30
0.0
 10
5.2179025435
 20
7.0624493157
 30
0.0
 10
5.2139282572
 20
7.063334938
 30
0.0
 10
5.2078690958
 20
7.0641000386
 30
0.0
 10
5.201761644
 20
7.0642687472
 30
0.0
 10
5.1956738903
 20
7.0638045733
 30
0.0
 10
5.1896668259
 20
7.0627352305
 30
0.0
 10
5.1818498315
 20
7.0605443457
 30
0.0
 10
5.1743839323
 20
7.057244054
 30
0.0
 10
5.1675339916
 20
7.0529108924
 30
0.0
 10
5.1627508722
 20
7.0491611115
 30
0.0
 10
5.158362566
 20
7.0449610064
 30
0.0
 10
5.1530940648
 20
7.0388297104
 30
0.0
 10
5.1487471658
 20
7.0319585602
 30
0.0
 10
5.1454707794
 20
7.0245758641
 30
0.0
 10
5.1429365238
 20
7.0169082542
 30
0.0
 10
5.1411919028
 20
7.0069118678
 30
0.0
 10
5.1414428301
 20
6.9967652615
 30
0.0
 10
5.1428018413
 20
6.9887966763
 30
0.0
 10
5.1443961716
 20
6.9829358298
 30
0.0
 10
5.1465577237
 20
6.9772565793
 30
0.0
 10
5.150189999
 20
6.9700130917
 30
0.0
 10
5.154912134
 20
6.9633570832
 30
0.0
 10
5.1604923053
 20
6.9574657239
 30
0.0
 10
5.1650877114
 20
6.9534551774
 30
0.0
 10
5.170057508
 20
6.9499133365
 30
0.0
 10
5.1753690556
 20
6.9468987372
 30
0.0
 10
5.1809538373
 20
6.9444310753
 30
0.0
 10
5.1848192082
 20
6.9431531167
 30
0.0
 10
5.1867749707
 20
6.942608936
 30
0.0
  0
SPLINE
  5
4C0
100
AcDbEntity
  8
0
100
AcDbSpline
 62
7
  6
CONTINUOUS
 70
0
 71
3
 72
27
 73
23
 74
0
 42
0.0000001
 43
0.0000001
 44
0.0000000001
 40
0.0
 40
0.0
 40
0.0
 40
0.0
 40
0.0627354857
 40
0.1253897139
 40
0.1567330909
 40
0.1880523224
 40
0.2193399702
 40
0.2505980579
 40
0.3130019496
 40
0.3753460309
 40
0.4376263864
 40
0.4998842866
 40
0.5310455997
 40
0.5622107626
 40
0.6245084693
 40
0.6868712666
 40
0.718110108
 40
0.7493665397
 40
0.8118933552
 40
0.8745182697
 40
0.9372122761
 40
1.0
 40
1.0
 40
1.0
 40
1.0
 10
4.5112672665
 20
6.693863928
 30
0.0
 10
4.5130688068
 20
6.6972233519
 30
0.0
 10
4.5160939847
 20
6.7042711607
 30
0.0
 10
4.5181134651
 20
6.7136394873
 30
0.0
 10
4.5186875921
 20
6.7212407916
 30
0.0
 10
4.5186021616
 20
6.7269569612
 30
0.0
 10
4.5179975472
 20
6.7326366681
 30
0.0
 10
4.5164961893
 20
6.7400885201
 30
0.0
 10
4.513320735
 20
6.7490831288
 30
0.0
 10
4.5076173541
 20
6.7589839528
 30
0.0
 10
4.5002173897
 20
6.7676803711
 30
0.0
 10
4.4928210974
 20
6.7736721799
 30
0.0
 10
4.4863349941
 20
6.7775933514
 30
0.0
 10
4.4795126849
 20
6.7809011092
 30
0.0
 10
4.4704551713
 20
6.7838478802
 30
0.0
 10
4.4610064064
 20
6.785087265
 30
0.0
 10
4.453410409
 20
6.7850333622
 30
0.0
 10
4.445842148
 20
6.7842735117
 30
0.0
 10
4.4365521741
 20
6.7820099868
 30
0.0
 10
4.4260791271
 20
6.7773168608
 30
0.0
 10
4.4166304128
 20
6.7707678931
 30
0.0
 10
4.4112670721
 20
6.7652769454
 30
0.0
 10
4.4088491299
 20
6.762325837
 30
0.0
  0
SPLINE
  5
4C1
100
AcDbEntity
  8
0
100
AcDbSpline
 62
7
  6
CONTINUOUS
 70
0
 71
3
 72
29
 73
25
 74
0
 42
0.0000001
 43
0.0000001
 44
0.0000000001
 40
0.0
 40
0.0
 40
0.0
 40
0.0
 40
0.062769052
 40
0.0941447264
 40
0.1255047151
 40
0.1568575789
 40
0.1881929777
 40
0.2506993129
 40
0.2819406232
 40
0.3131703931
 40
0.3755254726
 40
0.43780594
 40
0.468962649
 40
0.5001203253
 40
0.5623692841
 40
0.5935294509
 40
0.6247056185
 40
0.6870609822
 40
0.7494572691
 40
0.8119343304
 40
0.8432638273
 40
0.8746109817
 40
0.9372572463
 40
1.0
 40
1.0
 40
1.0
 40
1.0
 10
4.4019879007
 20
6.7519897284
 30
0.0
 10
4.400206575
 20
6.748614305
 30
0.0
 10
4.3979710397
 20
6.7432974215
 30
0.0
 10
4.3960617735
 20
6.7358998288
 30
0.0
 10
4.3951601456
 20
6.7302415066
 30
0.0
 10
4.3947817068
 20
6.724527255
 30
0.0
 10
4.3949621738
 20
6.7169096488
 30
0.0
 10
4.3961715643
 20
6.7093489177
 30
0.0
 10
4.3984185458
 20
6.7020798532
 30
0.0
 10
4.4013327913
 20
6.6950610749
 30
0.0
 10
4.4061640594
 20
6.6868424143
 30
0.0
 10
4.4124039867
 20
6.6796409098
 30
0.0
 10
4.4181107252
 20
6.6746434527
 30
0.0
 10
4.4242519382
 20
6.670196129
 30
0.0
 10
4.4309828219
 20
6.6666127367
 30
0.0
 10
4.4381070411
 20
6.6640124
 30
0.0
 10
4.4454451867
 20
6.6620696121
 30
0.0
 10
4.4549101977
 20
6.6608993245
 30
0.0
 10
4.4663395202
 20
6.6615826178
 30
0.0
 10
4.4755958485
 20
6.6639687591
 30
0.0
 10
4.482648714
 20
6.6668480586
 30
0.0
 10
4.4894305783
 20
6.6703413372
 30
0.0
 10
4.4972851757
 20
6.6758414298
 30
0.0
 10
4.5026084264
 20
6.6813733165
 30
0.0
 10
4.5049946164
 20
6.6843499754
 30
0.0
  0
SPLINE
  5
4C2
100
AcDbEntity
  8
0
100
AcDbSpline
 62
7
  6
CONTINUOUS
 70
0
 71
3
 72
31
 73
27
 74
0
 42
0.0000001
 43
0.0000001
 44
0.0000000001
 40
0.0
 40
0.0
 40
0.0
 40
0.0
 40
0.0627186951
 40
0.1253558961
 40
0.1566914069
 40
0.1880025458
 40
0.2192814276
 40
0.2505303881
 40
0.3129172172
 40
0.3752455249
 40
0.406416666
 40
0.4375749429
 40
0.4687285692
 40
0.4998819999
 40
0.5310359468
 40
0.5621939641
 40
0.6244752089
 40
0.6556714488
 40
0.686886395
 40
0.7181175055
 40
0.7493664345
 40
0.7806407905
 40
0.8119424871
 40
0.8745504725
 40
0.9372286007
 40
1.0
 40
1.0
 40
1.0
 40
1.0
 10
4.5361860929
 20
5.9696482975
 30
0.0
 10
4.5335478901
 20
5.9723996726
 30
0.0
 10
4.5277803129
 20
5.9774548232
 30
0.0
 10
4.5194941606
 20
5.9822691404
 30
0.0
 10
4.5124425176
 20
5.9851638346
 30
0.0
 10
4.5069801072
 20
5.9868495657
 30
0.0
 10
4.5013920277
 20
5.9880305091
 30
0.0
 10
4.4938412164
 20
5.988905966
 30
0.0
 10
4.484307138
 20
5.9886653915
 30
0.0
 10
4.4749834882
 20
5.9866919604
 30
0.0
 10
4.4678463129
 20
5.9841238203
 30
0.0
 10
4.4626912798
 20
5.981715091
 30
0.0
 10
4.4577824053
 20
5.9788406617
 30
0.0
 10
4.4531571408
 20
5.975529959
 30
0.0
 10
4.4488532855
 20
5.9718093963
 30
0.0
 10
4.4435991993
 20
5.9663452983
 30
0.0
 10
4.4391139474
 20
5.9601780131
 30
0.0
 10
4.435539179
 20
5.9534864654
 30
0.0
 10
4.4333258058
 20
5.9482340099
 30
0.0
 10
4.4316023822
 20
5.9427981934
 30
0.0
 10
4.4303901201
 20
5.9372221652
 30
0.0
 10
4.4296989088
 20
5.9315533287
 30
0.0
 10
4.4294705922
 20
5.9239398744
 30
0.0
 10
4.4304927111
 20
5.9144192736
 30
0.0
 10
4.4338011339
 20
5.9034116116
 30
0.0
 10
4.437365601
 20
5.8966136027
 30
0.0
 10
4.4394247441
 20
5.893401977
 30
0.0
  0
SPLINE
  5
4C3
100
AcDbEntity
  8
0
100
AcDbSpline
 62
7
  6
CONTINUOUS
 70
0
 71
3
 72
29
 73
25
 74
0
 42
0.0000001
 43
0.0000001
 44
0.0000000001
 40
0.0
 40
0.0
 40
0.0
 40
0.0
 40
0.0627688253
 40
0.0941443448
 40
0.1255042131
 40
0.1568570039
 40
0.1881923343
 40
0.250698391
 40
0.2819395563
 40
0.3131692182
 40
0.3755241018
 40
0.4378043131
 40
0.4689608937
 40
0.5001184579
 40
0.5623672598
 40
0.5935273923
 40
0.6247035003
 40
0.6870585351
 40
0.7494547881
 40
0.8119327106
 40
0.8432619334
 40
0.8746081203
 40
0.9372554562
 40
1.0
 40
1.0
 40
1.0
 40
1.0
 10
4.44713683
 20
5.8836785671
 30
0.0
 10
4.4497968218
 20
5.8809410785
 30
0.0
 10
4.4541630925
 20
5.8771715868
 30
0.0
 10
4.4606093697
 20
5.8730695876
 30
0.0
 10
4.4657127353
 20
5.8704635342
 30
0.0
 10
4.4710309822
 20
5.8683378605
 30
0.0
 10
4.4783323209
 20
5.8661556383
 30
0.0
 10
4.4858975162
 20
5.8649696865
 30
0.0
 10
4.4935058995
 20
5.8648609651
 30
0.0
 10
4.5010823849
 20
5.8654643429
 30
0.0
 10
4.5103924418
 20
5.8675205504
 30
0.0
 10
4.5191701653
 20
5.8712310182
 30
0.0
 10
4.5256866249
 20
5.8751153767
 30
0.0
 10
4.5318139826
 20
5.8795830144
 30
0.0
 10
4.5373016707
 20
5.8848784998
 30
0.0
 10
4.5419757559
 20
5.8908518073
 30
0.0
 10
4.5460904394
 20
5.8972317185
 30
0.0
 10
4.5501272063
 20
5.9058733932
 30
0.0
 10
4.5530071396
 20
5.9169562404
 30
0.0
 10
4.5535960002
 20
5.926498034
 30
0.0
 10
4.5530349506
 20
5.9340960437
 30
0.0
 10
4.5518056631
 20
5.9416258315
 30
0.0
 10
4.5489991257
 20
5.950795464
 30
0.0
 10
4.5453845654
 20
5.9575696923
 30
0.0
 10
4.5432895171
 20
5.960758564
 30
0.0
  0
SPLINE
  5
4C4
100
AcDbEntity
  8
0
100
AcDbSpline
 62
7
  6
CONTINUOUS
 70
0
 71
3
 72
18
 73
14
 74
0
 42
0.0000001
 43
0.0000001
 44
0.0000000001
 40
0.0
 40
0.0
 40
0.0
 40
0.0
 40
0.0215944849
 40
0.0466763181
 40
0.0772078785
 40
0.1146140067
 40
0.1597908846
 40
0.2127200025
 40
0.3402138722
 40
0.492370528
 40
0.6597515525
 40
0.8319413191
 40
1.0
 40
1.0
 40
1.0
 40
1.0
 10
3.8428139055
 20
5.7357587595
 30
0.0
 10
3.8429090113
 20
5.7358180971
 30
0.0
 10
3.843089818
 20
5.735988349
 30
0.0
 10
3.8432798449
 20
5.7363468267
 30
0.0
 10
3.843400395
 20
5.736817726
 30
0.0
 10
3.8434470211
 20
5.7374050978
 30
0.0
 10
3.8434149684
 20
5.738109103
 30
0.0
 10
3.8432581445
 20
5.7392707514
 30
0.0
 10
3.8428460985
 20
5.7409518518
 30
0.0
 10
3.8420898935
 20
5.7431476128
 30
0.0
 10
3.8411056224
 20
5.7455045088
 30
0.0
 10
3.8399572575
 20
5.7478774302
 30
0.0
 10
3.8391160821
 20
5.7494312568
 30
0.0
 10
3.8386840026
 20
5.7501891467
 30
0.0
  0
SPLINE
  5
4C5
100
AcDbEntity
  8
0
100
AcDbSpline
 62
7
  6
CONTINUOUS
 70
0
 71
3
 72
18
 73
14
 74
0
 42
0.0000001
 43
0.0000001
 44
0.0000000001
 40
0.0
 40
0.0
 40
0.0
 40
0.0
 40
0.0215952575
 40
0.0466789224
 40
0.0772128658
 40
0.1146215526
 40
0.1598007166
 40
0.2127315219
 40
0.3402269481
 40
0.4923825722
 40
0.6597603635
 40
0.8319457932
 40
1.0
 40
1.0
 40
1.0
 40
1.0
 10
3.9014698555
 20
5.6341640769
 30
0.0
 10
3.9015688105
 20
5.6342167515
 30
0.0
 10
3.9018066808
 20
5.6342881607
 30
0.0
 10
3.9022121622
 20
5.6342734277
 30
0.0
 10
3.9026802625
 20
5.6341423224
 30
0.0
 10
3.9032122644
 20
5.6338889661
 30
0.0
 10
3.903805929
 20
5.6335091642
 30
0.0
 10
3.9047335244
 20
5.6327924886
 30
0.0
 10
3.9059833492
 20
5.6315950793
 30
0.0
 10
3.9075067876
 20
5.6298423206
 30
0.0
 10
3.9090557277
 20
5.6278115178
 30
0.0
 10
3.910536497
 20
5.6256306149
 30
0.0
 10
3.9114615266
 20
5.6241252768
 30
0.0
 10
3.9119018219
 20
5.6233721682
 30
0.0
  0
SPLINE
  5
4C6
100
AcDbEntity
  8
0
100
AcDbSpline
 62
7
  6
CONTINUOUS
 70
0
 71
3
 72
34
 73
30
 74
0
 42
0.0000001
 43
0.0000001
 44
0.0000000001
 40
0.0
 40
0.0
 40
0.0
 40
0.0
 40
0.0000966659
 40
0.0003118089
 40
0.000658385
 40
0.0011388278
 40
0.0025041597
 40
0.0044106609
 40
0.0068591583
 40
0.0098500044
 40
0.0133833686
 40
0.0174591904
 40
0.0272312417
 40
0.039147969
 40
0.0531901226
 40
0.0693383658
 40
0.0875733165
 40
0.1078755659
 40
0.1302256273
 40
0.1545976736
 40
0.2092562701
 40
0.271542088
 40
0.3411445268
 40
0.4177333023
 40
0.5009177467
 40
0.5902956322
 40
0.6854585901
 40
0.7858824858
 40
1.0
 40
1.0
 40
1.0
 40
1.0
 10
3.6169980686
 20
5.546440715
 30
0.0
 10
3.6169990433
 20
5.5464390374
 30
0.0
 10
3.6170068889
 20
5.5464390467
 30
0.0
 10
3.6170185645
 20
5.5464422398
 30
0.0
 10
3.6170389467
 20
5.5464491546
 30
0.0
 10
3.6170793462
 20
5.5464657267
 30
0.0
 10
3.6171480755
 20
5.5464971916
 30
0.0
 10
3.6172511261
 20
5.5465475436
 30
0.0
 10
3.6173826958
 20
5.546614204
 30
0.0
 10
3.6175425349
 20
5.5466971471
 30
0.0
 10
3.6177307171
 20
5.5467964236
 30
0.0
 10
3.6180384408
 20
5.5469607744
 30
0.0
 10
3.6184931169
 20
5.5472071434
 30
0.0
 10
3.6191220231
 20
5.5475518252
 30
0.0
 10
3.6198617554
 20
5.547960565
 30
0.0
 10
3.6207112833
 20
5.5484328033
 30
0.0
 10
3.6216695725
 20
5.5489679912
 30
0.0
 10
3.622735593
 20
5.5495655666
 30
0.0
 10
3.6239082037
 20
5.5502249036
 30
0.0
 10
3.6256807965
 20
5.5512241532
 30
0.0
 10
3.6281496717
 20
5.5526205253
 30
0.0
 10
3.6314062502
 20
5.5544682312
 30
0.0
 10
3.6350434447
 20
5.5565370627
 30
0.0
 10
3.6390432421
 20
5.5588168036
 30
0.0
 10
3.6433860368
 20
5.5612963197
 30
0.0
 10
3.6480508668
 20
5.5639636925
 30
0.0
 10
3.653014434
 20
5.5668056933
 30
0.0
 10
3.6601486784
 20
5.5708953386
 30
0.0
 10
3.6656237928
 20
5.5740386354
 30
0.0
 10
3.669350189
 20
5.5761795414
 30
0.0
  0
SPLINE
  5
4C7
100
AcDbEntity
  8
0
100
AcDbSpline
 62
7
  6
CONTINUOUS
 70
0
 71
3
 72
18
 73
14
 74
0
 42
0.0000001
 43
0.0000001
 44
0.0000000001
 40
0.0
 40
0.0
 40
0.0
 40
0.0
 40
0.0215953041
 40
0.046679014
 40
0.0772129955
 40
0.1146217115
 40
0.1598008956
 40
0.2127317124
 40
0.3402271376
 40
0.4923827323
 40
0.659760476
 40
0.8319458494
 40
1.0
 40
1.0
 40
1.0
 40
1.0
 10
3.9014698654
 20
5.634164057
 30
0.0
 10
3.9015688206
 20
5.6342167315
 30
0.0
 10
3.901806691
 20
5.6342881407
 30
0.0
 10
3.9022121725
 20
5.6342734079
 30
0.0
 10
3.9026802729
 20
5.6341423029
 30
0.0
 10
3.9032122746
 20
5.6338889472
 30
0.0
 10
3.9038059389
 20
5.6335091461
 30
0.0
 10
3.9047335336
 20
5.6327924719
 30
0.0
 10
3.9059833572
 20
5.6315950648
 30
0.0
 10
3.9075067937
 20
5.6298423092
 30
0.0
 10
3.9090557316
 20
5.6278115098
 30
0.0
 10
3.9105364984
 20
5.6256306106
 30
0.0
 10
3.9114615263
 20
5.6241252749
 30
0.0
 10
3.9119018208
 20
5.6233721676
 30
0.0
  0
LINE
  5
4C8
100
AcDbEntity
  8
0
100
AcDbLine
 62
7
  6
CONTINUOUS
 10
3.8445137719
 20
5.7549288632
 11
3.8386840718
 21
5.7501890203
  0
LINE
  5
4C9
100
AcDbEntity
  8
0
100
AcDbLine
 62
7
  6
CONTINUOUS
 10
3.9119017368
 20
5.6233723023
 11
3.9189214125
 21
5.6260510498
  0
SPLINE
  5
4CA
100
AcDbEntity
  8
0
100
AcDbSpline
 62
7
  6
CONTINUOUS
 70
0
 71
3
 72
18
 73
14
 74
0
 42
0.0000001
 43
0.0000001
 44
0.0000000001
 40
0.0
 40
0.0
 40
0.0
 40
0.0
 40
0.0215945294
 40
0.0466764084
 40
0.07720801
 40
0.1146141716
 40
0.1597910737
 40
0.2127202065
 40
0.3402140793
 40
0.4923707054
 40
0.659751678
 40
0.8319413819
 40
1.0
 40
1.0
 40
1.0
 40
1.0
 10
3.8428138947
 20
5.7357587766
 30
0.0
 10
3.8429090005
 20
5.7358181145
 30
0.0
 10
3.8430898071
 20
5.7359883666
 30
0.0
 10
3.8432798341
 20
5.7363468444
 30
0.0
 10
3.8434003844
 20
5.7368177437
 30
0.0
 10
3.8434470108
 20
5.7374051152
 30
0.0
 10
3.8434149584
 20
5.73810912
 30
0.0
 10
3.8432581352
 20
5.7392707671
 30
0.0
 10
3.8428460904
 20
5.7409518655
 30
0.0
 10
3.842089887
 20
5.7431476235
 30
0.0
 10
3.8411056176
 20
5.7455045159
 30
0.0
 10
3.8399572546
 20
5.7478774336
 30
0.0
 10
3.8391160805
 20
5.7494312575
 30
0.0
 10
3.8386840016
 20
5.7501891461
 30
0.0
  0
ELLIPSE
  5
4CB
100
AcDbEntity
  8
0
100
AcDbEllipse
 62
7
  6
CONTINUOUS
 10
6.0703120738
 20
6.954075575
 30
0.0
 11
0.0112566599
 21
0.0064990356
 31
0.0
 40
0.9900227071
 41
0.0
 42
6.2831853072
  0
ELLIPSE
  5
4CC
100
AcDbEntity
  8
0
100
AcDbEllipse
 62
7
  6
CONTINUOUS
 10
4.1893976093
 20
5.7099300241
 30
0.0
 11
0.0104836205
 21
0.0080443649
 31
0.0
 40
0.9993755408
 41
0.0
 42
6.2831853072
  0
ELLIPSE
  5
4CD
100
AcDbEntity
  8
0
100
AcDbEllipse
 62
7
  6
CONTINUOUS
 10
4.6204497372
 20
5.3791720932
 30
0.0
 11
0.0050568992
 21
0.0122084346
 31
0.0
 40
0.9993755408
 41
0.0
 42
6.2831853072
  0
ELLIPSE
  5
4CE
100
AcDbEntity
  8
0
100
AcDbEllipse
 62
7
  6
CONTINUOUS
 10
5.1591307957
 20
5.3082533864
 30
0.0
 11
-0.0017248141
 21
0.0131012641
 31
0.0
 40
0.9993755408
 41
0.0
 42
6.2831853072
  0
ELLIPSE
  5
4CF
100
AcDbEntity
  8
0
100
AcDbEllipse
 62
7
  6
CONTINUOUS
 10
5.6611016303
 20
5.516176514
 30
0.0
 11
-0.0080443649
 21
0.0104836205
 31
0.0
 40
0.9993755408
 41
0.0
 42
6.2831853072
  0
ELLIPSE
  5
4D0
100
AcDbEntity
  8
0
100
AcDbEllipse
 62
7
  6
CONTINUOUS
 10
5.9918595612
 20
5.9472286418
 30
0.0
 11
-0.0122084346
 21
0.0050568992
 31
0.0
 40
0.9993755408
 41
0.0
 42
6.2831853072
  0
ELLIPSE
  5
4D1
100
AcDbEntity
  8
0
100
AcDbEllipse
 62
7
  6
CONTINUOUS
 10
6.0627782679
 20
6.4859097004
 30
0.0
 11
-0.0131012641
 21
-0.0017248141
 31
0.0
 40
0.9993755408
 41
0.0
 42
6.2831853072
  0
ELLIPSE
  5
4D2
100
AcDbEntity
  8
0
100
AcDbEllipse
 62
7
  6
CONTINUOUS
 10
5.9917593038
 20
6.7505403892
 30
0.0
 11
-0.0121081772
 21
-0.0050153712
 31
0.0
 40
0.9960990528
 41
0.0
 42
3.1415926536
  0
ELLIPSE
  5
4D3
100
AcDbEntity
  8
0
100
AcDbEllipse
 62
7
  6
CONTINUOUS
 10
5.9917593038
 20
6.7505403892
 30
0.0
 11
0.0121081772
 21
0.0050153712
 31
0.0
 40
0.9960990528
 41
0.0
 42
3.1415926536
  0
ELLIPSE
  5
4D4
100
AcDbEntity
  8
0
100
AcDbEllipse
 62
7
  6
CONTINUOUS
 10
4.3832171809
 20
5.516262607
 30
0.0
 11
0.0079783035
 21
0.0103975275
 31
0.0
 40
0.9960990528
 41
0.0
 42
6.2831853072
  0
ELLIPSE
  5
4D5
100
AcDbEntity
  8
0
100
AcDbEllipse
 62
7
  6
CONTINUOUS
 10
4.8851361184
 20
5.3083609758
 30
0.0
 11
0.0017106497
 21
0.0129936747
 31
0.0
 40
0.9960990528
 41
0.0
 42
6.2831853072
  0
ELLIPSE
  5
4D6
100
AcDbEntity
  8
0
100
AcDbEllipse
 62
7
  6
CONTINUOUS
 10
5.4237614845
 20
5.3792723506
 30
0.0
 11
-0.0050153712
 21
0.0121081772
 31
0.0
 40
0.9960990528
 41
0.0
 42
6.2831853072
  0
ELLIPSE
  5
4D7
100
AcDbEntity
  8
0
100
AcDbEllipse
 62
7
  6
CONTINUOUS
 10
5.8547690473
 20
5.7099960855
 30
0.0
 11
-0.0103975275
 21
0.0079783035
 31
0.0
 40
0.9960990528
 41
0.0
 42
6.2831853072
  0
ELLIPSE
  5
4D8
100
AcDbEntity
  8
0
100
AcDbEllipse
 62
7
  6
CONTINUOUS
 10
6.0626706785
 20
6.2119150231
 30
0.0
 11
-0.0129936747
 21
0.0017106497
 31
0.0
 40
0.9960990528
 41
0.0
 42
6.2831853072
  0
ELLIPSE
  5
4D9
100
AcDbEntity
  8
0
100
AcDbEllipse
 62
7
  6
CONTINUOUS
 10
6.1912256102
 20
6.6621644755
 30
0.0
 11
-0.0125551727
 21
-0.0033641484
 31
0.0
 40
0.9900227071
 41
-0.0000000001
 42
3.1415926536
  0
ELLIPSE
  5
4DA
100
AcDbEntity
  8
0
100
AcDbEllipse
 62
7
  6
CONTINUOUS
 10
6.1912256102
 20
6.6621644755
 30
0.0
 11
0.0125551727
 21
0.0033641484
 31
0.0
 40
0.9900227071
 41
0.0
 42
3.1415926535
  0
ELLIPSE
  5
4DB
100
AcDbEntity
  8
0
100
AcDbEllipse
 62
7
  6
CONTINUOUS
 10
6.2324669658
 20
6.3489052795
 30
0.0
 11
-0.0129980712
 21
-0.0
 31
0.0
 40
0.9900227071
 41
0.0
 42
6.2831853072
  0
ELLIPSE
  5
4DC
100
AcDbEntity
  8
0
100
AcDbEllipse
 62
7
  6
CONTINUOUS
 10
6.1912256102
 20
6.0356460835
 30
0.0
 11
-0.0125551727
 21
0.0033641484
 31
0.0
 40
0.9900227071
 41
0.0
 42
6.2831853072
  0
ELLIPSE
  5
4DD
100
AcDbEntity
  8
0
100
AcDbEllipse
 62
7
  6
CONTINUOUS
 10
6.0703120738
 20
5.743734984
 30
0.0
 11
-0.0112566599
 21
0.0064990356
 31
0.0
 40
0.9900227071
 41
0.0
 42
6.2831853072
  0
ELLIPSE
  5
4DE
100
AcDbEntity
  8
0
100
AcDbEllipse
 62
7
  6
CONTINUOUS
 10
5.8779664142
 20
5.4930652401
 30
0.0
 11
-0.0091910243
 21
0.0091910243
 31
0.0
 40
0.9900227071
 41
0.0
 42
6.2831853072
  0
ELLIPSE
  5
4DF
100
AcDbEntity
  8
0
100
AcDbEllipse
 62
7
  6
CONTINUOUS
 10
5.6272966703
 20
5.3007195805
 30
0.0
 11
-0.0064990356
 21
0.0112566599
 31
0.0
 40
0.9900227071
 41
0.0
 42
6.2831853072
  0
ELLIPSE
  5
4E0
100
AcDbEntity
  8
0
100
AcDbEllipse
 62
7
  6
CONTINUOUS
 10
5.3353855708
 20
5.1798060441
 30
0.0
 11
-0.0033641484
 21
0.0125551727
 31
0.0
 40
0.9900227071
 41
0.0
 42
6.2831853072
  0
ELLIPSE
  5
4E1
100
AcDbEntity
  8
0
100
AcDbEllipse
 62
7
  6
CONTINUOUS
 10
5.0221263748
 20
5.1385646886
 30
0.0
 11
-0.0
 21
0.0129980712
 31
0.0
 40
0.9900227071
 41
0.0
 42
6.2831853072
  0
ELLIPSE
  5
4E2
100
AcDbEntity
  8
0
100
AcDbEllipse
 62
7
  6
CONTINUOUS
 10
4.7088671788
 20
5.1798060441
 30
0.0
 11
0.0033641484
 21
0.0125551727
 31
0.0
 40
0.9900227071
 41
0.0
 42
6.2831853072
  0
ELLIPSE
  5
4E3
100
AcDbEntity
  8
0
100
AcDbEllipse
 62
7
  6
CONTINUOUS
 10
4.4169560794
 20
5.3007195805
 30
0.0
 11
0.0064990356
 21
0.0112566599
 31
0.0
 40
0.9900227071
 41
0.0
 42
6.2831853072
  0
ELLIPSE
  5
4E4
100
AcDbEntity
  8
0
100
AcDbEllipse
 62
7
  6
CONTINUOUS
 10
4.1662863354
 20
5.4930652401
 30
0.0
 11
0.0091910243
 21
0.0091910243
 31
0.0
 40
0.9900227071
 41
0.0
 42
6.2831853072
  0
ELLIPSE
  5
4E5
100
AcDbEntity
  8
0
100
AcDbEllipse
 62
7
  6
CONTINUOUS
 10
5.8548551403
 20
6.9878805349
 30
0.0
 11
-0.0104836205
 21
-0.0080443649
 31
0.0
 40
0.9993755408
 41
-0.0
 42
3.1415926536
  0
ELLIPSE
  5
4E6
100
AcDbEntity
  8
0
100
AcDbEllipse
 62
7
  6
CONTINUOUS
 10
5.8548551403
 20
6.9878805349
 30
0.0
 11
0.0104836205
 21
0.0080443649
 31
0.0
 40
0.9993755408
 41
-0.0
 42
3.1415926536
  0
ELLIPSE
  5
4E7
100
AcDbEntity
  8
0
100
AcDbEllipse
 62
7
  6
CONTINUOUS
 10
5.4238030125
 20
7.3186384659
 30
0.0
 11
-0.0050568992
 21
-0.0122084346
 31
0.0
 40
0.9993755408
 41
0.0
 42
3.1415926536
  0
ELLIPSE
  5
4E8
100
AcDbEntity
  8
0
100
AcDbEllipse
 62
7
  6
CONTINUOUS
 10
5.4238030125
 20
7.3186384659
 30
0.0
 11
0.0050568992
 21
0.0122084346
 31
0.0
 40
0.9993755408
 41
0.0
 42
3.1415926536
  0
ELLIPSE
  5
4E9
100
AcDbEntity
  8
0
100
AcDbEllipse
 62
7
  6
CONTINUOUS
 10
4.885121954
 20
7.3895571726
 30
0.0
 11
0.0017248141
 21
-0.0131012641
 31
0.0
 40
0.9993755408
 41
0.0
 42
6.2831853072
  0
ELLIPSE
  5
4EA
100
AcDbEntity
  8
0
100
AcDbEllipse
 62
7
  6
CONTINUOUS
 10
4.3831511194
 20
7.181634045
 30
0.0
 11
0.0080443649
 21
-0.0104836205
 31
0.0
 40
0.9993755408
 41
0.0
 42
6.2831853072
  0
ELLIPSE
  5
4EB
100
AcDbEntity
  8
0
100
AcDbEllipse
 62
7
  6
CONTINUOUS
 10
4.0523931885
 20
6.7505819172
 30
0.0
 11
0.0122084346
 21
-0.0050568992
 31
0.0
 40
0.9993755408
 41
0.0
 42
6.2831853072
  0
ELLIPSE
  5
4EC
100
AcDbEntity
  8
0
100
AcDbEllipse
 62
7
  6
CONTINUOUS
 10
3.9814744817
 20
6.2119008587
 30
0.0
 11
0.0131012641
 21
0.0017248141
 31
0.0
 40
0.9993755408
 41
0.0
 42
6.2831853072
  0
ELLIPSE
  5
4ED
100
AcDbEntity
  8
0
100
AcDbEllipse
 62
7
  6
CONTINUOUS
 10
5.6610355688
 20
7.181547952
 30
0.0
 11
-0.0079783035
 21
-0.0103975275
 31
0.0
 40
0.9960990528
 41
-0.0
 42
3.1415926536
  0
ELLIPSE
  5
4EE
100
AcDbEntity
  8
0
100
AcDbEllipse
 62
7
  6
CONTINUOUS
 10
5.6610355688
 20
7.181547952
 30
0.0
 11
0.0079783035
 21
0.0103975275
 31
0.0
 40
0.9960990528
 41
-0.0
 42
3.1415926535
  0
ELLIPSE
  5
4EF
100
AcDbEntity
  8
0
100
AcDbEllipse
 62
7
  6
CONTINUOUS
 10
5.1591166312
 20
7.3894495832
 30
0.0
 11
-0.0017106497
 21
-0.0129936747
 31
0.0
 40
0.9960990528
 41
0.0
 42
6.2831853072
  0
ELLIPSE
  5
4F0
100
AcDbEntity
  8
0
100
AcDbEllipse
 62
7
  6
CONTINUOUS
 10
4.6204912651
 20
7.3185382085
 30
0.0
 11
0.0050153712
 21
-0.0121081772
 31
0.0
 40
0.9960990528
 41
0.0
 42
6.2831853072
  0
ELLIPSE
  5
4F1
100
AcDbEntity
  8
0
100
AcDbEllipse
 62
7
  6
CONTINUOUS
 10
4.1894837023
 20
6.9878144735
 30
0.0
 11
0.0103975275
 21
-0.0079783035
 31
0.0
 40
0.9960990528
 41
0.0
 42
6.2831853072
  0
ELLIPSE
  5
4F2
100
AcDbEntity
  8
0
100
AcDbEllipse
 62
7
  6
CONTINUOUS
 10
3.9815820712
 20
6.4858955359
 30
0.0
 11
0.0129936747
 21
-0.0017106497
 31
0.0
 40
0.9960990528
 41
0.0
 42
6.2831853072
  0
ELLIPSE
  5
4F3
100
AcDbEntity
  8
0
100
AcDbEllipse
 62
7
  6
CONTINUOUS
 10
4.0524934459
 20
5.9472701698
 30
0.0
 11
0.0121081772
 21
0.0050153712
 31
0.0
 40
0.9960990528
 41
0.0
 42
6.2831853072
  0
ELLIPSE
  5
4F4
100
AcDbEntity
  8
0
100
AcDbEllipse
 62
7
  6
CONTINUOUS
 10
5.8779664142
 20
7.2047453189
 30
0.0
 11
-0.0091910243
 21
-0.0091910243
 31
0.0
 40
0.9900227071
 41
0.0000000001
 42
3.1415926536
  0
ELLIPSE
  5
4F5
100
AcDbEntity
  8
0
100
AcDbEllipse
 62
7
  6
CONTINUOUS
 10
5.8779664142
 20
7.2047453189
 30
0.0
 11
0.0091910243
 21
0.0091910243
 31
0.0
 40
0.9900227071
 41
-0.0
 42
3.1415926536
  0
ELLIPSE
  5
4F6
100
AcDbEntity
  8
0
100
AcDbEllipse
 62
7
  6
CONTINUOUS
 10
5.6272966703
 20
7.3970909785
 30
0.0
 11
-0.0064990356
 21
-0.0112566599
 31
0.0
 40
0.9900227071
 41
0.0
 42
6.2831853072
  0
ELLIPSE
  5
4F7
100
AcDbEntity
  8
0
100
AcDbEllipse
 62
7
  6
CONTINUOUS
 10
5.3353855708
 20
7.5180045149
 30
0.0
 11
-0.0033641484
 21
-0.0125551727
 31
0.0
 40
0.9900227071
 41
0.0
 42
6.2831853072
  0
ELLIPSE
  5
4F8
100
AcDbEntity
  8
0
100
AcDbEllipse
 62
7
  6
CONTINUOUS
 10
5.0221263748
 20
7.5592458704
 30
0.0
 11
0.0
 21
-0.0129980712
 31
0.0
 40
0.9900227071
 41
0.0
 42
6.2831853072
  0
ELLIPSE
  5
4F9
100
AcDbEntity
  8
0
100
AcDbEllipse
 62
7
  6
CONTINUOUS
 10
4.7088671788
 20
7.5180045149
 30
0.0
 11
0.0033641484
 21
-0.0125551727
 31
0.0
 40
0.9900227071
 41
0.0
 42
6.2831853072
  0
ELLIPSE
  5
4FA
100
AcDbEntity
  8
0
100
AcDbEllipse
 62
7
  6
CONTINUOUS
 10
4.4169560794
 20
7.3970909785
 30
0.0
 11
0.0064990356
 21
-0.0112566599
 31
0.0
 40
0.9900227071
 41
0.0
 42
6.2831853072
  0
ELLIPSE
  5
4FB
100
AcDbEntity
  8
0
100
AcDbEllipse
 62
7
  6
CONTINUOUS
 10
4.1662863354
 20
7.2047453189
 30
0.0
 11
0.0091910243
 21
-0.0091910243
 31
0.0
 40
0.9900227071
 41
0.0
 42
6.2831853072
  0
ELLIPSE
  5
4FC
100
AcDbEntity
  8
0
100
AcDbEllipse
 62
7
  6
CONTINUOUS
 10
3.9739406758
 20
6.954075575
 30
0.0
 11
0.0112566599
 21
-0.0064990356
 31
0.0
 40
0.9900227071
 41
0.0
 42
6.2831853072
  0
ELLIPSE
  5
4FD
100
AcDbEntity
  8
0
100
AcDbEllipse
 62
7
  6
CONTINUOUS
 10
3.8530271394
 20
6.6621644755
 30
0.0
 11
0.0125551727
 21
-0.0033641484
 31
0.0
 40
0.9900227071
 41
0.0
 42
6.2831853072
  0
ELLIPSE
  5
4FE
100
AcDbEntity
  8
0
100
AcDbEllipse
 62
7
  6
CONTINUOUS
 10
3.8117857839
 20
6.3489052795
 30
0.0
 11
0.0129980712
 21
0.0
 31
0.0
 40
0.9900227071
 41
0.0
 42
6.2831853072
  0
ELLIPSE
  5
4FF
100
AcDbEntity
  8
0
100
AcDbEllipse
 62
7
  6
CONTINUOUS
 10
3.8530271394
 20
6.0356460835
 30
0.0
 11
0.0125551727
 21
0.0033641484
 31
0.0
 40
0.9900227071
 41
0.0
 42
6.2831853072
  0
ENDSEC
  0
SECTION
  2
OBJECTS
  0
DICTIONARY
  5
C
100
AcDbDictionary
280
0
281
1
  3
ACAD_GROUP
350
D
  3
ACAD_MLINESTYLE
350
17
  3
ACAD_LAYOUT
350
1A
  3
ACAD_PLOTSETTINGS
350
19
  3
ACAD_PLOTSTYLENAME
350
E
  0
DICTIONARY
  5
D
102
{ACAD_REACTORS
330
C
102
}
100
AcDbDictionary
280
0
281
1
  0
ACDBDICTIONARYWDFLT
  5
E
102
{ACAD_REACTORS
330
C
102
}
100
AcDbDictionary
281
1
  3
Normal
350
F
100
AcDbDictionaryWithDefault
340
F
  0
DICTIONARY
  5
17
102
{ACAD_REACTORS
330
C
102
}
100
AcDbDictionary
280
0
281
1
  3
Standard
350
18
  0
DICTIONARY
  5
19
102
{ACAD_REACTORS
330
C
102
}
100
AcDbDictionary
281
1
  0
DICTIONARY
  5
1A
102
{ACAD_REACTORS
330
C
102
}
100
AcDbDictionary
281
1
  3
Model
350
500
  3
Layout1
350
501
  0
ACDBPLACEHOLDER
  5
F
102
{ACAD_REACTORS
330
E
102
}
  0
MLINESTYLE
  5
18
102
{ACAD_REACTORS
330
17
102
}
100
AcDbMlineStyle
  2
STANDARD
 70
0
  3

 62
256
 51
90.0
 52
90.0
 71
2
 49
0.5
 62
256
  6
BYLAYER
 49
-0.5
 62
256
  6
BYLAYER
  0
LAYOUT
  5
500
102
{ACAD_REACTORS
330
1A
102
}
100
AcDbPlotSettings
  1

  2
none_device
  4
ANSI_A_(11.00_x_8.50_Inches)
  6

 40
0.0
 41
0.0
 42
0.0
 43
0.0
 44
279.4
 45
215.9
 46
0.0
 47
0.0
 48
0.0
 49
0.0
140
0.0
141
0.0
142
1.0
143
1.0
 70
1024
 72
0
 73
0
 74
0
  7

 75
0
147
1.0
148
0.0
149
0.0
100
AcDbLayout
  1
Model
 70
0
 71
0
 10
0.0
 20
0.0
 11
11.0
 21
8.5
 12
0.0
 22
0.0
 32
0.0
 14
0.0
 24
0.0
 34
0.0
 15
0.0
 25
0.0
 35
0.0
146
0.0
 13
0.0
 23
0.0
 33
0.0
 16
1.0
 26
0.0
 36
0.0
 17
0.0
 27
1.0
 37
0.0
 76
0
330
248
345
0
346
0
  0
LAYOUT
  5
501
102
{ACAD_REACTORS
330
1A
102
}
100
AcDbPlotSettings
  1

  2
none_device
  4
ANSI_A_(11.00_x_8.50_Inches)
  6

 40
0.0
 41
0.0
 42
0.0
 43
0.0
 44
279.4
 45
215.9
 46
0.0
 47
0.0
 48
0.0
 49
0.0
140
0.0
141
0.0
142
1.0
143
1.0
 70
0
 72
0
 73
0
 74
0
  7

 75
0
147
1.0
148
0.0
149
0.0
100
AcDbLayout
  1
Layout1
 70
0
 71
1
 10
0.0
 20
0.0
 11
11.0
 21
8.5
 12
0.0
 22
0.0
 32
0.0
 14
0.0
 24
0.0
 34
0.0
 15
0.0
 25
0.0
 35
0.0
146
0.0
 13
0.0
 23
0.0
 33
0.0
 16
1.0
 26
0.0
 36
0.0
 17
0.0
 27
1.0
 37
0.0
 76
0
330
249
345
0
346
0
  0
ENDSEC
  0
EOF
