999
DXF file: 281_RIGHT.dxf
999
Pro/ENGINEER 2018400 by Parametric Technology Corporation
  0
SECTION
  2
HEADER
  9
$ACADVER
  1
AC1027
  9
$DWGCODEPAGE
  3
ANSI_1252
  9
$EXTMAX
 10
11.0
 20
8.5
 30
0.0
  9
$EXTMIN
 10
0.0
 20
0.0
 30
0.0
  9
$LIMMIN
 10
0.0
 20
0.0
  9
$LIMMAX
 10
11.0
 20
8.5
  9
$VIEWCTR
 10
5.5
 20
4.25
  9
$VIEWSIZE
 40
8.5
  9
$CLAYER
  8
0
  9
$LTSCALE
 40
0.605
  9
$CELTYPE
  6
BYLAYER
  9
$DIMSCALE
 40
1.0
  9
$DIMASZ
 40
0.1
  9
$DIMEXO
 40
0.0625
  9
$DIMDLI
 40
0.418
  9
$DIMEXE
 40
0.125
  9
$DIMCEN
 40
0.099
  9
$DIMLFAC
 40
1.0
  9
$DIMBLK
  1
_FILLED
  9
$DIMALT
 70
1
  9
$DIMALTD
 70
2
  9
$DIMALTTD
 70
2
  9
$DIMALTF
 40
25.4
  9
$DIMTXT
 40
0.08
  9
$DIMTOL
 70
1
  9
$DIMLIM
 70
0
  9
$DIMTFAC
 40
1.0
  9
$DIMTP
 40
0.001
  9
$DIMTM
 40
0.001
  9
$DIMGAP
 40
0.09
  9
$DIMDSEP
 70
46
  9
$AUNITS
 70
0
  9
$PDMODE
 70
3
  9
$PDSIZE
 40
0.3125
  9
$HANDSEED
  5
397
  9
$TILEMODE
 70
1
  9
$MEASUREMENT
 70
0
  9
$INSUNITS
 70
1
  0
ENDSEC
  0
SECTION
  2
CLASSES
  0
CLASS
  1
ACDBDICTIONARYWDFLT
  2
AcDbDictionaryWithDefault
  3
AutoCAD 2000
 90
0
 91
1
280
0
281
0
  0
CLASS
  1
ACDBPLACEHOLDER
  2
AcDbPlaceHolder
  3
AutoCAD 2000
 90
0
 91
1
280
0
281
0
  0
CLASS
  1
LAYOUT
  2
AcDbLayout
  3
AutoCAD 2000
 90
0
 91
0
280
0
281
0
  0
ENDSEC
  0
SECTION
  2
TABLES
  0
TABLE
  2
VPORT
  5
8
100
AcDbSymbolTable
 70
2
  0
VPORT
  5
1F4
100
AcDbSymbolTableRecord
100
AcDbViewportTableRecord
  2
*ACTIVE
 70
0
 10
0.0
 20
0.0
 11
1.0
 21
1.0
 12
5.5
 22
4.25
 13
0.0
 23
0.0
 14
1.0
 24
1.0
 15
0.0
 25
0.0
 16
0.0
 26
0.0
 36
1.0
 17
0.0
 27
0.0
 37
0.0
 40
8.5
 41
1.2941176471
 42
50.0
 43
0.0
 44
0.0
 50
0.0
 51
0.0
 71
0
 72
100
 73
1
 74
1
 75
0
 76
0
 77
0
 78
0
  0
ENDTAB
  0
TABLE
  2
LTYPE
  5
5
100
AcDbSymbolTable
 70
6
  0
LTYPE
  5
14
100
AcDbSymbolTableRecord
100
AcDbLinetypeTableRecord
  2
BYBLOCK
 70
0
  3

 72
65
 73
0
 40
0.0
  0
LTYPE
  5
15
100
AcDbSymbolTableRecord
100
AcDbLinetypeTableRecord
  2
BYLAYER
 70
0
  3

 72
65
 73
0
 40
0.0
  0
LTYPE
  5
16
100
AcDbSymbolTableRecord
100
AcDbLinetypeTableRecord
  2
CONTINUOUS
 70
64
  3
Solid line
 72
65
 73
0
 40
0.0
  0
LTYPE
  5
1F5
100
AcDbSymbolTableRecord
100
AcDbLinetypeTableRecord
  2
CENTER
 70
64
  3
____ _ ____ _ ____ _ ____ _ ____ _ ____ _ ____
 72
65
 73
4
 40
0.6
 49
0.375
 74
0
 49
-0.075
 74
0
 49
0.075
 74
0
 49
-0.075
 74
0
  0
LTYPE
  5
1F6
100
AcDbSymbolTableRecord
100
AcDbLinetypeTableRecord
  2
HIDDEN
 70
64
  3
- - - - - - - - - - - - - - - - - - - -
 72
65
 73
2
 40
0.2
 49
0.1
 74
0
 49
-0.1
 74
0
  0
LTYPE
  5
1F7
100
AcDbSymbolTableRecord
100
AcDbLinetypeTableRecord
  2
PHANTOM
 70
64
  3
_____ _ _ _____ _ _ _____ _ _ _____
 72
65
 73
6
 40
0.8
 49
0.45
 74
0
 49
-0.05
 74
0
 49
0.1
 74
0
 49
-0.05
 74
0
 49
0.1
 74
0
 49
-0.05
 74
0
  0
LTYPE
  5
1F8
100
AcDbSymbolTableRecord
100
AcDbLinetypeTableRecord
  2
DOT
 70
64
  3
. . . . . . . . . . . . . . . . . . . .
 72
65
 73
2
 40
0.2
 49
0.1
 74
0
 49
-0.1
 74
0
  0
LTYPE
  5
1F9
100
AcDbSymbolTableRecord
100
AcDbLinetypeTableRecord
  2
DASHED
 70
64
  3
- - - - - - - - - - - - - - - - - - - -
 72
65
 73
2
 40
0.2
 49
0.1
 74
0
 49
-0.1
 74
0
  0
ENDTAB
  0
TABLE
  2
LAYER
  5
2
100
AcDbSymbolTable
 70
36
  0
LAYER
  5
10
100
AcDbSymbolTableRecord
100
AcDbLayerTableRecord
  2
0
 70
0
 62
7
  6
CONTINUOUS
370
-3
390
F
  0
LAYER
  5
1FA
100
AcDbSymbolTableRecord
100
AcDbLayerTableRecord
  2
DEFAULT_1
 70
0
 62
7
  6
CENTER
370
-3
390
F
  0
LAYER
  5
1FB
100
AcDbSymbolTableRecord
100
AcDbLayerTableRecord
  2
DEFAULT_2
 70
0
 62
8
  6
HIDDEN
370
-3
390
F
  0
LAYER
  5
1FC
100
AcDbSymbolTableRecord
100
AcDbLayerTableRecord
  2
DEFAULT_3
 70
0
 62
7
  6
PHANTOM
370
-3
390
F
  0
LAYER
  5
1FD
100
AcDbSymbolTableRecord
100
AcDbLayerTableRecord
  2
281_ASSY_DATUMS
 70
0
 62
7
  6
CONTINUOUS
370
-3
390
F
  0
LAYER
  5
1FE
100
AcDbSymbolTableRecord
100
AcDbLayerTableRecord
  2
ALL_ASSEMBLY_MEMBERS
 70
0
 62
7
  6
CONTINUOUS
370
-3
390
F
  0
LAYER
  5
1FF
100
AcDbSymbolTableRecord
100
AcDbLayerTableRecord
  2
ALL_FEATURES
 70
0
 62
7
  6
CONTINUOUS
370
-3
390
F
  0
LAYER
  5
200
100
AcDbSymbolTableRecord
100
AcDbLayerTableRecord
  2
ALL_PLANES
 70
0
 62
7
  6
CONTINUOUS
370
-3
390
F
  0
LAYER
  5
201
100
AcDbSymbolTableRecord
100
AcDbLayerTableRecord
  2
AXES_FEATURES
 70
0
 62
7
  6
CONTINUOUS
370
-3
390
F
  0
LAYER
  5
202
100
AcDbSymbolTableRecord
100
AcDbLayerTableRecord
  2
CHAMFER_FEATURES
 70
0
 62
7
  6
CONTINUOUS
370
-3
390
F
  0
LAYER
  5
203
100
AcDbSymbolTableRecord
100
AcDbLayerTableRecord
  2
COLOR92
 70
0
 62
7
  6
CONTINUOUS
370
-3
390
F
  0
LAYER
  5
204
100
AcDbSymbolTableRecord
100
AcDbLayerTableRecord
  2
COSMETIC
 70
0
 62
7
  6
CONTINUOUS
370
-3
390
F
  0
LAYER
  5
205
100
AcDbSymbolTableRecord
100
AcDbLayerTableRecord
  2
CSA_LOGO
 70
0
 62
7
  6
CONTINUOUS
370
-3
390
F
  0
LAYER
  5
206
100
AcDbSymbolTableRecord
100
AcDbLayerTableRecord
  2
CURVES
 70
0
 62
7
  6
CONTINUOUS
370
-3
390
F
  0
LAYER
  5
207
100
AcDbSymbolTableRecord
100
AcDbLayerTableRecord
  2
CUT_FEATURES
 70
0
 62
7
  6
CONTINUOUS
370
-3
390
F
  0
LAYER
  5
208
100
AcDbSymbolTableRecord
100
AcDbLayerTableRecord
  2
DATUM_CURVES
 70
0
 62
7
  6
CONTINUOUS
370
-3
390
F
  0
LAYER
  5
209
100
AcDbSymbolTableRecord
100
AcDbLayerTableRecord
  2
DATUM_PLANES
 70
0
 62
7
  6
CONTINUOUS
370
-3
390
F
  0
LAYER
  5
20A
100
AcDbSymbolTableRecord
100
AcDbLayerTableRecord
  2
DEFAULT_COORDINATE_SYSTEM
 70
0
 62
7
  6
CONTINUOUS
370
-3
390
F
  0
LAYER
  5
20B
100
AcDbSymbolTableRecord
100
AcDbLayerTableRecord
  2
DEFAULT_DATUM_AXES
 70
0
 62
7
  6
CONTINUOUS
370
-3
390
F
  0
LAYER
  5
20C
100
AcDbSymbolTableRecord
100
AcDbLayerTableRecord
  2
DEFAULT_DATUM_CURVES
 70
0
 62
7
  6
CONTINUOUS
370
-3
390
F
  0
LAYER
  5
20D
100
AcDbSymbolTableRecord
100
AcDbLayerTableRecord
  2
DEFAULT_DATUM_PLANES
 70
0
 62
7
  6
CONTINUOUS
370
-3
390
F
  0
LAYER
  5
20E
100
AcDbSymbolTableRecord
100
AcDbLayerTableRecord
  2
DEFAULT_SURFACES
 70
0
 62
7
  6
CONTINUOUS
370
-3
390
F
  0
LAYER
  5
20F
100
AcDbSymbolTableRecord
100
AcDbLayerTableRecord
  2
DELTA_LOGO_CURVE
 70
0
 62
7
  6
CONTINUOUS
370
-3
390
F
  0
LAYER
  5
210
100
AcDbSymbolTableRecord
100
AcDbLayerTableRecord
  2
DIMENSIONS
 70
0
 62
7
  6
CONTINUOUS
370
-3
390
F
  0
LAYER
  5
211
100
AcDbSymbolTableRecord
100
AcDbLayerTableRecord
  2
DTM_PLANES
 70
0
 62
7
  6
CONTINUOUS
370
-3
390
F
  0
LAYER
  5
212
100
AcDbSymbolTableRecord
100
AcDbLayerTableRecord
  2
EXT_SURFACE
 70
0
 62
7
  6
CONTINUOUS
370
-3
390
F
  0
LAYER
  5
213
100
AcDbSymbolTableRecord
100
AcDbLayerTableRecord
  2
GTOL_DTMS
 70
0
 62
7
  6
CONTINUOUS
370
-3
390
F
  0
LAYER
  5
214
100
AcDbSymbolTableRecord
100
AcDbLayerTableRecord
  2
IMPORT
 70
0
 62
7
  6
CONTINUOUS
370
-3
390
F
  0
LAYER
  5
215
100
AcDbSymbolTableRecord
100
AcDbLayerTableRecord
  2
LOGO_CURVES
 70
0
 62
7
  6
CONTINUOUS
370
-3
390
F
  0
LAYER
  5
216
100
AcDbSymbolTableRecord
100
AcDbLayerTableRecord
  2
PLATED_SURFACE_AREA
 70
0
 62
7
  6
CONTINUOUS
370
-3
390
F
  0
LAYER
  5
217
100
AcDbSymbolTableRecord
100
AcDbLayerTableRecord
  2
PROTRUSION_FEATURES
 70
0
 62
7
  6
CONTINUOUS
370
-3
390
F
  0
LAYER
  5
218
100
AcDbSymbolTableRecord
100
AcDbLayerTableRecord
  2
SHELL_FEATURES
 70
0
 62
7
  6
CONTINUOUS
370
-3
390
F
  0
LAYER
  5
219
100
AcDbSymbolTableRecord
100
AcDbLayerTableRecord
  2
SIZE_REF
 70
0
 62
7
  6
CONTINUOUS
370
-3
390
F
  0
LAYER
  5
21A
100
AcDbSymbolTableRecord
100
AcDbLayerTableRecord
  2
START_DTMS
 70
0
 62
7
  6
CONTINUOUS
370
-3
390
F
  0
LAYER
  5
21B
100
AcDbSymbolTableRecord
100
AcDbLayerTableRecord
  2
SURFS
 70
0
 62
7
  6
CONTINUOUS
370
-3
390
F
  0
LAYER
  5
21C
100
AcDbSymbolTableRecord
100
AcDbLayerTableRecord
  2
WETTED_SURFACE
 70
0
 62
7
  6
CONTINUOUS
370
-3
390
F
  0
LAYER
  5
21D
100
AcDbSymbolTableRecord
100
AcDbLayerTableRecord
  2
WETTED_SURFACE_AREA
 70
0
 62
7
  6
CONTINUOUS
370
-3
390
F
  0
LAYER
  5
21E
100
AcDbSymbolTableRecord
100
AcDbLayerTableRecord
  2
XSEC_DATUMS
 70
0
 62
7
  6
CONTINUOUS
370
-3
390
F
  0
ENDTAB
  0
TABLE
  2
STYLE
  5
3
100
AcDbSymbolTable
 70
1
  0
STYLE
  5
11
100
AcDbSymbolTableRecord
100
AcDbTextStyleTableRecord
  2
STANDARD
 70
0
 40
0.0
 41
0.8
 50
0.0
 71
0
 42
0.2
  3
txt
  4

  0
STYLE
  5
21F
100
AcDbSymbolTableRecord
100
AcDbTextStyleTableRecord
  2
TEXTSTYLE_1
 70
0
 40
0.0
 41
0.8
 50
0.0
 71
0
 42
0.2
  3
gdt
  4

  0
ENDTAB
  0
TABLE
  2
VIEW
  5
6
100
AcDbSymbolTable
 70
0
  0
ENDTAB
  0
TABLE
  2
UCS
  5
7
100
AcDbSymbolTable
 70
0
  0
ENDTAB
  0
TABLE
  2
APPID
  5
9
100
AcDbSymbolTable
 70
1
  0
APPID
  5
220
100
AcDbSymbolTableRecord
100
AcDbRegAppTableRecord
  2
ACAD
 70
0
  0
ENDTAB
  0
TABLE
  2
BLOCK_RECORD
  5
1
100
AcDbSymbolTable
 70
0
  0
BLOCK_RECORD
  5
221
100
AcDbSymbolTableRecord
100
AcDbBlockTableRecord
  2
*Model_Space
  0
BLOCK_RECORD
  5
222
100
AcDbSymbolTableRecord
100
AcDbBlockTableRecord
  2
*Paper_Space
  0
BLOCK_RECORD
  5
223
100
AcDbSymbolTableRecord
100
AcDbBlockTableRecord
  2
_FILLED
  0
ENDTAB
  0
TABLE
  2
DIMSTYLE
  5
A
100
AcDbSymbolTable
 70
1
100
AcDbDimStyleTable
 71
0
  0
DIMSTYLE
105
224
100
AcDbSymbolTableRecord
100
AcDbDimStyleTableRecord
  2
STANDARD
 70
0
  3

  4

 40
1.0
 41
0.1
 42
0.0625
 43
0.38
 44
0.125
 45
0.0
 46
0.0
 47
0.001
 48
0.001
140
0.08
141
0.09
142
0.0
143
25.4
144
1.0
145
0.0
146
1.0
147
0.09
 71
1.0
 72
0.0
 73
1
 74
1
 75
0
 76
0
 77
0
 78
4
 79
1
170
1
171
2
172
0
173
0
174
0
175
0
176
0
177
0
178
0
270
2
179
3
271
3
272
3
273
2
274
2
275
0
280
0
281
0
282
0
283
1
284
4
285
0
286
0
287
3
288
0
340
11
278
46
341
223
342
223
343
223
344
223
  0
ENDTAB
  0
ENDSEC
  0
SECTION
  2
BLOCKS
  0
BLOCK
  5
20
100
AcDbEntity
  8
0
100
AcDbBlockBegin
  2
*Model_Space
 70
0
 10
0.0
 20
0.0
 30
0.0
  3
*Model_Space
  1

  0
ENDBLK
  5
21
100
AcDbEntity
  8
0
100
AcDbBlockEnd
  0
BLOCK
  5
1C
100
AcDbEntity
  8
0
100
AcDbBlockBegin
  2
*Paper_Space
 70
0
 10
0.0
 20
0.0
 30
0.0
  3
*Paper_Space
  1

  0
ENDBLK
  5
1D
100
AcDbEntity
  8
0
100
AcDbBlockEnd
  0
BLOCK
  5
225
100
AcDbEntity
  8
0
100
AcDbBlockBegin
  2
_FILLED
 70
64
 10
0.0
 20
0.0
  3
_FILLED
  1

  0
SOLID
  5
226
100
AcDbEntity
  8
0
  6
BYBLOCK
 62
0
100
AcDbTrace
 10
0.0
 20
0.0
 11
-1.0
 21
0.2
 12
-1.0
 22
-0.2
 13
-1.0
 23
-0.2
  0
ENDBLK
  5
227
100
AcDbEntity
  8
0
  6
BYBLOCK
 62
0
100
AcDbBlockEnd
  0
ENDSEC
  0
SECTION
  2
ENTITIES
  0
MTEXT
  5
228
100
AcDbEntity
  8
0
100
AcDbMText
 62
2
  6
CONTINUOUS
  7
STANDARD
 71
3
 72
1
 10
5.5514744548
 20
0.3364604037
 30
0.0
 11
1.0
 21
0.0
 31
0.0
 73
2
 44
0.9
  1
SCALE  1.000
 40
0.08
 41
0.768
  0
LINE
  5
229
100
AcDbEntity
  8
0
100
AcDbLine
 62
7
  6
CONTINUOUS
 10
0.0
 20
0.0
 11
0.0
 21
8.5
  0
LINE
  5
22A
100
AcDbEntity
  8
0
100
AcDbLine
 62
7
  6
CONTINUOUS
 10
0.0
 20
0.0
 11
11.0
 21
0.0
  0
LINE
  5
22B
100
AcDbEntity
  8
0
100
AcDbLine
 62
7
  6
CONTINUOUS
 10
0.0
 20
8.5
 11
11.0
 21
8.5
  0
LINE
  5
22C
100
AcDbEntity
  8
0
100
AcDbLine
 62
7
  6
CONTINUOUS
 10
11.0
 20
0.0
 11
11.0
 21
8.5
  0
LINE
  5
22D
100
AcDbEntity
  8
ALL_ASSEMBLY_MEMBERS
100
AcDbLine
 62
7
  6
CONTINUOUS
 10
5.2951874669
 20
0.7192368012
 11
6.0081750047
 21
0.7192368012
  0
LINE
  5
22E
100
AcDbEntity
  8
ALL_ASSEMBLY_MEMBERS
100
AcDbLine
 62
7
  6
CONTINUOUS
 10
5.7362844485
 20
0.9359102768
 11
5.7370113606
 21
0.9359311889
  0
LINE
  5
22F
100
AcDbEntity
  8
ALL_ASSEMBLY_MEMBERS
100
AcDbLine
 62
7
  6
CONTINUOUS
 10
5.7309640578
 20
0.9357583655
 11
5.7316446947
 21
0.9357777768
  0
LINE
  5
230
100
AcDbEntity
  8
ALL_ASSEMBLY_MEMBERS
100
AcDbLine
 62
7
  6
CONTINUOUS
 10
5.7151882713
 20
0.93531017
 11
5.7155926336
 21
0.9353216726
  0
LINE
  5
231
100
AcDbEntity
  8
ALL_ASSEMBLY_MEMBERS
100
AcDbLine
 62
7
  6
CONTINUOUS
 10
6.0370614945
 20
1.0442368012
 11
5.2694299857
 21
1.0442368012
  0
LINE
  5
232
100
AcDbEntity
  8
ALL_ASSEMBLY_MEMBERS
100
AcDbLine
 62
7
  6
CONTINUOUS
 10
5.2016812358
 20
1.1042368012
 11
6.1016812358
 21
1.1042368012
  0
LINE
  5
233
100
AcDbEntity
  8
ALL_ASSEMBLY_MEMBERS
100
AcDbLine
 62
7
  6
CONTINUOUS
 10
5.2016812358
 20
1.2042368012
 11
6.1016812358
 21
1.2042368012
  0
LINE
  5
234
100
AcDbEntity
  8
ALL_ASSEMBLY_MEMBERS
100
AcDbLine
 62
7
  6
CONTINUOUS
 10
5.2456573034
 20
0.7722590323
 11
5.2838412362
 21
0.7501850041
  0
LINE
  5
235
100
AcDbEntity
  8
ALL_ASSEMBLY_MEMBERS
100
AcDbLine
 62
7
  6
CONTINUOUS
 10
5.2456573035
 20
0.8436890615
 11
5.2838412369
 21
0.8216150329
  0
LINE
  5
236
100
AcDbEntity
  8
ALL_ASSEMBLY_MEMBERS
100
AcDbLine
 62
7
  6
CONTINUOUS
 10
5.2456573024
 20
0.915119046
 11
5.2838412358
 21
0.8930450176
  0
LINE
  5
237
100
AcDbEntity
  8
ALL_ASSEMBLY_MEMBERS
100
AcDbLine
 62
7
  6
CONTINUOUS
 10
5.2456573036
 20
0.9865490391
 11
5.2838412365
 21
0.9644750108
  0
LINE
  5
238
100
AcDbEntity
  8
ALL_ASSEMBLY_MEMBERS
100
AcDbLine
 62
7
  6
CONTINUOUS
 10
5.2694300034
 20
1.0442368012
 11
5.2838412369
 21
1.035905038
  0
LINE
  5
239
100
AcDbEntity
  8
ALL_ASSEMBLY_MEMBERS
100
AcDbLine
 62
7
  6
CONTINUOUS
 10
5.2416812358
 20
1.6732368012
 11
6.0616812358
 21
1.6732368012
  0
LINE
  5
23A
100
AcDbEntity
  8
ALL_ASSEMBLY_MEMBERS
100
AcDbLine
 62
7
  6
CONTINUOUS
 10
5.241688402
 20
1.7732368012
 11
6.0616740696
 21
1.7732368012
  0
LINE
  5
23B
100
AcDbEntity
  8
ALL_ASSEMBLY_MEMBERS
100
AcDbLine
 62
7
  6
CONTINUOUS
 10
6.0433328046
 20
0.7548818009
 11
6.0209154075
 21
0.767841784
  0
LINE
  5
23C
100
AcDbEntity
  8
ALL_ASSEMBLY_MEMBERS
100
AcDbLine
 62
7
  6
CONTINUOUS
 10
6.0209154075
 20
0.767841784
 11
6.0195212349
 21
0.7686478563
  0
LINE
  5
23D
100
AcDbEntity
  8
ALL_ASSEMBLY_MEMBERS
100
AcDbLine
 62
7
  6
CONTINUOUS
 10
6.0577051686
 20
0.8180038473
 11
6.0195212349
 21
0.8400778762
  0
LINE
  5
23E
100
AcDbEntity
  8
ALL_ASSEMBLY_MEMBERS
100
AcDbLine
 62
7
  6
CONTINUOUS
 10
6.0577051685
 20
0.8894338131
 11
6.0195212356
 21
0.9115078416
  0
LINE
  5
23F
100
AcDbEntity
  8
ALL_ASSEMBLY_MEMBERS
100
AcDbLine
 62
7
  6
CONTINUOUS
 10
6.057705168
 20
0.9608638377
 11
6.0195212347
 21
0.9829378665
  0
LINE
  5
240
100
AcDbEntity
  8
ALL_ASSEMBLY_MEMBERS
100
AcDbLine
 62
7
  6
CONTINUOUS
 10
5.2825402426
 20
0.7318777944
 11
5.2951812358
 21
0.7192368012
  0
LINE
  5
241
100
AcDbEntity
  8
ALL_ASSEMBLY_MEMBERS
100
AcDbLine
 62
7
  6
CONTINUOUS
 10
6.0577051691
 20
1.0322938382
 11
6.0370448694
 21
1.0442368012
  0
LINE
  5
242
100
AcDbEntity
  8
ALL_ASSEMBLY_MEMBERS
100
AcDbLine
 62
7
  6
CONTINUOUS
 10
5.2451812358
 20
0.7728092851
 11
5.2456573034
 21
0.7722590323
  0
LINE
  5
243
100
AcDbEntity
  8
ALL_ASSEMBLY_MEMBERS
100
AcDbLine
 62
7
  6
CONTINUOUS
 10
5.2456573035
 20
0.8436890615
 11
5.2451812358
 21
0.8442393145
  0
LINE
  5
244
100
AcDbEntity
  8
ALL_ASSEMBLY_MEMBERS
100
AcDbLine
 62
7
  6
CONTINUOUS
 10
5.2456573036
 20
0.9865490391
 11
5.2451812358
 21
0.9870992922
  0
LINE
  5
245
100
AcDbEntity
  8
ALL_ASSEMBLY_MEMBERS
100
AcDbLine
 62
7
  6
CONTINUOUS
 10
5.1116812358
 20
2.4256973265
 11
6.1916812358
 21
2.4256973265
  0
LINE
  5
246
100
AcDbEntity
  8
ALL_ASSEMBLY_MEMBERS
100
AcDbLine
 62
7
  6
CONTINUOUS
 10
6.0577051685
 20
0.8894338131
 11
6.0581812358
 21
0.8888835606
  0
LINE
  5
247
100
AcDbEntity
  8
ALL_ASSEMBLY_MEMBERS
100
AcDbLine
 62
7
  6
CONTINUOUS
 10
6.057705168
 20
0.9608638377
 11
6.0581812358
 21
0.9603135847
  0
LINE
  5
248
100
AcDbEntity
  8
0
100
AcDbLine
 62
7
  6
CONTINUOUS
 10
4.1440422481
 20
7.329362695
 11
4.1526136063
 21
7.377973283
  0
LINE
  5
249
100
AcDbEntity
  8
0
100
AcDbLine
 62
7
  6
CONTINUOUS
 10
4.1798980074
 20
7.3945003195
 11
4.2104859713
 21
7.567973283
  0
LINE
  5
24A
100
AcDbEntity
  8
0
100
AcDbLine
 62
7
  6
CONTINUOUS
 10
4.2377703724
 20
7.5845003195
 11
4.2421746738
 21
7.6094783537
  0
LINE
  5
24B
100
AcDbEntity
  8
0
100
AcDbLine
 62
7
  6
CONTINUOUS
 10
4.2502794561
 20
7.6554428585
 11
4.2657134316
 21
7.742973283
  0
LINE
  5
24C
100
AcDbEntity
  8
0
100
AcDbLine
 62
7
  6
CONTINUOUS
 10
4.2929978327
 20
7.7595003195
 11
4.301326899
 21
7.8067368012
  0
LINE
  5
24D
100
AcDbEntity
  8
0
100
AcDbLine
 62
7
  6
CONTINUOUS
 10
4.3094379401
 20
7.8527368012
 11
4.3244674315
 21
7.937973283
  0
LINE
  5
24E
100
AcDbEntity
  8
0
100
AcDbLine
 62
7
  6
CONTINUOUS
 10
4.2503979758
 20
6.5888850396
 11
4.2504194497
 21
6.5890040034
  0
LINE
  5
24F
100
AcDbEntity
  8
0
100
AcDbLine
 62
7
  6
CONTINUOUS
 10
4.2423323346
 20
6.6348850396
 11
4.2423084086
 21
6.6347660757
  0
LINE
  5
250
100
AcDbEntity
  8
0
100
AcDbLine
 62
7
  6
CONTINUOUS
 10
4.1438903256
 20
7.3271843176
 11
4.1438903256
 21
6.9148473893
  0
LINE
  5
251
100
AcDbEntity
  8
0
100
AcDbLine
 62
7
  6
CONTINUOUS
 10
4.144042244
 20
6.9131109305
 11
4.144042244
 21
7.329362672
  0
LINE
  5
252
100
AcDbEntity
  8
0
100
AcDbLine
 62
7
  6
CONTINUOUS
 10
4.1526136062
 20
6.8645003202
 11
4.1526136062
 21
7.3779732823
  0
LINE
  5
253
100
AcDbEntity
  8
0
100
AcDbLine
 62
7
  6
CONTINUOUS
 10
4.1624616838
 20
6.8562368012
 11
4.1624616838
 21
7.3862368012
  0
LINE
  5
254
100
AcDbEntity
  8
0
100
AcDbLine
 62
7
  6
CONTINUOUS
 10
4.1700499299
 20
7.3862368012
 11
4.1700499299
 21
6.8562368012
  0
LINE
  5
255
100
AcDbEntity
  8
0
100
AcDbLine
 62
7
  6
CONTINUOUS
 10
4.1798980066
 20
7.3945003149
 11
4.1798980066
 21
6.8479732876
  0
LINE
  5
256
100
AcDbEntity
  8
0
100
AcDbLine
 62
7
  6
CONTINUOUS
 10
4.2104859712
 20
6.6745003199
 11
4.2104859712
 21
7.5679732826
  0
LINE
  5
257
100
AcDbEntity
  8
0
100
AcDbLine
 62
7
  6
CONTINUOUS
 10
4.2203340488
 20
6.6662368012
 11
4.2203340488
 21
7.5762368012
  0
LINE
  5
258
100
AcDbEntity
  8
0
100
AcDbLine
 62
7
  6
CONTINUOUS
 10
4.2279222949
 20
7.5762368012
 11
4.2279222949
 21
6.6662368012
  0
LINE
  5
259
100
AcDbEntity
  8
0
100
AcDbLine
 62
7
  6
CONTINUOUS
 10
4.2377703723
 20
7.5845003188
 11
4.2377703723
 21
6.6579732837
  0
LINE
  5
25A
100
AcDbEntity
  8
0
100
AcDbLine
 62
7
  6
CONTINUOUS
 10
4.2657134316
 20
6.4995003198
 11
4.2657134316
 21
7.7429732827
  0
LINE
  5
25B
100
AcDbEntity
  8
0
100
AcDbLine
 62
7
  6
CONTINUOUS
 10
4.2755615091
 20
6.4912368012
 11
4.2755615091
 21
7.7512368012
  0
LINE
  5
25C
100
AcDbEntity
  8
0
100
AcDbLine
 62
7
  6
CONTINUOUS
 10
4.2831497552
 20
7.7512368012
 11
4.2831497552
 21
6.4912368012
  0
LINE
  5
25D
100
AcDbEntity
  8
0
100
AcDbLine
 62
7
  6
CONTINUOUS
 10
4.2929978327
 20
7.7595003192
 11
4.2929978327
 21
6.4829732833
  0
LINE
  5
25E
100
AcDbEntity
  8
0
100
AcDbLine
 62
7
  6
CONTINUOUS
 10
4.3244674315
 20
6.3045003197
 11
4.3244674315
 21
7.9379732828
  0
LINE
  5
25F
100
AcDbEntity
  8
0
100
AcDbLine
 62
7
  6
CONTINUOUS
 10
4.3343155091
 20
6.2962368012
 11
4.3343155091
 21
7.9462368012
  0
LINE
  5
260
100
AcDbEntity
  8
0
100
AcDbLine
 62
7
  6
CONTINUOUS
 10
4.3396812358
 20
7.9462368012
 11
4.3396812358
 21
6.2962368012
  0
LINE
  5
261
100
AcDbEntity
  8
0
100
AcDbLine
 62
7
  6
CONTINUOUS
 10
4.3496812358
 20
6.2097381871
 11
4.3496812358
 21
8.0327354154
  0
LINE
  5
262
100
AcDbEntity
  8
ALL_ASSEMBLY_MEMBERS
100
AcDbLine
 62
7
  6
CONTINUOUS
 10
4.3516812358
 20
8.1612368012
 11
4.3516812358
 21
6.0812368012
  0
LINE
  5
263
100
AcDbEntity
  8
ALL_ASSEMBLY_MEMBERS
100
AcDbLine
 62
7
  6
CONTINUOUS
 10
4.4327056435
 20
8.1612368012
 11
4.4327056435
 21
6.0812368012
  0
LINE
  5
264
100
AcDbEntity
  8
ALL_ASSEMBLY_MEMBERS
100
AcDbLine
 62
7
  6
CONTINUOUS
 10
4.4654465534
 20
8.1490261228
 11
4.4654465534
 21
6.0934474797
  0
LINE
  5
265
100
AcDbEntity
  8
0
100
AcDbLine
 62
7
  6
CONTINUOUS
 10
4.1440422481
 20
6.9131109075
 11
4.1526136063
 21
6.8645003195
  0
LINE
  5
266
100
AcDbEntity
  8
0
100
AcDbLine
 62
7
  6
CONTINUOUS
 10
4.1798980074
 20
6.847973283
 11
4.2104859713
 21
6.6745003195
  0
LINE
  5
267
100
AcDbEntity
  8
0
100
AcDbLine
 62
7
  6
CONTINUOUS
 10
4.2377703724
 20
6.657973283
 11
4.2418562546
 21
6.6348010938
  0
LINE
  5
268
100
AcDbEntity
  8
0
100
AcDbLine
 62
7
  6
CONTINUOUS
 10
4.2499462302
 20
6.5889205621
 11
4.2657134316
 21
6.4995003195
  0
LINE
  5
269
100
AcDbEntity
  8
0
100
AcDbLine
 62
7
  6
CONTINUOUS
 10
4.2929978327
 20
6.482973283
 11
4.301326899
 21
6.4357368012
  0
LINE
  5
26A
100
AcDbEntity
  8
0
100
AcDbLine
 62
7
  6
CONTINUOUS
 10
4.3094379401
 20
6.3897368012
 11
4.3244674315
 21
6.3045003195
  0
LINE
  5
26B
100
AcDbEntity
  8
ALL_ASSEMBLY_MEMBERS
100
AcDbLine
 62
7
  6
CONTINUOUS
 10
4.8933076499
 20
7.9615302072
 11
4.8933077291
 21
6.2809434042
  0
LINE
  5
26C
100
AcDbEntity
  8
0
100
AcDbLine
 62
7
  6
CONTINUOUS
 10
4.2504194497
 20
7.6554181739
 11
4.2504124466
 21
7.6554533672
  0
LINE
  5
26D
100
AcDbEntity
  8
ALL_ASSEMBLY_MEMBERS
100
AcDbLine
 62
7
  6
CONTINUOUS
 10
5.1116812358
 20
2.4256973265
 11
5.1116812358
 21
4.610776276
  0
LINE
  5
26E
100
AcDbEntity
  8
0
100
AcDbLine
 62
7
  6
CONTINUOUS
 10
4.2423084086
 20
7.6094885605
 11
4.242316379
 21
7.6094533672
  0
LINE
  5
26F
100
AcDbEntity
  8
ALL_ASSEMBLY_MEMBERS
100
AcDbLine
 62
7
  6
CONTINUOUS
 10
5.2016812358
 20
5.2912368012
 11
5.2016812358
 21
5.2412368012
  0
LINE
  5
270
100
AcDbEntity
  8
ALL_ASSEMBLY_MEMBERS
100
AcDbLine
 62
7
  6
CONTINUOUS
 10
5.2016812358
 20
1.2042368012
 11
5.2016812358
 21
1.1042368012
  0
LINE
  5
271
100
AcDbEntity
  8
ALL_ASSEMBLY_MEMBERS
100
AcDbLine
 62
7
  6
CONTINUOUS
 10
5.2416812358
 20
1.7732368012
 11
5.2416812358
 21
1.6732368012
  0
LINE
  5
272
100
AcDbEntity
  8
ALL_ASSEMBLY_MEMBERS
100
AcDbLine
 62
7
  6
CONTINUOUS
 10
5.2451812358
 20
0.9960285953
 11
5.2451812358
 21
0.9870992922
  0
LINE
  5
273
100
AcDbEntity
  8
ALL_ASSEMBLY_MEMBERS
100
AcDbLine
 62
7
  6
CONTINUOUS
 10
5.2451812358
 20
0.9245985685
 11
5.2451812358
 21
0.9156692977
  0
LINE
  5
274
100
AcDbEntity
  8
ALL_ASSEMBLY_MEMBERS
100
AcDbLine
 62
7
  6
CONTINUOUS
 10
5.2451812358
 20
0.8531685749
 11
5.2451812358
 21
0.8442393145
  0
LINE
  5
275
100
AcDbEntity
  8
ALL_ASSEMBLY_MEMBERS
100
AcDbLine
 62
7
  6
CONTINUOUS
 10
5.2451812358
 20
0.7817385902
 11
5.2451812358
 21
0.7728092851
  0
LINE
  5
276
100
AcDbEntity
  8
ALL_ASSEMBLY_MEMBERS
100
AcDbLine
 62
7
  6
CONTINUOUS
 10
5.2838412369
 20
1.0362089573
 11
5.2838412369
 21
1.0186528769
  0
LINE
  5
277
100
AcDbEntity
  8
ALL_ASSEMBLY_MEMBERS
100
AcDbLine
 62
7
  6
CONTINUOUS
 10
5.2838412365
 20
0.9647789303
 11
5.2838412365
 21
0.9472228501
  0
LINE
  5
278
100
AcDbEntity
  8
ALL_ASSEMBLY_MEMBERS
100
AcDbLine
 62
7
  6
CONTINUOUS
 10
5.2838412358
 20
0.8933489363
 11
5.2838412358
 21
0.8757928553
  0
LINE
  5
279
100
AcDbEntity
  8
ALL_ASSEMBLY_MEMBERS
100
AcDbLine
 62
7
  6
CONTINUOUS
 10
5.2838412369
 20
0.8219189523
 11
5.2838412369
 21
0.8043628721
  0
LINE
  5
27A
100
AcDbEntity
  8
ALL_ASSEMBLY_MEMBERS
100
AcDbLine
 62
7
  6
CONTINUOUS
 10
5.2838412362
 20
0.7504889234
 11
5.2838412362
 21
0.7329328428
  0
LINE
  5
27B
100
AcDbEntity
  8
ALL_ASSEMBLY_MEMBERS
100
AcDbLine
 62
7
  6
CONTINUOUS
 10
5.3116812358
 20
6.2161460324
 11
5.3116812358
 21
5.5667363475
  0
LINE
  5
27C
100
AcDbEntity
  8
ALL_ASSEMBLY_MEMBERS
100
AcDbLine
 62
7
  6
CONTINUOUS
 10
5.3195783886
 20
6.3754334856
 11
5.3195799335
 21
7.9135517741
  0
LINE
  5
27D
100
AcDbEntity
  8
ALL_ASSEMBLY_MEMBERS
100
AcDbLine
 62
7
  6
CONTINUOUS
 10
5.3216812358
 20
1.0442368012
 11
5.3216812358
 21
1.1042368012
  0
LINE
  5
27E
100
AcDbEntity
  8
ALL_ASSEMBLY_MEMBERS
100
AcDbLine
 62
7
  6
CONTINUOUS
 10
5.1116812358
 20
4.610776276
 11
6.1916812358
 21
4.610776276
  0
LINE
  5
27F
100
AcDbEntity
  8
ALL_ASSEMBLY_MEMBERS
100
AcDbLine
 62
7
  6
CONTINUOUS
 10
6.1016689701
 20
5.2412368012
 11
5.2016935015
 21
5.2412368012
  0
LINE
  5
280
100
AcDbEntity
  8
ALL_ASSEMBLY_MEMBERS
100
AcDbLine
 62
7
  6
CONTINUOUS
 10
5.9816812358
 20
1.0442368012
 11
5.9816812358
 21
1.1042368012
  0
LINE
  5
281
100
AcDbEntity
  8
ALL_ASSEMBLY_MEMBERS
100
AcDbLine
 62
7
  6
CONTINUOUS
 10
5.9916812358
 20
6.9607225421
 11
5.9916812358
 21
5.5667363475
  0
LINE
  5
282
100
AcDbEntity
  8
ALL_ASSEMBLY_MEMBERS
100
AcDbLine
 62
7
  6
CONTINUOUS
 10
6.0016812358
 20
7.1503706595
 11
6.0016812358
 21
7.092102943
  0
LINE
  5
283
100
AcDbEntity
  8
ALL_ASSEMBLY_MEMBERS
100
AcDbLine
 62
7
  6
CONTINUOUS
 10
6.0195212349
 20
0.7683439365
 11
6.0195212349
 21
0.785900017
  0
LINE
  5
284
100
AcDbEntity
  8
ALL_ASSEMBLY_MEMBERS
100
AcDbLine
 62
7
  6
CONTINUOUS
 10
6.0195212349
 20
0.8397739568
 11
6.0195212349
 21
0.8573300377
  0
LINE
  5
285
100
AcDbEntity
  8
ALL_ASSEMBLY_MEMBERS
100
AcDbLine
 62
7
  6
CONTINUOUS
 10
6.0195212356
 20
0.9112039221
 11
6.0195212356
 21
0.9287600029
  0
LINE
  5
286
100
AcDbEntity
  8
ALL_ASSEMBLY_MEMBERS
100
AcDbLine
 62
7
  6
CONTINUOUS
 10
6.0195212347
 20
0.9826339468
 11
6.0195212347
 21
1.0001900273
  0
LINE
  5
287
100
AcDbEntity
  8
ALL_ASSEMBLY_MEMBERS
100
AcDbLine
 62
7
  6
CONTINUOUS
 10
6.0581812358
 20
1.0317435863
 11
6.0581812358
 21
1.0228143088
  0
LINE
  5
288
100
AcDbEntity
  8
ALL_ASSEMBLY_MEMBERS
100
AcDbLine
 62
7
  6
CONTINUOUS
 10
6.0581812358
 20
0.9603135847
 11
6.0581812358
 21
0.9513842837
  0
LINE
  5
289
100
AcDbEntity
  8
ALL_ASSEMBLY_MEMBERS
100
AcDbLine
 62
7
  6
CONTINUOUS
 10
6.0581812358
 20
0.8888835606
 11
6.0581812358
 21
0.8799543188
  0
LINE
  5
28A
100
AcDbEntity
  8
ALL_ASSEMBLY_MEMBERS
100
AcDbLine
 62
7
  6
CONTINUOUS
 10
6.0581812358
 20
0.8174535949
 11
6.0581812358
 21
0.8085242985
  0
LINE
  5
28B
100
AcDbEntity
  8
ALL_ASSEMBLY_MEMBERS
100
AcDbLine
 62
7
  6
CONTINUOUS
 10
6.0616812358
 20
1.7732368012
 11
6.0616812358
 21
1.6732368012
  0
LINE
  5
28C
100
AcDbEntity
  8
ALL_ASSEMBLY_MEMBERS
100
AcDbLine
 62
7
  6
CONTINUOUS
 10
6.1016812358
 20
5.2912368012
 11
6.1016812358
 21
5.2412368012
  0
LINE
  5
28D
100
AcDbEntity
  8
ALL_ASSEMBLY_MEMBERS
100
AcDbLine
 62
7
  6
CONTINUOUS
 10
6.1016812358
 20
1.2042368012
 11
6.1016812358
 21
1.1042368012
  0
LINE
  5
28E
100
AcDbEntity
  8
ALL_ASSEMBLY_MEMBERS
100
AcDbLine
 62
7
  6
CONTINUOUS
 10
6.1916812358
 20
2.4256973265
 11
6.1916812358
 21
4.610776276
  0
LWPOLYLINE
  5
28F
100
AcDbEntity
  8
ALL_ASSEMBLY_MEMBERS
100
AcDbPolyline
 62
7
  6
CONTINUOUS
 90
6
 70
0
 10
5.991680882
 20
6.9607225431
 10
5.9916888611
 20
6.9619856213
 10
5.9917980094
 20
6.9655605381
 10
5.9920347269
 20
6.9691265317
 10
5.9923984189
 20
6.9726790731
 10
5.9928328028
 20
6.9758553841
  0
LINE
  5
290
100
AcDbEntity
  8
ALL_ASSEMBLY_MEMBERS
100
AcDbLine
 62
7
  6
CONTINUOUS
 10
5.2016812358
 20
5.2912368012
 11
6.1016812358
 21
5.2912368012
  0
LINE
  5
291
100
AcDbEntity
  8
ALL_ASSEMBLY_MEMBERS
100
AcDbLine
 62
7
  6
CONTINUOUS
 10
6.0879312356
 20
5.3256742448
 11
5.215431236
 21
5.3256742448
  0
LINE
  5
292
100
AcDbEntity
  8
ALL_ASSEMBLY_MEMBERS
100
AcDbLine
 62
7
  6
CONTINUOUS
 10
5.9916812358
 20
5.5667363475
 11
5.3116812358
 21
5.5667363475
  0
LINE
  5
293
100
AcDbEntity
  8
ALL_ASSEMBLY_MEMBERS
100
AcDbLine
 62
7
  6
CONTINUOUS
 10
4.3516812358
 20
6.0812368012
 11
4.4327056435
 21
6.0812368012
  0
LINE
  5
294
100
AcDbEntity
  8
0
100
AcDbLine
 62
7
  6
CONTINUOUS
 10
4.3496812358
 20
6.2097368012
 11
4.3516812358
 21
6.2097368012
  0
LINE
  5
295
100
AcDbEntity
  8
ALL_ASSEMBLY_MEMBERS
100
AcDbLine
 62
7
  6
CONTINUOUS
 10
4.8933076499
 20
6.2809433953
 11
5.2004965095
 21
6.3155185734
  0
LINE
  5
296
100
AcDbEntity
  8
0
100
AcDbLine
 62
7
  6
CONTINUOUS
 10
4.3343155091
 20
6.2962368012
 11
4.3396812358
 21
6.2962368012
  0
LINE
  5
297
100
AcDbEntity
  8
0
100
AcDbLine
 62
7
  6
CONTINUOUS
 10
4.2755615091
 20
6.4912368012
 11
4.2831497552
 21
6.4912368012
  0
LINE
  5
298
100
AcDbEntity
  8
ALL_ASSEMBLY_MEMBERS
100
AcDbLine
 62
7
  6
CONTINUOUS
 10
5.2456573032
 20
0.9965788479
 11
5.2451812358
 21
0.9960285953
  0
LINE
  5
299
100
AcDbEntity
  8
0
100
AcDbLine
 62
7
  6
CONTINUOUS
 10
4.2203340488
 20
6.6662368012
 11
4.2279222949
 21
6.6662368012
  0
LINE
  5
29A
100
AcDbEntity
  8
ALL_ASSEMBLY_MEMBERS
100
AcDbLine
 62
7
  6
CONTINUOUS
 10
5.2456573036
 20
0.9251488215
 11
5.2451812358
 21
0.9245985685
  0
LINE
  5
29B
100
AcDbEntity
  8
0
100
AcDbLine
 62
7
  6
CONTINUOUS
 10
4.1624616838
 20
6.8562368012
 11
4.1700499299
 21
6.8562368012
  0
LINE
  5
29C
100
AcDbEntity
  8
ALL_FEATURES
100
AcDbLine
 62
7
  6
CONTINUOUS
 10
4.1438903256
 20
7.0962368012
 11
4.1396075841
 21
7.0962368012
  0
LINE
  5
29D
100
AcDbEntity
  8
ALL_FEATURES
100
AcDbLine
 62
7
  6
CONTINUOUS
 10
4.1396075841
 20
7.1462368012
 11
4.1438903256
 21
7.1462368012
  0
LINE
  5
29E
100
AcDbEntity
  8
ALL_ASSEMBLY_MEMBERS
100
AcDbLine
 62
7
  6
CONTINUOUS
 10
6.0581812358
 20
1.0228143088
 11
6.057705168
 21
1.0222640557
  0
LINE
  5
29F
100
AcDbEntity
  8
ALL_ASSEMBLY_MEMBERS
100
AcDbLine
 62
7
  6
CONTINUOUS
 10
6.0577051684
 20
0.9508340311
 11
6.0581812358
 21
0.9513842837
  0
LINE
  5
2A0
100
AcDbEntity
  8
ALL_ASSEMBLY_MEMBERS
100
AcDbLine
 62
7
  6
CONTINUOUS
 10
6.0577051686
 20
0.8794040664
 11
6.0581812358
 21
0.8799543188
  0
LINE
  5
2A1
100
AcDbEntity
  8
ALL_ASSEMBLY_MEMBERS
100
AcDbLine
 62
7
  6
CONTINUOUS
 10
6.0581812358
 20
0.8085242985
 11
6.057705168
 21
0.8079740454
  0
LINE
  5
2A2
100
AcDbEntity
  8
ALL_ASSEMBLY_MEMBERS
100
AcDbLine
 62
7
  6
CONTINUOUS
 10
5.2843671348
 20
1.0189569367
 11
5.2456573032
 21
0.9965788479
  0
LINE
  5
2A3
100
AcDbEntity
  8
ALL_ASSEMBLY_MEMBERS
100
AcDbLine
 62
7
  6
CONTINUOUS
 10
5.2843671348
 20
0.9475269101
 11
5.2456573036
 21
0.9251488215
  0
LINE
  5
2A4
100
AcDbEntity
  8
0
100
AcDbLine
 62
7
  6
CONTINUOUS
 10
4.1624616838
 20
7.3862368012
 11
4.1700499299
 21
7.3862368012
  0
LINE
  5
2A5
100
AcDbEntity
  8
ALL_ASSEMBLY_MEMBERS
100
AcDbLine
 62
7
  6
CONTINUOUS
 10
6.0434646398
 20
0.7545202052
 11
6.0081812358
 21
0.7192368012
  0
LINE
  5
2A6
100
AcDbEntity
  8
ALL_ASSEMBLY_MEMBERS
100
AcDbLine
 62
7
  6
CONTINUOUS
 10
5.2843671328
 20
0.8760969146
 11
5.2456573024
 21
0.8537188266
  0
LINE
  5
2A7
100
AcDbEntity
  8
ALL_ASSEMBLY_MEMBERS
100
AcDbLine
 62
7
  6
CONTINUOUS
 10
5.2843671352
 20
0.804666932
 11
5.2456573035
 21
0.7822888432
  0
LINE
  5
2A8
100
AcDbEntity
  8
ALL_ASSEMBLY_MEMBERS
100
AcDbLine
 62
7
  6
CONTINUOUS
 10
5.2843671343
 20
0.733236903
 11
5.2826800636
 21
0.732261484
  0
LINE
  5
2A9
100
AcDbEntity
  8
0
100
AcDbLine
 62
7
  6
CONTINUOUS
 10
4.2203340488
 20
7.5762368012
 11
4.2279222949
 21
7.5762368012
  0
LINE
  5
2AA
100
AcDbEntity
  8
0
100
AcDbLine
 62
7
  6
CONTINUOUS
 10
4.2755615091
 20
7.7512368012
 11
4.2831497552
 21
7.7512368012
  0
LINE
  5
2AB
100
AcDbEntity
  8
ALL_ASSEMBLY_MEMBERS
100
AcDbLine
 62
7
  6
CONTINUOUS
 10
6.0189953364
 20
0.999885967
 11
6.057705168
 21
1.0222640557
  0
LINE
  5
2AC
100
AcDbEntity
  8
ALL_ASSEMBLY_MEMBERS
100
AcDbLine
 62
7
  6
CONTINUOUS
 10
6.0189953377
 20
0.9284559429
 11
6.0577051684
 21
0.9508340311
  0
LINE
  5
2AD
100
AcDbEntity
  8
ALL_ASSEMBLY_MEMBERS
100
AcDbLine
 62
7
  6
CONTINUOUS
 10
6.0189953372
 20
0.8570259778
 11
6.0577051686
 21
0.8794040664
  0
LINE
  5
2AE
100
AcDbEntity
  8
ALL_ASSEMBLY_MEMBERS
100
AcDbLine
 62
7
  6
CONTINUOUS
 10
6.0189953366
 20
0.7855959567
 11
6.057705168
 21
0.8079740454
  0
LINE
  5
2AF
100
AcDbEntity
  8
0
100
AcDbLine
 62
7
  6
CONTINUOUS
 10
4.3343155091
 20
7.9462368012
 11
4.3396812358
 21
7.9462368012
  0
LINE
  5
2B0
100
AcDbEntity
  8
0
100
AcDbLine
 62
7
  6
CONTINUOUS
 10
4.3496812358
 20
8.0327368012
 11
4.3516812358
 21
8.0327368012
  0
LINE
  5
2B1
100
AcDbEntity
  8
ALL_ASSEMBLY_MEMBERS
100
AcDbLine
 62
7
  6
CONTINUOUS
 10
4.3516812358
 20
8.1612368012
 11
4.4327056435
 21
8.1612368012
  0
LINE
  5
2B2
100
AcDbEntity
  8
ALL_ASSEMBLY_MEMBERS
100
AcDbLine
 62
7
  6
CONTINUOUS
 10
4.8933076499
 20
7.9615302072
 11
5.3195799335
 21
7.9135517741
  0
ARC
  5
2B3
100
AcDbEntity
  8
ALL_ASSEMBLY_MEMBERS
100
AcDbCircle
 62
7
  6
CONTINUOUS
 10
3.6556753876
 20
73.1758942061
 40
72.3324131796
100
AcDbArc
 50
271.5812721442
 51
271.7000841621
  0
ARC
  5
2B4
100
AcDbEntity
  8
0
100
AcDbCircle
 62
7
  6
CONTINUOUS
 10
-0.009206526
 20
5.6523794371
 40
4.3811397954
100
AcDbArc
 50
9.6891452115
 51
10.0889386846
  0
ARC
  5
2B5
100
AcDbEntity
  8
0
100
AcDbCircle
 62
7
  6
CONTINUOUS
 10
-0.0083451878
 20
8.5899454828
 40
4.3802657202
100
AcDbArc
 50
349.909650681
 51
350.3108756675
  0
ARC
  5
2B6
100
AcDbEntity
  8
0
100
AcDbCircle
 62
7
  6
CONTINUOUS
 10
0.4013967097
 20
5.7251144112
 40
3.9641442535
100
AcDbArc
 50
10.0935324157
 51
10.3268051903
  0
ARC
  5
2B7
100
AcDbEntity
  8
0
100
AcDbCircle
 62
7
  6
CONTINUOUS
 10
0.4484835514
 20
8.5088772143
 40
3.9162996592
100
AcDbArc
 50
349.6717855688
 51
349.9063963147
  0
ARC
  5
2B8
100
AcDbEntity
  8
ALL_ASSEMBLY_MEMBERS
100
AcDbCircle
 62
7
  6
CONTINUOUS
 10
7.6475996916
 20
-71.3682597051
 40
72.3293302916
100
AcDbArc
 50
91.5812703054
 51
91.7000909457
  0
ARC
  5
2B9
100
AcDbEntity
  8
ALL_ASSEMBLY_MEMBERS
100
AcDbCircle
 62
7
  6
CONTINUOUS
 10
5.6733395956
 20
-5.4510585451
 40
6.4309407254
100
AcDbArc
 50
92.2656014354
 51
92.6484291801
  0
ARC
  5
2BA
100
AcDbEntity
  8
ALL_ASSEMBLY_MEMBERS
100
AcDbCircle
 62
7
  6
CONTINUOUS
 10
4.6916812358
 20
2.4256973265
 40
1.5
100
AcDbArc
 50
334.214527069
 51
360.0
  0
ARC
  5
2BB
100
AcDbEntity
  8
ALL_ASSEMBLY_MEMBERS
100
AcDbCircle
 62
7
  6
CONTINUOUS
 10
4.6916812358
 20
4.610776276
 40
1.5
100
AcDbArc
 50
0.0
 51
24.8596013805
  0
ARC
  5
2BC
100
AcDbEntity
  8
ALL_ASSEMBLY_MEMBERS
100
AcDbCircle
 62
7
  6
CONTINUOUS
 10
4.8595420353
 20
1.4696228738
 40
0.433
100
AcDbArc
 50
322.2004490872
 51
28.0498776995
  0
ARC
  5
2BD
100
AcDbEntity
  8
ALL_ASSEMBLY_MEMBERS
100
AcDbCircle
 62
7
  6
CONTINUOUS
 10
4.9814432928
 20
5.4978877724
 40
0.788
100
AcDbArc
 50
96.421813569
 51
130.9058661425
  0
ARC
  5
2BE
100
AcDbEntity
  8
ALL_ASSEMBLY_MEMBERS
100
AcDbCircle
 62
7
  6
CONTINUOUS
 10
4.9814432928
 20
8.74458583
 40
0.788
100
AcDbArc
 50
229.0941338575
 51
263.5781868591
  0
ARC
  5
2BF
100
AcDbEntity
  8
ALL_ASSEMBLY_MEMBERS
100
AcDbCircle
 62
7
  6
CONTINUOUS
 10
5.2336812358
 20
7.1503706595
 40
0.768
100
AcDbArc
 50
0.0
 51
83.5781868591
  0
ARC
  5
2C0
100
AcDbEntity
  8
ALL_ASSEMBLY_MEMBERS
100
AcDbCircle
 62
7
  6
CONTINUOUS
 10
5.2336812358
 20
7.092102943
 40
0.768
100
AcDbArc
 50
351.2940235084
 51
360.0
  0
ARC
  5
2C1
100
AcDbEntity
  8
ALL_ASSEMBLY_MEMBERS
100
AcDbCircle
 62
7
  6
CONTINUOUS
 10
4.9616812358
 20
5.5667363475
 40
0.35
100
AcDbArc
 50
316.4688478326
 51
360.0
  0
ARC
  5
2C2
100
AcDbEntity
  8
ALL_ASSEMBLY_MEMBERS
100
AcDbCircle
 62
7
  6
CONTINUOUS
 10
5.2116812358
 20
6.2161460324
 40
0.1
100
AcDbArc
 50
0.0
 51
96.4218131413
  0
ARC
  5
2C3
100
AcDbEntity
  8
ALL_ASSEMBLY_MEMBERS
100
AcDbCircle
 62
7
  6
CONTINUOUS
 10
4.4327056435
 20
8.1112368012
 40
0.05
100
AcDbArc
 50
49.0941338574
 51
90.0
  0
ARC
  5
2C4
100
AcDbEntity
  8
ALL_ASSEMBLY_MEMBERS
100
AcDbCircle
 62
7
  6
CONTINUOUS
 10
4.4327056435
 20
6.1312368012
 40
0.05
100
AcDbArc
 50
270.0
 51
310.9058661425
  0
ARC
  5
2C5
100
AcDbEntity
  8
ALL_ASSEMBLY_MEMBERS
100
AcDbCircle
 62
7
  6
CONTINUOUS
 10
5.2516812358
 20
5.2912368012
 40
0.05
100
AcDbArc
 50
136.4688478326
 51
180.0
  0
ARC
  5
2C6
100
AcDbEntity
  8
0
100
AcDbCircle
 62
7
  6
CONTINUOUS
 10
4.1538903256
 20
7.3276262132
 40
0.01
100
AcDbArc
 50
170.0
 51
180.0
  0
ARC
  5
2C7
100
AcDbEntity
  8
0
100
AcDbCircle
 62
7
  6
CONTINUOUS
 10
4.1538903256
 20
6.9148473893
 40
0.01
100
AcDbArc
 50
180.0
 51
190.0
  0
ARC
  5
2C8
100
AcDbEntity
  8
0
100
AcDbCircle
 62
7
  6
CONTINUOUS
 10
4.1624616838
 20
7.3762368012
 40
0.01
100
AcDbArc
 50
90.0
 51
170.0
  0
ARC
  5
2C9
100
AcDbEntity
  8
0
100
AcDbCircle
 62
7
  6
CONTINUOUS
 10
4.1624616838
 20
6.8662368012
 40
0.01
100
AcDbArc
 50
190.0
 51
270.0
  0
ARC
  5
2CA
100
AcDbEntity
  8
0
100
AcDbCircle
 62
7
  6
CONTINUOUS
 10
4.2203340488
 20
7.5662368012
 40
0.01
100
AcDbArc
 50
90.0
 51
170.0
  0
ARC
  5
2CB
100
AcDbEntity
  8
0
100
AcDbCircle
 62
7
  6
CONTINUOUS
 10
4.2203340488
 20
6.6762368012
 40
0.01
100
AcDbArc
 50
190.0
 51
270.0
  0
ARC
  5
2CC
100
AcDbEntity
  8
0
100
AcDbCircle
 62
7
  6
CONTINUOUS
 10
4.2755615091
 20
7.7412368012
 40
0.01
100
AcDbArc
 50
90.0
 51
170.0
  0
ARC
  5
2CD
100
AcDbEntity
  8
0
100
AcDbCircle
 62
7
  6
CONTINUOUS
 10
4.2755615091
 20
6.5012368012
 40
0.01
100
AcDbArc
 50
190.0
 51
270.0
  0
ARC
  5
2CE
100
AcDbEntity
  8
0
100
AcDbCircle
 62
7
  6
CONTINUOUS
 10
4.3343155091
 20
7.9362368012
 40
0.01
100
AcDbArc
 50
90.0
 51
170.0
  0
ARC
  5
2CF
100
AcDbEntity
  8
0
100
AcDbCircle
 62
7
  6
CONTINUOUS
 10
4.3343155091
 20
6.3062368012
 40
0.01
100
AcDbArc
 50
190.0
 51
270.0
  0
ARC
  5
2D0
100
AcDbEntity
  8
0
100
AcDbCircle
 62
7
  6
CONTINUOUS
 10
4.1700499299
 20
7.3962368012
 40
0.01
100
AcDbArc
 50
270.0
 51
350.0
  0
ARC
  5
2D1
100
AcDbEntity
  8
0
100
AcDbCircle
 62
7
  6
CONTINUOUS
 10
4.1700499299
 20
6.8462368012
 40
0.01
100
AcDbArc
 50
10.0
 51
90.0
  0
ARC
  5
2D2
100
AcDbEntity
  8
0
100
AcDbCircle
 62
7
  6
CONTINUOUS
 10
4.2279222949
 20
7.5862368012
 40
0.01
100
AcDbArc
 50
270.0
 51
350.0
  0
ARC
  5
2D3
100
AcDbEntity
  8
0
100
AcDbCircle
 62
7
  6
CONTINUOUS
 10
4.2279222949
 20
6.6562368012
 40
0.01
100
AcDbArc
 50
10.0
 51
90.0
  0
ARC
  5
2D4
100
AcDbEntity
  8
0
100
AcDbCircle
 62
7
  6
CONTINUOUS
 10
4.2831497552
 20
7.7612368012
 40
0.01
100
AcDbArc
 50
270.0
 51
350.0
  0
ARC
  5
2D5
100
AcDbEntity
  8
0
100
AcDbCircle
 62
7
  6
CONTINUOUS
 10
4.2831497552
 20
6.4812368012
 40
0.01
100
AcDbArc
 50
10.0
 51
90.0
  0
ARC
  5
2D6
100
AcDbEntity
  8
0
100
AcDbCircle
 62
7
  6
CONTINUOUS
 10
4.3396812358
 20
7.9562368012
 40
0.01
100
AcDbArc
 50
270.0
 51
360.0
  0
ARC
  5
2D7
100
AcDbEntity
  8
0
100
AcDbCircle
 62
7
  6
CONTINUOUS
 10
4.3396812358
 20
6.2862368012
 40
0.01
100
AcDbArc
 50
0.0
 51
90.0
  0
ARC
  5
2D8
100
AcDbEntity
  8
ALL_ASSEMBLY_MEMBERS
100
AcDbCircle
 62
7
  6
CONTINUOUS
 10
6.6116812358
 20
2.4256973265
 40
1.5
100
AcDbArc
 50
180.0
 51
205.785472931
  0
ARC
  5
2D9
100
AcDbEntity
  8
ALL_ASSEMBLY_MEMBERS
100
AcDbCircle
 62
7
  6
CONTINUOUS
 10
6.6116812358
 20
4.610776276
 40
1.5
100
AcDbArc
 50
155.1403986195
 51
180.0
  0
ARC
  5
2DA
100
AcDbEntity
  8
ALL_ASSEMBLY_MEMBERS
100
AcDbCircle
 62
7
  6
CONTINUOUS
 10
6.4438204363
 20
1.4696228738
 40
0.433
100
AcDbArc
 50
151.9501223005
 51
217.7995509128
  0
ARC
  5
2DB
100
AcDbEntity
  8
ALL_ASSEMBLY_MEMBERS
100
AcDbCircle
 62
7
  6
CONTINUOUS
 10
5.712945336
 20
5.3240422345
 40
4.5689580141
100
AcDbArc
 50
272.4098160412
 51
272.9506459955
  0
ARC
  5
2DC
100
AcDbEntity
  8
ALL_ASSEMBLY_MEMBERS
100
AcDbCircle
 62
7
  6
CONTINUOUS
 10
6.3416812358
 20
5.5667363475
 40
0.35
100
AcDbArc
 50
180.0
 51
223.5311521674
  0
ARC
  5
2DD
100
AcDbEntity
  8
ALL_ASSEMBLY_MEMBERS
100
AcDbCircle
 62
7
  6
CONTINUOUS
 10
6.0516812358
 20
5.2912368012
 40
0.05
100
AcDbArc
 50
0.0
 51
43.5311521674
  0
SPLINE
  5
2DE
100
AcDbEntity
  8
ALL_FEATURES
100
AcDbSpline
 62
7
  6
CONTINUOUS
 70
0
 71
3
 72
9
 73
5
 74
0
 42
0.0000001
 43
0.0000001
 44
0.0000000001
 40
0.0
 40
0.0
 40
0.0
 40
0.0
 40
0.5000012929
 40
1.0
 40
1.0
 40
1.0
 40
1.0
 10
4.1438873159
 20
7.164502598
 30
0.0
 10
4.1430677583
 20
7.1614846052
 30
0.0
 10
4.1415227408
 20
7.1554226377
 30
0.0
 10
4.1401988577
 20
7.1493076723
 30
0.0
 10
4.1396075841
 20
7.1462368012
 30
0.0
  0
SPLINE
  5
2DF
100
AcDbEntity
  8
ALL_FEATURES
100
AcDbSpline
 62
7
  6
CONTINUOUS
 70
0
 71
3
 72
9
 73
5
 74
0
 42
0.0000001
 43
0.0000001
 44
0.0000000001
 40
0.0
 40
0.0
 40
0.0
 40
0.0
 40
0.4999995556
 40
1.0
 40
1.0
 40
1.0
 40
1.0
 10
4.1396075841
 20
7.0962368012
 30
0.0
 10
4.1401990971
 20
7.0931646869
 30
0.0
 10
4.1415235859
 20
7.0870472711
 30
0.0
 10
4.143069311
 20
7.08098288
 30
0.0
 10
4.1438892999
 20
7.0779637035
 30
0.0
  0
LINE
  5
2E0
100
AcDbEntity
  8
0
100
AcDbLine
 62
7
  6
CONTINUOUS
 10
4.3094379401
 20
7.8278115432
 11
4.3093039331
 21
7.8285946591
  0
SPLINE
  5
2E1
100
AcDbEntity
  8
0
100
AcDbSpline
 62
7
  6
CONTINUOUS
 70
0
 71
3
 72
18
 73
14
 74
0
 42
0.0000001
 43
0.0000001
 44
0.0000000001
 40
0.0
 40
0.0
 40
0.0
 40
0.0
 40
0.2190939313
 40
0.4114125004
 40
0.5762627774
 40
0.7130784985
 40
0.8215653791
 40
0.8653412847
 40
0.9024464917
 40
0.9333409386
 40
0.9588193446
 40
0.9802821847
 40
1.0
 40
1.0
 40
1.0
 40
1.0
 10
4.3094379401
 20
7.7547343841
 30
0.0
 10
4.3094379401
 20
7.7549703793
 30
0.0
 10
4.3094332908
 20
7.7554135609
 30
0.0
 10
4.3094093792
 20
7.7560339033
 30
0.0
 10
4.3093694173
 20
7.7565646906
 30
0.0
 10
4.3093136945
 20
7.757003119
 30
0.0
 10
4.3092513634
 20
7.7573088772
 30
0.0
 10
4.3091899769
 20
7.7575036073
 30
0.0
 10
4.3091433621
 20
7.7576148598
 30
0.0
 10
4.3090927761
 20
7.7577023547
 30
0.0
 10
4.309037658
 20
7.7577664549
 30
0.0
 10
4.3089766648
 20
7.7578067259
 30
0.0
 10
4.3089318445
 20
7.7578157283
 30
0.0
 10
4.3089106056
 20
7.7578157429
 30
0.0
  0
SPLINE
  5
2E2
100
AcDbEntity
  8
0
100
AcDbSpline
 62
7
  6
CONTINUOUS
 70
0
 71
3
 72
19
 73
15
 74
0
 42
0.0000001
 43
0.0000001
 44
0.0000000001
 40
0.0
 40
0.0
 40
0.0
 40
0.0
 40
0.2148419447
 40
0.406048184
 40
0.5715728241
 40
0.7096386648
 40
0.7681675631
 40
0.8197003765
 40
0.8643090204
 40
0.9021594265
 40
0.9335919623
 40
0.9593115582
 40
0.9806828287
 40
1.0
 40
1.0
 40
1.0
 40
1.0
 10
4.3094379401
 20
7.6384854117
 30
0.0
 10
4.3094379401
 20
7.638990698
 30
0.0
 10
4.309427173
 20
7.6399457396
 30
0.0
 10
4.3093733094
 20
7.6412891905
 30
0.0
 10
4.3092836302
 20
7.6424497215
 30
0.0
 10
4.3091748969
 20
7.6432951127
 30
0.0
 10
4.3090654807
 20
7.6438685187
 30
0.0
 10
4.3089796337
 20
7.6442222065
 30
0.0
 10
4.308885732
 20
7.6445233226
 30
0.0
 10
4.3087839465
 20
7.6447715824
 30
0.0
 10
4.3086741252
 20
7.6449670757
 30
0.0
 10
4.3085551748
 20
7.6451102464
 30
0.0
 10
4.3084242933
 20
7.6452005511
 30
0.0
 10
4.3083276079
 20
7.6452211111
 30
0.0
 10
4.3082821759
 20
7.6452211266
 30
0.0
  0
SPLINE
  5
2E3
100
AcDbEntity
  8
0
100
AcDbSpline
 62
7
  6
CONTINUOUS
 70
0
 71
3
 72
20
 73
16
 74
0
 42
0.0000001
 43
0.0000001
 44
0.0000000001
 40
0.0
 40
0.0
 40
0.0
 40
0.0
 40
0.208503936
 40
0.3976455348
 40
0.5635872825
 40
0.7037343369
 40
0.7636417469
 40
0.8165526521
 40
0.8624285367
 40
0.9013767366
 40
0.9336608497
 40
0.9598510473
 40
0.981151061
 40
0.9906993205
 40
1.0
 40
1.0
 40
1.0
 40
1.0
 10
4.3094379401
 20
7.4869868012
 30
0.0
 10
4.3094379401
 20
7.4878225707
 30
0.0
 10
4.3094180402
 20
7.489416599
 30
0.0
 10
4.3093221748
 20
7.4916740957
 30
0.0
 10
4.3091626657
 20
7.4936532682
 30
0.0
 10
4.3089716651
 20
7.4951089531
 30
0.0
 10
4.3087818186
 20
7.4961053028
 30
0.0
 10
4.3086331561
 20
7.4967241103
 30
0.0
 10
4.3084713829
 20
7.4972524466
 30
0.0
 10
4.3082974636
 20
7.4976892031
 30
0.0
 10
4.3081114543
 20
7.498034011
 30
0.0
 10
4.3079132717
 20
7.4982875322
 30
0.0
 10
4.3077253336
 20
7.4984262516
 30
0.0
 10
4.3075718211
 20
7.4984782732
 30
0.0
 10
4.3074959947
 20
7.498486478
 30
0.0
 10
4.3074587138
 20
7.4984864356
 30
0.0
  0
SPLINE
  5
2E4
100
AcDbEntity
  8
0
100
AcDbSpline
 62
7
  6
CONTINUOUS
 70
0
 71
3
 72
22
 73
18
 74
0
 42
0.0000001
 43
0.0000001
 44
0.0000000001
 40
0.0
 40
0.0
 40
0.0
 40
0.0
 40
0.1999138653
 40
0.3859596285
 40
0.5524927572
 40
0.6271978149
 40
0.6956040386
 40
0.7573542882
 40
0.8121960477
 40
0.8599239734
 40
0.9004160667
 40
0.9337998492
 40
0.9605660205
 40
0.971800715
 40
0.9818787337
 40
0.9911329378
 40
1.0
 40
1.0
 40
1.0
 40
1.0
 10
4.3094379401
 20
7.3105629327
 30
0.0
 10
4.3094379401
 20
7.3117481386
 30
0.0
 10
4.3094054382
 20
7.3140365222
 30
0.0
 10
4.3092546955
 20
7.3173091184
 30
0.0
 10
4.3090407508
 20
7.3198342089
 30
0.0
 10
4.3088154656
 20
7.3216562973
 30
0.0
 10
4.3086306648
 20
7.3228569131
 30
0.0
 10
4.3084251513
 20
7.3239345447
 30
0.0
 10
4.3082006773
 20
7.3248829329
 30
0.0
 10
4.3079590471
 20
7.3256964934
 30
0.0
 10
4.3077013988
 20
7.3263710011
 30
0.0
 10
4.3074292841
 20
7.3269033226
 30
0.0
 10
4.3071771739
 20
7.3272478074
 30
0.0
 10
4.3069648712
 20
7.327439543
 30
0.0
 10
4.3068110954
 20
7.3275374226
 30
0.0
 10
4.3066534052
 20
7.3275968616
 30
0.0
 10
4.3065455118
 20
7.3276099719
 30
0.0
 10
4.3064929428
 20
7.327609901
 30
0.0
  0
SPLINE
  5
2E5
100
AcDbEntity
  8
0
100
AcDbSpline
 62
7
  6
CONTINUOUS
 70
0
 71
3
 72
24
 73
20
 74
0
 42
0.0000001
 43
0.0000001
 44
0.0000000001
 40
0.0
 40
0.0
 40
0.0
 40
0.0
 40
0.1887735673
 40
0.3705582539
 40
0.456402992
 40
0.5378545038
 40
0.6141798587
 40
0.6847388043
 40
0.7489553511
 40
0.8062814064
 40
0.8563243664
 40
0.8988721848
 40
0.9338371465
 40
0.9485410384
 40
0.9614924431
 40
0.9728329674
 40
0.9827833099
 40
0.9916797645
 40
1.0
 40
1.0
 40
1.0
 40
1.0
 10
4.3094379401
 20
7.1212368012
 30
0.0
 10
4.3094379401
 20
7.1227423761
 30
0.0
 10
4.3093883649
 20
7.1256979932
 30
0.0
 10
4.3092029985
 20
7.129334223
 30
0.0
 10
4.3089776941
 20
7.1321093892
 30
0.0
 10
4.3087788079
 20
7.1340423733
 30
0.0
 10
4.3085483812
 20
7.135849049
 30
0.0
 10
4.3082888438
 20
7.1375128238
 30
0.0
 10
4.3080031955
 20
7.139018424
 30
0.0
 10
4.3076938717
 20
7.1403519452
 30
0.0
 10
4.3073638542
 20
7.1415019686
 30
0.0
 10
4.3070169811
 20
7.1424591759
 30
0.0
 10
4.3067008833
 20
7.1431257023
 30
0.0
 10
4.3064346358
 20
7.1435489595
 30
0.0
 10
4.3062437846
 20
7.1437953218
 30
0.0
 10
4.3060501719
 20
7.1439892253
 30
0.0
 10
4.3058532526
 20
7.1441302168
 30
0.0
 10
4.3056525351
 20
7.1442169056
 30
0.0
 10
4.3055145878
 20
7.1442368068
 30
0.0
 10
4.3054482293
 20
7.1442368009
 30
0.0
  0
SPLINE
  5
2E6
100
AcDbEntity
  8
0
100
AcDbSpline
 62
7
  6
CONTINUOUS
 70
0
 71
3
 72
17
 73
13
 74
0
 42
0.0000001
 43
0.0000001
 44
0.0000000001
 40
0.0
 40
0.0
 40
0.0
 40
0.0
 40
0.220423993
 40
0.4131161196
 40
0.5777465545
 40
0.7141104262
 40
0.8222646851
 40
0.9029054614
 40
0.933680461
 40
0.9590192472
 40
0.9803572933
 40
1.0
 40
1.0
 40
1.0
 40
1.0
 10
4.2504194497
 20
7.6093358263
 30
0.0
 10
4.2504194497
 20
7.6094911013
 30
0.0
 10
4.2504164899
 20
7.6097821306
 30
0.0
 10
4.2504011795
 20
7.6101889048
 30
0.0
 10
4.2503754711
 20
7.6105357926
 30
0.0
 10
4.2503397266
 20
7.6108220538
 30
0.0
 10
4.2502941001
 20
7.611046607
 30
0.0
 10
4.2502450989
 20
7.6111944615
 30
0.0
 10
4.2501971326
 20
7.6112784305
 30
0.0
 10
4.2501613403
 20
7.6113202259
 30
0.0
 10
4.2501216293
 20
7.6113464172
 30
0.0
 10
4.2500924365
 20
7.6113521847
 30
0.0
 10
4.2500785995
 20
7.611352161
 30
0.0
  0
SPLINE
  5
2E7
100
AcDbEntity
  8
0
100
AcDbSpline
 62
7
  6
CONTINUOUS
 70
0
 71
3
 72
19
 73
15
 74
0
 42
0.0000001
 43
0.0000001
 44
0.0000000001
 40
0.0
 40
0.0
 40
0.0
 40
0.0
 40
0.2149196998
 40
0.4062292489
 40
0.5718589983
 40
0.7100119268
 40
0.7685731102
 40
0.8201260359
 40
0.8647381146
 40
0.9025696672
 40
0.9339541599
 40
0.9595908661
 40
0.9808388135
 40
1.0
 40
1.0
 40
1.0
 40
1.0
 10
4.2504194497
 20
7.4984148206
 30
0.0
 10
4.2504194497
 20
7.4989235553
 30
0.0
 10
4.2504087309
 20
7.499885194
 30
0.0
 10
4.2503551097
 20
7.50123802
 30
0.0
 10
4.2502658136
 20
7.5024068177
 30
0.0
 10
4.2501575234
 20
7.5032583384
 30
0.0
 10
4.2500485233
 20
7.5038359943
 30
0.0
 10
4.2499629916
 20
7.5041923094
 30
0.0
 10
4.2498694193
 20
7.5044956678
 30
0.0
 10
4.2497679794
 20
7.5047457707
 30
0.0
 10
4.2496585123
 20
7.5049427054
 30
0.0
 10
4.2495399434
 20
7.5050869485
 30
0.0
 10
4.2494093957
 20
7.5051780445
 30
0.0
 10
4.2493127497
 20
7.505198842
 30
0.0
 10
4.2492673934
 20
7.5051988631
 30
0.0
  0
SPLINE
  5
2E8
100
AcDbEntity
  8
0
100
AcDbSpline
 62
7
  6
CONTINUOUS
 70
0
 71
3
 72
21
 73
17
 74
0
 42
0.0000001
 43
0.0000001
 44
0.0000000001
 40
0.0
 40
0.0
 40
0.0
 40
0.0
 40
0.2053521544
 40
0.3934393985
 40
0.559667299
 40
0.6335981184
 40
0.7010057357
 40
0.761615394
 40
0.8152390668
 40
0.8618108203
 40
0.9013488438
 40
0.9340219393
 40
0.9603362443
 40
0.9815152978
 40
0.9909083255
 40
1.0
 40
1.0
 40
1.0
 40
1.0
 10
4.2504194497
 20
7.3373898086
 30
0.0
 10
4.2504194497
 20
7.3383695918
 30
0.0
 10
4.2503951516
 20
7.3402469307
 30
0.0
 10
4.2502796083
 20
7.3429151564
 30
0.0
 10
4.2501143593
 20
7.3449524923
 30
0.0
 10
4.2499387279
 20
7.3464095916
 30
0.0
 10
4.2497946855
 20
7.3473624824
 30
0.0
 10
4.2496338391
 20
7.3482143205
 30
0.0
 10
4.2494569566
 20
7.3489612344
 30
0.0
 10
4.2492652538
 20
7.3496003113
 30
0.0
 10
4.2490599152
 20
7.3501293582
 30
0.0
 10
4.2488411989
 20
7.3505471607
 30
0.0
 10
4.2486087148
 20
7.3508537464
 30
0.0
 10
4.2483887736
 20
7.3510226433
 30
0.0
 10
4.2482091461
 20
7.3510865808
 30
0.0
 10
4.2481206377
 20
7.3510968379
 30
0.0
 10
4.2480772592
 20
7.3510968855
 30
0.0
  0
SPLINE
  5
2E9
100
AcDbEntity
  8
0
100
AcDbSpline
 62
7
  6
CONTINUOUS
 70
0
 71
3
 72
24
 73
20
 74
0
 42
0.0000001
 43
0.0000001
 44
0.0000000001
 40
0.0
 40
0.0
 40
0.0
 40
0.0
 40
0.1911242695
 40
0.3738455112
 40
0.4597391308
 40
0.5410282238
 40
0.6170324375
 40
0.6871492205
 40
0.7508618246
 40
0.8076798351
 40
0.8572177581
 40
0.8993085832
 40
0.9339282241
 40
0.9485094341
 40
0.9613712816
 40
0.9726651013
 40
0.9826200881
 40
0.9915755956
 40
1.0
 40
1.0
 40
1.0
 40
1.0
 10
4.2504194497
 20
7.1476512154
 30
0.0
 10
4.2504194497
 20
7.1491007455
 30
0.0
 10
4.2503740408
 20
7.1519362655
 30
0.0
 10
4.2502022314
 20
7.1554196173
 30
0.0
 10
4.2499925761
 20
7.1580652458
 30
0.0
 10
4.2498074846
 20
7.1599004813
 30
0.0
 10
4.2495927391
 20
7.1616119873
 30
0.0
 10
4.2493502244
 20
7.1631850705
 30
0.0
 10
4.2490826008
 20
7.1646063342
 30
0.0
 10
4.248792244
 20
7.1658635008
 30
0.0
 10
4.2484813412
 20
7.166946364
 30
0.0
 10
4.2481532579
 20
7.1678467288
 30
0.0
 10
4.2478533651
 20
7.1684731703
 30
0.0
 10
4.2476001201
 20
7.1688706394
 30
0.0
 10
4.2474179703
 20
7.1691019295
 30
0.0
 10
4.2472327246
 20
7.1692837854
 30
0.0
 10
4.2470438703
 20
7.1694158356
 30
0.0
 10
4.2468510536
 20
7.1694968486
 30
0.0
 10
4.2467186706
 20
7.1695154214
 30
0.0
 10
4.2466547781
 20
7.1695154999
 30
0.0
  0
LINE
  5
2EA
100
AcDbEntity
  8
0
100
AcDbLine
 62
7
  6
CONTINUOUS
 10
4.1947511719
 20
7.4612395058
 11
4.194565179
 21
7.4623652238
  0
SPLINE
  5
2EB
100
AcDbEntity
  8
0
100
AcDbSpline
 62
7
  6
CONTINUOUS
 70
0
 71
3
 72
19
 73
15
 74
0
 42
0.0000001
 43
0.0000001
 44
0.0000000001
 40
0.0
 40
0.0
 40
0.0
 40
0.0
 40
0.2133370864
 40
0.4042924119
 40
0.5702345403
 40
0.7090671672
 40
0.7680576529
 40
0.8200308613
 40
0.8650000814
 40
0.9030728907
 40
0.9345790253
 40
0.9602055422
 40
0.9812474476
 40
1.0
 40
1.0
 40
1.0
 40
1.0
 10
4.1947511719
 20
7.3510333717
 30
0.0
 10
4.1947511719
 20
7.351643834
 30
0.0
 10
4.1947381956
 20
7.3528007802
 30
0.0
 10
4.1946739382
 20
7.3544315225
 30
0.0
 10
4.1945669596
 20
7.355846338
 30
0.0
 10
4.1944374173
 20
7.3568799386
 30
0.0
 10
4.1943074947
 20
7.3575830294
 30
0.0
 10
4.1942055772
 20
7.358017653
 30
0.0
 10
4.1940942431
 20
7.3583879467
 30
0.0
 10
4.1939736078
 20
7.358693282
 30
0.0
 10
4.1938436338
 20
7.3589337467
 30
0.0
 10
4.193703452
 20
7.3591101806
 30
0.0
 10
4.1935493921
 20
7.3592224592
 30
0.0
 10
4.1934344173
 20
7.3592487326
 30
0.0
 10
4.1933807572
 20
7.3592488723
 30
0.0
  0
SPLINE
  5
2EC
100
AcDbEntity
  8
0
100
AcDbSpline
 62
7
  6
CONTINUOUS
 70
0
 71
3
 72
24
 73
20
 74
0
 42
0.0000001
 43
0.0000001
 44
0.0000000001
 40
0.0
 40
0.0
 40
0.0
 40
0.0
 40
0.1951946058
 40
0.379540335
 40
0.4655272048
 40
0.5465439879
 40
0.6220083653
 40
0.6913783225
 40
0.7542259011
 40
0.810167192
 40
0.8588655986
 40
0.9001733424
 40
0.934171384
 40
0.9485361982
 40
0.9612474385
 40
0.97245462
 40
0.9823991447
 40
0.9914280948
 40
1.0
 40
1.0
 40
1.0
 40
1.0
 10
4.1947511719
 20
7.1709911848
 30
0.0
 10
4.1947511719
 20
7.1723322092
 30
0.0
 10
4.1947126804
 20
7.1749398842
 30
0.0
 10
4.1945640942
 20
7.1781354009
 30
0.0
 10
4.1943815826
 20
7.1805424818
 30
0.0
 10
4.1942203874
 20
7.1822006086
 30
0.0
 10
4.1940329679
 20
7.1837410662
 30
0.0
 10
4.1938204269
 20
7.1851521872
 30
0.0
 10
4.1935847794
 20
7.1864235241
 30
0.0
 10
4.1933280985
 20
7.1875455994
 30
0.0
 10
4.1930520481
 20
7.1885102823
 30
0.0
 10
4.1927586104
 20
7.1893108997
 30
0.0
 10
4.1924886463
 20
7.1898669003
 30
0.0
 10
4.1922599064
 20
7.190219315
 30
0.0
 10
4.1920946223
 20
7.1904246508
 30
0.0
 10
4.1919256949
 20
7.1905858282
 30
0.0
 10
4.1917527568
 20
7.1907024741
 30
0.0
 10
4.1915756437
 20
7.1907735998
 30
0.0
 10
4.191454202
 20
7.1907896399
 30
0.0
 10
4.1913953114
 20
7.1907896666
 30
0.0
  0
SPLINE
  5
2ED
100
AcDbEntity
  8
0
100
AcDbSpline
 62
7
  6
CONTINUOUS
 70
0
 71
3
 72
25
 73
21
 74
0
 42
0.0000001
 43
0.0000001
 44
0.0000000001
 40
0.0
 40
0.0
 40
0.0
 40
0.0
 40
0.0079920628
 40
0.0166663381
 40
0.0265433866
 40
0.0379710737
 40
0.0511534731
 40
0.066207722
 40
0.0831989506
 40
0.1021606175
 40
0.1460122735
 40
0.1975803079
 40
0.2564717938
 40
0.3222179741
 40
0.3941554561
 40
0.4715174525
 40
0.5535128303
 40
0.6392618155
 40
0.8182889255
 40
1.0
 40
1.0
 40
1.0
 40
1.0
 10
4.1902691002
 20
7.1447907256
 30
0.0
 10
4.1903415438
 20
7.1447906914
 30
0.0
 10
4.1904933839
 20
7.1448144763
 30
0.0
 10
4.1907135235
 20
7.1449173889
 30
0.0
 10
4.1909298129
 20
7.1450846293
 30
0.0
 10
4.1911430899
 20
7.1453145576
 30
0.0
 10
4.1913541821
 20
7.1456064115
 30
0.0
 10
4.1915630161
 20
7.1459597137
 30
0.0
 10
4.1917692872
 20
7.1463738523
 30
0.0
 10
4.192054144
 20
7.1470391298
 30
0.0
 10
4.192392537
 20
7.1480204593
 30
0.0
 10
4.1927642217
 20
7.1493694994
 30
0.0
 10
4.1931144321
 20
7.1509283658
 30
0.0
 10
4.1934385727
 20
7.1526808189
 30
0.0
 10
4.1937335784
 20
7.1546079015
 30
0.0
 10
4.1939963841
 20
7.156688135
 30
0.0
 10
4.1942235762
 20
7.1588984243
 30
0.0
 10
4.1944799096
 20
7.1620314355
 30
0.0
 10
4.1946923777
 20
7.1660739594
 30
0.0
 10
4.1947511719
 20
7.1693440748
 30
0.0
 10
4.1947511719
 20
7.1709911848
 30
0.0
  0
SPLINE
  5
2EE
100
AcDbEntity
  8
0
100
AcDbSpline
 62
7
  6
CONTINUOUS
 70
0
 71
3
 72
29
 73
25
 74
0
 42
0.0000001
 43
0.0000001
 44
0.0000000001
 40
0.0
 40
0.0
 40
0.0
 40
0.0
 40
0.0030172783
 40
0.0062823188
 40
0.0099298586
 40
0.0140532767
 40
0.0239417284
 40
0.0362344136
 40
0.05103646
 40
0.0683787135
 40
0.0882296821
 40
0.1105189799
 40
0.162070181
 40
0.2222339162
 40
0.2899178171
 40
0.3639281768
 40
0.4428747315
 40
0.5252749636
 40
0.6095291005
 40
0.693946588
 40
0.7768573421
 40
0.8566244037
 40
0.9315837453
 40
1.0
 40
1.0
 40
1.0
 40
1.0
 10
4.1881743926
 20
7.3132496231
 30
0.0
 10
4.1882135104
 20
7.3132495325
 30
0.0
 10
4.1882952422
 20
7.3132600251
 30
0.0
 10
4.18841667
 20
7.3133053193
 30
0.0
 10
4.1885397853
 20
7.3133794834
 30
0.0
 10
4.1887172421
 20
7.3135250854
 30
0.0
 10
4.1889410317
 20
7.3137852102
 30
0.0
 10
4.1892029536
 20
7.3141876038
 30
0.0
 10
4.1894722231
 20
7.3146976462
 30
0.0
 10
4.1897472017
 20
7.3153134626
 30
0.0
 10
4.1900266783
 20
7.3160324746
 30
0.0
 10
4.190422909
 20
7.3171809452
 30
0.0
 10
4.1909104461
 20
7.3188494116
 30
0.0
 10
4.1914665752
 20
7.3211082438
 30
0.0
 10
4.1920083984
 20
7.3236689713
 30
0.0
 10
4.1925243623
 20
7.3264828716
 30
0.0
 10
4.1930055964
 20
7.3294962462
 30
0.0
 10
4.1934425122
 20
7.3326504646
 30
0.0
 10
4.1938273291
 20
7.3358828825
 30
0.0
 10
4.194153103
 20
7.3391284333
 30
0.0
 10
4.1944135569
 20
7.3423215168
 30
0.0
 10
4.1946042706
 20
7.3453967091
 30
0.0
 10
4.1947211888
 20
7.3482875278
 30
0.0
 10
4.1947511719
 20
7.3501463801
 30
0.0
 10
4.1947511719
 20
7.3510333717
 30
0.0
  0
SPLINE
  5
2EF
100
AcDbEntity
  8
0
100
AcDbSpline
 62
7
  6
CONTINUOUS
 70
0
 71
3
 72
35
 73
31
 74
0
 42
0.0000001
 43
0.0000001
 44
0.0000000001
 40
0.0
 40
0.0
 40
0.0
 40
0.0
 40
0.0014773861
 40
0.0024606151
 40
0.003645609
 40
0.0066724592
 40
0.0106186007
 40
0.0155021368
 40
0.0213273436
 40
0.0280923696
 40
0.0357900036
 40
0.0539126258
 40
0.0755391074
 40
0.1005027565
 40
0.1286216625
 40
0.1596623139
 40
0.1933766733
 40
0.2678080999
 40
0.3496682035
 40
0.4365369988
 40
0.5258269436
 40
0.6148772196
 40
0.7009786033
 40
0.7814629214
 40
0.8537611353
 40
0.9155667224
 40
0.941892585
 40
0.964862411
 40
0.9842912274
 40
1.0
 40
1.0
 40
1.0
 40
1.0
 10
4.1868528613
 20
7.4163651813
 30
0.0
 10
4.1868753817
 20
7.4163650562
 30
0.0
 10
4.1869121571
 20
7.4163817696
 30
0.0
 10
4.1869542259
 20
7.4164175625
 30
0.0
 10
4.1870076465
 20
7.4164765147
 30
0.0
 10
4.1870768496
 20
7.4165802859
 30
0.0
 10
4.1871624638
 20
7.4167396073
 30
0.0
 10
4.187255502
 20
7.4169428308
 30
0.0
 10
4.1873558397
 20
7.4171896299
 30
0.0
 10
4.1874631165
 20
7.4174797333
 30
0.0
 10
4.1876239127
 20
7.4179497438
 30
0.0
 10
4.1878376106
 20
7.418640862
 30
0.0
 10
4.1881052935
 20
7.419590369
 30
0.0
 10
4.1883934365
 20
7.4206922119
 30
0.0
 10
4.1886992399
 20
7.4219375969
 30
0.0
 10
4.189020146
 20
7.4233165145
 30
0.0
 10
4.1894798224
 20
7.4253878598
 30
0.0
 10
4.190068191
 20
7.4282239957
 30
0.0
 10
4.1907698933
 20
7.4318637182
 30
0.0
 10
4.1914663905
 20
7.4357347991
 30
0.0
 10
4.1921378754
 20
7.4397214749
 30
0.0
 10
4.1927644932
 20
7.4437036056
 30
0.0
 10
4.1933290502
 20
7.4475593931
 30
0.0
 10
4.1938154793
 20
7.4511683138
 30
0.0
 10
4.1942105425
 20
7.4544155627
 30
0.0
 10
4.194467462
 20
7.456847745
 30
0.0
 10
4.1946150025
 20
7.4585349365
 30
0.0
 10
4.1946907585
 20
7.4595798645
 30
0.0
 10
4.1947375421
 20
7.4604644443
 30
0.0
 10
4.1947511719
 20
7.4610000469
 30
0.0
 10
4.1947511719
 20
7.4612395058
 30
0.0
  0
SPLINE
  5
2F0
100
AcDbEntity
  8
0
100
AcDbSpline
 62
7
  6
CONTINUOUS
 70
0
 71
3
 72
25
 73
21
 74
0
 42
0.0000001
 43
0.0000001
 44
0.0000000001
 40
0.0
 40
0.0
 40
0.0
 40
0.0
 40
0.1747062267
 40
0.3508656121
 40
0.4364346154
 40
0.5188900298
 40
0.5972203824
 40
0.670464233
 40
0.7377007225
 40
0.7981993509
 40
0.8513216781
 40
0.8965397215
 40
0.9161019182
 40
0.933609243
 40
0.9490674076
 40
0.9625142792
 40
0.9740560842
 40
0.9838931832
 40
0.9923623998
 40
1.0
 40
1.0
 40
1.0
 40
1.0
 10
4.3094379401
 20
6.9319106697
 30
0.0
 10
4.3094379401
 20
6.9336584228
 30
0.0
 10
4.3093654702
 20
6.9371687243
 30
0.0
 10
4.3091134125
 20
6.9415286089
 30
0.0
 10
4.3088127337
 20
6.9449588663
 30
0.0
 10
4.3085459912
 20
6.9474091133
 30
0.0
 10
4.3082394816
 20
6.9497304068
 30
0.0
 10
4.3078977539
 20
6.9518928227
 30
0.0
 10
4.3075244974
 20
6.9538688053
 30
0.0
 10
4.3071252505
 20
6.9556340121
 30
0.0
 10
4.3067055129
 20
6.9571671866
 30
0.0
 10
4.3063267823
 20
6.9582854866
 30
0.0
 10
4.3060113292
 20
6.9590461734
 30
0.0
 10
4.3057843562
 20
6.9595204509
 30
0.0
 10
4.3055561684
 20
6.9599253221
 30
0.0
 10
4.3053270703
 20
6.9602596639
 30
0.0
 10
4.3050973142
 20
6.9605229449
 30
0.0
 10
4.3048664014
 20
6.9607149887
 30
0.0
 10
4.3046330082
 20
6.9608345877
 30
0.0
 10
4.3044711048
 20
6.9608632369
 30
0.0
 10
4.3043946986
 20
6.9608633358
 30
0.0
  0
SPLINE
  5
2F1
100
AcDbEntity
  8
0
100
AcDbSpline
 62
7
  6
CONTINUOUS
 70
0
 71
3
 72
26
 73
22
 74
0
 42
0.0000001
 43
0.0000001
 44
0.0000000001
 40
0.0
 40
0.0
 40
0.0
 40
0.0
 40
0.0763774784
 40
0.1572495712
 40
0.3260651729
 40
0.4110902756
 40
0.4946411625
 40
0.575324839
 40
0.6517825576
 40
0.7228249585
 40
0.7873362116
 40
0.8443528018
 40
0.8930879855
 40
0.914136853
 40
0.9329044647
 40
0.9493687039
 40
0.9635310458
 40
0.9754361031
 40
0.9852222816
 40
0.9932083796
 40
1.0
 40
1.0
 40
1.0
 40
1.0
 10
4.3094379401
 20
6.7554868012
 30
0.0
 10
4.3094379401
 20
6.7563934696
 30
0.0
 10
4.3094127558
 20
6.7582602193
 30
0.0
 10
4.3092738611
 20
6.762128623
 30
0.0
 10
4.3090070965
 20
6.7660942849
 30
0.0
 10
4.3086238941
 20
6.7700812193
 30
0.0
 10
4.308282086
 20
6.7730205637
 30
0.0
 10
4.3078933504
 20
6.7758514474
 30
0.0
 10
4.3074632859
 20
6.7785261052
 30
0.0
 10
4.3069999207
 20
6.7810001589
 30
0.0
 10
4.3065109017
 20
6.7832336974
 30
0.0
 10
4.3060041562
 20
6.7851908227
 30
0.0
 10
4.3055564712
 20
6.7866290393
 30
0.0
 10
4.305188724
 20
6.7876140884
 30
0.0
 10
4.3049273715
 20
6.7882292445
 30
0.0
 10
4.3046680674
 20
6.7887555844
 30
0.0
 10
4.3044118145
 20
6.7891913056
 30
0.0
 10
4.3041593513
 20
6.7895352344
 30
0.0
 10
4.303909933
 20
6.789786609
 30
0.0
 10
4.3036615574
 20
6.7899457585
 30
0.0
 10
4.3034854774
 20
6.7899863624
 30
0.0
 10
4.3034048549
 20
6.7899864539
 30
0.0
  0
SPLINE
  5
2F2
100
AcDbEntity
  8
0
100
AcDbSpline
 62
7
  6
CONTINUOUS
 70
0
 71
3
 72
28
 73
24
 74
0
 42
0.0000001
 43
0.0000001
 44
0.0000000001
 40
0.0
 40
0.0
 40
0.0
 40
0.0
 40
0.0640935096
 40
0.1358210188
 40
0.2134118621
 40
0.2951242252
 40
0.3792144753
 40
0.463869769
 40
0.5472555144
 40
0.6276409894
 40
0.7033700799
 40
0.7729260394
 40
0.8349280238
 40
0.8627050707
 40
0.8881624743
 40
0.9111809877
 40
0.9316479862
 40
0.9494820141
 40
0.964644787
 40
0.9771305516
 40
0.9823876418
 40
0.9870088573
 40
1.0
 40
1.0
 40
1.0
 40
1.0
 10
4.3094379401
 20
6.6039881908
 30
0.0
 10
4.3094379401
 20
6.6048498426
 30
0.0
 10
4.3094034453
 20
6.6066758076
 30
0.0
 10
4.3092726391
 20
6.6095421082
 30
0.0
 10
4.3090601732
 20
6.612640979
 30
0.0
 10
4.3087714005
 20
6.6159005081
 30
0.0
 10
4.3084118834
 20
6.6192485193
 30
0.0
 10
4.3079898825
 20
6.622611899
 30
0.0
 10
4.3075136987
 20
6.6259177369
 30
0.0
 10
4.3069937524
 20
6.6290954526
 30
0.0
 10
4.3064407922
 20
6.6320787459
 30
0.0
 10
4.3058663888
 20
6.6348058956
 30
0.0
 10
4.3053637951
 20
6.6368886331
 30
0.0
 10
4.3049553359
 20
6.6383831285
 30
0.0
 10
4.3046625467
 20
6.6393656582
 30
0.0
 10
4.3043736371
 20
6.6402464669
 30
0.0
 10
4.304090052
 20
6.6410207479
 30
0.0
 10
4.3038135025
 20
6.6416844194
 30
0.0
 10
4.3035453326
 20
6.6422346538
 30
0.0
 10
4.3033200853
 20
6.6426156109
 30
0.0
 10
4.3031405876
 20
6.642858738
 30
0.0
 10
4.3029415965
 20
6.6430869231
 30
0.0
 10
4.3027231655
 20
6.6432508534
 30
0.0
 10
4.3025485169
 20
6.6432508126
 30
0.0
  0
SPLINE
  5
2F3
100
AcDbEntity
  8
0
100
AcDbSpline
 62
7
  6
CONTINUOUS
 70
0
 71
3
 72
32
 73
28
 74
0
 42
0.0000001
 43
0.0000001
 44
0.0000000001
 40
0.0
 40
0.0
 40
0.0
 40
0.0
 40
0.023110548
 40
0.0492158676
 40
0.1095583587
 40
0.1792572319
 40
0.2563738308
 40
0.3388468199
 40
0.4244235814
 40
0.5108382647
 40
0.5958471258
 40
0.6772829546
 40
0.7530872423
 40
0.8213509674
 40
0.8521124718
 40
0.8803488111
 40
0.9058909103
 40
0.9285824078
 40
0.9482718892
 40
0.9648324888
 40
0.9719197137
 40
0.9782056606
 40
0.9836904145
 40
0.9883802428
 40
0.99229271
 40
0.9954678286
 40
1.0
 40
1.0
 40
1.0
 40
1.0
 10
4.3094379401
 20
6.4877392184
 30
0.0
 10
4.3094379401
 20
6.4880772713
 30
0.0
 10
4.3094272131
 20
6.4887971927
 30
0.0
 10
4.3093693754
 20
6.490398808
 30
0.0
 10
4.3092270109
 20
6.4926788012
 30
0.0
 10
4.3089657918
 20
6.4956979432
 30
0.0
 10
4.3086130867
 20
6.4990334788
 30
0.0
 10
4.3081776719
 20
6.502593295
 30
0.0
 10
4.3076709678
 20
6.5062809936
 30
0.0
 10
4.3071055938
 20
6.509997677
 30
0.0
 10
4.3064963275
 20
6.5136460264
 30
0.0
 10
4.3058584927
 20
6.517131845
 30
0.0
 10
4.3052086586
 20
6.5203659691
 30
0.0
 10
4.3046535622
 20
6.5228626146
 30
0.0
 10
4.3042127354
 20
6.5246712644
 30
0.0
 10
4.3039010548
 20
6.5258680252
 30
0.0
 10
4.303599022
 20
6.5269451291
 30
0.0
 10
4.303308883
 20
6.5278955006
 30
0.0
 10
4.303032765
 20
6.5287124112
 30
0.0
 10
4.3028057804
 20
6.5293046257
 30
0.0
 10
4.3026301998
 20
6.5297058377
 30
0.0
 10
4.3025101666
 20
6.5299542633
 30
0.0
 10
4.3023949463
 20
6.5301659083
 30
0.0
 10
4.3022851925
 20
6.5303402509
 30
0.0
 10
4.3021797561
 20
6.5304777942
 30
0.0
 10
4.302061634
 20
6.5305975307
 30
0.0
 10
4.3019534779
 20
6.5306577801
 30
0.0
 10
4.301887183
 20
6.5306577367
 30
0.0
  0
SPLINE
  5
2F4
100
AcDbEntity
  8
0
100
AcDbSpline
 62
7
  6
CONTINUOUS
 70
0
 71
3
 72
36
 73
32
 74
0
 42
0.0000001
 43
0.0000001
 44
0.0000000001
 40
0.0
 40
0.0
 40
0.0
 40
0.0
 40
0.0136924086
 40
0.0312922694
 40
0.0526332326
 40
0.0775408283
 40
0.1057964905
 40
0.1371450761
 40
0.2080755331
 40
0.2879650949
 40
0.3741750623
 40
0.4639317826
 40
0.5544131784
 40
0.6428159321
 40
0.7264133843
 40
0.7655966883
 40
0.8026139336
 40
0.8371819333
 40
0.8690246714
 40
0.8978683394
 40
0.9234766812
 40
0.9456504017
 40
0.9641941448
 40
0.9789350836
 40
0.9848489232
 40
0.989781288
 40
0.9937295246
 40
0.9967013822
 40
0.997832166
 40
0.9987398605
 40
1.0
 40
1.0
 40
1.0
 40
1.0
 10
4.3094379401
 20
6.4146620593
 30
0.0
 10
4.3094379401
 20
6.4148721444
 30
0.0
 10
4.3094225709
 20
6.4153522167
 30
0.0
 10
4.3093722768
 20
6.4161582459
 30
0.0
 10
4.3092909721
 20
6.4171345692
 30
0.0
 10
4.309179023
 20
6.4182722326
 30
0.0
 10
4.3090371917
 20
6.4195611575
 30
0.0
 10
4.3087998458
 20
6.4215498835
 30
0.0
 10
4.3084358155
 20
6.4243212182
 30
0.0
 10
4.3079212101
 20
6.4279214789
 30
0.0
 10
4.3073275794
 20
6.4318020437
 30
0.0
 10
4.3066735639
 20
6.4358376035
 30
0.0
 10
4.3059787938
 20
6.4399004862
 30
0.0
 10
4.3052648949
 20
6.4438640637
 30
0.0
 10
4.3046598422
 20
6.4470473642
 30
0.0
 10
4.3041816795
 20
6.4494521082
 30
0.0
 10
4.3038398431
 20
6.4511169303
 30
0.0
 10
4.303509913
 20
6.4526691831
 30
0.0
 10
4.303194703
 20
6.4540963107
 30
0.0
 10
4.3028968545
 20
6.4553864368
 30
0.0
 10
4.3026189701
 20
6.456528837
 30
0.0
 10
4.3023638148
 20
6.4575140408
 30
0.0
 10
4.3021338077
 20
6.4583333243
 30
0.0
 10
4.3019544501
 20
6.4589075901
 30
0.0
 10
4.3018224446
 20
6.4592773798
 30
0.0
 10
4.3017385859
 20
6.4594883866
 30
0.0
 10
4.3016624629
 20
6.4596536861
 30
0.0
 10
4.3016019834
 20
6.4597615902
 30
0.0
 10
4.301555463
 20
6.4598233748
 30
0.0
 10
4.3015208179
 20
6.4598593669
 30
0.0
 10
4.3014890817
 20
6.4598780002
 30
0.0
 10
4.3014697487
 20
6.4598777566
 30
0.0
  0
SPLINE
  5
2F5
100
AcDbEntity
  8
0
100
AcDbSpline
 62
7
  6
CONTINUOUS
 70
0
 71
3
 72
26
 73
22
 74
0
 42
0.0000001
 43
0.0000001
 44
0.0000000001
 40
0.0
 40
0.0
 40
0.0
 40
0.0
 40
0.0825746334
 40
0.1679698026
 40
0.3413390442
 40
0.4267225725
 40
0.5096196084
 40
0.5888761746
 40
0.6633623444
 40
0.7320530042
 40
0.7940920454
 40
0.8486792495
 40
0.8952264123
 40
0.9153568726
 40
0.9333373078
 40
0.9491587565
 40
0.9628631148
 40
0.9745417097
 40
0.9843684138
 40
0.9926659753
 40
1.0
 40
1.0
 40
1.0
 40
1.0
 10
4.2504194497
 20
6.9280288503
 30
0.0
 10
4.2504194497
 20
6.9289205586
 30
0.0
 10
4.2503988304
 20
6.9307344877
 30
0.0
 10
4.2502826915
 20
6.9344188765
 30
0.0
 10
4.2500575317
 20
6.9381295706
 30
0.0
 10
4.2497271819
 20
6.941804346
 30
0.0
 10
4.2494331353
 20
6.9444614455
 30
0.0
 10
4.249096462
 20
6.9469948213
 30
0.0
 10
4.2487218523
 20
6.9493677328
 30
0.0
 10
4.2483141572
 20
6.9515463335
 30
0.0
 10
4.2478803142
 20
6.9535004556
 30
0.0
 10
4.2474256557
 20
6.9552034477
 30
0.0
 10
4.2470183257
 20
6.9564492173
 30
0.0
 10
4.2466806755
 20
6.9572991004
 30
0.0
 10
4.246438663
 20
6.9578291778
 30
0.0
 10
4.246196159
 20
6.9582817502
 30
0.0
 10
4.2459540059
 20
6.9586558299
 30
0.0
 10
4.2457126615
 20
6.9589509912
 30
0.0
 10
4.2454715387
 20
6.959166851
 30
0.0
 10
4.2452287383
 20
6.9593022509
 30
0.0
 10
4.2450590186
 20
6.9593349227
 30
0.0
 10
4.2449798198
 20
6.9593348261
 30
0.0
  0
SPLINE
  5
2F6
100
AcDbEntity
  8
0
100
AcDbSpline
 62
7
  6
CONTINUOUS
 70
0
 71
3
 72
31
 73
27
 74
0
 42
0.0000001
 43
0.0000001
 44
0.0000000001
 40
0.0
 40
0.0
 40
0.0
 40
0.0
 40
0.0665697506
 40
0.1401500839
 40
0.2189881677
 40
0.3013864434
 40
0.3856620679
 40
0.4700840451
 40
0.5528994389
 40
0.6324555511
 40
0.7071945242
 40
0.775674084
 40
0.8071679801
 40
0.836622792
 40
0.8638998787
 40
0.8888893328
 40
0.9114879825
 40
0.931599242
 40
0.9491428416
 40
0.9640887149
 40
0.9764519663
 40
0.9863171647
 40
0.9903870005
 40
0.9939517163
 40
0.9971090114
 40
1.0
 40
1.0
 40
1.0
 40
1.0
 10
4.2504194497
 20
6.7620738533
 30
0.0
 10
4.2504194497
 20
6.7629511873
 30
0.0
 10
4.2503873419
 20
6.7647982873
 30
0.0
 10
4.2502636259
 20
6.7676819511
 30
0.0
 10
4.2500622273
 20
6.7707703152
 30
0.0
 10
4.2497878668
 20
6.7739945006
 30
0.0
 10
4.2494455448
 20
6.7772861711
 30
0.0
 10
4.2490425458
 20
6.7805765029
 30
0.0
 10
4.2485864872
 20
6.7837971067
 30
0.0
 10
4.2480864866
 20
6.7868820013
 30
0.0
 10
4.2475526561
 20
6.7897693066
 30
0.0
 10
4.2470757589
 20
6.7920223084
 30
0.0
 10
4.2466822114
 20
6.7936821219
 30
0.0
 10
4.2463934897
 20
6.7948085247
 30
0.0
 10
4.2461042663
 20
6.7958460768
 30
0.0
 10
4.2458161889
 20
6.7967898682
 30
0.0
 10
4.2455307947
 20
6.7976353721
 30
0.0
 10
4.2452496564
 20
6.7983782784
 30
0.0
 10
4.2449740796
 20
6.7990147015
 30
0.0
 10
4.2447056972
 20
6.7995420702
 30
0.0
 10
4.244446083
 20
6.7999582402
 30
0.0
 10
4.2442252112
 20
6.8002280108
 30
0.0
 10
4.2440503096
 20
6.8003792714
 30
0.0
 10
4.2439297222
 20
6.800455938
 30
0.0
 10
4.2438110798
 20
6.8005028932
 30
0.0
 10
4.2437310816
 20
6.8005139109
 30
0.0
 10
4.2436929808
 20
6.8005138394
 30
0.0
  0
SPLINE
  5
2F7
100
AcDbEntity
  8
0
100
AcDbSpline
 62
7
  6
CONTINUOUS
 70
0
 71
3
 72
31
 73
27
 74
0
 42
0.0000001
 43
0.0000001
 44
0.0000000001
 40
0.0
 40
0.0
 40
0.0
 40
0.0
 40
0.0212565394
 40
0.0456969742
 40
0.1033011782
 40
0.1710633932
 40
0.247015935
 40
0.3290307612
 40
0.4147671372
 40
0.5018593774
 40
0.5879420228
 40
0.6707302577
 40
0.7480274093
 40
0.8178109385
 40
0.8782121594
 40
0.9043864515
 40
0.9276361863
 40
0.9477899121
 40
0.9647251107
 40
0.9719609684
 40
0.9783649336
 40
0.9839329027
 40
0.9886663207
 40
0.9925777058
 40
0.9957064008
 40
1.0
 40
1.0
 40
1.0
 40
1.0
 10
4.2504194497
 20
6.6438297561
 30
0.0
 10
4.2504194497
 20
6.6441447914
 30
0.0
 10
4.2504081338
 20
6.6448220552
 30
0.0
 10
4.2503479596
 20
6.6463519421
 30
0.0
 10
4.2502001299
 20
6.6485676296
 30
0.0
 10
4.2499311441
 20
6.6515393231
 30
0.0
 10
4.2495680445
 20
6.6548651863
 30
0.0
 10
4.2491201329
 20
6.6584492758
 30
0.0
 10
4.2485990506
 20
6.6621902194
 30
0.0
 10
4.2480182945
 20
6.6659833631
 30
0.0
 10
4.2473930545
 20
6.6697251441
 30
0.0
 10
4.2467398452
 20
6.6733146966
 30
0.0
 10
4.2460758634
 20
6.6766563534
 30
0.0
 10
4.2454194334
 20
6.6796606785
 30
0.0
 10
4.2448711107
 20
6.6819125958
 30
0.0
 10
4.2444447119
 20
6.683483522
 30
0.0
 10
4.2441537814
 20
6.6844729253
 30
0.0
 10
4.2438782446
 20
6.6853238
 30
0.0
 10
4.2436532222
 20
6.6859412496
 30
0.0
 10
4.2434801791
 20
6.6863601372
 30
0.0
 10
4.243362514
 20
6.6866193937
 30
0.0
 10
4.243250152
 20
6.6868402481
 30
0.0
 10
4.2431438861
 20
6.687021947
 30
0.0
 10
4.2430423079
 20
6.6871653253
 30
0.0
 10
4.242931262
 20
6.6872880484
 30
0.0
 10
4.2428279692
 20
6.6873536826
 30
0.0
 10
4.2427643354
 20
6.6873537243
 30
0.0
  0
SPLINE
  5
2F8
100
AcDbEntity
  8
0
100
AcDbSpline
 62
7
  6
CONTINUOUS
 70
0
 71
3
 72
42
 73
38
 74
0
 42
0.0000001
 43
0.0000001
 44
0.0000000001
 40
0.0
 40
0.0
 40
0.0
 40
0.0
 40
0.0029585869
 40
0.0070502111
 40
0.0185796037
 40
0.0344713766
 40
0.0545926634
 40
0.0787346907
 40
0.1066490639
 40
0.1380850149
 40
0.1727472742
 40
0.250376827
 40
0.3366930938
 40
0.4285859123
 40
0.5228449674
 40
0.6162062319
 40
0.6615468995
 40
0.7054656568
 40
0.747575354
 40
0.7875133963
 40
0.8249212647
 40
0.8594462792
 40
0.8907800664
 40
0.9186347654
 40
0.9427247233
 40
0.9532811142
 40
0.9628142982
 40
0.971301912
 40
0.9787217124
 40
0.9850516667
 40
0.9902703249
 40
0.994364904
 40
0.9973352873
 40
0.9984010117
 40
0.9991904078
 40
0.9997119333
 40
1.0
 40
1.0
 40
1.0
 40
1.0
 10
4.2504194497
 20
6.5890040034
 30
0.0
 10
4.2504194497
 20
6.5890499759
 30
0.0
 10
4.2504148439
 20
6.589159496
 30
0.0
 10
4.2503936166
 20
6.5894474156
 30
0.0
 10
4.2503425401
 20
6.5899345101
 30
0.0
 10
4.2502536958
 20
6.5906678826
 30
0.0
 10
4.2501309745
 20
6.5915945451
 30
0.0
 10
4.2499757189
 20
6.5927052931
 30
0.0
 10
4.2497890777
 20
6.5939891627
 30
0.0
 10
4.2495726395
 20
6.5954338717
 30
0.0
 10
4.2492337038
 20
6.5976413425
 30
0.0
 10
4.2487506253
 20
6.6006894193
 30
0.0
 10
4.2481080553
 20
6.6046125458
 30
0.0
 10
4.2474039806
 20
6.6087873945
 30
0.0
 10
4.2466620862
 20
6.6130668336
 30
0.0
 10
4.2460271106
 20
6.6166306217
 30
0.0
 10
4.2455189741
 20
6.619422437
 30
0.0
 10
4.2451482714
 20
6.621429796
 30
0.0
 10
4.24478749
 20
6.6233536106
 30
0.0
 10
4.2444400355
 20
6.6251769826
 30
0.0
 10
4.2441092139
 20
6.6268835393
 30
0.0
 10
4.243798143
 20
6.6284577271
 30
0.0
 10
4.2435099534
 20
6.6298851111
 30
0.0
 10
4.2432476488
 20
6.6311522874
 30
0.0
 10
4.2430449775
 20
6.6321020967
 30
0.0
 10
4.2428973391
 20
6.6327725255
 30
0.0
 10
4.2427996484
 20
6.6332057
 30
0.0
 10
4.2427102995
 20
6.6335907847
 30
0.0
 10
4.2426295644
 20
6.6339267678
 30
0.0
 10
4.2425577287
 20
6.6342126186
 30
0.0
 10
4.2424950758
 20
6.6344475252
 30
0.0
 10
4.2424418529
 20
6.6346307628
 30
0.0
 10
4.2424023163
 20
6.6347509842
 30
0.0
 10
4.2423747381
 20
6.6348205362
 30
0.0
 10
4.2423584516
 20
6.634854121
 30
0.0
 10
4.2423457849
 20
6.6348747129
 30
0.0
 10
4.2423350427
 20
6.6348839075
 30
0.0
 10
4.242330568
 20
6.6348840226
 30
0.0
  0
SPLINE
  5
2F9
100
AcDbEntity
  8
0
100
AcDbSpline
 62
7
  6
CONTINUOUS
 70
0
 71
3
 72
26
 73
22
 74
0
 42
0.0000001
 43
0.0000001
 44
0.0000000001
 40
0.0
 40
0.0
 40
0.0
 40
0.0
 40
0.0748558141
 40
0.1546016757
 40
0.3222500361
 40
0.4071586615
 40
0.490840137
 40
0.5718408388
 40
0.6487522482
 40
0.7203347158
 40
0.785412844
 40
0.8429921619
 40
0.8922284601
 40
0.9134975543
 40
0.9324632794
 40
0.949096073
 40
0.9633900793
 40
0.9753851123
 40
0.9852259545
 40
0.9932279571
 40
1.0
 40
1.0
 40
1.0
 40
1.0
 10
4.1947511719
 20
6.9317906643
 30
0.0
 10
4.1947511719
 20
6.9326965261
 30
0.0
 10
4.1947258291
 20
6.9345674811
 30
0.0
 10
4.194586584
 20
6.9384648881
 30
0.0
 10
4.1943195239
 20
6.9424785973
 30
0.0
 10
4.1939362509
 20
6.9465296333
 30
0.0
 10
4.1935932685
 20
6.949530715
 30
0.0
 10
4.1932024412
 20
6.952428319
 30
0.0
 10
4.1927691475
 20
6.9551717897
 30
0.0
 10
4.1923015066
 20
6.9577139708
 30
0.0
 10
4.191806713
 20
6.9600123623
 30
0.0
 10
4.1912932573
 20
6.9620286674
 30
0.0
 10
4.1908387542
 20
6.9635116519
 30
0.0
 10
4.1904649138
 20
6.9645280817
 30
0.0
 10
4.1901991422
 20
6.9651631661
 30
0.0
 10
4.1899353746
 20
6.9657067144
 30
0.0
 10
4.1896747173
 20
6.9661567004
 30
0.0
 10
4.1894177841
 20
6.9665117607
 30
0.0
 10
4.1891641928
 20
6.9667713769
 30
0.0
 10
4.1889118778
 20
6.9669361415
 30
0.0
 10
4.188732477
 20
6.966978514
 30
0.0
 10
4.1886505257
 20
6.9669786235
 30
0.0
  0
SPLINE
  5
2FA
100
AcDbEntity
  8
0
100
AcDbSpline
 62
7
  6
CONTINUOUS
 70
0
 71
3
 72
31
 73
27
 74
0
 42
0.0000001
 43
0.0000001
 44
0.0000000001
 40
0.0
 40
0.0
 40
0.0
 40
0.0
 40
0.0207553088
 40
0.044743275
 40
0.1015964476
 40
0.1688183862
 40
0.2444367805
 40
0.3263077529
 40
0.4120677279
 40
0.4993229297
 40
0.5856740697
 40
0.6688039347
 40
0.7464808906
 40
0.8166548627
 40
0.8774265009
 40
0.9037723956
 40
0.9271779841
 40
0.9474691262
 40
0.964524744
 40
0.971812598
 40
0.9782619696
 40
0.9838678762
 40
0.9886308368
 40
0.9925636509
 40
0.9957062572
 40
1.0
 40
1.0
 40
1.0
 40
1.0
 10
4.1947511719
 20
6.7999179297
 30
0.0
 10
4.1947511719
 20
6.8002265696
 30
0.0
 10
4.1947399159
 20
6.8008919247
 30
0.0
 10
4.1946802766
 20
6.8024016061
 30
0.0
 10
4.1945337848
 20
6.8045988554
 30
0.0
 10
4.194267604
 20
6.8075565843
 30
0.0
 10
4.1939077583
 20
6.8108788662
 30
0.0
 10
4.1934631316
 20
6.8144687757
 30
0.0
 10
4.1929447392
 20
6.8182235388
 30
0.0
 10
4.1923656896
 20
6.8220368252
 30
0.0
 10
4.1917406613
 20
6.8258032149
 30
0.0
 10
4.1910860667
 20
6.8294199354
 30
0.0
 10
4.1904188967
 20
6.8327894875
 30
0.0
 10
4.1897578612
 20
6.835820748
 30
0.0
 10
4.1892045558
 20
6.8380937438
 30
0.0
 10
4.188773874
 20
6.8396799263
 30
0.0
 10
4.1884798633
 20
6.840679241
 30
0.0
 10
4.1882013322
 20
6.8415387703
 30
0.0
 10
4.1879739645
 20
6.842162616
 30
0.0
 10
4.1877992182
 20
6.8425859515
 30
0.0
 10
4.1876804657
 20
6.8428479725
 30
0.0
 10
4.1875671603
 20
6.8430711675
 30
0.0
 10
4.1874601128
 20
6.843254745
 30
0.0
 10
4.1873578986
 20
6.843399612
 30
0.0
 10
4.1872465361
 20
6.8435233792
 30
0.0
 10
4.1871429932
 20
6.8435900787
 30
0.0
 10
4.1870791436
 20
6.8435901437
 30
0.0
  0
SPLINE
  5
2FB
100
AcDbEntity
  8
0
100
AcDbSpline
 62
7
  6
CONTINUOUS
 70
0
 71
3
 72
17
 73
13
 74
0
 42
0.0000001
 43
0.0000001
 44
0.0000000001
 40
0.0
 40
0.0
 40
0.0
 40
0.0
 40
0.0192527773
 40
0.0402940344
 40
0.0654346925
 40
0.096084774
 40
0.1766605516
 40
0.2850147028
 40
0.4217113104
 40
0.586677764
 40
0.7795889589
 40
1.0
 40
1.0
 40
1.0
 40
1.0
 10
4.1943659612
 20
6.7975902423
 30
0.0
 10
4.1943815935
 20
6.7975902249
 30
0.0
 10
4.1944146787
 20
6.7975969672
 30
0.0
 10
4.1944594898
 20
6.7976273021
 30
0.0
 10
4.1944998598
 20
6.7976755448
 30
0.0
 10
4.1945540995
 20
6.7977725449
 30
0.0
 10
4.1946094876
 20
6.7979432931
 30
0.0
 10
4.1946610199
 20
6.7982027102
 30
0.0
 10
4.1947014286
 20
6.7985334576
 30
0.0
 10
4.1947304979
 20
6.7989340481
 30
0.0
 10
4.1947478175
 20
6.7994033539
 30
0.0
 10
4.1947511719
 20
6.799738967
 30
0.0
 10
4.1947511719
 20
6.7999179297
 30
0.0
  0
SPLINE
  5
2FC
100
AcDbEntity
  8
0
100
AcDbSpline
 62
7
  6
CONTINUOUS
 70
0
 71
3
 72
24
 73
20
 74
0
 42
0.0000001
 43
0.0000001
 44
0.0000000001
 40
0.0
 40
0.0
 40
0.0
 40
0.0
 40
0.0091809665
 40
0.0186019258
 40
0.0396472471
 40
0.0655731785
 40
0.0975885331
 40
0.1160836856
 40
0.136290775
 40
0.1582381154
 40
0.1819449536
 40
0.2346640759
 40
0.2944045147
 40
0.3610335975
 40
0.4343882225
 40
0.5142864032
 40
0.6005023492
 40
0.7902378476
 40
1.0
 40
1.0
 40
1.0
 40
1.0
 10
4.1929413954
 20
6.9209790028
 30
0.0
 10
4.1929759475
 20
6.9209789503
 30
0.0
 10
4.1930462189
 20
6.9209866069
 30
0.0
 10
4.1931883839
 20
6.9210354418
 30
0.0
 10
4.1933617984
 20
6.9211657365
 30
0.0
 10
4.1935440701
 20
6.9214028673
 30
0.0
 10
4.1936791216
 20
6.9216579881
 30
0.0
 10
4.1937837036
 20
6.9219027724
 30
0.0
 10
4.1938629017
 20
6.9221169483
 30
0.0
 10
4.1939391349
 20
6.9223528586
 30
0.0
 10
4.1940403086
 20
6.9227090601
 30
0.0
 10
4.194156811
 20
6.9232083895
 30
0.0
 10
4.1942794735
 20
6.9238712973
 30
0.0
 10
4.1943889669
 20
6.9246150779
 30
0.0
 10
4.1944848281
 20
6.9254371253
 30
0.0
 10
4.1945665924
 20
6.9263347236
 30
0.0
 10
4.1946590571
 20
6.9276708395
 30
0.0
 10
4.1947333263
 20
6.9294976599
 30
0.0
 10
4.1947511719
 20
6.9310012325
 30
0.0
 10
4.1947511719
 20
6.9317906643
 30
0.0
  0
SPLINE
  5
2FD
100
AcDbEntity
  8
0
100
AcDbSpline
 62
7
  6
CONTINUOUS
 70
0
 71
3
 72
24
 73
20
 74
0
 42
0.0000001
 43
0.0000001
 44
0.0000000001
 40
0.0
 40
0.0
 40
0.0
 40
0.0
 40
0.0082006926
 40
0.0170155853
 40
0.0269374989
 40
0.0383032649
 40
0.0513273613
 40
0.0661430485
 40
0.1014274591
 40
0.1444200053
 40
0.1949779411
 40
0.2528323353
 40
0.3175759014
 40
0.3886087835
 40
0.4652909517
 40
0.5469355939
 40
0.6327564623
 40
0.8136202973
 40
1.0
 40
1.0
 40
1.0
 40
1.0
 10
4.2462547179
 20
7.1235157768
 30
0.0
 10
4.2463232941
 20
7.1235156951
 30
0.0
 10
4.2464663044
 20
7.1235367566
 30
0.0
 10
4.2466740714
 20
7.1236291807
 30
0.0
 10
4.2468779712
 20
7.1237793408
 30
0.0
 10
4.2470786943
 20
7.1239856876
 30
0.0
 10
4.2472768401
 20
7.1242476805
 30
0.0
 10
4.2475538272
 20
7.1246977463
 30
0.0
 10
4.2478832281
 20
7.1254055526
 30
0.0
 10
4.2482449392
 20
7.1264212209
 30
0.0
 10
4.2485897468
 20
7.1276402467
 30
0.0
 10
4.2489135733
 20
7.1290519968
 30
0.0
 10
4.2492127449
 20
7.1306436602
 30
0.0
 10
4.2494848227
 20
7.1323995882
 30
0.0
 10
4.2497266826
 20
7.1343024496
 30
0.0
 10
4.2499355172
 20
7.1363335393
 30
0.0
 10
4.2501718077
 20
7.13923694
 30
0.0
 10
4.250366722
 20
7.143021467
 30
0.0
 10
4.2504194497
 20
7.1460926625
 30
0.0
 10
4.2504194497
 20
7.1476512154
 30
0.0
  0
SPLINE
  5
2FE
100
AcDbEntity
  8
0
100
AcDbSpline
 62
7
  6
CONTINUOUS
 70
0
 71
3
 72
26
 73
22
 74
0
 42
0.0000001
 43
0.0000001
 44
0.0000000001
 40
0.0
 40
0.0
 40
0.0
 40
0.0
 40
0.0071864763
 40
0.0153975247
 40
0.0252173143
 40
0.0369629726
 40
0.0507961975
 40
0.0667957844
 40
0.0849952494
 40
0.1053888361
 40
0.1525595327
 40
0.20783381
 40
0.2705830711
 40
0.3399482527
 40
0.415003275
 40
0.4946774244
 40
0.5777694242
 40
0.6630576343
 40
0.835127498
 40
0.9192196673
 40
1.0
 40
1.0
 40
1.0
 40
1.0
 10
4.2448030109
 20
7.305097595
 30
0.0
 10
4.2448830037
 20
7.3050975124
 30
0.0
 10
4.2450552994
 20
7.3051321619
 30
0.0
 10
4.2453010622
 20
7.3052743345
 30
0.0
 10
4.2455455581
 20
7.3055008075
 30
0.0
 10
4.2457910895
 20
7.3058103035
 30
0.0
 10
4.2460381924
 20
7.3062023934
 30
0.0
 10
4.2462863443
 20
7.3066764457
 30
0.0
 10
4.2465346652
 20
7.3072313932
 30
0.0
 10
4.2468817051
 20
7.3081210281
 30
0.0
 10
4.2473014253
 20
7.3094235171
 30
0.0
 10
4.2477717024
 20
7.3112017084
 30
0.0
 10
4.2482215334
 20
7.3132389595
 30
0.0
 10
4.2486452446
 20
7.3155060379
 30
0.0
 10
4.2490355226
 20
7.3179700007
 30
0.0
 10
4.2493867249
 20
7.3205940156
 30
0.0
 10
4.2496940152
 20
7.3233381777
 30
0.0
 10
4.2500389028
 20
7.3271121888
 30
0.0
 10
4.2502753661
 20
7.3309066896
 30
0.0
 10
4.2503976178
 20
7.3346553855
 30
0.0
 10
4.2504194497
 20
7.3364906407
 30
0.0
 10
4.2504194497
 20
7.3373898086
 30
0.0
  0
SPLINE
  5
2FF
100
AcDbEntity
  8
0
100
AcDbSpline
 62
7
  6
CONTINUOUS
 70
0
 71
3
 72
28
 73
24
 74
0
 42
0.0000001
 43
0.0000001
 44
0.0000000001
 40
0.0
 40
0.0
 40
0.0
 40
0.0
 40
0.013086308
 40
0.0177204528
 40
0.0229860648
 40
0.0354776931
 40
0.0506347099
 40
0.0684545749
 40
0.0889007972
 40
0.111891003
 40
0.1373147182
 40
0.1650550475
 40
0.2269798275
 40
0.2964556936
 40
0.3721134273
 40
0.4524393505
 40
0.5357841474
 40
0.6204201883
 40
0.7045166143
 40
0.7862657611
 40
0.8639273224
 40
0.935761629
 40
1.0
 40
1.0
 40
1.0
 40
1.0
 10
4.2435521631
 20
7.4592005018
 30
0.0
 10
4.2437279011
 20
7.4592004224
 30
0.0
 10
4.2439482536
 20
7.4593631475
 30
0.0
 10
4.2441492555
 20
7.4595913577
 30
0.0
 10
4.2443299058
 20
7.4598336449
 30
0.0
 10
4.2445564862
 20
7.4602134333
 30
0.0
 10
4.2448259598
 20
7.4607620853
 30
0.0
 10
4.2451035307
 20
7.4614239087
 30
0.0
 10
4.2453878185
 20
7.4621960831
 30
0.0
 10
4.2456771582
 20
7.4630745312
 30
0.0
 10
4.2459700706
 20
7.4640544888
 30
0.0
 10
4.2463782861
 20
7.4655452653
 30
0.0
 10
4.2468797299
 20
7.467623235
 30
0.0
 10
4.2474517867
 20
7.4703446737
 30
0.0
 10
4.2480014145
 20
7.4733223773
 30
0.0
 10
4.2485173924
 20
7.4764948836
 30
0.0
 10
4.2489891689
 20
7.4797960888
 30
0.0
 10
4.2494066915
 20
7.4831556093
 30
0.0
 10
4.249761948
 20
7.4865007391
 30
0.0
 10
4.2500470064
 20
7.4897585793
 30
0.0
 10
4.2502565567
 20
7.4928571675
 30
0.0
 10
4.2503854973
 20
7.4957247804
 30
0.0
 10
4.2504194497
 20
7.4975521537
 30
0.0
 10
4.2504194497
 20
7.4984148206
 30
0.0
  0
SPLINE
  5
300
100
AcDbEntity
  8
0
100
AcDbSpline
 62
7
  6
CONTINUOUS
 70
0
 71
3
 72
32
 73
28
 74
0
 42
0.0000001
 43
0.0000001
 44
0.0000000001
 40
0.0
 40
0.0
 40
0.0
 40
0.0
 40
0.0017882085
 40
0.004129443
 40
0.0072130672
 40
0.0111184578
 40
0.015881179
 40
0.0215145102
 40
0.0280162456
 40
0.0353786324
 40
0.0526406844
 40
0.0732010901
 40
0.0969353372
 40
0.1236630009
 40
0.1853028412
 40
0.2564218001
 40
0.3350328027
 40
0.4190046126
 40
0.5060236812
 40
0.5936992464
 40
0.679563535
 40
0.7611636709
 40
0.8360868529
 40
0.9021497642
 40
0.9573625461
 40
0.9803535052
 40
1.0
 40
1.0
 40
1.0
 40
1.0
 10
4.2426798588
 20
7.5653520967
 30
0.0
 10
4.2427066207
 20
7.5653521396
 30
0.0
 10
4.2427680142
 20
7.5653722486
 30
0.0
 10
4.2428522607
 20
7.5654412324
 30
0.0
 10
4.2429422283
 20
7.5655486798
 30
0.0
 10
4.2430382144
 20
7.565696361
 30
0.0
 10
4.2431406237
 20
7.5658844655
 30
0.0
 10
4.2432491102
 20
7.5661130042
 30
0.0
 10
4.2433635051
 20
7.5663815039
 30
0.0
 10
4.243532599
 20
7.5668156184
 30
0.0
 10
4.2437538258
 20
7.5674548643
 30
0.0
 10
4.2440265627
 20
7.5683349092
 30
0.0
 10
4.2443161246
 20
7.5693577015
 30
0.0
 10
4.2447424492
 20
7.5709803912
 30
0.0
 10
4.245294315
 20
7.5733028723
 30
0.0
 10
4.2459589864
 20
7.5763957265
 30
0.0
 10
4.2466347207
 20
7.5798275078
 30
0.0
 10
4.247301943
 20
7.5835030344
 30
0.0
 10
4.2479426946
 20
7.5873208828
 30
0.0
 10
4.2485392775
 20
7.5911745385
 30
0.0
 10
4.2490757506
 20
7.5949551317
 30
0.0
 10
4.2495375818
 20
7.5985532368
 30
0.0
 10
4.2499125333
 20
7.6018633975
 30
0.0
 10
4.250190558
 20
7.604786617
 30
0.0
 10
4.2503445964
 20
7.6069405645
 30
0.0
 10
4.2504074594
 20
7.6084036994
 30
0.0
 10
4.2504194497
 20
7.6090418019
 30
0.0
 10
4.2504194497
 20
7.6093358263
 30
0.0
  0
SPLINE
  5
301
100
AcDbEntity
  8
0
100
AcDbSpline
 62
7
  6
CONTINUOUS
 70
0
 71
3
 72
49
 73
45
 74
0
 42
0.0000001
 43
0.0000001
 44
0.0000000001
 40
0.0
 40
0.0
 40
0.0
 40
0.0
 40
0.0000789675
 40
0.0002177318
 40
0.0007039773
 40
0.0014784815
 40
0.0025435496
 40
0.0038994797
 40
0.0055459795
 40
0.0074825214
 40
0.009708466
 40
0.015025713
 40
0.021490518
 40
0.0290836737
 40
0.0377795796
 40
0.0475525123
 40
0.0583767126
 40
0.0702263993
 40
0.0830757175
 40
0.111642921
 40
0.1437744427
 40
0.1791551974
 40
0.2174617945
 40
0.2583259225
 40
0.3013641118
 40
0.3461915353
 40
0.3924044082
 40
0.487314821
 40
0.5827331371
 40
0.6752560723
 40
0.7615513942
 40
0.8013499631
 40
0.8384127934
 40
0.8723909999
 40
0.9029374835
 40
0.929751454
 40
0.9525855507
 40
0.9711957224
 40
0.9788483738
 40
0.9853777256
 40
0.9907703867
 40
0.9950131612
 40
0.9980933506
 40
1.0
 40
1.0
 40
1.0
 40
1.0
 10
4.242314991
 20
7.6094538004
 30
0.0
 10
4.2423162181
 20
7.6094538652
 30
0.0
 10
4.2423191268
 20
7.6094562471
 30
0.0
 10
4.2423249234
 20
7.6094652988
 30
0.0
 10
4.2423334577
 20
7.6094856782
 30
0.0
 10
4.2423451088
 20
7.6095197906
 30
0.0
 10
4.2423593869
 20
7.6095675022
 30
0.0
 10
4.2423761718
 20
7.6096285084
 30
0.0
 10
4.2423954422
 20
7.6097029232
 30
0.0
 10
4.2424171662
 20
7.6097906686
 30
0.0
 10
4.24245146
 20
7.6099341487
 30
0.0
 10
4.2425000779
 20
7.6101466472
 30
0.0
 10
4.2425649996
 20
7.6104410842
 30
0.0
 10
4.2426392568
 20
7.6107872963
 30
0.0
 10
4.2427225961
 20
7.6111842063
 30
0.0
 10
4.2428147359
 20
7.6116306418
 30
0.0
 10
4.2429154035
 20
7.612125427
 30
0.0
 10
4.243024328
 20
7.6126673847
 30
0.0
 10
4.2431859795
 20
7.6134803726
 30
0.0
 10
4.2434060567
 20
7.6146035354
 30
0.0
 10
4.2436893284
 20
7.6160715993
 30
0.0
 10
4.2439972741
 20
7.6176892523
 30
0.0
 10
4.244326673
 20
7.6194411495
 30
0.0
 10
4.2446742816
 20
7.621310868
 30
0.0
 10
4.2450366984
 20
7.6232810424
 30
0.0
 10
4.245410393
 20
7.6253337697
 30
0.0
 10
4.2459236639
 20
7.6281815603
 30
0.0
 10
4.2465674062
 20
7.6318057853
 30
0.0
 10
4.2473230661
 20
7.6361420423
 30
0.0
 10
4.2480423689
 20
7.6403485285
 30
0.0
 10
4.2486049405
 20
7.6437037072
 30
0.0
 10
4.2490180757
 20
7.6462088361
 30
0.0
 10
4.2492955264
 20
7.647911208
 30
0.0
 10
4.2495466338
 20
7.6494719941
 30
0.0
 10
4.2497691324
 20
7.6508758404
 30
0.0
 10
4.2499610511
 20
7.6521089457
 30
0.0
 10
4.250120692
 20
7.6531590839
 30
0.0
 10
4.2502319584
 20
7.6539149678
 30
0.0
 10
4.250303236
 20
7.6544202609
 30
0.0
 10
4.2503442638
 20
7.6547221024
 30
0.0
 10
4.2503763387
 20
7.6549715895
 30
0.0
 10
4.2503996712
 20
7.6551681165
 30
0.0
 10
4.2504138011
 20
7.6553109988
 30
0.0
 10
4.2504194497
 20
7.6553885035
 30
0.0
 10
4.2504194497
 20
7.6554181739
 30
0.0
  0
SPLINE
  5
302
100
AcDbEntity
  8
0
100
AcDbSpline
 62
7
  6
CONTINUOUS
 70
0
 71
3
 72
17
 73
13
 74
0
 42
0.0000001
 43
0.0000001
 44
0.0000000001
 40
0.0
 40
0.0
 40
0.0
 40
0.0
 40
0.0195953906
 40
0.0409177471
 40
0.0662581338
 40
0.0970341649
 40
0.1776948218
 40
0.2860438076
 40
0.4226655313
 40
0.5874607709
 40
0.780067689
 40
1.0
 40
1.0
 40
1.0
 40
1.0
 10
4.2500007072
 20
6.6413538697
 30
0.0
 10
4.2500176553
 20
6.6413538581
 30
0.0
 10
4.2500534321
 20
6.6413610039
 30
0.0
 10
4.250102076
 20
6.641393224
 30
0.0
 10
4.2501459698
 20
6.6414445608
 30
0.0
 10
4.2502048896
 20
6.6415476598
 30
0.0
 10
4.2502652167
 20
6.6417293384
 30
0.0
 10
4.2503212718
 20
6.6420054576
 30
0.0
 10
4.2503652656
 20
6.6423574471
 30
0.0
 10
4.2503969182
 20
6.6427836395
 30
0.0
 10
4.2504157899
 20
6.6432827125
 30
0.0
 10
4.2504194497
 20
6.6436395364
 30
0.0
 10
4.2504194497
 20
6.6438297561
 30
0.0
  0
SPLINE
  5
303
100
AcDbEntity
  8
0
100
AcDbSpline
 62
7
  6
CONTINUOUS
 70
0
 71
3
 72
19
 73
15
 74
0
 42
0.0000001
 43
0.0000001
 44
0.0000000001
 40
0.0
 40
0.0
 40
0.0
 40
0.0
 40
0.0190829957
 40
0.0403342141
 40
0.0660412913
 40
0.0975351117
 40
0.1355279374
 40
0.1803441724
 40
0.2321179608
 40
0.2908906962
 40
0.4293377435
 40
0.5950491768
 40
0.7860587949
 40
1.0
 40
1.0
 40
1.0
 40
1.0
 10
4.2491350157
 20
6.7545151815
 30
0.0
 10
4.2491853298
 20
6.7545152834
 30
0.0
 10
4.2492927233
 20
6.7545389429
 30
0.0
 10
4.2494374895
 20
6.7546412721
 30
0.0
 10
4.2495692185
 20
6.7548027919
 30
0.0
 10
4.2496911676
 20
6.7550231558
 30
0.0
 10
4.249804214
 20
6.7553030607
 30
0.0
 10
4.2499085912
 20
6.7556425236
 30
0.0
 10
4.2500040952
 20
6.7560410744
 30
0.0
 10
4.2501258553
 20
6.7566863787
 30
0.0
 10
4.2502471387
 20
6.757636318
 30
0.0
 10
4.25034722
 20
6.7589383457
 30
0.0
 10
4.2504073594
 20
6.7604420223
 30
0.0
 10
4.2504194497
 20
6.7615097772
 30
0.0
 10
4.2504194497
 20
6.7620738533
 30
0.0
  0
SPLINE
  5
304
100
AcDbEntity
  8
0
100
AcDbSpline
 62
7
  6
CONTINUOUS
 70
0
 71
3
 72
22
 73
18
 74
0
 42
0.0000001
 43
0.0000001
 44
0.0000000001
 40
0.0
 40
0.0
 40
0.0
 40
0.0
 40
0.0090190195
 40
0.0183647769
 40
0.0284535534
 40
0.03961678
 40
0.0660345592
 40
0.0988919906
 40
0.1387052799
 40
0.1856057034
 40
0.2395706811
 40
0.3004991917
 40
0.3681959326
 40
0.442351536
 40
0.6086717756
 40
0.7961928302
 40
1.0
 40
1.0
 40
1.0
 40
1.0
 10
4.2479064254
 20
6.9133351577
 30
0.0
 10
4.2479525394
 20
6.9133352183
 30
0.0
 10
4.2480467823
 20
6.9133464124
 30
0.0
 10
4.2481845557
 20
6.9133964401
 30
0.0
 10
4.2483186658
 20
6.9134787412
 30
0.0
 10
4.2485028457
 20
6.9136397499
 30
0.0
 10
4.2487211351
 20
6.9139303354
 30
0.0
 10
4.2489549026
 20
6.9143810677
 30
0.0
 10
4.2491750909
 20
6.9149524373
 30
0.0
 10
4.2493808918
 20
6.9156421544
 30
0.0
 10
4.2495711546
 20
6.9164476044
 30
0.0
 10
4.2497444851
 20
6.917365205
 30
0.0
 10
4.2498997919
 20
6.9183905125
 30
0.0
 10
4.2500891737
 20
6.9199549567
 30
0.0
 10
4.2502678193
 20
6.9221368126
 30
0.0
 10
4.2503929436
 20
6.9249857741
 30
0.0
 10
4.2504194497
 20
6.9269867875
 30
0.0
 10
4.2504194497
 20
6.9280288503
 30
0.0
  0
SPLINE
  5
305
100
AcDbEntity
  8
0
100
AcDbSpline
 62
7
  6
CONTINUOUS
 70
0
 71
3
 72
24
 73
20
 74
0
 42
0.0000001
 43
0.0000001
 44
0.0000000001
 40
0.0
 40
0.0
 40
0.0
 40
0.0
 40
0.0083201846
 40
0.0172164586
 40
0.0271662454
 40
0.0385060012
 40
0.0514568076
 40
0.0661607506
 40
0.1011269587
 40
0.1436740227
 40
0.1937166912
 40
0.2510448129
 40
0.3152620381
 40
0.3858210086
 40
0.4621472891
 40
0.5435999608
 40
0.629445608
 40
0.811230427
 40
1.0
 40
1.0
 40
1.0
 40
1.0
 10
4.3054482292
 20
7.098236802
 30
0.0
 10
4.3055145873
 20
7.0982368105
 30
0.0
 10
4.3056525277
 20
7.0982567269
 30
0.0
 10
4.3058532407
 20
7.0983434062
 30
0.0
 10
4.3060501609
 20
7.0984843752
 30
0.0
 10
4.3062437756
 20
7.0986782553
 30
0.0
 10
4.3064346287
 20
7.0989246033
 30
0.0
 10
4.3067008735
 20
7.0993478692
 30
0.0
 10
4.3070169514
 20
7.1000144087
 30
0.0
 10
4.3073638491
 20
7.1009716072
 30
0.0
 10
4.3076938747
 20
7.1021216373
 30
0.0
 10
4.3080031837
 20
7.1034551813
 30
0.0
 10
4.3082888438
 20
7.1049608008
 30
0.0
 10
4.30854839
 20
7.1066245868
 30
0.0
 10
4.308778813
 20
7.1084312792
 30
0.0
 10
4.3089776992
 20
7.1103642864
 30
0.0
 10
4.3092030047
 20
7.1131394689
 30
0.0
 10
4.3093883646
 20
7.1167756739
 30
0.0
 10
4.3094379401
 20
7.1197312589
 30
0.0
 10
4.3094379401
 20
7.1212368012
 30
0.0
  0
SPLINE
  5
306
100
AcDbEntity
  8
0
100
AcDbSpline
 62
7
  6
CONTINUOUS
 70
0
 71
3
 72
25
 73
21
 74
0
 42
0.0000001
 43
0.0000001
 44
0.0000000001
 40
0.0
 40
0.0
 40
0.0
 40
0.0
 40
0.0076372809
 40
0.0161058331
 40
0.025942127
 40
0.037483542
 40
0.050930889
 40
0.0663888785
 40
0.0838952916
 40
0.1034563472
 40
0.1486736664
 40
0.2017966385
 40
0.2622946724
 40
0.3295324722
 40
0.4027777344
 40
0.4811086517
 40
0.5635652096
 40
0.6491355837
 40
0.8252964273
 40
1.0
 40
1.0
 40
1.0
 40
1.0
 10
4.3043946992
 20
7.281610291
 30
0.0
 10
4.3044711021
 20
7.2816103917
 30
0.0
 10
4.3046329952
 20
7.2816390284
 30
0.0
 10
4.3048663859
 20
7.2817585933
 30
0.0
 10
4.3050972977
 20
7.2819506107
 30
0.0
 10
4.3053270511
 20
7.2822138861
 30
0.0
 10
4.3055561267
 20
7.2825482421
 30
0.0
 10
4.3057843153
 20
7.2829531047
 30
0.0
 10
4.3060112907
 20
7.2834273564
 30
0.0
 10
4.3063267538
 20
7.2841880089
 30
0.0
 10
4.30670548
 20
7.2853062982
 30
0.0
 10
4.3071252079
 20
7.2868394676
 30
0.0
 10
4.3075244826
 20
7.2886046817
 30
0.0
 10
4.3078977322
 20
7.2905806873
 30
0.0
 10
4.3082394672
 20
7.2927431348
 30
0.0
 10
4.3085459918
 20
7.2950644575
 30
0.0
 10
4.3088127322
 20
7.2975147353
 30
0.0
 10
4.3091134151
 20
7.3009450317
 30
0.0
 10
4.3093654698
 20
7.3053049176
 30
0.0
 10
4.3094379401
 20
7.3088152065
 30
0.0
 10
4.3094379401
 20
7.3105629327
 30
0.0
  0
SPLINE
  5
307
100
AcDbEntity
  8
0
100
AcDbSpline
 62
7
  6
CONTINUOUS
 70
0
 71
3
 72
26
 73
22
 74
0
 42
0.0000001
 43
0.0000001
 44
0.0000000001
 40
0.0
 40
0.0
 40
0.0
 40
0.0
 40
0.0067911325
 40
0.0147765402
 40
0.0245624292
 40
0.0364674189
 40
0.0506286838
 40
0.0670913807
 40
0.0858576778
 40
0.106906197
 40
0.1556403353
 40
0.2126549848
 40
0.2771669451
 40
0.3482093749
 40
0.4246685538
 40
0.5053541095
 40
0.5889063292
 40
0.6739331333
 40
0.8427516168
 40
0.9236235099
 40
1.0
 40
1.0
 40
1.0
 40
1.0
 10
4.3034048557
 20
7.4524871576
 30
0.0
 10
4.3034854724
 20
7.4524872435
 30
0.0
 10
4.3036615427
 20
7.4525278237
 30
0.0
 10
4.303909916
 20
7.4526869492
 30
0.0
 10
4.3041593177
 20
7.4529383244
 30
0.0
 10
4.3044117588
 20
7.453282247
 30
0.0
 10
4.3046680139
 20
7.4537179291
 30
0.0
 10
4.3049273149
 20
7.454244219
 30
0.0
 10
4.3051886666
 20
7.4548593344
 30
0.0
 10
4.3055563943
 20
7.4558443568
 30
0.0
 10
4.3060040783
 20
7.4572825316
 30
0.0
 10
4.3065108485
 20
7.4592396234
 30
0.0
 10
4.3069998486
 20
7.4614731518
 30
0.0
 10
4.3074632457
 20
7.4639472262
 30
0.0
 10
4.3078933122
 20
7.4666219248
 30
0.0
 10
4.3082820601
 20
7.4694528631
 30
0.0
 10
4.3086238858
 20
7.4723922647
 30
0.0
 10
4.3090070898
 20
7.4763792701
 30
0.0
 10
4.3092738613
 20
7.4803449843
 30
0.0
 10
4.3094127556
 20
7.4842134087
 30
0.0
 10
4.3094379401
 20
7.4860801445
 30
0.0
 10
4.3094379401
 20
7.4869868012
 30
0.0
  0
SPLINE
  5
308
100
AcDbEntity
  8
0
100
AcDbSpline
 62
7
  6
CONTINUOUS
 70
0
 71
3
 72
28
 73
24
 74
0
 42
0.0000001
 43
0.0000001
 44
0.0000000001
 40
0.0
 40
0.0
 40
0.0
 40
0.0
 40
0.012990367
 40
0.0176115884
 40
0.0228683726
 40
0.0353528279
 40
0.0505139414
 40
0.0683467472
 40
0.0888131631
 40
0.1118301776
 40
0.1372857165
 40
0.1650613335
 40
0.2270624418
 40
0.2966167824
 40
0.3723467363
 40
0.4527332328
 40
0.5361213337
 40
0.6207791302
 40
0.7048715028
 40
0.7865861925
 40
0.8641788681
 40
0.9359068709
 40
1.0
 40
1.0
 40
1.0
 40
1.0
 10
4.302548515
 20
7.5992227728
 30
0.0
 10
4.3027231532
 20
7.5992227138
 30
0.0
 10
4.3029415832
 20
7.5993866476
 30
0.0
 10
4.3031405507
 20
7.5996148314
 30
0.0
 10
4.3033200406
 20
7.5998579375
 30
0.0
 10
4.3035452797
 20
7.6002388481
 30
0.0
 10
4.3038134418
 20
7.6007890241
 30
0.0
 10
4.3040899792
 20
7.6014526508
 30
0.0
 10
4.3043735418
 20
7.602226893
 30
0.0
 10
4.3046624504
 20
7.6031076463
 30
0.0
 10
4.304955237
 20
7.6040901099
 30
0.0
 10
4.3053636957
 20
7.6055845479
 30
0.0
 10
4.3058662695
 20
7.6076672366
 30
0.0
 10
4.306440706
 20
7.6103943578
 30
0.0
 10
4.3069936565
 20
7.6133776577
 30
0.0
 10
4.3075136383
 20
7.6165554264
 30
0.0
 10
4.3079898279
 20
7.6198613445
 30
0.0
 10
4.3084118538
 20
7.6232248167
 30
0.0
 10
4.3087713841
 20
7.6265729216
 30
0.0
 10
4.3090601661
 20
7.6298325357
 30
0.0
 10
4.3092726375
 20
7.63293147
 30
0.0
 10
4.3094034446
 20
7.6357977977
 30
0.0
 10
4.3094379401
 20
7.6376237647
 30
0.0
 10
4.3094379401
 20
7.6384854117
 30
0.0
  0
SPLINE
  5
309
100
AcDbEntity
  8
0
100
AcDbSpline
 62
7
  6
CONTINUOUS
 70
0
 71
3
 72
32
 73
28
 74
0
 42
0.0000001
 43
0.0000001
 44
0.0000000001
 40
0.0
 40
0.0
 40
0.0
 40
0.0
 40
0.0045320475
 40
0.0077071285
 40
0.0116193105
 40
0.0163086192
 40
0.0217926976
 40
0.0280779008
 40
0.0351644061
 40
0.0517240148
 40
0.0714124026
 40
0.0941018567
 40
0.11964184
 40
0.14787688
 40
0.1786370868
 40
0.2468974788
 40
0.3227009616
 40
0.4041362741
 40
0.4891468923
 40
0.5755639855
 40
0.6611440648
 40
0.7436202299
 40
0.820739431
 40
0.8904406738
 40
0.9507841082
 40
0.9768895098
 40
1.0
 40
1.0
 40
1.0
 40
1.0
 10
4.3018871815
 20
7.7118158576
 30
0.0
 10
4.3019534747
 20
7.7118158149
 30
0.0
 10
4.302061627
 20
7.7118760674
 30
0.0
 10
4.3021797406
 20
7.7119958024
 30
0.0
 10
4.3022851737
 20
7.7121333323
 30
0.0
 10
4.302394922
 20
7.712307653
 30
0.0
 10
4.3025101357
 20
7.7125192692
 30
0.0
 10
4.3026301616
 20
7.7127676637
 30
0.0
 10
4.3028057345
 20
7.7131688399
 30
0.0
 10
4.3030327029
 20
7.7137610169
 30
0.0
 10
4.3033088031
 20
7.7145778697
 30
0.0
 10
4.3035989334
 20
7.7155281636
 30
0.0
 10
4.3039009559
 20
7.7166051877
 30
0.0
 10
4.3042126183
 20
7.7178018821
 30
0.0
 10
4.3046534312
 20
7.719610446
 30
0.0
 10
4.3052085366
 20
7.7221070084
 30
0.0
 10
4.305858351
 20
7.7253410674
 30
0.0
 10
4.3064962157
 20
7.7288268873
 30
0.0
 10
4.307105486
 20
7.7324752906
 30
0.0
 10
4.3076708969
 20
7.7361920795
 30
0.0
 10
4.3081776149
 20
7.739879908
 30
0.0
 10
4.3086130599
 20
7.7434398548
 30
0.0
 10
4.3089657762
 20
7.7467755094
 30
0.0
 10
4.3092270069
 20
7.7497947376
 30
0.0
 10
4.309369374
 20
7.7520747806
 30
0.0
 10
4.309427213
 20
7.7536764102
 30
0.0
 10
4.3094379401
 20
7.754396332
 30
0.0
 10
4.3094379401
 20
7.7547343841
 30
0.0
  0
SPLINE
  5
30A
100
AcDbEntity
  8
0
100
AcDbSpline
 62
7
  6
CONTINUOUS
 70
0
 71
3
 72
36
 73
32
 74
0
 42
0.0000001
 43
0.0000001
 44
0.0000000001
 40
0.0
 40
0.0
 40
0.0
 40
0.0
 40
0.0012601273
 40
0.0021678095
 40
0.0032985427
 40
0.0062701892
 40
0.010218097
 40
0.0151500567
 40
0.0210634581
 40
0.0358035933
 40
0.0543460131
 40
0.0765176428
 40
0.1021239644
 40
0.1309661574
 40
0.1628066934
 40
0.1973723038
 40
0.2343878619
 40
0.2735698571
 40
0.3571647468
 40
0.4455674853
 40
0.5360501106
 40
0.625810002
 40
0.7120236504
 40
0.7919174084
 40
0.8628508962
 40
0.8942009215
 40
0.9224578065
 40
0.9473661377
 40
0.9687075032
 40
0.9863075513
 40
1.0
 40
1.0
 40
1.0
 40
1.0
 10
4.3014697474
 20
7.7825958388
 30
0.0
 10
4.3014890802
 20
7.7825955956
 30
0.0
 10
4.3015208154
 20
7.7826142298
 30
0.0
 10
4.3015554592
 20
7.7826502215
 30
0.0
 10
4.3016019776
 20
7.7827120023
 30
0.0
 10
4.3016624543
 20
7.7828198976
 30
0.0
 10
4.3017385733
 20
7.782985183
 30
0.0
 10
4.3018224272
 20
7.7831961724
 30
0.0
 10
4.3019544265
 20
7.7835659375
 30
0.0
 10
4.3021337725
 20
7.7841401659
 30
0.0
 10
4.3023637666
 20
7.7849593858
 30
0.0
 10
4.3026189081
 20
7.7859445072
 30
0.0
 10
4.3028967763
 20
7.7870868234
 30
0.0
 10
4.3031946038
 20
7.7883768647
 30
0.0
 10
4.3035098006
 20
7.7898039001
 30
0.0
 10
4.3038397178
 20
7.7913560573
 30
0.0
 10
4.3041815385
 20
7.7930207986
 30
0.0
 10
4.3046596877
 20
7.7954254586
 30
0.0
 10
4.3052647445
 20
7.7986086981
 30
0.0
 10
4.3059786393
 20
7.8025722558
 30
0.0
 10
4.3066734336
 20
7.8066352032
 30
0.0
 10
4.307327473
 20
7.8106708853
 30
0.0
 10
4.307921134
 20
7.8145516174
 30
0.0
 10
4.3084357695
 20
7.8181520433
 30
0.0
 10
4.3087998195
 20
7.8209235099
 30
0.0
 10
4.3090371773
 20
7.8229123227
 30
0.0
 10
4.3091790158
 20
7.8242012994
 30
0.0
 10
4.3092909685
 20
7.825338999
 30
0.0
 10
4.3093722753
 20
7.8263153427
 30
0.0
 10
4.3094225705
 20
7.8271213816
 30
0.0
 10
4.3094379401
 20
7.8276014574
 30
0.0
 10
4.3094379401
 20
7.8278115432
 30
0.0
  0
LINE
  5
30B
100
AcDbEntity
  8
0
100
AcDbLine
 62
7
  6
CONTINUOUS
 10
4.3093039321
 20
6.4138789496
 11
4.3094379401
 21
6.4146620593
  0
SPLINE
  5
30C
100
AcDbEntity
  8
0
100
AcDbSpline
 62
7
  6
CONTINUOUS
 70
0
 71
3
 72
18
 73
14
 74
0
 42
0.0000001
 43
0.0000001
 44
0.0000000001
 40
0.0
 40
0.0
 40
0.0
 40
0.0
 40
0.0197181756
 40
0.0411813187
 40
0.0666600064
 40
0.0975548801
 40
0.134660858
 40
0.1784380774
 40
0.2869281744
 40
0.4237448534
 40
0.5885940468
 40
0.7809099239
 40
1.0
 40
1.0
 40
1.0
 40
1.0
 10
4.3089106047
 20
6.4846578668
 30
0.0
 10
4.3089318439
 20
6.4846578817
 30
0.0
 10
4.3089766647
 20
6.4846668842
 30
0.0
 10
4.3090376591
 20
6.484707155
 30
0.0
 10
4.3090927783
 20
6.4847712556
 30
0.0
 10
4.3091433651
 20
6.4848587517
 30
0.0
 10
4.3091899803
 20
6.4849700068
 30
0.0
 10
4.3092513665
 20
6.4851647426
 30
0.0
 10
4.3093136957
 20
6.4854705066
 30
0.0
 10
4.3093694184
 20
6.4859089375
 30
0.0
 10
4.3094093797
 20
6.4864397209
 30
0.0
 10
4.3094332909
 20
6.4870600539
 30
0.0
 10
4.3094379401
 20
6.4875032277
 30
0.0
 10
4.3094379401
 20
6.4877392184
 30
0.0
  0
SPLINE
  5
30D
100
AcDbEntity
  8
0
100
AcDbSpline
 62
7
  6
CONTINUOUS
 70
0
 71
3
 72
19
 73
15
 74
0
 42
0.0000001
 43
0.0000001
 44
0.0000000001
 40
0.0
 40
0.0
 40
0.0
 40
0.0
 40
0.0193172263
 40
0.0406880785
 40
0.0664079997
 40
0.0978421708
 40
0.135693901
 40
0.180303514
 40
0.2318370998
 40
0.2903667678
 40
0.4284348881
 40
0.5939597854
 40
0.7851630812
 40
1.0
 40
1.0
 40
1.0
 40
1.0
 10
4.3082821738
 20
6.5972524924
 30
0.0
 10
4.3083276059
 20
6.5972525033
 30
0.0
 10
4.3084242931
 20
6.5972730515
 30
0.0
 10
4.3085551813
 20
6.5973633489
 30
0.0
 10
4.3086741322
 20
6.597506525
 30
0.0
 10
4.3087839486
 20
6.5977020298
 30
0.0
 10
4.3088857355
 20
6.5979502987
 30
0.0
 10
4.308979638
 20
6.5982514222
 30
0.0
 10
4.309065486
 20
6.5986051158
 30
0.0
 10
4.3091749031
 20
6.5991785308
 30
0.0
 10
4.3092836335
 20
6.6000239304
 30
0.0
 10
4.3093733107
 20
6.6011844605
 30
0.0
 10
4.3094271733
 20
6.6025278934
 30
0.0
 10
4.3094379401
 20
6.6034829163
 30
0.0
 10
4.3094379401
 20
6.6039881908
 30
0.0
  0
SPLINE
  5
30E
100
AcDbEntity
  8
0
100
AcDbSpline
 62
7
  6
CONTINUOUS
 70
0
 71
3
 72
20
 73
16
 74
0
 42
0.0000001
 43
0.0000001
 44
0.0000000001
 40
0.0
 40
0.0
 40
0.0
 40
0.0
 40
0.0093007304
 40
0.0188490995
 40
0.0401506177
 40
0.0663419727
 40
0.098625867
 40
0.1375733491
 40
0.1834492207
 40
0.2363616603
 40
0.2962704069
 40
0.436419177
 40
0.6023622446
 40
0.7915014661
 40
1.0
 40
1.0
 40
1.0
 40
1.0
 10
4.3074587144
 20
6.7439871588
 30
0.0
 10
4.3074959955
 20
6.7439871138
 30
0.0
 10
4.3075718232
 20
6.7439953147
 30
0.0
 10
4.3077253427
 20
6.7440473408
 30
0.0
 10
4.307913268
 20
6.7441860985
 30
0.0
 10
4.3081114526
 20
6.7444396249
 30
0.0
 10
4.3082974693
 20
6.7447844311
 30
0.0
 10
4.3084713941
 20
6.7452211809
 30
0.0
 10
4.3086331695
 20
6.7457495201
 30
0.0
 10
4.3087818258
 20
6.7463683408
 30
0.0
 10
4.3089716721
 20
6.747364709
 30
0.0
 10
4.3091626741
 20
6.7488204111
 30
0.0
 10
4.3093221774
 20
6.7507995864
 30
0.0
 10
4.3094180408
 20
6.7530570568
 30
0.0
 10
4.3094379401
 20
6.7546510536
 30
0.0
 10
4.3094379401
 20
6.7554868012
 30
0.0
  0
SPLINE
  5
30F
100
AcDbEntity
  8
0
100
AcDbSpline
 62
7
  6
CONTINUOUS
 70
0
 71
3
 72
22
 73
18
 74
0
 42
0.0000001
 43
0.0000001
 44
0.0000000001
 40
0.0
 40
0.0
 40
0.0
 40
0.0
 40
0.0088670434
 40
0.0181216425
 40
0.0281999285
 40
0.0394345287
 40
0.0661998015
 40
0.0995834018
 40
0.1400777798
 40
0.1878066093
 40
0.2426480721
 40
0.304398332
 40
0.3728058498
 40
0.4475119957
 40
0.6140465349
 40
0.8000911523
 40
1.0
 40
1.0
 40
1.0
 40
1.0
 10
4.3064929444
 20
6.9148636781
 30
0.0
 10
4.3065455133
 20
6.9148636084
 30
0.0
 10
4.3066534093
 20
6.9148767285
 30
0.0
 10
4.3068110907
 20
6.9149362
 30
0.0
 10
4.3069648654
 20
6.9150340839
 30
0.0
 10
4.3071771691
 20
6.9152258119
 30
0.0
 10
4.3074292908
 20
6.9155702791
 30
0.0
 10
4.3077014127
 20
6.9161026066
 30
0.0
 10
4.3079590416
 20
6.9167771405
 30
0.0
 10
4.3082006806
 20
6.9175907151
 30
0.0
 10
4.3084251614
 20
6.9185391054
 30
0.0
 10
4.3086306787
 20
6.9196167421
 30
0.0
 10
4.3088154729
 20
6.9208173728
 30
0.0
 10
4.3090407587
 20
6.922639483
 30
0.0
 10
4.3092547016
 20
6.9251645808
 30
0.0
 10
4.3094054382
 20
6.9284371478
 30
0.0
 10
4.3094379401
 20
6.9307254941
 30
0.0
 10
4.3094379401
 20
6.9319106697
 30
0.0
  0
SPLINE
  5
310
100
AcDbEntity
  8
0
100
AcDbSpline
 62
7
  6
CONTINUOUS
 70
0
 71
3
 72
20
 73
16
 74
0
 42
0.0000001
 43
0.0000001
 44
0.0000000001
 40
0.0
 40
0.0
 40
0.0
 40
0.0
 40
0.0117948186
 40
0.0195625799
 40
0.0288953614
 40
0.0526983079
 40
0.0837431164
 40
0.1221919859
 40
0.1680166716
 40
0.2211229606
 40
0.2813899744
 40
0.42285078
 40
0.5910816318
 40
0.7841565487
 40
1.0
 40
1.0
 40
1.0
 40
1.0
 10
4.2500785995
 20
7.611352161
 30
0.0
 10
4.2500474408
 20
7.6113521074
 30
0.0
 10
4.2499967651
 20
7.6113293236
 30
0.0
 10
4.2499390514
 20
7.611279978
 30
0.0
 10
4.2498665877
 20
7.6111991643
 30
0.0
 10
4.2497735428
 20
7.611056755
 30
0.0
 10
4.2496595612
 20
7.6108380247
 30
0.0
 10
4.2495367527
 20
7.6105590519
 30
0.0
 10
4.2494052278
 20
7.6102207259
 30
0.0
 10
4.2492655373
 20
7.6098239825
 30
0.0
 10
4.249057645
 20
7.60918363
 30
0.0
 10
4.2487838101
 20
7.6082452402
 30
0.0
 10
4.2484441456
 20
7.6069611477
 30
0.0
 10
4.2480817499
 20
7.6054800934
 30
0.0
 10
4.2478401607
 20
7.6044271663
 30
0.0
 10
4.2477157767
 20
7.603870697
 30
0.0
  0
SPLINE
  5
311
100
AcDbEntity
  8
0
100
AcDbSpline
 62
7
  6
CONTINUOUS
 70
0
 71
3
 72
15
 73
11
 74
0
 42
0.0000001
 43
0.0000001
 44
0.0000000001
 40
0.0
 40
0.0
 40
0.0
 40
0.0
 40
0.1118488926
 40
0.2373134919
 40
0.3717433637
 40
0.510145161
 40
0.6473368218
 40
0.778078139
 40
0.8972060695
 40
1.0
 40
1.0
 40
1.0
 40
1.0
 10
4.2477157767
 20
7.603870697
 30
0.0
 10
4.2474471163
 20
7.602668764
 30
0.0
 10
4.2469072781
 20
7.6001118223
 30
0.0
 10
4.2461265258
 20
7.5960934977
 30
0.0
 10
4.2453488272
 20
7.5917771408
 30
0.0
 10
4.2446041109
 20
7.587324008
 30
0.0
 10
4.2439219538
 20
7.582901948
 30
0.0
 10
4.2433306442
 20
7.5786809754
 30
0.0
 10
4.2428554719
 20
7.5748267373
 30
0.0
 10
4.2426078475
 20
7.5723953246
 30
0.0
 10
4.2425127639
 20
7.5712674386
 30
0.0
  0
LINE
  5
312
100
AcDbEntity
  8
0
100
AcDbLine
 62
7
  6
CONTINUOUS
 10
4.2425127639
 20
7.5712674386
 11
4.2423084086
 21
7.5673684335
  0
SPLINE
  5
313
100
AcDbEntity
  8
0
100
AcDbSpline
 62
7
  6
CONTINUOUS
 70
0
 71
3
 72
49
 73
45
 74
0
 42
0.0000001
 43
0.0000001
 44
0.0000000001
 40
0.0
 40
0.0
 40
0.0
 40
0.0
 40
0.0000738815
 40
0.0002085895
 40
0.0006877737
 40
0.0014553529
 40
0.0025132302
 40
0.0038615746
 40
0.0055000501
 40
0.0074281206
 40
0.0096451546
 40
0.0149433406
 40
0.0213876616
 40
0.0289594332
 40
0.0376335288
 40
0.047384698
 40
0.0581876567
 40
0.0700171008
 40
0.0828476594
 40
0.1113834022
 40
0.1434923148
 40
0.1788600104
 40
0.2171634822
 40
0.2580326436
 40
0.3010813513
 40
0.3459221051
 40
0.3921487579
 40
0.4870800108
 40
0.5825033596
 40
0.6750234742
 40
0.7613235001
 40
0.8011331643
 40
0.8382142018
 40
0.8722172386
 40
0.9027946028
 40
0.9296431916
 40
0.9525119676
 40
0.971153233
 40
0.9788189241
 40
0.9853591861
 40
0.9907603798
 40
0.9950091012
 40
0.9980925439
 40
1.0
 40
1.0
 40
1.0
 40
1.0
 10
4.2504134426
 20
7.6554529381
 30
0.0
 10
4.2504122949
 20
7.6554528724
 30
0.0
 10
4.2504096096
 20
7.6554504067
 30
0.0
 10
4.2504043537
 20
7.655441392
 30
0.0
 10
4.2503965424
 20
7.6554209839
 30
0.0
 10
4.250385912
 20
7.6553869187
 30
0.0
 10
4.2503728492
 20
7.6553392052
 30
0.0
 10
4.2503574903
 20
7.6552782028
 30
0.0
 10
4.2503398432
 20
7.6552037793
 30
0.0
 10
4.2503199385
 20
7.6551160201
 30
0.0
 10
4.2502884932
 20
7.6549724866
 30
0.0
 10
4.2502438764
 20
7.6547599091
 30
0.0
 10
4.2501842356
 20
7.65446536
 30
0.0
 10
4.2501159173
 20
7.6541189788
 30
0.0
 10
4.2500391039
 20
7.6537218315
 30
0.0
 10
4.2499540053
 20
7.6532750806
 30
0.0
 10
4.2498608229
 20
7.6527798918
 30
0.0
 10
4.2497597562
 20
7.6522374322
 30
0.0
 10
4.2496093675
 20
7.6514234975
 30
0.0
 10
4.2494037804
 20
7.6502988792
 30
0.0
 10
4.2491376203
 20
7.6488288537
 30
0.0
 10
4.2488464012
 20
7.6472089125
 30
0.0
 10
4.2485326915
 20
7.6454545232
 30
0.0
 10
4.2481992414
 20
7.6435822542
 30
0.0
 10
4.2478489772
 20
7.6416096612
 30
0.0
 10
4.2474849091
 20
7.6395548544
 30
0.0
 10
4.2469808297
 20
7.6367050032
 30
0.0
 10
4.246340909
 20
7.6330799112
 30
0.0
 10
4.2455771066
 20
7.6287452372
 30
0.0
 10
4.244838321
 20
7.624542524
 30
0.0
 10
4.2442515677
 20
7.6211916876
 30
0.0
 10
4.2438160177
 20
7.6186901181
 30
0.0
 10
4.2435215066
 20
7.6169899614
 30
0.0
 10
4.243253319
 20
7.6154310371
 30
0.0
 10
4.2430143615
 20
7.6140286389
 30
0.0
 10
4.2428072147
 20
7.6127965653
 30
0.0
 10
4.2426341418
 20
7.6117470981
 30
0.0
 10
4.2425130861
 20
7.6109915664
 30
0.0
 10
4.2424353983
 20
7.6104864119
 30
0.0
 10
4.242390629
 20
7.6101846259
 30
0.0
 10
4.2423555908
 20
7.6099351698
 30
0.0
 10
4.2423300733
 20
7.6097386526
 30
0.0
 10
4.2423146048
 20
7.609595779
 30
0.0
 10
4.2423084086
 20
7.60951824
 30
0.0
 10
4.2423084086
 20
7.6094885605
 30
0.0
  0
SPLINE
  5
314
100
AcDbEntity
  8
0
100
AcDbSpline
 62
7
  6
CONTINUOUS
 70
0
 71
3
 72
27
 73
23
 74
0
 42
0.0000001
 43
0.0000001
 44
0.0000000001
 40
0.0
 40
0.0
 40
0.0
 40
0.0
 40
0.174684225
 40
0.3508181943
 40
0.4363768218
 40
0.5188264909
 40
0.5971598269
 40
0.6704196546
 40
0.737688157
 40
0.7982346815
 40
0.8514170574
 40
0.8750707916
 40
0.8967067545
 40
0.9162980766
 40
0.933829162
 40
0.9493023176
 40
0.9562774526
 40
0.9627552578
 40
0.974280059
 40
0.9840748977
 40
0.9924700666
 40
1.0
 40
1.0
 40
1.0
 40
1.0
 10
4.301326899
 20
6.9438163458
 30
0.0
 10
4.301326899
 20
6.9420680189
 30
0.0
 10
4.3014043637
 20
6.9385565614
 30
0.0
 10
4.3016727536
 20
6.9341961262
 30
0.0
 10
4.3019910005
 20
6.9307662837
 30
0.0
 10
4.3022721138
 20
6.9283166374
 30
0.0
 10
4.3025935728
 20
6.9259961479
 30
0.0
 10
4.3029500505
 20
6.9238345944
 30
0.0
 10
4.3033370329
 20
6.9218593154
 30
0.0
 10
4.3037485002
 20
6.9200947355
 30
0.0
 10
4.3041195104
 20
6.9187700056
 30
0.0
 10
4.3044289393
 20
6.9178341067
 30
0.0
 10
4.3046545245
 20
6.9172250195
 30
0.0
 10
4.3048819767
 20
6.9166824646
 30
0.0
 10
4.3051105755
 20
6.9162079932
 30
0.0
 10
4.3053076879
 20
6.9158592815
 30
0.0
 10
4.3054667507
 20
6.9156172448
 30
0.0
 10
4.3056145124
 20
6.9154155166
 30
0.0
 10
4.3057975175
 20
6.9152048464
 30
0.0
 10
4.3060266361
 20
6.9150126085
 30
0.0
 10
4.3062574508
 20
6.9148926992
 30
0.0
 10
4.3064175811
 20
6.914863778
 30
0.0
 10
4.3064929444
 20
6.9148636781
 30
0.0
  0
SPLINE
  5
315
100
AcDbEntity
  8
0
100
AcDbSpline
 62
7
  6
CONTINUOUS
 70
0
 71
3
 72
12
 73
8
 74
0
 42
0.0000001
 43
0.0000001
 44
0.0000000001
 40
0.0
 40
0.0
 40
0.0
 40
0.0
 40
0.117031293
 40
0.2409081638
 40
0.4995492277
 40
0.7581721094
 40
1.0
 40
1.0
 40
1.0
 40
1.0
 10
4.301326899
 20
6.7784868012
 30
0.0
 10
4.301326899
 20
6.7775896069
 30
0.0
 10
4.3013532625
 20
6.7757426777
 30
0.0
 10
4.3014983467
 20
6.7719154891
 30
0.0
 10
4.3018460608
 20
6.7670110374
 30
0.0
 10
4.3024843201
 20
6.7612254667
 30
0.0
 10
4.3030588227
 20
6.757430549
 30
0.0
 10
4.3033837206
 20
6.7556053203
 30
0.0
  0
SPLINE
  5
316
100
AcDbEntity
  8
0
100
AcDbSpline
 62
7
  6
CONTINUOUS
 70
0
 71
3
 72
19
 73
15
 74
0
 42
0.0000001
 43
0.0000001
 44
0.0000000001
 40
0.0
 40
0.0
 40
0.0
 40
0.0
 40
0.2041940402
 40
0.3898096156
 40
0.5539728911
 40
0.6943348729
 40
0.7549416946
 40
0.8089443997
 40
0.8562637075
 40
0.8968840927
 40
0.9309077759
 40
0.9586987781
 40
0.9811456892
 40
1.0
 40
1.0
 40
1.0
 40
1.0
 10
4.3033837206
 20
6.7556053203
 30
0.0
 10
4.3035341028
 20
6.7547604949
 30
0.0
 10
4.3038407767
 20
6.7531510919
 30
0.0
 10
4.3043437339
 20
6.7508776164
 30
0.0
 10
4.3048615511
 20
6.7488835178
 30
0.0
 10
4.3053158774
 20
6.7474168693
 30
0.0
 10
4.3056868283
 20
6.7464113693
 30
0.0
 10
4.3059494161
 20
6.7457833096
 30
0.0
 10
4.3062089132
 20
6.7452458002
 30
0.0
 10
4.3064643035
 20
6.7448007705
 30
0.0
 10
4.3067147711
 20
6.7444494496
 30
0.0
 10
4.3069610897
 20
6.7441926193
 30
0.0
 10
4.3072053719
 20
6.7440294821
 30
0.0
 10
4.307379481
 20
6.7439872544
 30
0.0
 10
4.3074587144
 20
6.7439871588
 30
0.0
  0
SPLINE
  5
317
100
AcDbEntity
  8
0
100
AcDbSpline
 62
7
  6
CONTINUOUS
 70
0
 71
3
 72
15
 73
11
 74
0
 42
0.0000001
 43
0.0000001
 44
0.0000000001
 40
0.0
 40
0.0
 40
0.0
 40
0.0
 40
0.1025910213
 40
0.2178998206
 40
0.3427598824
 40
0.4740597017
 40
0.6086607526
 40
0.7433030509
 40
0.874755561
 40
1.0
 40
1.0
 40
1.0
 40
1.0
 10
4.301326899
 20
6.6365151027
 30
0.0
 10
4.301326899
 20
6.6355991534
 30
0.0
 10
4.3013684949
 20
6.6336536728
 30
0.0
 10
4.3015244991
 20
6.6305971199
 30
0.0
 10
4.3017765946
 20
6.6272898682
 30
0.0
 10
4.3021164083
 20
6.6238174396
 30
0.0
 10
4.3025353329
 20
6.6202657247
 30
0.0
 10
4.3030211269
 20
6.616721165
 30
0.0
 10
4.3035618384
 20
6.61326911
 30
0.0
 10
4.3039617303
 20
6.6110122249
 30
0.0
 10
4.3041696664
 20
6.6099135257
 30
0.0
  0
SPLINE
  5
318
100
AcDbEntity
  8
0
100
AcDbSpline
 62
7
  6
CONTINUOUS
 70
0
 71
3
 72
19
 73
15
 74
0
 42
0.0000001
 43
0.0000001
 44
0.0000000001
 40
0.0
 40
0.0
 40
0.0
 40
0.0
 40
0.2054453397
 40
0.3930774179
 40
0.5595060992
 40
0.7019016902
 40
0.7633295632
 40
0.8178718866
 40
0.8653661314
 40
0.9057289296
 40
0.9389603666
 40
0.9529553475
 40
0.9652634003
 40
1.0
 40
1.0
 40
1.0
 40
1.0
 10
4.3041696664
 20
6.6099135257
 30
0.0
 10
4.304341928
 20
6.6090033245
 30
0.0
 10
4.3046884322
 20
6.6072649748
 30
0.0
 10
4.305238322
 20
6.6048025168
 30
0.0
 10
4.3057880394
 20
6.6026322064
 30
0.0
 10
4.3062567498
 20
6.6010291989
 30
0.0
 10
4.3066296475
 20
6.5999253428
 30
0.0
 10
4.3068891275
 20
6.5992352563
 30
0.0
 10
4.3071408682
 20
6.5986443571
 30
0.0
 10
4.3073840083
 20
6.5981548534
 30
0.0
 10
4.3075875982
 20
6.5978162079
 30
0.0
 10
4.3077494329
 20
6.5976003346
 30
0.0
 10
4.3079291634
 20
6.5973973002
 30
0.0
 10
4.3081255455
 20
6.5972524549
 30
0.0
 10
4.3082821738
 20
6.5972524924
 30
0.0
  0
SPLINE
  5
319
100
AcDbEntity
  8
0
100
AcDbSpline
 62
7
  6
CONTINUOUS
 70
0
 71
3
 72
17
 73
13
 74
0
 42
0.0000001
 43
0.0000001
 44
0.0000000001
 40
0.0
 40
0.0
 40
0.0
 40
0.0
 40
0.0395352411
 40
0.0857035462
 40
0.1378450315
 40
0.1952657213
 40
0.3229211422
 40
0.4623115016
 40
0.6065018796
 40
0.7485602428
 40
0.88180647
 40
1.0
 40
1.0
 40
1.0
 40
1.0
 10
4.301326899
 20
6.5275763869
 30
0.0
 10
4.301326899
 20
6.5271060667
 30
0.0
 10
4.3013491042
 20
6.5260865184
 30
0.0
 10
4.3014299779
 20
6.524448555
 30
0.0
 10
4.3015609266
 20
6.5226004577
 30
0.0
 10
4.3018095129
 20
6.5197893273
 30
0.0
 10
4.3022338217
 20
6.5159523275
 30
0.0
 10
4.3028765144
 20
6.511102274
 30
0.0
 10
4.3036362434
 20
6.506095805
 30
0.0
 10
4.3044735111
 20
6.5011758408
 30
0.0
 10
4.3053464648
 20
6.4965765395
 30
0.0
 10
4.305969761
 20
6.4936505773
 30
0.0
 10
4.3062852951
 20
6.4922803821
 30
0.0
  0
SPLINE
  5
31A
100
AcDbEntity
  8
0
100
AcDbSpline
 62
7
  6
CONTINUOUS
 70
0
 71
3
 72
20
 73
16
 74
0
 42
0.0000001
 43
0.0000001
 44
0.0000000001
 40
0.0
 40
0.0
 40
0.0
 40
0.0
 40
0.2136205033
 40
0.4048611311
 40
0.5718004357
 40
0.7126671367
 40
0.7728132339
 40
0.8259274335
 40
0.8719440542
 40
0.9108329559
 40
0.9426328163
 40
0.9675315218
 40
0.9775605939
 40
0.9861486845
 40
1.0
 40
1.0
 40
1.0
 40
1.0
 10
4.3062852951
 20
6.4922803821
 30
0.0
 10
4.3064158639
 20
6.4917133921
 30
0.0
 10
4.3066708551
 20
6.4906405202
 30
0.0
 10
4.3070583737
 20
6.4891319943
 30
0.0
 10
4.3074268723
 20
6.4878235384
 30
0.0
 10
4.3077280695
 20
6.4868673838
 30
0.0
 10
4.3079600851
 20
6.4862151919
 30
0.0
 10
4.3081176876
 20
6.4858109229
 30
0.0
 10
4.3082677
 20
6.4854661171
 30
0.0
 10
4.3084096245
 20
6.4851814262
 30
0.0
 10
4.3085431349
 20
6.4849576412
 30
0.0
 10
4.308653668
 20
6.4848123389
 30
0.0
 10
4.30874012
 20
6.4847305926
 30
0.0
 10
4.308812002
 20
6.4846793332
 30
0.0
 10
4.3088728784
 20
6.4846578404
 30
0.0
 10
4.3089106047
 20
6.4846578668
 30
0.0
  0
SPLINE
  5
31B
100
AcDbEntity
  8
0
100
AcDbSpline
 62
7
  6
CONTINUOUS
 70
0
 71
3
 72
17
 73
13
 74
0
 42
0.0000001
 43
0.0000001
 44
0.0000000001
 40
0.0
 40
0.0
 40
0.0
 40
0.0
 40
0.021046571
 40
0.0435425142
 40
0.0697063775
 40
0.1009985525
 40
0.1820085524
 40
0.2901142923
 40
0.4260975748
 40
0.5899632874
 40
0.7814121536
 40
1.0
 40
1.0
 40
1.0
 40
1.0
 10
4.2427643354
 20
6.6873537243
 30
0.0
 10
4.2427460171
 20
6.6873537363
 30
0.0
 10
4.2427077402
 20
6.6873467726
 30
0.0
 10
4.242654946
 20
6.6873148625
 30
0.0
 10
4.2426070413
 20
6.6872635439
 30
0.0
 10
4.2425430397
 20
6.6871608391
 30
0.0
 10
4.2424770436
 20
6.6869790918
 30
0.0
 10
4.2424158346
 20
6.6867026672
 30
0.0
 10
4.2423677243
 20
6.6863505002
 30
0.0
 10
4.2423330998
 20
6.6859241863
 30
0.0
 10
4.2423124239
 20
6.6854249976
 30
0.0
 10
4.2423084086
 20
6.685068091
 30
0.0
 10
4.2423084086
 20
6.6848778384
 30
0.0
  0
LINE
  5
31C
100
AcDbEntity
  8
0
100
AcDbLine
 62
7
  6
CONTINUOUS
 10
4.301326899
 20
6.4590946473
 11
4.3016823323
 21
6.4548073692
  0
SPLINE
  5
31D
100
AcDbEntity
  8
0
100
AcDbSpline
 62
7
  6
CONTINUOUS
 70
0
 71
3
 72
15
 73
11
 74
0
 42
0.0000001
 43
0.0000001
 44
0.0000000001
 40
0.0
 40
0.0
 40
0.0
 40
0.0
 40
0.0995148469
 40
0.2177100355
 40
0.3491677604
 40
0.488080306
 40
0.6284612305
 40
0.7643515798
 40
0.890002928
 40
1.0
 40
1.0
 40
1.0
 40
1.0
 10
4.3016823323
 20
6.4548073692
 30
0.0
 10
4.301816154
 20
6.453663668
 30
0.0
 10
4.3021412255
 20
6.4511653751
 30
0.0
 10
4.3027210001
 20
6.4471668366
 30
0.0
 10
4.303414868
 20
6.4427244582
 30
0.0
 10
4.3041905727
 20
6.4380352571
 30
0.0
 10
4.30501333
 20
6.4333020167
 30
0.0
 10
4.3058472426
 20
6.4287266131
 30
0.0
 10
4.3066565886
 20
6.4245042855
 30
0.0
 10
4.3072000305
 20
6.4218321506
 30
0.0
 10
4.3074646592
 20
6.4205871689
 30
0.0
  0
SPLINE
  5
31E
100
AcDbEntity
  8
0
100
AcDbSpline
 62
7
  6
CONTINUOUS
 70
0
 71
3
 72
19
 73
15
 74
0
 42
0.0000001
 43
0.0000001
 44
0.0000000001
 40
0.0
 40
0.0
 40
0.0
 40
0.0
 40
0.219863804
 40
0.415611883
 40
0.5854395072
 40
0.7276942144
 40
0.8408041774
 40
0.8860998777
 40
0.9237883909
 40
0.9538263146
 40
0.9762352944
 40
0.9846410718
 40
0.9912679074
 40
1.0
 40
1.0
 40
1.0
 40
1.0
 10
4.3074646592
 20
6.4205871689
 30
0.0
 10
4.3075712432
 20
6.42008573
 30
0.0
 10
4.3077761873
 20
6.4191385809
 30
0.0
 10
4.3080778442
 20
6.417807277
 30
0.0
 10
4.308353918
 20
6.4166557862
 30
0.0
 10
4.3086016773
 20
6.4156958089
 30
0.0
 10
4.3087937785
 20
6.4150214424
 30
0.0
 10
4.3089344569
 20
6.4145863396
 30
0.0
 10
4.3090232965
 20
6.4143381997
 30
0.0
 10
4.3091035273
 20
6.4141437594
 30
0.0
 10
4.3091667442
 20
6.4140167088
 30
0.0
 10
4.3092154233
 20
6.4139434517
 30
0.0
 10
4.309250447
 20
6.4139019034
 30
0.0
 10
4.3092835739
 20
6.4138786785
 30
0.0
 10
4.3093039321
 20
6.4138789496
 30
0.0
  0
SPLINE
  5
31F
100
AcDbEntity
  8
0
100
AcDbSpline
 62
7
  6
CONTINUOUS
 70
0
 71
3
 72
19
 73
15
 74
0
 42
0.0000001
 43
0.0000001
 44
0.0000000001
 40
0.0
 40
0.0
 40
0.0
 40
0.0
 40
0.0201384487
 40
0.042268183
 40
0.0686062642
 40
0.1005058214
 40
0.1387214312
 40
0.1836155164
 40
0.2353503111
 40
0.2939880547
 40
0.4319354864
 40
0.5969248798
 40
0.7870549128
 40
1.0
 40
1.0
 40
1.0
 40
1.0
 10
4.2436929808
 20
6.8005138394
 30
0.0
 10
4.2436396125
 20
6.8005137392
 30
0.0
 10
4.2435265573
 20
6.800490531
 30
0.0
 10
4.2433720233
 20
6.8003889937
 30
0.0
 10
4.2432305062
 20
6.800227575
 30
0.0
 10
4.2430992177
 20
6.8000071685
 30
0.0
 10
4.2429772764
 20
6.7997272335
 30
0.0
 10
4.2428644619
 20
6.799387798
 30
0.0
 10
4.2427610155
 20
6.7989893049
 30
0.0
 10
4.2426289127
 20
6.7983444055
 30
0.0
 10
4.2424967784
 20
6.797394484
 30
0.0
 10
4.2423875098
 20
6.7960920248
 30
0.0
 10
4.2423216823
 20
6.7945877285
 30
0.0
 10
4.2423084086
 20
6.7935194734
 30
0.0
 10
4.2423084086
 20
6.7929551535
 30
0.0
  0
SPLINE
  5
320
100
AcDbEntity
  8
0
100
AcDbSpline
 62
7
  6
CONTINUOUS
 70
0
 71
3
 72
21
 73
17
 74
0
 42
0.0000001
 43
0.0000001
 44
0.0000000001
 40
0.0
 40
0.0
 40
0.0
 40
0.0
 40
0.0092927935
 40
0.0189165253
 40
0.0406007381
 40
0.0674097534
 40
0.1005387017
 40
0.1405175719
 40
0.1874930561
 40
0.241455653
 40
0.3023156042
 40
0.3698889319
 40
0.4438761578
 40
0.6097574532
 40
0.7967584844
 40
1.0
 40
1.0
 40
1.0
 40
1.0
 10
4.2449798198
 20
6.9593348261
 30
0.0
 10
4.244932145
 20
6.959334768
 30
0.0
 10
4.244834772
 20
6.9593235854
 30
0.0
 10
4.2446367358
 20
6.9592543774
 30
0.0
 10
4.2443928579
 20
6.959072319
 30
0.0
 10
4.2441321108
 20
6.958741549
 30
0.0
 10
4.2438848424
 20
6.9582906393
 30
0.0
 10
4.2436513483
 20
6.9577196153
 30
0.0
 10
4.2434319046
 20
6.9570301788
 30
0.0
 10
4.2432281833
 20
6.9562250976
 30
0.0
 10
4.2430417838
 20
6.9553078196
 30
0.0
 10
4.2428741222
 20
6.9542827521
 30
0.0
 10
4.2426689541
 20
6.9527186718
 30
0.0
 10
4.2424743011
 20
6.9505364199
 30
0.0
 10
4.2423375241
 20
6.9476860645
 30
0.0
 10
4.2423084086
 20
6.9456838138
 30
0.0
 10
4.2423084086
 20
6.9446411227
 30
0.0
  0
SPLINE
  5
321
100
AcDbEntity
  8
0
100
AcDbSpline
 62
7
  6
CONTINUOUS
 70
0
 71
3
 72
24
 73
20
 74
0
 42
0.0000001
 43
0.0000001
 44
0.0000000001
 40
0.0
 40
0.0
 40
0.0
 40
0.0
 40
0.0083261893
 40
0.0172506481
 40
0.027244029
 40
0.0386361685
 40
0.0516430716
 40
0.0664032
 40
0.1014726981
 40
0.1441015682
 40
0.1941990904
 40
0.2515527873
 40
0.3157679615
 40
0.3863010114
 40
0.4625821425
 40
0.5439756476
 40
0.6297521882
 40
0.811385052
 40
1.0
 40
1.0
 40
1.0
 40
1.0
 10
4.3054482293
 20
7.1442368009
 30
0.0
 10
4.3053817411
 20
7.1442367949
 30
0.0
 10
4.3052433711
 20
7.1442167887
 30
0.0
 10
4.3050417408
 20
7.1441300628
 30
0.0
 10
4.3048432759
 20
7.1439890787
 30
0.0
 10
4.3046475104
 20
7.1437951795
 30
0.0
 10
4.3044539361
 20
7.1435488102
 30
0.0
 10
4.3041831501
 20
7.1431256645
 30
0.0
 10
4.3038599868
 20
7.1424594011
 30
0.0
 10
4.3035032356
 20
7.1415024339
 30
0.0
 10
4.3031620038
 20
7.1403527772
 30
0.0
 10
4.3028404948
 20
7.1390197238
 30
0.0
 10
4.3025420813
 20
7.1375146533
 30
0.0
 10
4.3022697168
 20
7.1358513833
 30
0.0
 10
4.3020269077
 20
7.1340450735
 30
0.0
 10
4.3018165555
 20
7.1321122385
 30
0.0
 10
4.30157746
 20
7.1293369775
 30
0.0
 10
4.3013799157
 20
7.1256997994
 30
0.0
 10
4.301326899
 20
7.1227429734
 30
0.0
 10
4.301326899
 20
7.1212368012
 30
0.0
  0
SPLINE
  5
322
100
AcDbEntity
  8
0
100
AcDbSpline
 62
7
  6
CONTINUOUS
 70
0
 71
3
 72
27
 73
23
 74
0
 42
0.0000001
 43
0.0000001
 44
0.0000000001
 40
0.0
 40
0.0
 40
0.0
 40
0.0
 40
0.0075295753
 40
0.0159240126
 40
0.0257179753
 40
0.0372423215
 40
0.0437202681
 40
0.0506956734
 40
0.0661685505
 40
0.0836985932
 40
0.103288633
 40
0.1249236432
 40
0.1485773466
 40
0.201760112
 40
0.2623058063
 40
0.3295755587
 40
0.4028368056
 40
0.4811707476
 40
0.5636217733
 40
0.6491820792
 40
0.8253181601
 40
1.0
 40
1.0
 40
1.0
 40
1.0
 10
4.3064929428
 20
7.327609901
 30
0.0
 10
4.3064175831
 20
7.3276097993
 30
0.0
 10
4.3062574641
 20
7.327580891
 30
0.0
 10
4.3060266534
 20
7.3274610161
 30
0.0
 10
4.3057975376
 20
7.3272688056
 30
0.0
 10
4.3056145387
 20
7.3270581449
 30
0.0
 10
4.3054667847
 20
7.3268564116
 30
0.0
 10
4.305307732
 20
7.3266143669
 30
0.0
 10
4.3051106205
 20
7.3262656675
 30
0.0
 10
4.304882021
 20
7.3257912254
 30
0.0
 10
4.3046545678
 20
7.3252487066
 30
0.0
 10
4.3044289809
 20
7.3246396441
 30
0.0
 10
4.3041195577
 20
7.3237037496
 30
0.0
 10
4.3037485501
 20
7.3223790245
 30
0.0
 10
4.3033370573
 20
7.3206144425
 30
0.0
 10
4.3029500812
 20
7.3186391436
 30
0.0
 10
4.3025935942
 20
7.3164775591
 30
0.0
 10
4.3022721178
 20
7.314157038
 30
0.0
 10
4.3019910063
 20
7.3117073552
 30
0.0
 10
4.3016727526
 20
7.3082774623
 30
0.0
 10
4.3014043648
 20
7.3039170135
 30
0.0
 10
4.301326899
 20
7.3004055595
 30
0.0
 10
4.301326899
 20
7.2986572567
 30
0.0
  0
SPLINE
  5
323
100
AcDbEntity
  8
0
100
AcDbSpline
 62
7
  6
CONTINUOUS
 70
0
 71
3
 72
19
 73
15
 74
0
 42
0.0000001
 43
0.0000001
 44
0.0000000001
 40
0.0
 40
0.0
 40
0.0
 40
0.0
 40
0.0188976146
 40
0.0413752393
 40
0.0691835135
 40
0.103211939
 40
0.1438241756
 40
0.1911262366
 40
0.2451063717
 40
0.30568893
 40
0.4459998677
 40
0.6101256057
 40
0.7957436369
 40
1.0
 40
1.0
 40
1.0
 40
1.0
 10
4.3074587138
 20
7.4984864356
 30
0.0
 10
4.3073797946
 20
7.498486346
 30
0.0
 10
4.3072064519
 20
7.4984445012
 30
0.0
 10
4.3069630828
 20
7.4982826128
 30
0.0
 10
4.3067177109
 20
7.4980276429
 30
0.0
 10
4.3064682243
 20
7.4976788608
 30
0.0
 10
4.3062138281
 20
7.4972370543
 30
0.0
 10
4.3059553441
 20
7.4967034177
 30
0.0
 10
4.3056937679
 20
7.4960798341
 30
0.0
 10
4.3053242204
 20
7.4950813884
 30
0.0
 10
4.304871494
 20
7.4936247768
 30
0.0
 10
4.304355316
 20
7.4916439214
 30
0.0
 10
4.3038537038
 20
7.48938493
 30
0.0
 10
4.3035476816
 20
7.4877855476
 30
0.0
 10
4.3033975578
 20
7.4869458574
 30
0.0
  0
SPLINE
  5
324
100
AcDbEntity
  8
0
100
AcDbSpline
 62
7
  6
CONTINUOUS
 70
0
 71
3
 72
12
 73
8
 74
0
 42
0.0000001
 43
0.0000001
 44
0.0000000001
 40
0.0
 40
0.0
 40
0.0
 40
0.0
 40
0.2415770747
 40
0.5002016264
 40
0.7589720181
 40
0.8829187437
 40
1.0
 40
1.0
 40
1.0
 40
1.0
 10
4.3033975578
 20
7.4869458574
 30
0.0
 10
4.3030705007
 20
7.485116523
 30
0.0
 10
4.3024922285
 20
7.4813107984
 30
0.0
 10
4.3018497747
 20
7.4755065507
 30
0.0
 10
4.3014996196
 20
7.4705838274
 30
0.0
 10
4.3013534658
 20
7.4667416311
 30
0.0
 10
4.301326899
 20
7.4648874533
 30
0.0
 10
4.301326899
 20
7.4639868012
 30
0.0
  0
SPLINE
  5
325
100
AcDbEntity
  8
0
100
AcDbSpline
 62
7
  6
CONTINUOUS
 70
0
 71
3
 72
19
 73
15
 74
0
 42
0.0000001
 43
0.0000001
 44
0.0000000001
 40
0.0
 40
0.0
 40
0.0
 40
0.0
 40
0.0348001052
 40
0.0471141615
 40
0.0611108812
 40
0.0943347773
 40
0.1346789952
 40
0.1821476289
 40
0.2366609262
 40
0.2980569671
 40
0.4403921024
 40
0.6067906619
 40
0.7944469287
 40
1.0
 40
1.0
 40
1.0
 40
1.0
 10
4.3082821759
 20
7.6452211266
 30
0.0
 10
4.3081263877
 20
7.6452211799
 30
0.0
 10
4.307930899
 20
7.6450777485
 30
0.0
 10
4.3077518718
 20
7.6448762245
 30
0.0
 10
4.3075908299
 20
7.6446621878
 30
0.0
 10
4.3073882242
 20
7.6443263774
 30
0.0
 10
4.3071462717
 20
7.6438409243
 30
0.0
 10
4.3068957674
 20
7.6432548642
 30
0.0
 10
4.306637566
 20
7.6425703643
 30
0.0
 10
4.3062664635
 20
7.6414753029
 30
0.0
 10
4.3057999174
 20
7.6398847216
 30
0.0
 10
4.3052525934
 20
7.6377306898
 30
0.0
 10
4.3047048231
 20
7.6352858494
 30
0.0
 10
4.3043595134
 20
7.6335596341
 30
0.0
 10
4.3041877805
 20
7.63265561
 30
0.0
  0
SPLINE
  5
326
100
AcDbEntity
  8
0
100
AcDbSpline
 62
7
  6
CONTINUOUS
 70
0
 71
3
 72
15
 73
11
 74
0
 42
0.0000001
 43
0.0000001
 44
0.0000000001
 40
0.0
 40
0.0
 40
0.0
 40
0.0
 40
0.1250409437
 40
0.256392571
 40
0.3910178752
 40
0.5256626475
 40
0.6570419443
 40
0.7819912396
 40
0.8973737822
 40
1.0
 40
1.0
 40
1.0
 40
1.0
 10
4.3041877805
 20
7.63265561
 30
0.0
 10
4.303978676
 20
7.6315548568
 30
0.0
 10
4.3035764817
 20
7.6292926976
 30
0.0
 10
4.3030326205
 20
7.6258312108
 30
0.0
 10
4.3025437772
 20
7.6222746297
 30
0.0
 10
4.3021220599
 20
7.6187092125
 30
0.0
 10
4.3017798854
 20
7.6152223754
 30
0.0
 10
4.3015259753
 20
7.6119010064
 30
0.0
 10
4.3013688235
 20
7.6088316081
 30
0.0
 10
4.301326899
 20
7.6068780894
 30
0.0
 10
4.301326899
 20
7.6059584997
 30
0.0
  0
SPLINE
  5
327
100
AcDbEntity
  8
0
100
AcDbSpline
 62
7
  6
CONTINUOUS
 70
0
 71
3
 72
20
 73
16
 74
0
 42
0.0000001
 43
0.0000001
 44
0.0000000001
 40
0.0
 40
0.0
 40
0.0
 40
0.0
 40
0.0139050464
 40
0.0225133604
 40
0.0325579159
 40
0.0574738992
 40
0.0892760533
 40
0.1281560366
 40
0.1741556104
 40
0.2272472787
 40
0.2873677334
 40
0.4281804289
 40
0.5950802642
 40
0.7863196471
 40
1.0
 40
1.0
 40
1.0
 40
1.0
 10
4.3089106056
 20
7.7578157429
 30
0.0
 10
4.3088731199
 20
7.7578157688
 30
0.0
 10
4.3088126509
 20
7.7577945589
 30
0.0
 10
4.3087411757
 20
7.7577438578
 30
0.0
 10
4.3086553049
 20
7.7576630604
 30
0.0
 10
4.3085455068
 20
7.7575194182
 30
0.0
 10
4.3084129131
 20
7.7572981505
 30
0.0
 10
4.3082719951
 20
7.7570166587
 30
0.0
 10
4.3081230726
 20
7.7566757096
 30
0.0
 10
4.3079666318
 20
7.7562759333
 30
0.0
 10
4.3077363398
 20
7.7556309258
 30
0.0
 10
4.307437381
 20
7.7546851372
 30
0.0
 10
4.3070716059
 20
7.7533906053
 30
0.0
 10
4.3066868896
 20
7.7518977325
 30
0.0
 10
4.3064337181
 20
7.7508358443
 30
0.0
 10
4.3063040615
 20
7.7502745778
 30
0.0
  0
SPLINE
  5
328
100
AcDbEntity
  8
0
100
AcDbSpline
 62
7
  6
CONTINUOUS
 70
0
 71
3
 72
17
 73
13
 74
0
 42
0.0000001
 43
0.0000001
 44
0.0000000001
 40
0.0
 40
0.0
 40
0.0
 40
0.0
 40
0.1178661435
 40
0.2509440586
 40
0.392968536
 40
0.5372258368
 40
0.6767448104
 40
0.8045471711
 40
0.8620351167
 40
0.9142328915
 40
0.9604423209
 40
1.0
 40
1.0
 40
1.0
 40
1.0
 10
4.3063040615
 20
7.7502745778
 30
0.0
 10
4.3059877248
 20
7.7489051984
 30
0.0
 10
4.3053627443
 20
7.7459784761
 30
0.0
 10
4.3044873076
 20
7.7413749255
 30
0.0
 10
4.3036470307
 20
7.7364452649
 30
0.0
 10
4.3028841271
 20
7.7314253456
 30
0.0
 10
4.3022384629
 20
7.7265600206
 30
0.0
 10
4.3018120603
 20
7.7227100526
 30
0.0
 10
4.3015621809
 20
7.719889171
 30
0.0
 10
4.3014305388
 20
7.7180348089
 30
0.0
 10
4.3013492334
 20
7.7163915946
 30
0.0
 10
4.301326899
 20
7.7153689036
 30
0.0
 10
4.301326899
 20
7.7148972155
 30
0.0
  0
SPLINE
  5
329
100
AcDbEntity
  8
0
100
AcDbSpline
 62
7
  6
CONTINUOUS
 70
0
 71
3
 72
17
 73
13
 74
0
 42
0.0000001
 43
0.0000001
 44
0.0000000001
 40
0.0
 40
0.0
 40
0.0
 40
0.0
 40
0.2190470959
 40
0.410555813
 40
0.574238096
 40
0.7099516775
 40
0.8178580708
 40
0.8988505855
 40
0.9301492817
 40
0.9563280191
 40
0.978867419
 40
1.0
 40
1.0
 40
1.0
 40
1.0
 10
4.2423084086
 20
7.5673684335
 30
0.0
 10
4.2423084086
 20
7.567213136
 30
0.0
 10
4.2423116556
 20
7.5669220467
 30
0.0
 10
4.2423284315
 20
7.5665151867
 30
0.0
 10
4.2423565607
 20
7.5661682038
 30
0.0
 10
4.2423956657
 20
7.5658817942
 30
0.0
 10
4.2424455145
 20
7.5656569872
 30
0.0
 10
4.2424991568
 20
7.5655090592
 30
0.0
 10
4.2425513156
 20
7.5654254075
 30
0.0
 10
4.2425904337
 20
7.5653836241
 30
0.0
 10
4.2426335979
 20
7.5653576895
 30
0.0
 10
4.2426648765
 20
7.5653520728
 30
0.0
 10
4.2426798588
 20
7.5653520967
 30
0.0
  0
SPLINE
  5
32A
100
AcDbEntity
  8
0
100
AcDbSpline
 62
7
  6
CONTINUOUS
 70
0
 71
3
 72
19
 73
15
 74
0
 42
0.0000001
 43
0.0000001
 44
0.0000000001
 40
0.0
 40
0.0
 40
0.0
 40
0.0
 40
0.0087562204
 40
0.0153896802
 40
0.0237991204
 40
0.0462086035
 40
0.0762403075
 40
0.1139176768
 40
0.1591986581
 40
0.2722729572
 40
0.4144937296
 40
0.5843048407
 40
0.7800696618
 40
1.0
 40
1.0
 40
1.0
 40
1.0
 10
4.3093039331
 20
7.8285946591
 30
0.0
 10
4.3092836957
 20
7.8285949282
 30
0.0
 10
4.3092507517
 20
7.8285719616
 30
0.0
 10
4.3092158951
 20
7.8285307706
 30
0.0
 10
4.3091675064
 20
7.8284582122
 30
0.0
 10
4.3091046739
 20
7.828332344
 30
0.0
 10
4.3090249597
 20
7.8281397082
 30
0.0
 10
4.3089367117
 20
7.8278938626
 30
0.0
 10
4.3087969961
 20
7.8274627672
 30
0.0
 10
4.3086062426
 20
7.826794543
 30
0.0
 10
4.3083602489
 20
7.8258431981
 30
0.0
 10
4.308086147
 20
7.824701878
 30
0.0
 10
4.307786624
 20
7.8233820747
 30
0.0
 10
4.3075831284
 20
7.8224430165
 30
0.0
 10
4.3074772895
 20
7.8219458087
 30
0.0
  0
SPLINE
  5
32B
100
AcDbEntity
  8
0
100
AcDbSpline
 62
7
  6
CONTINUOUS
 70
0
 71
3
 72
15
 73
11
 74
0
 42
0.0000001
 43
0.0000001
 44
0.0000000001
 40
0.0
 40
0.0
 40
0.0
 40
0.0
 40
0.109719513
 40
0.23520539
 40
0.3710314236
 40
0.5114323888
 40
0.650429775
 40
0.7820132495
 40
0.9003508858
 40
1.0
 40
1.0
 40
1.0
 40
1.0
 10
4.3074772895
 20
7.8219458087
 30
0.0
 10
4.3072125944
 20
7.8207023288
 30
0.0
 10
4.3066688575
 20
7.8180316411
 30
0.0
 10
4.3058588739
 20
7.8138093649
 30
0.0
 10
4.3050237297
 20
7.8092301153
 30
0.0
 10
4.304199308
 20
7.8044899405
 30
0.0
 10
4.3034216937
 20
7.7997916813
 30
0.0
 10
4.3027258689
 20
7.7953391721
 30
0.0
 10
4.3021442778
 20
7.7913305363
 30
0.0
 10
4.301818111
 20
7.7888256376
 30
0.0
 10
4.3016838063
 20
7.7876788225
 30
0.0
  0
LINE
  5
32C
100
AcDbEntity
  8
0
100
AcDbLine
 62
7
  6
CONTINUOUS
 10
4.3016838063
 20
7.7876788225
 11
4.301326899
 21
7.7833789552
  0
SPLINE
  5
32D
100
AcDbEntity
  8
0
100
AcDbSpline
 62
7
  6
CONTINUOUS
 70
0
 71
3
 72
24
 73
20
 74
0
 42
0.0000001
 43
0.0000001
 44
0.0000000001
 40
0.0
 40
0.0
 40
0.0
 40
0.0
 40
0.1886188235
 40
0.370251061
 40
0.456026448
 40
0.5374185791
 40
0.6136986613
 40
0.6842317368
 40
0.748446312
 40
0.8057979784
 40
0.8558959866
 40
0.8985258612
 40
0.9335942867
 40
0.9483544513
 40
0.9613620502
 40
0.9727550567
 40
0.982749078
 40
0.9916737682
 40
1.0
 40
1.0
 40
1.0
 40
1.0
 10
4.301326899
 20
7.1212368012
 30
0.0
 10
4.301326899
 20
7.1197305975
 30
0.0
 10
4.3013799146
 20
7.1167737444
 30
0.0
 10
4.301577466
 20
7.1131365485
 30
0.0
 10
4.3018165585
 20
7.1103613115
 30
0.0
 10
4.3020269095
 20
7.1084285042
 30
0.0
 10
4.3022697225
 20
7.1066222136
 30
0.0
 10
4.3025420766
 20
7.1049589545
 30
0.0
 10
4.3028404766
 20
7.1034539017
 30
0.0
 10
4.3031620002
 20
7.1021208687
 30
0.0
 10
4.3035032245
 20
7.1009712149
 30
0.0
 10
4.303859952
 20
7.1000142338
 30
0.0
 10
4.3041831342
 20
7.0993479789
 30
0.0
 10
4.3044539235
 20
7.0989248389
 30
0.0
 10
4.3046474973
 20
7.0986784533
 30
0.0
 10
4.3048432624
 20
7.098484529
 30
0.0
 10
4.3050417279
 20
7.0983435213
 30
0.0
 10
4.3052433634
 20
7.098256785
 30
0.0
 10
4.3053817406
 20
7.0982367935
 30
0.0
 10
4.3054482292
 20
7.098236802
 30
0.0
  0
SPLINE
  5
32E
100
AcDbEntity
  8
0
100
AcDbSpline
 62
7
  6
CONTINUOUS
 70
0
 71
3
 72
26
 73
22
 74
0
 42
0.0000001
 43
0.0000001
 44
0.0000000001
 40
0.0
 40
0.0
 40
0.0
 40
0.0
 40
0.0825881695
 40
0.1679983263
 40
0.3413914653
 40
0.4267888177
 40
0.5097039955
 40
0.5889888882
 40
0.6635188715
 40
0.732271757
 40
0.7943892055
 40
0.8490645042
 40
0.8956939872
 40
0.9158556505
 40
0.9338554279
 40
0.949679034
 40
0.9633619579
 40
0.9749872999
 40
0.9847185528
 40
0.992867908
 40
1.0
 40
1.0
 40
1.0
 40
1.0
 10
4.2423084086
 20
6.9446411227
 30
0.0
 10
4.2423084086
 20
6.9437490625
 30
0.0
 10
4.2423310418
 20
6.9419343978
 30
0.0
 10
4.2424579944
 20
6.9382489137
 30
0.0
 10
4.2427034528
 20
6.9345379044
 30
0.0
 10
4.2430602223
 20
6.9308641251
 30
0.0
 10
4.2433757116
 20
6.9282081931
 30
0.0
 10
4.2437342762
 20
6.9256762353
 30
0.0
 10
4.244129937
 20
6.9233047101
 30
0.0
 10
4.2445566391
 20
6.9211272086
 30
0.0
 10
4.2450065329
 20
6.9191737351
 30
0.0
 10
4.2454732588
 20
6.9174708381
 30
0.0
 10
4.2458871881
 20
6.916224716
 30
0.0
 10
4.2462275114
 20
6.9153741487
 30
0.0
 10
4.246470124
 20
6.914843596
 30
0.0
 10
4.2467119043
 20
6.9143905348
 30
0.0
 10
4.2469520304
 20
6.9140160088
 30
0.0
 10
4.2471900381
 20
6.9137204626
 30
0.0
 10
4.2474265155
 20
6.9135042548
 30
0.0
 10
4.2476634681
 20
6.9133682611
 30
0.0
 10
4.2478293895
 20
6.9133350564
 30
0.0
 10
4.2479064254
 20
6.9133351577
 30
0.0
  0
SPLINE
  5
32F
100
AcDbEntity
  8
0
100
AcDbSpline
 62
7
  6
CONTINUOUS
 70
0
 71
3
 72
19
 73
15
 74
0
 42
0.0000001
 43
0.0000001
 44
0.0000000001
 40
0.0
 40
0.0
 40
0.0
 40
0.0
 40
0.2138735748
 40
0.4042627658
 40
0.5691394434
 40
0.706770575
 40
0.7651900643
 40
0.8167008777
 40
0.8613921417
 40
0.899453573
 40
0.9312586547
 40
0.9575544489
 40
0.9797249969
 40
1.0
 40
1.0
 40
1.0
 40
1.0
 10
4.2423084086
 20
7.465984561
 30
0.0
 10
4.2423084086
 20
7.4654756212
 30
0.0
 10
4.2423201753
 20
7.4645135573
 30
0.0
 10
4.2423788765
 20
7.4631601983
 30
0.0
 10
4.242476391
 20
7.4619910168
 30
0.0
 10
4.2425944286
 20
7.4611394964
 30
0.0
 10
4.2427127982
 20
7.4605621965
 30
0.0
 10
4.2428055538
 20
7.4602059182
 30
0.0
 10
4.242906838
 20
7.4599025678
 30
0.0
 10
4.2430164472
 20
7.4596524193
 30
0.0
 10
4.2431345466
 20
7.4594554221
 30
0.0
 10
4.2432622329
 20
7.4593112684
 30
0.0
 10
4.24340193
 20
7.4592209076
 30
0.0
 10
4.2435039161
 20
7.4592005236
 30
0.0
 10
4.2435521631
 20
7.4592005018
 30
0.0
  0
SPLINE
  5
330
100
AcDbEntity
  8
0
100
AcDbSpline
 62
7
  6
CONTINUOUS
 70
0
 71
3
 72
15
 73
11
 74
0
 42
0.0000001
 43
0.0000001
 44
0.0000000001
 40
0.0
 40
0.0
 40
0.0
 40
0.0
 40
0.1060717199
 40
0.2239274059
 40
0.3503199582
 40
0.4821126946
 40
0.6161640772
 40
0.7492447608
 40
0.8781704388
 40
1.0
 40
1.0
 40
1.0
 40
1.0
 10
4.2423084086
 20
6.7929551535
 30
0.0
 10
4.2423084086
 20
6.7920017105
 30
0.0
 10
4.2423499091
 20
6.7899888549
 30
0.0
 10
4.2425075377
 20
6.7868435605
 30
0.0
 10
4.2427624013
 20
6.7834727467
 30
0.0
 10
4.2431056826
 20
6.7799635549
 30
0.0
 10
4.2435283837
 20
6.7764025127
 30
0.0
 10
4.2440177859
 20
6.7728760393
 30
0.0
 10
4.2445615633
 20
6.7694687563
 30
0.0
 10
4.2449646224
 20
6.767250889
 30
0.0
 10
4.2451742078
 20
6.7661760471
 30
0.0
  0
SPLINE
  5
331
100
AcDbEntity
  8
0
100
AcDbSpline
 62
7
  6
CONTINUOUS
 70
0
 71
3
 72
21
 73
17
 74
0
 42
0.0000001
 43
0.0000001
 44
0.0000000001
 40
0.0
 40
0.0
 40
0.0
 40
0.0
 40
0.2058917376
 40
0.3931941366
 40
0.5588414435
 40
0.7002826526
 40
0.7612772264
 40
0.8154668056
 40
0.8626978539
 40
0.9029342161
 40
0.9362358493
 40
0.9628522044
 40
0.9738597837
 40
0.9835268931
 40
0.9921160702
 40
1.0
 40
1.0
 40
1.0
 40
1.0
 10
4.2451742078
 20
6.7661760471
 30
0.0
 10
4.2453389945
 20
6.7653309517
 30
0.0
 10
4.2456700234
 20
6.7637201756
 30
0.0
 10
4.2461957801
 20
6.7614427856
 30
0.0
 10
4.2467212371
 20
6.7594428605
 30
0.0
 10
4.2471701325
 20
6.7579697814
 30
0.0
 10
4.2475280358
 20
6.7569578662
 30
0.0
 10
4.2477775052
 20
6.7563259315
 30
0.0
 10
4.2480204093
 20
6.7557853655
 30
0.0
 10
4.2482556243
 20
6.7553378607
 30
0.0
 10
4.2484821583
 20
6.7549849873
 30
0.0
 10
4.248674154
 20
6.7547566048
 30
0.0
 10
4.248825741
 20
6.7546287932
 30
0.0
 10
4.2489302297
 20
6.7545640152
 30
0.0
 10
4.2490329164
 20
6.7545243866
 30
0.0
 10
4.2491020463
 20
6.7545151148
 30
0.0
 10
4.2491350157
 20
6.7545151815
 30
0.0
  0
SPLINE
  5
332
100
AcDbEntity
  8
0
100
AcDbSpline
 62
7
  6
CONTINUOUS
 70
0
 71
3
 72
25
 73
21
 74
0
 42
0.0000001
 43
0.0000001
 44
0.0000000001
 40
0.0
 40
0.0
 40
0.0
 40
0.0
 40
0.0078685481
 40
0.0164792544
 40
0.0263453116
 40
0.0378009351
 40
0.0510370062
 40
0.0661606041
 40
0.083229366
 40
0.1022710177
 40
0.1462735155
 40
0.1979628591
 40
0.2569353327
 40
0.3227177825
 40
0.3946509539
 40
0.4719759914
 40
0.5539118788
 40
0.6395869767
 40
0.8184493904
 40
1.0
 40
1.0
 40
1.0
 40
1.0
 10
4.1913953114
 20
7.1907896666
 30
0.0
 10
4.1913238675
 20
7.1907896989
 30
0.0
 10
4.1911735084
 20
7.1907655537
 30
0.0
 10
4.1909551469
 20
7.1906622703
 30
0.0
 10
4.1907390717
 20
7.190494812
 30
0.0
 10
4.1905243738
 20
7.1902646809
 30
0.0
 10
4.1903103026
 20
7.189972595
 30
0.0
 10
4.1900970135
 20
7.1896190565
 30
0.0
 10
4.1898848769
 20
7.1892047194
 30
0.0
 10
4.1895899691
 20
7.1885394582
 30
0.0
 10
4.1892355603
 20
7.1875586002
 30
0.0
 10
4.1888410897
 20
7.1862102598
 30
0.0
 10
4.1884647637
 20
7.1846525002
 30
0.0
 10
4.1881121597
 20
7.1829014374
 30
0.0
 10
4.1877876166
 20
7.1809758126
 30
0.0
 10
4.1874955339
 20
7.1788968277
 30
0.0
 10
4.1872407159
 20
7.1766873206
 30
0.0
 10
4.1869508313
 20
7.1735546098
 30
0.0
 10
4.1867078833
 20
7.1695103761
 30
0.0
 10
4.1866401308
 20
7.1662376443
 30
0.0
 10
4.1866401308
 20
7.1645892222
 30
0.0
  0
LINE
  5
333
100
AcDbEntity
  8
0
100
AcDbLine
 62
7
  6
CONTINUOUS
 10
4.2423084086
 20
6.6848778384
 11
4.2423995816
 21
6.6822996533
  0
SPLINE
  5
334
100
AcDbEntity
  8
0
100
AcDbSpline
 62
7
  6
CONTINUOUS
 70
0
 71
3
 72
15
 73
11
 74
0
 42
0.0000001
 43
0.0000001
 44
0.0000000001
 40
0.0
 40
0.0
 40
0.0
 40
0.0
 40
0.0975816693
 40
0.2127912691
 40
0.3410984264
 40
0.4774512655
 40
0.6166255715
 40
0.7534121466
 40
0.8827928559
 40
1.0
 40
1.0
 40
1.0
 40
1.0
 10
4.2423995816
 20
6.6822996533
 30
0.0
 10
4.2424640429
 20
6.6812365437
 30
0.0
 10
4.2426557693
 20
6.6789214134
 30
0.0
 10
4.2430587823
 20
6.6752201258
 30
0.0
 10
4.2435886276
 20
6.6711077656
 30
0.0
 10
4.2442220267
 20
6.666745675
 30
0.0
 10
4.2449329658
 20
6.662301808
 30
0.0
 10
4.2456925974
 20
6.6579432267
 30
0.0
 10
4.2464712893
 20
6.6538318044
 30
0.0
 10
4.2470166975
 20
6.651196037
 30
0.0
 10
4.2472904152
 20
6.6499463972
 30
0.0
  0
SPLINE
  5
335
100
AcDbEntity
  8
0
100
AcDbSpline
 62
7
  6
CONTINUOUS
 70
0
 71
3
 72
20
 73
16
 74
0
 42
0.0000001
 43
0.0000001
 44
0.0000000001
 40
0.0
 40
0.0
 40
0.0
 40
0.0
 40
0.2139651
 40
0.4061005955
 40
0.5741670327
 40
0.7160488106
 40
0.7765825046
 40
0.8299749266
 40
0.8761108854
 40
0.9149026936
 40
0.9463175185
 40
0.970457275
 40
0.9799456561
 40
0.9878687457
 40
1.0
 40
1.0
 40
1.0
 40
1.0
 10
4.2472904152
 20
6.6499463972
 30
0.0
 10
4.2474293788
 20
6.6493119684
 30
0.0
 10
4.2477003391
 20
6.6481093955
 30
0.0
 10
4.2481095319
 20
6.6464151917
 30
0.0
 10
4.2484962395
 20
6.6449409433
 30
0.0
 10
4.2488098964
 20
6.6438607582
 30
0.0
 10
4.2490496278
 20
6.6431221477
 30
0.0
 10
4.2492113797
 20
6.6426639356
 30
0.0
 10
4.2493642289
 20
6.6422727959
 30
0.0
 10
4.2495075246
 20
6.6419498076
 30
0.0
 10
4.2496409047
 20
6.6416961465
 30
0.0
 10
4.2497502391
 20
6.6415309133
 30
0.0
 10
4.2498355997
 20
6.6414373059
 30
0.0
 10
4.2499040116
 20
6.6413799753
 30
0.0
 10
4.249963884
 20
6.641353895
 30
0.0
 10
4.2500007072
 20
6.6413538697
 30
0.0
  0
LINE
  5
336
100
AcDbEntity
  8
0
100
AcDbLine
 62
7
  6
CONTINUOUS
 10
4.301326899
 20
7.7833789552
 11
4.3014697474
 21
7.7825958388
  0
SPLINE
  5
337
100
AcDbEntity
  8
0
100
AcDbSpline
 62
7
  6
CONTINUOUS
 70
0
 71
3
 72
43
 73
39
 74
0
 42
0.0000001
 43
0.0000001
 44
0.0000000001
 40
0.0
 40
0.0
 40
0.0
 40
0.0
 40
0.0029595914
 40
0.0070541482
 40
0.0185963069
 40
0.0345096275
 40
0.0546593589
 40
0.0788336119
 40
0.1067807918
 40
0.1382468033
 40
0.172934027
 40
0.2505967248
 40
0.3369257666
 40
0.4288263714
 40
0.5231020285
 40
0.6164951277
 40
0.6618548815
 40
0.7057919653
 40
0.7479168157
 40
0.7878641927
 40
0.8252729671
 40
0.8597881356
 40
0.8911011462
 40
0.9189249403
 40
0.9429747827
 40
0.9535083867
 40
0.9630175747
 40
0.9714804272
 40
0.9788751307
 40
0.9851800562
 40
0.9903741182
 40
0.9944448009
 40
0.9960586703
 40
0.9973919797
 40
0.9984457764
 40
0.9992226425
 40
0.9997300312
 40
1.0
 40
1.0
 40
1.0
 40
1.0
 10
4.2423084086
 20
6.6347660757
 30
0.0
 10
4.2423084086
 20
6.6347200974
 30
0.0
 10
4.2423134603
 20
6.6346105454
 30
0.0
 10
4.242336707
 20
6.634322583
 30
0.0
 10
4.2423925409
 20
6.6338355139
 30
0.0
 10
4.2424894272
 20
6.633102337
 30
0.0
 10
4.2426229716
 20
6.6321760767
 30
0.0
 10
4.2427913416
 20
6.6310660115
 30
0.0
 10
4.242992876
 20
6.6297831764
 30
0.0
 10
4.2432254485
 20
6.6283399068
 30
0.0
 10
4.243587649
 20
6.6261352227
 30
0.0
 10
4.2440991397
 20
6.6230913359
 30
0.0
 10
4.2447702066
 20
6.6191729958
 30
0.0
 10
4.2454945384
 20
6.6150019439
 30
0.0
 10
4.246245823
 20
6.6107241964
 30
0.0
 10
4.2468784174
 20
6.6071597055
 30
0.0
 10
4.2473785621
 20
6.6043659627
 30
0.0
 10
4.2477405835
 20
6.6023566282
 30
0.0
 10
4.2480901068
 20
6.6004304806
 30
0.0
 10
4.2484242068
 20
6.5986046122
 30
0.0
 10
4.2487400397
 20
6.5968955857
 30
0.0
 10
4.2490349322
 20
6.5953191024
 30
0.0
 10
4.2493063407
 20
6.5938897199
 30
0.0
 10
4.2495518889
 20
6.5926209224
 30
0.0
 10
4.2497406088
 20
6.5916699404
 30
0.0
 10
4.2498775588
 20
6.5909987724
 30
0.0
 10
4.2499679496
 20
6.5905652479
 30
0.0
 10
4.2500504415
 20
6.5901798935
 30
0.0
 10
4.2501248355
 20
6.5898437221
 30
0.0
 10
4.2501909031
 20
6.589557723
 30
0.0
 10
4.2502484657
 20
6.589322794
 30
0.0
 10
4.2502919163
 20
6.5891594252
 30
0.0
 10
4.250322832
 20
6.5890548987
 30
0.0
 10
4.2503420387
 20
6.5889957048
 30
0.0
 10
4.2503587589
 20
6.5889496544
 30
0.0
 10
4.2503736904
 20
6.5889160209
 30
0.0
 10
4.2503850937
 20
6.5888956932
 30
0.0
 10
4.2503950208
 20
6.588886164
 30
0.0
 10
4.2503992132
 20
6.5888860469
 30
0.0
  0
SPLINE
  5
338
100
AcDbEntity
  8
0
100
AcDbSpline
 62
7
  6
CONTINUOUS
 70
0
 71
3
 72
21
 73
17
 74
0
 42
0.0000001
 43
0.0000001
 44
0.0000000001
 40
0.0
 40
0.0
 40
0.0
 40
0.0
 40
0.2047200122
 40
0.3922292866
 40
0.5579699493
 40
0.6317124449
 40
0.6989799261
 40
0.7595078068
 40
0.8131206027
 40
0.8597648505
 40
0.8994732514
 40
0.93243225
 40
0.9591666097
 40
0.9808995607
 40
0.9906008178
 40
1.0
 40
1.0
 40
1.0
 40
1.0
 10
4.2423084086
 20
7.3188046902
 30
0.0
 10
4.2423084086
 20
7.3178243265
 30
0.0
 10
4.2423350995
 20
7.3159458437
 30
0.0
 10
4.2424614191
 20
7.3132763178
 30
0.0
 10
4.2426415436
 20
7.3112385925
 30
0.0
 10
4.2428319716
 20
7.3097818188
 30
0.0
 10
4.242987641
 20
7.3088291311
 30
0.0
 10
4.2431608427
 20
7.3079775726
 30
0.0
 10
4.243350565
 20
7.3072309661
 30
0.0
 10
4.2435553258
 20
7.3065921646
 30
0.0
 10
4.2437737265
 20
7.3060633101
 30
0.0
 10
4.244005295
 20
7.3056456349
 30
0.0
 10
4.2442503589
 20
7.305339267
 30
0.0
 10
4.2444798838
 20
7.3051714738
 30
0.0
 10
4.2446662325
 20
7.3051078887
 30
0.0
 10
4.2447580001
 20
7.3050976414
 30
0.0
 10
4.2448030109
 20
7.305097595
 30
0.0
  0
SPLINE
  5
339
100
AcDbEntity
  8
0
100
AcDbSpline
 62
7
  6
CONTINUOUS
 70
0
 71
3
 72
24
 73
20
 74
0
 42
0.0000001
 43
0.0000001
 44
0.0000000001
 40
0.0
 40
0.0
 40
0.0
 40
0.0
 40
0.1908674834
 40
0.3733387213
 40
0.4591186443
 40
0.5403095457
 40
0.6162370407
 40
0.6863060842
 40
0.750006641
 40
0.8068538796
 40
0.8564667045
 40
0.898676899
 40
0.9334548455
 40
0.9481260977
 40
0.961081753
 40
0.9724686043
 40
0.9825091799
 40
0.9915336341
 40
1.0
 40
1.0
 40
1.0
 40
1.0
 10
4.2423084086
 20
7.1453800695
 30
0.0
 10
4.2423084086
 20
7.1439296802
 30
0.0
 10
4.2423582436
 20
7.1410924761
 30
0.0
 10
4.2425459119
 20
7.1376077551
 30
0.0
 10
4.2427736676
 20
7.1349619573
 30
0.0
 10
4.2429738582
 20
7.1331268965
 30
0.0
 10
4.243205
 20
7.1314158405
 30
0.0
 10
4.2434646153
 20
7.1298433933
 30
0.0
 10
4.2437494108
 20
7.1284228295
 30
0.0
 10
4.2440564057
 20
7.1271663084
 30
0.0
 10
4.2443828259
 20
7.1260839533
 30
0.0
 10
4.2447248356
 20
7.125183914
 30
0.0
 10
4.245035067
 20
7.1245579232
 30
0.0
 10
4.2452951959
 20
7.1241607295
 30
0.0
 10
4.2454816297
 20
7.1239294473
 30
0.0
 10
4.2456704445
 20
7.1237475983
 30
0.0
 10
4.245862102
 20
7.1236155611
 30
0.0
 10
4.2460569194
 20
7.1235345237
 30
0.0
 10
4.2461903826
 20
7.1235158535
 30
0.0
 10
4.2462547179
 20
7.1235157768
 30
0.0
  0
SPLINE
  5
33A
100
AcDbEntity
  8
0
100
AcDbSpline
 62
7
  6
CONTINUOUS
 70
0
 71
3
 72
18
 73
14
 74
0
 42
0.0000001
 43
0.0000001
 44
0.0000000001
 40
0.0
 40
0.0
 40
0.0
 40
0.0
 40
0.2181538443
 40
0.4096602357
 40
0.5738567846
 40
0.7102222467
 40
0.8185373205
 40
0.8623757299
 40
0.8996751477
 40
0.9309326011
 40
0.9569878865
 40
0.9792707257
 40
1.0
 40
1.0
 40
1.0
 40
1.0
 10
4.301326899
 20
7.7148972155
 30
0.0
 10
4.301326899
 20
7.714661184
 30
0.0
 10
4.3013318716
 20
7.7142179159
 30
0.0
 10
4.3013574073
 20
7.713597458
 30
0.0
 10
4.3014000472
 20
7.7130665513
 30
0.0
 10
4.3014594396
 20
7.7126279832
 30
0.0
 10
4.301525845
 20
7.7123222015
 30
0.0
 10
4.3015910927
 20
7.7121276508
 30
0.0
 10
4.3016406873
 20
7.712016346
 30
0.0
 10
4.3016945079
 20
7.7119287945
 30
0.0
 10
4.3017531419
 20
7.7118647117
 30
0.0
 10
4.3018177595
 20
7.7118247134
 30
0.0
 10
4.3018647535
 20
7.711815872
 30
0.0
 10
4.3018871815
 20
7.7118158576
 30
0.0
  0
SPLINE
  5
33B
100
AcDbEntity
  8
0
100
AcDbSpline
 62
7
  6
CONTINUOUS
 70
0
 71
3
 72
19
 73
15
 74
0
 42
0.0000001
 43
0.0000001
 44
0.0000000001
 40
0.0
 40
0.0
 40
0.0
 40
0.0
 40
0.2140838326
 40
0.4046232435
 40
0.5696023352
 40
0.7072900565
 40
0.7657161787
 40
0.8172183097
 40
0.8618841071
 40
0.8999008246
 40
0.931637858
 40
0.9578349516
 40
0.9798750345
 40
1.0
 40
1.0
 40
1.0
 40
1.0
 10
4.301326899
 20
7.6059584997
 30
0.0
 10
4.301326899
 20
7.605453067
 30
0.0
 10
4.3013384164
 20
7.6044977219
 30
0.0
 10
4.3013959203
 20
7.6031538901
 30
0.0
 10
4.3014914902
 20
7.6019930841
 30
0.0
 10
4.3016072125
 20
7.601147692
 30
0.0
 10
4.3017233514
 20
7.6005745408
 30
0.0
 10
4.3018143833
 20
7.6002208786
 30
0.0
 10
4.3019138224
 20
7.5999197672
 30
0.0
 10
4.3020214762
 20
7.5996714736
 30
0.0
 10
4.3021375013
 20
7.5994759339
 30
0.0
 10
4.3022630087
 20
7.5993328271
 30
0.0
 10
4.302400473
 20
7.5992430517
 30
0.0
 10
4.3025010018
 20
7.5992227889
 30
0.0
 10
4.302548515
 20
7.5992227728
 30
0.0
  0
SPLINE
  5
33C
100
AcDbEntity
  8
0
100
AcDbSpline
 62
7
  6
CONTINUOUS
 70
0
 71
3
 72
12
 73
8
 74
0
 42
0.0000001
 43
0.0000001
 44
0.0000000001
 40
0.0
 40
0.0
 40
0.0
 40
0.0
 40
0.1150290305
 40
0.2374494125
 40
0.4949231162
 40
0.7547342161
 40
1.0
 40
1.0
 40
1.0
 40
1.0
 10
4.1866401308
 20
6.9561669504
 30
0.0
 10
4.1866401308
 20
6.9552857718
 30
0.0
 10
4.1866677606
 20
6.9534667319
 30
0.0
 10
4.1868189502
 20
6.9496781175
 30
0.0
 10
4.1871809739
 20
6.9447893971
 30
0.0
 10
4.1878394007
 20
6.9389838786
 30
0.0
 10
4.1884248868
 20
6.9351578806
 30
0.0
 10
4.1887534839
 20
6.9333079825
 30
0.0
  0
SPLINE
  5
33D
100
AcDbEntity
  8
0
100
AcDbSpline
 62
7
  6
CONTINUOUS
 70
0
 71
3
 72
21
 73
17
 74
0
 42
0.0000001
 43
0.0000001
 44
0.0000000001
 40
0.0
 40
0.0
 40
0.0
 40
0.0
 40
0.2040218648
 40
0.3900086455
 40
0.554857023
 40
0.6959514304
 40
0.7568693895
 40
0.8111150331
 40
0.8585681176
 40
0.8991668568
 40
0.9329638376
 40
0.9602974014
 40
0.9717967719
 40
0.9820607407
 40
0.9913451799
 40
1.0
 40
1.0
 40
1.0
 40
1.0
 10
4.1887534839
 20
6.9333079825
 30
0.0
 10
4.1889117534
 20
6.9324169747
 30
0.0
 10
4.1892341672
 20
6.9307171509
 30
0.0
 10
4.1897600583
 20
6.9283124707
 30
0.0
 10
4.1902986388
 20
6.9261975465
 30
0.0
 10
4.1907683869
 20
6.9246386386
 30
0.0
 10
4.191149901
 20
6.9235676839
 30
0.0
 10
4.1914188656
 20
6.9228981423
 30
0.0
 10
4.1916835364
 20
6.9223247971
 30
0.0
 10
4.1919427739
 20
6.9218498369
 30
0.0
 10
4.1921957135
 20
6.9214753271
 30
0.0
 10
4.1924125427
 20
6.9212342697
 30
0.0
 10
4.1925845673
 20
6.9210998023
 30
0.0
 10
4.1927046038
 20
6.9210310851
 30
0.0
 10
4.1928232172
 20
6.9209889808
 30
0.0
 10
4.1929030063
 20
6.9209790612
 30
0.0
 10
4.1929413954
 20
6.9209790028
 30
0.0
  0
SPLINE
  5
33E
100
AcDbEntity
  8
0
100
AcDbSpline
 62
7
  6
CONTINUOUS
 70
0
 71
3
 72
20
 73
16
 74
0
 42
0.0000001
 43
0.0000001
 44
0.0000000001
 40
0.0
 40
0.0
 40
0.0
 40
0.0
 40
0.2079594347
 40
0.3966097232
 40
0.5621406634
 40
0.7020062203
 40
0.761840859
 40
0.8147361635
 40
0.8606658584
 40
0.8997507235
 40
0.932271202
 40
0.9588164745
 40
0.9805976227
 40
0.9904200543
 40
1.0
 40
1.0
 40
1.0
 40
1.0
 10
4.301326899
 20
7.4639868012
 30
0.0
 10
4.301326899
 20
7.4631506977
 30
0.0
 10
4.3013481937
 20
7.4615560077
 30
0.0
 10
4.3014504703
 20
7.459297731
 30
0.0
 10
4.3016203102
 20
7.4573181122
 30
0.0
 10
4.3018230486
 20
7.4558625381
 30
0.0
 10
4.3020236922
 20
7.4548666751
 30
0.0
 10
4.3021804868
 20
7.4542480144
 30
0.0
 10
4.302350681
 20
7.4537198078
 30
0.0
 10
4.3025332056
 20
7.4532831302
 30
0.0
 10
4.302727891
 20
7.4529383674
 30
0.0
 10
4.3029348419
 20
7.4526849769
 30
0.0
 10
4.3031296257
 20
7.4525470761
 30
0.0
 10
4.3032880701
 20
7.4524953122
 30
0.0
 10
4.3033663394
 20
7.4524871166
 30
0.0
 10
4.3034048557
 20
7.4524871576
 30
0.0
  0
LINE
  5
33F
100
AcDbEntity
  8
0
100
AcDbLine
 62
7
  6
CONTINUOUS
 10
4.1866401308
 20
6.8412624558
 11
4.1867335125
 21
6.8387441701
  0
SPLINE
  5
340
100
AcDbEntity
  8
0
100
AcDbSpline
 62
7
  6
CONTINUOUS
 70
0
 71
3
 72
16
 73
12
 74
0
 42
0.0000001
 43
0.0000001
 44
0.0000000001
 40
0.0
 40
0.0
 40
0.0
 40
0.0
 40
0.0462415006
 40
0.0978663036
 40
0.2147760776
 40
0.3454905693
 40
0.4841544025
 40
0.624760217
 40
0.7613482551
 40
0.8882004458
 40
1.0
 40
1.0
 40
1.0
 40
1.0
 10
4.1867335125
 20
6.8387441701
 30
0.0
 10
4.1867671593
 20
6.8382123554
 30
0.0
 10
4.1868518185
 20
6.8370876508
 30
0.0
 10
4.1870813866
 20
6.8346231963
 30
0.0
 10
4.1874752914
 20
6.8311968937
 30
0.0
 10
4.1880708655
 20
6.8267852122
 30
0.0
 10
4.1887774654
 20
6.8221135873
 30
0.0
 10
4.189560704
 20
6.8173856174
 30
0.0
 10
4.1903842628
 20
6.8128027156
 30
0.0
 10
4.1912119252
 20
6.8085583222
 30
0.0
 10
4.1917862219
 20
6.8058685084
 30
0.0
 10
4.1920724014
 20
6.8046123382
 30
0.0
  0
SPLINE
  5
341
100
AcDbEntity
  8
0
100
AcDbSpline
 62
7
  6
CONTINUOUS
 70
0
 71
3
 72
20
 73
16
 74
0
 42
0.0000001
 43
0.0000001
 44
0.0000000001
 40
0.0
 40
0.0
 40
0.0
 40
0.0
 40
0.2158424499
 40
0.4086222338
 40
0.5764198421
 40
0.7174323241
 40
0.7775011299
 40
0.8304554873
 40
0.8761989038
 40
0.9146649867
 40
0.9458482881
 40
0.9699201581
 40
0.9794559866
 40
0.9874854898
 40
1.0
 40
1.0
 40
1.0
 40
1.0
 10
4.1920724014
 20
6.8046123382
 30
0.0
 10
4.1921917928
 20
6.804088276
 30
0.0
 10
4.1924236709
 20
6.8030974633
 30
0.0
 10
4.1927720339
 20
6.8017049014
 30
0.0
 10
4.193099073
 20
6.8004993305
 30
0.0
 10
4.1933634887
 20
6.7996194094
 30
0.0
 10
4.1935649431
 20
6.7990196888
 30
0.0
 10
4.1937007032
 20
6.798648302
 30
0.0
 10
4.1938289902
 20
6.7983316615
 30
0.0
 10
4.1939493438
 20
6.7980705316
 30
0.0
 10
4.1940615983
 20
6.7978657049
 30
0.0
 10
4.1941538578
 20
6.7977325822
 30
0.0
 10
4.1942258438
 20
6.7976573546
 30
0.0
 10
4.1942842515
 20
6.7976108811
 30
0.0
 10
4.1943347976
 20
6.797590277
 30
0.0
 10
4.1943659612
 20
6.7975902423
 30
0.0
  0
LINE
  5
342
100
AcDbEntity
  8
0
100
AcDbLine
 62
7
  6
CONTINUOUS
 10
4.3014697487
 20
6.4598777566
 11
4.301326899
 21
6.4590946473
  0
SPLINE
  5
343
100
AcDbEntity
  8
0
100
AcDbSpline
 62
7
  6
CONTINUOUS
 70
0
 71
3
 72
18
 73
14
 74
0
 42
0.0000001
 43
0.0000001
 44
0.0000000001
 40
0.0
 40
0.0
 40
0.0
 40
0.0
 40
0.0207296959
 40
0.0430128936
 40
0.0690685
 40
0.1003264178
 40
0.1376266691
 40
0.18146651
 40
0.2897851438
 40
0.4261516755
 40
0.5903470249
 40
0.7818504296
 40
1.0
 40
1.0
 40
1.0
 40
1.0
 10
4.301887183
 20
6.5306577367
 30
0.0
 10
4.3018647545
 20
6.5306577221
 30
0.0
 10
4.3018177599
 20
6.5306488806
 30
0.0
 10
4.3017531408
 20
6.5306088826
 30
0.0
 10
4.3016945055
 20
6.5305447994
 30
0.0
 10
4.3016406839
 20
6.5304572467
 30
0.0
 10
4.3015910887
 20
6.5303459392
 30
0.0
 10
4.3015258413
 20
6.5301513821
 30
0.0
 10
4.3014594384
 20
6.5298455938
 30
0.0
 10
4.3014000461
 20
6.5294070228
 30
0.0
 10
4.3013574069
 20
6.5288761204
 30
0.0
 10
4.3013318715
 20
6.5282556729
 30
0.0
 10
4.301326899
 20
6.5278124134
 30
0.0
 10
4.301326899
 20
6.5275763869
 30
0.0
  0
SPLINE
  5
344
100
AcDbEntity
  8
0
100
AcDbSpline
 62
7
  6
CONTINUOUS
 70
0
 71
3
 72
19
 73
15
 74
0
 42
0.0000001
 43
0.0000001
 44
0.0000000001
 40
0.0
 40
0.0
 40
0.0
 40
0.0
 40
0.0201250179
 40
0.0421646517
 40
0.0683620595
 40
0.1001008164
 40
0.1381189387
 40
0.1827857564
 40
0.2342886972
 40
0.2927156376
 40
0.4304058841
 40
0.5953853497
 40
0.7859216097
 40
1.0
 40
1.0
 40
1.0
 40
1.0
 10
4.3025485169
 20
6.6432508126
 30
0.0
 10
4.3025010036
 20
6.6432508015
 30
0.0
 10
4.302400473
 20
6.6432305512
 30
0.0
 10
4.3022630018
 20
6.643140784
 30
0.0
 10
4.3021374939
 20
6.6429976714
 30
0.0
 10
4.3020214746
 20
6.6428021189
 30
0.0
 10
4.3019138192
 20
6.6425538158
 30
0.0
 10
4.3018143791
 20
6.6422526965
 30
0.0
 10
4.3017233458
 20
6.6418990283
 30
0.0
 10
4.3016072054
 20
6.6413258672
 30
0.0
 10
4.3014914867
 20
6.6404804657
 30
0.0
 10
4.301395919
 20
6.6393196601
 30
0.0
 10
4.3013384162
 20
6.6379758476
 30
0.0
 10
4.301326899
 20
6.6370205227
 30
0.0
 10
4.301326899
 20
6.6365151027
 30
0.0
  0
SPLINE
  5
345
100
AcDbEntity
  8
0
100
AcDbSpline
 62
7
  6
CONTINUOUS
 70
0
 71
3
 72
20
 73
16
 74
0
 42
0.0000001
 43
0.0000001
 44
0.0000000001
 40
0.0
 40
0.0
 40
0.0
 40
0.0
 40
0.009579947
 40
0.0194024549
 40
0.0411851119
 40
0.067731534
 40
0.1002516952
 40
0.1393357133
 40
0.1852653305
 40
0.2381622577
 40
0.2979983289
 40
0.4378657687
 40
0.6033983225
 40
0.7920462435
 40
1.0
 40
1.0
 40
1.0
 40
1.0
 10
4.3034048549
 20
6.7899864539
 30
0.0
 10
4.3033663386
 20
6.7899864976
 30
0.0
 10
4.3032880684
 20
6.7899783059
 30
0.0
 10
4.3031296173
 20
6.7899265376
 30
0.0
 10
4.3029348467
 20
6.7897885967
 30
0.0
 10
4.3027278938
 20
6.7895352017
 30
0.0
 10
4.3025332003
 20
6.7891904423
 30
0.0
 10
4.3023506698
 20
6.7887537731
 30
0.0
 10
4.3021804732
 20
6.788225564
 30
0.0
 10
4.3020236858
 20
6.7876068893
 30
0.0
 10
4.3018230421
 20
6.7866110064
 30
0.0
 10
4.3016203009
 20
6.7851554129
 30
0.0
 10
4.3014504678
 20
6.7831757894
 30
0.0
 10
4.3013481931
 20
6.780917539
 30
0.0
 10
4.301326899
 20
6.7793228817
 30
0.0
 10
4.301326899
 20
6.7784868012
 30
0.0
  0
SPLINE
  5
346
100
AcDbEntity
  8
0
100
AcDbSpline
 62
7
  6
CONTINUOUS
 70
0
 71
3
 72
22
 73
18
 74
0
 42
0.0000001
 43
0.0000001
 44
0.0000000001
 40
0.0
 40
0.0
 40
0.0
 40
0.0
 40
0.0090062315
 40
0.0184092374
 40
0.0286338175
 40
0.0400048927
 40
0.0670000759
 40
0.1005506958
 40
0.1411512662
 40
0.188931435
 40
0.2437762971
 40
0.3054884604
 40
0.3738227736
 40
0.4484273887
 40
0.6146954351
 40
0.8004266338
 40
1.0
 40
1.0
 40
1.0
 40
1.0
 10
4.3043946986
 20
6.9608633358
 30
0.0
 10
4.3043411909
 20
6.9608634051
 30
0.0
 10
4.3042313711
 20
6.9608502706
 30
0.0
 10
4.3040705597
 20
6.9607908866
 30
0.0
 10
4.3039132535
 20
6.9606931136
 30
0.0
 10
4.3036957294
 20
6.9605017681
 30
0.0
 10
4.3034360996
 20
6.9601578075
 30
0.0
 10
4.3031544161
 20
6.9596256002
 30
0.0
 10
4.3028866118
 20
6.9589512878
 30
0.0
 10
4.3026344083
 20
6.9581380064
 30
0.0
 10
4.3023992257
 20
6.9571899544
 30
0.0
 10
4.3021831417
 20
6.9561126413
 30
0.0
 10
4.3019882052
 20
6.9549122613
 30
0.0
 10
4.301749856
 20
6.9530905
 30
0.0
 10
4.301522399
 20
6.9505651355
 30
0.0
 10
4.301361677
 20
6.9472914339
 30
0.0
 10
4.301326899
 20
6.9450020501
 30
0.0
 10
4.301326899
 20
6.9438163458
 30
0.0
  0
SPLINE
  5
347
100
AcDbEntity
  8
0
100
AcDbSpline
 62
7
  6
CONTINUOUS
 70
0
 71
3
 72
22
 73
18
 74
0
 42
0.0000001
 43
0.0000001
 44
0.0000000001
 40
0.0
 40
0.0
 40
0.0
 40
0.0
 40
0.1995784766
 40
0.3853105544
 40
0.551576862
 40
0.6261802578
 40
0.69451317
 40
0.7562253897
 40
0.8110706918
 40
0.8588500489
 40
0.8994483593
 40
0.93299931
 40
0.9599955639
 40
0.9713667933
 40
0.9815911318
 40
0.9909937321
 40
1.0
 40
1.0
 40
1.0
 40
1.0
 10
4.301326899
 20
7.2986572567
 30
0.0
 10
4.301326899
 20
7.2974715217
 30
0.0
 10
4.3013616766
 20
7.2951821017
 30
0.0
 10
4.3015224055
 20
7.2919083741
 30
0.0
 10
4.3017498632
 20
7.2893830216
 30
0.0
 10
4.3019882105
 20
7.2875612855
 30
0.0
 10
4.3021831543
 20
7.2863609219
 30
0.0
 10
4.3023992341
 20
7.2852836132
 30
0.0
 10
4.3026344087
 20
7.2843355611
 30
0.0
 10
4.3028866022
 20
7.283522292
 30
0.0
 10
4.3031544268
 20
7.2828480047
 30
0.0
 10
4.3034361037
 20
7.2823158017
 30
0.0
 10
4.3036957229
 20
7.2819718208
 30
0.0
 10
4.3039132466
 20
7.281780466
 30
0.0
 10
4.3040705538
 20
7.2816826968
 30
0.0
 10
4.3042313739
 20
7.2816233451
 30
0.0
 10
4.3043411912
 20
7.2816102204
 30
0.0
 10
4.3043946992
 20
7.281610291
 30
0.0
  0
SPLINE
  5
348
100
AcDbEntity
  8
0
100
AcDbSpline
 62
7
  6
CONTINUOUS
 70
0
 71
3
 72
17
 73
13
 74
0
 42
0.0000001
 43
0.0000001
 44
0.0000000001
 40
0.0
 40
0.0
 40
0.0
 40
0.0
 40
0.02149554
 40
0.0443498274
 40
0.0707622932
 40
0.1022090447
 40
0.1833235087
 40
0.2913032795
 40
0.4270150616
 40
0.590546295
 40
0.7816680366
 40
1.0
 40
1.0
 40
1.0
 40
1.0
 10
4.1870791436
 20
6.8435901437
 30
0.0
 10
4.1870615197
 20
6.8435901617
 30
0.0
 10
4.1870248019
 20
6.8435836825
 30
0.0
 10
4.1869739679
 20
6.8435537957
 30
0.0
 10
4.1869277828
 20
6.8435055787
 30
0.0
 10
4.1868661856
 20
6.8434091469
 30
0.0
 10
4.1868026076
 20
6.8432382903
 30
0.0
 10
4.1867436281
 20
6.8429784291
 30
0.0
 10
4.186697276
 20
6.8426474232
 30
0.0
 10
4.1866639183
 20
6.8422466593
 30
0.0
 10
4.1866439972
 20
6.8417771917
 30
0.0
 10
4.1866401308
 20
6.8414414634
 30
0.0
 10
4.1866401308
 20
6.8412624558
 30
0.0
  0
SPLINE
  5
349
100
AcDbEntity
  8
0
100
AcDbSpline
 62
7
  6
CONTINUOUS
 70
0
 71
3
 72
22
 73
18
 74
0
 42
0.0000001
 43
0.0000001
 44
0.0000000001
 40
0.0
 40
0.0
 40
0.0
 40
0.0
 40
0.0077071351
 40
0.0161443035
 40
0.025701225
 40
0.0366367142
 40
0.0632096421
 40
0.0965937369
 40
0.1370342183
 40
0.1845873664
 40
0.239148083
 40
0.3005034247
 40
0.368410386
 40
0.4426091339
 40
0.6086187797
 40
0.7955114104
 40
1.0
 40
1.0
 40
1.0
 40
1.0
 10
4.1933807572
 20
7.3592488723
 30
0.0
 10
4.1933451389
 20
7.359248965
 30
0.0
 10
4.1932702428
 20
7.3592384927
 30
0.0
 10
4.1931592816
 20
7.3591937202
 30
0.0
 10
4.1930465445
 20
7.3591206856
 30
0.0
 10
4.1928826952
 20
7.3589767816
 30
0.0
 10
4.1926755566
 20
7.3587204721
 30
0.0
 10
4.192431471
 20
7.3583252641
 30
0.0
 10
4.1921782114
 20
7.3578241184
 30
0.0
 10
4.1919171018
 20
7.3572189771
 30
0.0
 10
4.1916492688
 20
7.3565123589
 30
0.0
 10
4.1913759513
 20
7.3557078515
 30
0.0
 10
4.1910984898
 20
7.3548093194
 30
0.0
 10
4.1907101877
 20
7.3534392269
 30
0.0
 10
4.190229773
 20
7.3515242805
 30
0.0
 10
4.1896763862
 20
7.3490081845
 30
0.0
 10
4.1893312461
 20
7.3472324594
 30
0.0
 10
4.1891604474
 20
7.3463029798
 30
0.0
  0
SPLINE
  5
34A
100
AcDbEntity
  8
0
100
AcDbSpline
 62
7
  6
CONTINUOUS
 70
0
 71
3
 72
13
 73
9
 74
0
 42
0.0000001
 43
0.0000001
 44
0.0000000001
 40
0.0
 40
0.0
 40
0.0
 40
0.0
 40
0.2529998882
 40
0.5181943201
 40
0.6487129312
 40
0.7743203236
 40
0.8923469389
 40
1.0
 40
1.0
 40
1.0
 40
1.0
 10
4.1891604474
 20
7.3463029798
 30
0.0
 10
4.1887795017
 20
7.3442298881
 30
0.0
 10
4.1880946235
 20
7.3399660201
 30
0.0
 10
4.1874351556
 20
7.3346004879
 30
0.0
 10
4.1870334314
 20
7.3302755907
 30
0.0
 10
4.1868119619
 20
7.3271660232
 30
0.0
 10
4.1866754219
 20
7.3242422671
 30
0.0
 10
4.1866401308
 20
7.3223620248
 30
0.0
 10
4.1866401308
 20
7.3214651417
 30
0.0
  0
SPLINE
  5
34B
100
AcDbEntity
  8
0
100
AcDbSpline
 62
7
  6
CONTINUOUS
 70
0
 71
3
 72
17
 73
13
 74
0
 42
0.0000001
 43
0.0000001
 44
0.0000000001
 40
0.0
 40
0.0
 40
0.0
 40
0.0
 40
0.2195969579
 40
0.410897184
 40
0.5739144456
 40
0.7088181254
 40
0.8160976007
 40
0.896996411
 40
0.9285375144
 40
0.9551315401
 40
0.9782240016
 40
1.0
 40
1.0
 40
1.0
 40
1.0
 10
4.1866401308
 20
7.4174909061
 30
0.0
 10
4.1866401308
 20
7.4174038115
 30
0.0
 10
4.1866419661
 20
7.4172408345
 30
0.0
 10
4.1866515151
 20
7.4170133626
 30
0.0
 10
4.1866675552
 20
7.4168199437
 30
0.0
 10
4.186689903
 20
7.4166606227
 30
0.0
 10
4.1867184386
 20
7.4165356114
 30
0.0
 10
4.1867492329
 20
7.4164533358
 30
0.0
 10
4.1867790443
 20
7.4164066729
 30
0.0
 10
4.186801497
 20
7.4163831756
 30
0.0
 10
4.1868262782
 20
7.4163684996
 30
0.0
 10
4.1868442248
 20
7.4163652293
 30
0.0
 10
4.1868528613
 20
7.4163651813
 30
0.0
  0
SPLINE
  5
34C
100
AcDbEntity
  8
0
100
AcDbSpline
 62
7
  6
CONTINUOUS
 70
0
 71
3
 72
19
 73
15
 74
0
 42
0.0000001
 43
0.0000001
 44
0.0000000001
 40
0.0
 40
0.0
 40
0.0
 40
0.0
 40
0.0197453839
 40
0.0418647005
 40
0.0685809151
 40
0.1011217827
 40
0.1401166125
 40
0.1858855434
 40
0.2385755605
 40
0.2981627027
 40
0.4375277266
 40
0.6027482215
 40
0.7914211015
 40
1.0
 40
1.0
 40
1.0
 40
1.0
 10
4.1886505257
 20
6.9669786235
 30
0.0
 10
4.188575732
 20
6.9669787235
 30
0.0
 10
4.1884155776
 20
6.9669441381
 30
0.0
 10
4.1881980382
 20
6.9667940981
 30
0.0
 10
4.1879972459
 20
6.9665573006
 30
0.0
 10
4.1878089315
 20
6.9662348399
 30
0.0
 10
4.1876322009
 20
6.9658263538
 30
0.0
 10
4.1874674999
 20
6.9653319225
 30
0.0
 10
4.1873157493
 20
6.9647524734
 30
0.0
 10
4.1871213095
 20
6.9638190011
 30
0.0
 10
4.1869246244
 20
6.9624524119
 30
0.0
 10
4.1867599879
 20
6.9605906829
 30
0.0
 10
4.1866607244
 20
6.9584619014
 30
0.0
 10
4.1866401308
 20
6.9569570291
 30
0.0
 10
4.1866401308
 20
6.9561669504
 30
0.0
  0
SPLINE
  5
34D
100
AcDbEntity
  8
0
100
AcDbSpline
 62
7
  6
CONTINUOUS
 70
0
 71
3
 72
19
 73
15
 74
0
 42
0.0000001
 43
0.0000001
 44
0.0000000001
 40
0.0
 40
0.0
 40
0.0
 40
0.0
 40
0.2118774893
 40
0.4015393588
 40
0.5664159512
 40
0.7045126504
 40
0.7633057039
 40
0.8152239713
 40
0.860311409
 40
0.8987171046
 40
0.9308247692
 40
0.9573801207
 40
0.9797088581
 40
1.0
 40
1.0
 40
1.0
 40
1.0
 10
4.1866401308
 20
7.3214651417
 30
0.0
 10
4.1866401308
 20
7.3208542496
 30
0.0
 10
4.1866551054
 20
7.3196964298
 30
0.0
 10
4.1867288888
 20
7.3180646184
 30
0.0
 10
4.1868512426
 20
7.3166490858
 30
0.0
 10
4.1869988424
 20
7.3156155446
 30
0.0
 10
4.1871458527
 20
7.3149131432
 30
0.0
 10
4.1872608448
 20
7.3144786403
 30
0.0
 10
4.1873860075
 20
7.3141084192
 30
0.0
 10
4.1875211601
 20
7.3138030738
 30
0.0
 10
4.187666271
 20
7.3135625706
 30
0.0
 10
4.1878222089
 20
7.3133863052
 30
0.0
 10
4.1879919078
 20
7.3132753007
 30
0.0
 10
4.1881158887
 20
7.3132497586
 30
0.0
 10
4.1881743926
 20
7.3132496231
 30
0.0
  0
SPLINE
  5
34E
100
AcDbEntity
  8
0
100
AcDbSpline
 62
7
  6
CONTINUOUS
 70
0
 71
3
 72
24
 73
20
 74
0
 42
0.0000001
 43
0.0000001
 44
0.0000000001
 40
0.0
 40
0.0
 40
0.0
 40
0.0
 40
0.0081758958
 40
0.0170003631
 40
0.0269580066
 40
0.0383763607
 40
0.0514624112
 40
0.0663439023
 40
0.1017566317
 40
0.144856761
 40
0.1954917504
 40
0.2533878786
 40
0.3181380979
 40
0.3891470633
 40
0.4657807047
 40
0.5473592495
 40
0.6331018811
 40
0.8137934012
 40
1.0
 40
1.0
 40
1.0
 40
1.0
 10
4.2466547781
 20
7.1695154999
 30
0.0
 10
4.2465863073
 20
7.1695155841
 30
0.0
 10
4.2464432326
 20
7.1694943639
 30
0.0
 10
4.2462350042
 20
7.1694018247
 30
0.0
 10
4.2460297087
 20
7.1692516069
 30
0.0
 10
4.2458266736
 20
7.1690451968
 30
0.0
 10
4.2456253497
 20
7.1687831329
 30
0.0
 10
4.2453427698
 20
7.16833311
 30
0.0
 10
4.2450042535
 20
7.1676255804
 30
0.0
 10
4.2446293366
 20
7.1666102058
 30
0.0
 10
4.2442691489
 20
7.1653916883
 30
0.0
 10
4.2439282975
 20
7.1639806395
 30
0.0
 10
4.2436110757
 20
7.1623897912
 30
0.0
 10
4.2433206674
 20
7.1606346588
 30
0.0
 10
4.2430609403
 20
7.1587324205
 30
0.0
 10
4.2428354648
 20
7.1567016535
 30
0.0
 10
4.2425790907
 20
7.1537982354
 30
0.0
 10
4.2423662621
 20
7.1500124202
 30
0.0
 10
4.2423084086
 20
7.1469394964
 30
0.0
 10
4.2423084086
 20
7.1453800695
 30
0.0
  0
SPLINE
  5
34F
100
AcDbEntity
  8
0
100
AcDbSpline
 62
7
  6
CONTINUOUS
 70
0
 71
3
 72
24
 73
20
 74
0
 42
0.0000001
 43
0.0000001
 44
0.0000000001
 40
0.0
 40
0.0
 40
0.0
 40
0.0
 40
0.194674673
 40
0.3785236585
 40
0.4642852807
 40
0.5451056622
 40
0.620412565
 40
0.6896757021
 40
0.7524791014
 40
0.8084490625
 40
0.857258593
 40
0.8987663444
 40
0.9330515973
 40
0.9475902351
 40
0.9604919369
 40
0.9719008472
 40
0.9820490121
 40
0.9912688234
 40
1.0
 40
1.0
 40
1.0
 40
1.0
 10
4.1866401308
 20
7.1645892222
 30
0.0
 10
4.1866401308
 20
7.1632469442
 30
0.0
 10
4.1866845342
 20
7.16063682
 30
0.0
 10
4.1868547079
 20
7.1574392026
 30
0.0
 10
4.1870622197
 20
7.1550317254
 30
0.0
 10
4.1872443976
 20
7.1533737134
 30
0.0
 10
4.1874547933
 20
7.1518337496
 30
0.0
 10
4.1876916091
 20
7.1504234022
 30
0.0
 10
4.1879520185
 20
7.149152971
 30
0.0
 10
4.1882331718
 20
7.1480317779
 30
0.0
 10
4.1885326529
 20
7.1470678299
 30
0.0
 10
4.1888477834
 20
7.1462677103
 30
0.0
 10
4.1891345663
 20
7.1457125303
 30
0.0
 10
4.1893751109
 20
7.1453607677
 30
0.0
 10
4.1895481515
 20
7.1451555467
 30
0.0
 10
4.1897239283
 20
7.1449944812
 30
0.0
 10
4.1899027243
 20
7.1448779525
 30
0.0
 10
4.1900846342
 20
7.144806887
 30
0.0
 10
4.1902088989
 20
7.144790754
 30
0.0
 10
4.1902691002
 20
7.1447907256
 30
0.0
  0
SPLINE
  5
350
100
AcDbEntity
  8
0
100
AcDbSpline
 62
7
  6
CONTINUOUS
 70
0
 71
3
 72
19
 73
15
 74
0
 42
0.0000001
 43
0.0000001
 44
0.0000000001
 40
0.0
 40
0.0
 40
0.0
 40
0.0
 40
0.0197517999
 40
0.042865112
 40
0.0711044272
 40
0.1053491832
 40
0.1460120742
 40
0.1932719619
 40
0.2471791418
 40
0.3076436515
 40
0.4474881057
 40
0.6111172188
 40
0.7962410789
 40
1.0
 40
1.0
 40
1.0
 40
1.0
 10
4.2480772592
 20
7.3510968855
 30
0.0
 10
4.2479949249
 20
7.3510969761
 30
0.0
 10
4.2478153824
 20
7.351056723
 30
0.0
 10
4.2475621776
 20
7.3508959186
 30
0.0
 10
4.2473090214
 20
7.3506418644
 30
0.0
 10
4.2470531426
 20
7.3502950322
 30
0.0
 10
4.2467940748
 20
7.3498558766
 30
0.0
 10
4.2465325614
 20
7.3493251883
 30
0.0
 10
4.2462697243
 20
7.3487045076
 30
0.0
 10
4.2459007587
 20
7.3477108375
 30
0.0
 10
4.2454523469
 20
7.3462604366
 30
0.0
 10
4.244947974
 20
7.34428663
 30
0.0
 10
4.2444642262
 20
7.3420344045
 30
0.0
 10
4.2441734987
 20
7.3404393888
 30
0.0
 10
4.2440321674
 20
7.3396018708
 30
0.0
  0
SPLINE
  5
351
100
AcDbEntity
  8
0
100
AcDbSpline
 62
7
  6
CONTINUOUS
 70
0
 71
3
 72
12
 73
8
 74
0
 42
0.0000001
 43
0.0000001
 44
0.0000000001
 40
0.0
 40
0.0
 40
0.0
 40
0.0
 40
0.2383820569
 40
0.4936209984
 40
0.7523861607
 40
0.8786038431
 40
1.0
 40
1.0
 40
1.0
 40
1.0
 10
4.2440321674
 20
7.3396018708
 30
0.0
 10
4.2437559648
 20
7.3379651164
 30
0.0
 10
4.2432689481
 20
7.3345612783
 30
0.0
 10
4.2427340746
 20
7.3293485313
 30
0.0
 10
4.2424482073
 20
7.324898426
 30
0.0
 10
4.2423295833
 20
7.3213742231
 30
0.0
 10
4.2423084086
 20
7.3196499926
 30
0.0
 10
4.2423084086
 20
7.3188046902
 30
0.0
  0
SPLINE
  5
352
100
AcDbEntity
  8
0
100
AcDbSpline
 62
7
  6
CONTINUOUS
 70
0
 71
3
 72
20
 73
16
 74
0
 42
0.0000001
 43
0.0000001
 44
0.0000000001
 40
0.0
 40
0.0
 40
0.0
 40
0.0
 40
0.0101694031
 40
0.0172842814
 40
0.0260503289
 40
0.0488923495
 40
0.0790923114
 40
0.1167522071
 40
0.1618842511
 40
0.2144619331
 40
0.2744113066
 40
0.4158211111
 40
0.5848224722
 40
0.7800619322
 40
1.0
 40
1.0
 40
1.0
 40
1.0
 10
4.194565179
 20
7.4623652238
 30
0.0
 10
4.1945444126
 20
7.4623653556
 30
0.0
 10
4.1945104563
 20
7.4623467024
 30
0.0
 10
4.1944731536
 20
7.4623095551
 30
0.0
 10
4.1944242507
 20
7.4622468569
 30
0.0
 10
4.194361229
 20
7.4621372065
 30
0.0
 10
4.1942828294
 20
7.4619692545
 30
0.0
 10
4.194197242
 20
7.4617548849
 30
0.0
 10
4.1941044585
 20
7.4614944398
 30
0.0
 10
4.1940048236
 20
7.4611882584
 30
0.0
 10
4.1938547064
 20
7.4606918734
 30
0.0
 10
4.1936539171
 20
7.4599626005
 30
0.0
 10
4.1934002655
 20
7.4589616181
 30
0.0
 10
4.1931247231
 20
7.4578008961
 30
0.0
 10
4.1929383957
 20
7.4569737808
 30
0.0
 10
4.1928415667
 20
7.4565352108
 30
0.0
  0
SPLINE
  5
353
100
AcDbEntity
  8
0
100
AcDbSpline
 62
7
  6
CONTINUOUS
 70
0
 71
3
 72
15
 73
11
 74
0
 42
0.0000001
 43
0.0000001
 44
0.0000000001
 40
0.0
 40
0.0
 40
0.0
 40
0.0
 40
0.1049241171
 40
0.2268338819
 40
0.360439876
 40
0.5000650449
 40
0.6397741947
 40
0.7735484952
 40
0.8954845243
 40
1.0
 40
1.0
 40
1.0
 40
1.0
 10
4.1928415667
 20
7.4565352108
 30
0.0
 10
4.1925790677
 20
7.4553462682
 30
0.0
 10
4.1920401621
 20
7.4527696073
 30
0.0
 10
4.1912380323
 20
7.4486645057
 30
0.0
 10
4.1904047877
 20
7.4441554226
 30
0.0
 10
4.1895759837
 20
7.4394356802
 30
0.0
 10
4.1887882408
 20
7.4347069268
 30
0.0
 10
4.1880782569
 20
7.4301735051
 30
0.0
 10
4.1874807964
 20
7.4260361451
 30
0.0
 10
4.1871471181
 20
7.423429356
 30
0.0
 10
4.1870098172
 20
7.4222243193
 30
0.0
  0
LINE
  5
354
100
AcDbEntity
  8
0
100
AcDbLine
 62
7
  6
CONTINUOUS
 10
4.1870098172
 20
7.4222243193
 11
4.1866401308
 21
7.4174909061
  0
SPLINE
  5
355
100
AcDbEntity
  8
0
100
AcDbSpline
 62
7
  6
CONTINUOUS
 70
0
 71
3
 72
19
 73
15
 74
0
 42
0.0000001
 43
0.0000001
 44
0.0000000001
 40
0.0
 40
0.0
 40
0.0
 40
0.0
 40
0.0347044538
 40
0.0469995862
 40
0.0609785648
 40
0.0941701547
 40
0.134486466
 40
0.1819325093
 40
0.2364297255
 40
0.2978153963
 40
0.4401492965
 40
0.6065813149
 40
0.7943142268
 40
1.0
 40
1.0
 40
1.0
 40
1.0
 10
4.2492673934
 20
7.5051988631
 30
0.0
 10
4.2491127935
 20
7.5051989354
 30
0.0
 10
4.2489188908
 20
7.5050560889
 30
0.0
 10
4.2487414494
 20
7.5048557387
 30
0.0
 10
4.248581668
 20
7.5046427718
 30
0.0
 10
4.2483806222
 20
7.5043086778
 30
0.0
 10
4.2481404459
 20
7.5038257182
 30
0.0
 10
4.247891667
 20
7.5032426377
 30
0.0
 10
4.2476351108
 20
7.5025615781
 30
0.0
 10
4.2472661264
 20
7.5014719043
 30
0.0
 10
4.2468017839
 20
7.499889036
 30
0.0
 10
4.2462563055
 20
7.4977452601
 30
0.0
 10
4.2457095169
 20
7.4953116586
 30
0.0
 10
4.2453643175
 20
7.4935932568
 30
0.0
 10
4.2451924989
 20
7.4926932302
 30
0.0
  0
SPLINE
  5
356
100
AcDbEntity
  8
0
100
AcDbSpline
 62
7
  6
CONTINUOUS
 70
0
 71
3
 72
15
 73
11
 74
0
 42
0.0000001
 43
0.0000001
 44
0.0000000001
 40
0.0
 40
0.0
 40
0.0
 40
0.0
 40
0.124836144
 40
0.256034672
 40
0.3905639632
 40
0.5251739411
 40
0.6565828391
 40
0.7816254922
 40
0.897163076
 40
1.0
 40
1.0
 40
1.0
 40
1.0
 10
4.2451924989
 20
7.4926932302
 30
0.0
 10
4.2449826294
 20
7.4915938841
 30
0.0
 10
4.244578564
 20
7.4893340773
 30
0.0
 10
4.244031329
 20
7.4858753542
 30
0.0
 10
4.243538587
 20
7.4823199506
 30
0.0
 10
4.2431128492
 20
7.4787539973
 30
0.0
 10
4.2427669492
 20
7.4752648548
 30
0.0
 10
4.242509989
 20
7.4719394343
 30
0.0
 10
4.2423508573
 20
7.4688643693
 30
0.0
 10
4.2423084086
 20
7.4669065297
 30
0.0
 10
4.2423084086
 20
7.465984561
 30
0.0
  0
LINE
  5
357
100
AcDbEntity
  8
ALL_ASSEMBLY_MEMBERS
100
AcDbLine
 62
7
  6
CONTINUOUS
 10
5.2456572337
 20
0.9151190463
 11
5.2451816312
 21
0.9156692976
  0
LINE
  5
358
100
AcDbEntity
  8
ALL_ASSEMBLY_MEMBERS
100
AcDbLine
 62
7
  6
CONTINUOUS
 10
5.2456583464
 20
0.8537188251
 11
5.2451816312
 21
0.8531685748
  0
LINE
  5
359
100
AcDbEntity
  8
ALL_ASSEMBLY_MEMBERS
100
AcDbLine
 62
7
  6
CONTINUOUS
 10
6.0577046544
 20
1.0322938377
 11
6.0581809347
 21
1.031743587
  0
LINE
  5
35A
100
AcDbEntity
  8
ALL_ASSEMBLY_MEMBERS
100
AcDbLine
 62
7
  6
CONTINUOUS
 10
5.2826800696
 20
0.7322614869
 11
5.2825073164
 21
0.7321211038
  0
LINE
  5
35B
100
AcDbEntity
  8
ALL_ASSEMBLY_MEMBERS
100
AcDbLine
 62
7
  6
CONTINUOUS
 10
5.2825073164
 20
0.7321211038
 11
5.2825400685
 21
0.7318777958
  0
LINE
  5
35C
100
AcDbEntity
  8
ALL_ASSEMBLY_MEMBERS
100
AcDbLine
 62
7
  6
CONTINUOUS
 10
5.2451815073
 20
0.7817385892
 11
5.2456574165
 21
0.7822888439
  0
LINE
  5
35D
100
AcDbEntity
  8
ALL_ASSEMBLY_MEMBERS
100
AcDbLine
 62
7
  6
CONTINUOUS
 10
6.0581807841
 20
0.8174535959
 11
6.0577044742
 21
0.8180038469
  0
SPLINE
  5
35E
100
AcDbEntity
  8
ALL_ASSEMBLY_MEMBERS
100
AcDbSpline
 62
7
  6
CONTINUOUS
 70
0
 71
3
 72
14
 73
10
 74
0
 42
0.0000001
 43
0.0000001
 44
0.0000000001
 40
0.0
 40
0.0
 40
0.0
 40
0.0
 40
0.1258205618
 40
0.2335482536
 40
0.3313786498
 40
0.4299952872
 40
0.5398365136
 40
0.668626353
 40
1.0
 40
1.0
 40
1.0
 40
1.0
 10
6.0434646194
 20
0.7545202051
 30
0.0
 10
6.0434784746
 20
0.7545340502
 30
0.0
 10
6.0435023495
 20
0.7545618244
 30
0.0
 10
6.0435261861
 20
0.7546083063
 30
0.0
 10
6.0435336085
 20
0.754656042
 30
0.0
 10
6.0435237412
 20
0.7547036339
 30
0.0
 10
6.0434976963
 20
0.7547499309
 30
0.0
 10
6.0434376556
 20
0.7548159204
 30
0.0
 10
6.0433770835
 20
0.7548560022
 30
0.0
 10
6.0433324122
 20
0.7548818019
 30
0.0
  0
LINE
  5
35F
100
AcDbEntity
  8
ALL_ASSEMBLY_MEMBERS
100
AcDbLine
 62
7
  6
CONTINUOUS
 10
5.2843672007
 20
0.9475269095
 11
5.2846746339
 21
0.9476843411
  0
SPLINE
  5
360
100
AcDbEntity
  8
ALL_ASSEMBLY_MEMBERS
100
AcDbSpline
 62
7
  6
CONTINUOUS
 70
0
 71
3
 72
40
 73
36
 74
0
 42
0.0000001
 43
0.0000001
 44
0.0000000001
 40
0.0
 40
0.0
 40
0.0
 40
0.0
 40
0.0008657058
 40
0.0019121237
 40
0.0031422455
 40
0.0045576851
 40
0.0061593078
 40
0.0079475405
 40
0.0120841672
 40
0.0169670021
 40
0.0225915585
 40
0.0289505833
 40
0.0360363081
 40
0.0438406889
 40
0.0523545491
 40
0.071461683
 40
0.0932563896
 40
0.1176244501
 40
0.1444331216
 40
0.1735415726
 40
0.2047905639
 40
0.2380147369
 40
0.2730333244
 40
0.3096591767
 40
0.3869345619
 40
0.4681786814
 40
0.5516434263
 40
0.6355326072
 40
0.718040863
 40
0.7973927624
 40
0.8718811645
 40
0.9067964689
 40
0.9399041936
 40
0.9710287084
 40
1.0
 40
1.0
 40
1.0
 40
1.0
 10
5.2846746339
 20
0.9476843411
 30
0.0
 10
5.2848433388
 20
0.9477618419
 30
0.0
 10
5.2852253397
 20
0.9479125294
 30
0.0
 10
5.2858672153
 20
0.9481184974
 30
0.0
 10
5.286631796
 20
0.9483250842
 30
0.0
 10
5.287518911
 20
0.9485321297
 30
0.0
 10
5.2885284445
 20
0.9487395324
 30
0.0
 10
5.2901161468
 20
0.9490307219
 30
0.0
 10
5.2924065261
 20
0.9493883492
 30
0.0
 10
5.2955199409
 20
0.9498010425
 30
0.0
 10
5.2991134386
 20
0.9502147191
 30
0.0
 10
5.3031819658
 20
0.9506292738
 30
0.0
 10
5.3077200657
 20
0.95104439
 30
0.0
 10
5.3127219768
 20
0.9514599446
 30
0.0
 10
5.3202972414
 20
0.9520367718
 30
0.0
 10
5.3308709468
 20
0.9527485326
 30
0.0
 10
5.3448440461
 20
0.9535755312
 30
0.0
 10
5.3604712732
 20
0.9544038724
 30
0.0
 10
5.3776688764
 20
0.955233512
 30
0.0
 10
5.396343667
 20
0.9560638065
 30
0.0
 10
5.4163955176
 20
0.9568948395
 30
0.0
 10
5.4377158289
 20
0.9577262209
 30
0.0
 10
5.4601900443
 20
0.9585580466
 30
0.0
 10
5.4921066629
 20
0.9596876867
 30
0.0
 10
5.5339332295
 20
0.9610856431
 30
0.0
 10
5.5858016863
 20
0.9627366574
 30
0.0
 10
5.6390891694
 20
0.964388566
 30
0.0
 10
5.6926478728
 20
0.96604068
 30
0.0
 10
5.7453241568
 20
0.967692175
 30
0.0
 10
5.7959834212
 20
0.9693423196
 30
0.0
 10
5.8364387835
 20
0.970743726
 30
0.0
 10
5.8669800512
 20
0.9718772764
 30
0.0
 10
5.8882264867
 20
0.9727087496
 30
0.0
 10
5.9081971895
 20
0.9735396342
 30
0.0
 10
5.921072223
 20
0.9741147878
 30
0.0
 10
5.9272785059
 20
0.9744044043
 30
0.0
  0
SPLINE
  5
361
100
AcDbEntity
  8
ALL_ASSEMBLY_MEMBERS
100
AcDbSpline
 62
7
  6
CONTINUOUS
 70
0
 71
3
 72
29
 73
25
 74
0
 42
0.0000001
 43
0.0000001
 44
0.0000000001
 40
0.0
 40
0.0
 40
0.0
 40
0.0
 40
0.2248974981
 40
0.4237312293
 40
0.5128728127
 40
0.5949147456
 40
0.6696857872
 40
0.7370497689
 40
0.7968770431
 40
0.8490427116
 40
0.8722228711
 40
0.8934575121
 40
0.9127400063
 40
0.930064838
 40
0.9454281837
 40
0.9588289198
 40
0.9702714947
 40
0.9752638371
 40
0.9797745323
 40
0.9838086376
 40
0.9873733672
 40
0.9904793548
 40
0.993142906
 40
1.0
 40
1.0
 40
1.0
 40
1.0
 10
5.9272785059
 20
0.9744044043
 30
0.0
 10
5.9342418737
 20
0.9747293501
 30
0.0
 10
5.9473602872
 20
0.9753706099
 30
0.0
 10
5.9632334068
 20
0.9762457817
 30
0.0
 10
5.9746805998
 20
0.9769548817
 30
0.0
 10
5.9822870725
 20
0.9774667546
 30
0.0
 10
5.9892168938
 20
0.9779781986
 30
0.0
 10
5.9954561571
 20
0.9784889281
 30
0.0
 10
6.0009922038
 20
0.9789987351
 30
0.0
 10
6.0051591559
 20
0.9794379732
 30
0.0
 10
6.0081315982
 20
0.9797938102
 30
0.0
 10
6.0100893362
 20
0.9800498847
 30
0.0
 10
6.0118639291
 20
0.9803057117
 30
0.0
 10
6.0134545055
 20
0.9805612422
 30
0.0
 10
6.0148602553
 20
0.9808163327
 30
0.0
 10
6.0160803926
 20
0.9810709028
 30
0.0
 10
6.0169788718
 20
0.9812912012
 30
0.0
 10
6.0176030595
 20
0.9814701825
 30
0.0
 10
6.0180026941
 20
0.981598082
 30
0.0
 10
6.0183559257
 20
0.981726063
 30
0.0
 10
6.0186617174
 20
0.9818532739
 30
0.0
 10
6.018923573
 20
0.9819823324
 30
0.0
 10
6.01925119
 20
0.9821762679
 30
0.0
 10
6.0195207648
 20
0.9824214027
 30
0.0
 10
6.0195210014
 20
0.9826339458
 30
0.0
  0
LINE
  5
362
100
AcDbEntity
  8
ALL_ASSEMBLY_MEMBERS
100
AcDbLine
 62
7
  6
CONTINUOUS
 10
5.2843681102
 20
0.8760969129
 11
5.2853184258
 21
0.8765078455
  0
SPLINE
  5
363
100
AcDbEntity
  8
ALL_ASSEMBLY_MEMBERS
100
AcDbSpline
 62
7
  6
CONTINUOUS
 70
0
 71
3
 72
35
 73
31
 74
0
 42
0.0000001
 43
0.0000001
 44
0.0000000001
 40
0.0
 40
0.0
 40
0.0
 40
0.0
 40
0.0010678072
 40
0.0022910308
 40
0.0052085583
 40
0.0087582301
 40
0.0129397885
 40
0.0177511098
 40
0.0231892024
 40
0.0292505727
 40
0.0359308867
 40
0.0511211439
 40
0.0687021491
 40
0.0886115163
 40
0.1107707361
 40
0.1350953327
 40
0.161493724
 40
0.1898611786
 40
0.2200906001
 40
0.2520644633
 40
0.2856579448
 40
0.3571829545
 40
0.4335582926
 40
0.5136019375
 40
0.5960754942
 40
0.6797023237
 40
0.7631872944
 40
0.8452382294
 40
0.9245853573
 40
1.0
 40
1.0
 40
1.0
 40
1.0
 10
5.2853184258
 20
0.8765078455
 30
0.0
 10
5.2855025081
 20
0.876571434
 30
0.0
 10
5.2859013065
 20
0.8766967936
 30
0.0
 10
5.2868182004
 20
0.8769459278
 30
0.0
 10
5.2881882278
 20
0.8772497892
 30
0.0
 10
5.2900991055
 20
0.8775985363
 30
0.0
 10
5.2923600246
 20
0.8779485009
 30
0.0
 10
5.2949686822
 20
0.878299477
 30
0.0
 10
5.2979228247
 20
0.8786510756
 30
0.0
 10
5.3012199246
 20
0.8790031648
 30
0.0
 10
5.3062907269
 20
0.879494281
 30
0.0
 10
5.3134610396
 20
0.8800990234
 30
0.0
 10
5.3230439179
 20
0.8807997628
 30
0.0
 10
5.3339007493
 20
0.8815017633
 30
0.0
 10
5.3459897259
 20
0.8822050348
 30
0.0
 10
5.3592639902
 20
0.8829091034
 30
0.0
 10
5.3736719923
 20
0.8836136815
 30
0.0
 10
5.3891581299
 20
0.8843188148
 30
0.0
 10
5.4056621397
 20
0.885024229
 30
0.0
 10
5.423120123
 20
0.8857299373
 30
0.0
 10
5.4481057118
 20
0.886691396
 30
0.0
 10
5.4811867066
 20
0.8878825795
 30
0.0
 10
5.522737405
 20
0.8892856708
 30
0.0
 10
5.5662860352
 20
0.8906898331
 30
0.0
 10
5.6111578907
 20
0.8920946902
 30
0.0
 10
5.6566576962
 20
0.8934998364
 30
0.0
 10
5.7020803844
 20
0.8949049568
 30
0.0
 10
5.7467221411
 20
0.8963096966
 30
0.0
 10
5.7898912395
 20
0.8977136684
 30
0.0
 10
5.8181015484
 20
0.8986781391
 30
0.0
 10
5.8318476774
 20
0.8991654213
 30
0.0
  0
SPLINE
  5
364
100
AcDbEntity
  8
ALL_ASSEMBLY_MEMBERS
100
AcDbSpline
 62
7
  6
CONTINUOUS
 70
0
 71
3
 72
35
 73
31
 74
0
 42
0.0000001
 43
0.0000001
 44
0.0000000001
 40
0.0
 40
0.0
 40
0.0
 40
0.0
 40
0.2163042417
 40
0.3169984183
 40
0.4121220166
 40
0.5012678404
 40
0.5840386198
 40
0.6600800633
 40
0.7290611576
 40
0.7906780774
 40
0.8446758425
 40
0.868740616
 40
0.890814784
 40
0.9108787422
 40
0.9289135548
 40
0.944901153
 40
0.9588254452
 40
0.9706791804
 40
0.9758299285
 40
0.9804640988
 40
0.9845833192
 40
0.988190456
 40
0.9912904267
 40
0.9938917804
 40
0.9960100652
 40
0.9976761197
 40
0.9983593368
 40
0.9989593083
 40
0.9994967176
 40
1.0
 40
1.0
 40
1.0
 40
1.0
 10
5.8318476774
 20
0.8991654213
 30
0.0
 10
5.8454316318
 20
0.8996469545
 30
0.0
 10
5.8653383673
 20
0.9003771104
 30
0.0
 10
5.8912157342
 20
0.9014012951
 30
0.0
 10
5.9091070809
 20
0.902150755
 30
0.0
 10
5.9258711035
 20
0.90289968
 30
0.0
 10
5.9414347546
 20
0.9036481586
 30
0.0
 10
5.955729718
 20
0.9043958997
 30
0.0
 10
5.968693469
 20
0.9051425601
 30
0.0
 10
5.9802695207
 20
0.9058881097
 30
0.0
 10
5.9890236451
 20
0.9065296468
 30
0.0
 10
5.9952947381
 20
0.9070495066
 30
0.0
 10
5.9994380585
 20
0.9074240385
 30
0.0
 10
6.0032008135
 20
0.9077981764
 30
0.0
 10
6.0065790621
 20
0.9081718421
 30
0.0
 10
6.0095689831
 20
0.9085447763
 30
0.0
 10
6.0121671605
 20
0.908916924
 30
0.0
 10
6.0140841628
 20
0.9092391026
 30
0.0
 10
6.0154185305
 20
0.9095011189
 30
0.0
 10
6.0162721042
 20
0.9096881185
 30
0.0
 10
6.0170261756
 20
0.9098748425
 30
0.0
 10
6.0176806632
 20
0.9100612319
 30
0.0
 10
6.0182355151
 20
0.9102471597
 30
0.0
 10
6.0186911788
 20
0.9104325568
 30
0.0
 10
6.0190479337
 20
0.9106173884
 30
0.0
 10
6.0192784737
 20
0.9107811385
 30
0.0
 10
6.0194068959
 20
0.9109155896
 30
0.0
 10
6.0194718934
 20
0.9110105289
 30
0.0
 10
6.0195116454
 20
0.9111066087
 30
0.0
 10
6.0195206883
 20
0.9111722969
 30
0.0
 10
6.0195206632
 20
0.911203923
 30
0.0
  0
LINE
  5
365
100
AcDbEntity
  8
ALL_ASSEMBLY_MEMBERS
100
AcDbLine
 62
7
  6
CONTINUOUS
 10
5.6516812358
 20
0.933526787
 11
5.7151882713
 21
0.93531017
  0
LINE
  5
366
100
AcDbEntity
  8
ALL_ASSEMBLY_MEMBERS
100
AcDbLine
 62
7
  6
CONTINUOUS
 10
5.7155943097
 20
0.9353216676
 11
5.7309640578
 21
0.9357583655
  0
LINE
  5
367
100
AcDbEntity
  8
ALL_ASSEMBLY_MEMBERS
100
AcDbLine
 62
7
  6
CONTINUOUS
 10
5.7316446947
 20
0.9357777768
 11
5.7362844615
 21
0.9359102796
  0
SPLINE
  5
368
100
AcDbEntity
  8
ALL_ASSEMBLY_MEMBERS
100
AcDbSpline
 62
7
  6
CONTINUOUS
 70
0
 71
3
 72
33
 73
29
 74
0
 42
0.0000001
 43
0.0000001
 44
0.0000000001
 40
0.0
 40
0.0
 40
0.0
 40
0.0
 40
0.1983475416
 40
0.2931910327
 40
0.3842840932
 40
0.4710191099
 40
0.552813593
 40
0.6291255917
 40
0.6994398014
 40
0.763291673
 40
0.8202485737
 40
0.8460240996
 40
0.8699376587
 40
0.8919486935
 40
0.9120241051
 40
0.930131789
 40
0.9462403136
 40
0.960324913
 40
0.9723682527
 40
0.9776197799
 40
0.9823557004
 40
0.9865748777
 40
0.9902773967
 40
0.9934652531
 40
0.9961422272
 40
0.9983153982
 40
0.9992174093
 40
1.0
 40
1.0
 40
1.0
 40
1.0
 10
5.7370153866
 20
0.935931183
 30
0.0
 10
5.7582457543
 20
0.9365384578
 30
0.0
 10
5.789627395
 20
0.937451009
 30
0.0
 10
5.8307573716
 20
0.9387067441
 30
0.0
 10
5.8599403138
 20
0.9396342062
 30
0.0
 10
5.8877252492
 20
0.9405611607
 30
0.0
 10
5.9139265191
 20
0.9414876418
 30
0.0
 10
5.9383683119
 20
0.9424133047
 30
0.0
 10
5.9608873714
 20
0.9433380718
 30
0.0
 10
5.9813320411
 20
0.9442614214
 30
0.0
 10
5.9970084131
 20
0.9450533931
 30
0.0
 10
6.008410122
 20
0.9456937851
 30
0.0
 10
6.0160737704
 20
0.9461576915
 30
0.0
 10
6.0231258642
 20
0.9466213088
 30
0.0
 10
6.02955484
 20
0.9470844799
 30
0.0
 10
6.0353500229
 20
0.9475470449
 30
0.0
 10
6.0405015315
 20
0.9480088022
 30
0.0
 10
6.045000806
 20
0.9484696112
 30
0.0
 10
6.0483374814
 20
0.9488681072
 30
0.0
 10
6.050674259
 20
0.9491920612
 30
0.0
 10
6.0521778582
 20
0.949423543
 30
0.0
 10
6.0535134867
 20
0.9496546748
 30
0.0
 10
6.0546806409
 20
0.9498853975
 30
0.0
 10
6.0556792224
 20
0.9501154227
 30
0.0
 10
6.0565091091
 20
0.9503446419
 30
0.0
 10
6.0570924412
 20
0.9505449092
 30
0.0
 10
6.0574715856
 20
0.9507093838
 30
0.0
 10
6.0576321376
 20
0.9507921114
 30
0.0
 10
6.0577046994
 20
0.9508340303
 30
0.0
  0
SPLINE
  5
369
100
AcDbEntity
  8
ALL_ASSEMBLY_MEMBERS
100
AcDbSpline
 62
7
  6
CONTINUOUS
 70
0
 71
3
 72
69
 73
65
 74
0
 42
0.0000001
 43
0.0000001
 44
0.0000000001
 40
0.0
 40
0.0
 40
0.0
 40
0.0
 40
0.0003693031
 40
0.000804554
 40
0.0013075557
 40
0.0018794444
 40
0.0032325083
 40
0.0048674847
 40
0.0067860562
 40
0.008988513
 40
0.0114741435
 40
0.0142419275
 40
0.0206189765
 40
0.0281088068
 40
0.0366954741
 40
0.0463584888
 40
0.0570768637
 40
0.0688269538
 40
0.0815801643
 40
0.0953072569
 40
0.1099777495
 40
0.1255563452
 40
0.1592912477
 40
0.1961991571
 40
0.2359363961
 40
0.2781316263
 40
0.322392698
 40
0.3683058593
 40
0.4154432472
 40
0.4633652366
 40
0.5116245025
 40
0.5597711011
 40
0.6073555659
 40
0.6539345481
 40
0.6990727737
 40
0.7423499876
 40
0.7833624307
 40
0.8217271328
 40
0.8570880338
 40
0.8891142042
 40
0.9037833392
 40
0.9175090281
 40
0.9302607815
 40
0.9420093722
 40
0.9527262072
 40
0.9623876407
 40
0.9709727159
 40
0.9784609687
 40
0.9817885555
 40
0.9848364911
 40
0.9876034553
 40
0.9900882445
 40
0.9922898339
 40
0.9942075073
 40
0.9958415627
 40
0.9971937143
 40
0.9977651614
 40
0.998267738
 40
0.9987025863
 40
0.9990715166
 40
0.9993775587
 40
0.9996261104
 40
0.9998273238
 40
1.0
 40
1.0
 40
1.0
 40
1.0
 10
6.0577046982
 20
0.8079740445
 30
0.0
 10
6.0576179351
 20
0.8079239207
 30
0.0
 10
6.0574226735
 20
0.8078255192
 30
0.0
 10
6.0570948187
 20
0.8076894874
 30
0.0
 10
6.0567082341
 20
0.807553201
 30
0.0
 10
6.0560782084
 20
0.8073602794
 30
0.0
 10
6.0551409911
 20
0.8071244435
 30
0.0
 10
6.053837371
 20
0.8068534551
 30
0.0
 10
6.0522992617
 20
0.8065816778
 30
0.0
 10
6.0505274345
 20
0.8063092258
 30
0.0
 10
6.04852289
 20
0.806036286
 30
0.0
 10
6.0453904741
 20
0.8056536069
 30
0.0
 10
6.0409013402
 20
0.8051833874
 30
0.0
 10
6.0348332697
 20
0.8046402083
 30
0.0
 10
6.0278706469
 20
0.804095768
 30
0.0
 10
6.0200297946
 20
0.8035501734
 30
0.0
 10
6.0113288179
 20
0.8030038991
 30
0.0
 10
6.0017879326
 20
0.8024571622
 30
0.0
 10
5.9914295086
 20
0.8019099702
 30
0.0
 10
5.9802777049
 20
0.8013624554
 30
0.0
 10
5.9683584548
 20
0.8008147483
 30
0.0
 10
5.9510142569
 20
0.800064099
 30
0.0
 10
5.9276387142
 20
0.79913396
 30
0.0
 10
5.8977097287
 20
0.7980436696
 30
0.0
 10
5.8654838818
 20
0.7969523066
 30
0.0
 10
5.8312619063
 20
0.795860044
 30
0.0
 10
5.7953634618
 20
0.7947672339
 30
0.0
 10
5.7581235084
 20
0.793673971
 30
0.0
 10
5.7198898526
 20
0.7925804319
 30
0.0
 10
5.6810193917
 20
0.7914867252
 30
0.0
 10
5.6418750025
 20
0.7903929381
 30
0.0
 10
5.6028222267
 20
0.7892991869
 30
0.0
 10
5.5642255296
 20
0.7882055389
 30
0.0
 10
5.5264454027
 20
0.787112142
 30
0.0
 10
5.4898344299
 20
0.7860190686
 30
0.0
 10
5.4547344751
 20
0.7849265154
 30
0.0
 10
5.4214732507
 20
0.7838346765
 30
0.0
 10
5.3903611031
 20
0.782743799
 30
0.0
 10
5.3616887121
 20
0.7816543002
 30
0.0
 10
5.3394442663
 20
0.7807228159
 30
0.0
 10
5.3230678335
 20
0.779970339
 30
0.0
 10
5.3119171762
 20
0.7794228059
 30
0.0
 10
5.3015599371
 20
0.7788756183
 30
0.0
 10
5.2920202727
 20
0.7783288846
 30
0.0
 10
5.2833205553
 20
0.7777825994
 30
0.0
 10
5.2754809743
 20
0.7772370415
 30
0.0
 10
5.2685196777
 20
0.776692486
 30
0.0
 10
5.2632765013
 20
0.776223365
 30
0.0
 10
5.2595341304
 20
0.775843272
 30
0.0
 10
5.2570686345
 20
0.7755697445
 30
0.0
 10
5.2548333111
 20
0.7752964865
 30
0.0
 10
5.2528294564
 20
0.7750235692
 30
0.0
 10
5.251058345
 20
0.7747511125
 30
0.0
 10
5.2495209763
 20
0.7744793343
 30
0.0
 10
5.2482181123
 20
0.7742083399
 30
0.0
 10
5.2472815368
 20
0.773972495
 30
0.0
 10
5.2466520122
 20
0.7737795622
 30
0.0
 10
5.2462658086
 20
0.7736432773
 30
0.0
 10
5.2459382589
 20
0.7735072362
 30
0.0
 10
5.2456691152
 20
0.7733713892
 30
0.0
 10
5.2454577885
 20
0.7732355443
 30
0.0
 10
5.245303516
 20
0.7730987031
 30
0.0
 10
5.2452055302
 20
0.7729581943
 30
0.0
 10
5.2451812753
 20
0.7728561364
 30
0.0
 10
5.2451812369
 20
0.7728092851
 30
0.0
  0
SPLINE
  5
36A
100
AcDbEntity
  8
ALL_ASSEMBLY_MEMBERS
100
AcDbSpline
 62
7
  6
CONTINUOUS
 70
0
 71
3
 72
69
 73
65
 74
0
 42
0.0000001
 43
0.0000001
 44
0.0000000001
 40
0.0
 40
0.0
 40
0.0
 40
0.0
 40
0.0001896295
 40
0.0004053167
 40
0.000665455
 40
0.0009806854
 40
0.0013569506
 40
0.0017976874
 40
0.0023049858
 40
0.002880177
 40
0.0042373323
 40
0.0058735717
 40
0.0077909016
 40
0.0099902699
 40
0.0124716088
 40
0.0152338849
 40
0.0182757999
 40
0.0215959134
 40
0.0290644641
 40
0.0376259088
 40
0.0472605372
 40
0.0579457067
 40
0.0696584622
 40
0.082372528
 40
0.096057079
 40
0.1106808844
 40
0.1426119885
 40
0.1778676773
 40
0.2161228592
 40
0.2570214998
 40
0.3001836328
 40
0.3452090148
 40
0.3916780949
 40
0.4391599105
 40
0.4872123264
 40
0.5353891271
 40
0.5832419561
 40
0.630326542
 40
0.6762044388
 40
0.7204499119
 40
0.7626515068
 40
0.8024167072
 40
0.8393775687
 40
0.8731889774
 40
0.8888157898
 40
0.9035399475
 40
0.9173274511
 40
0.930147886
 40
0.9419710683
 40
0.952768638
 40
0.962517729
 40
0.9711967264
 40
0.9787848161
 40
0.9852668148
 40
0.9880895975
 40
0.9906319084
 40
0.9928927511
 40
0.9948714703
 40
0.9965684933
 40
0.9979856678
 40
0.9985904442
 40
0.9991269077
 40
0.9995961842
 40
1.0
 40
1.0
 40
1.0
 40
1.0
 10
5.2838413624
 20
0.8219189515
 30
0.0
 10
5.2838413173
 20
0.8219655196
 30
0.0
 10
5.2838622996
 20
0.8220657166
 30
0.0
 10
5.2839497862
 20
0.8222063203
 30
0.0
 10
5.2840889693
 20
0.8223435012
 30
0.0
 10
5.2842798007
 20
0.8224795198
 30
0.0
 10
5.2845228377
 20
0.8226153742
 30
0.0
 10
5.2848185375
 20
0.8227513277
 30
0.0
 10
5.2851671217
 20
0.8228874685
 30
0.0
 10
5.2857346356
 20
0.8230799532
 30
0.0
 10
5.2865793587
 20
0.8233154265
 30
0.0
 10
5.2877547768
 20
0.8235860598
 30
0.0
 10
5.289141441
 20
0.8238574834
 30
0.0
 10
5.2907388589
 20
0.8241295489
 30
0.0
 10
5.2925463272
 20
0.8244020221
 30
0.0
 10
5.2945627254
 20
0.8246748367
 30
0.0
 10
5.2967867598
 20
0.8249479183
 30
0.0
 10
5.3001619757
 20
0.8253273366
 30
0.0
 10
5.3048909097
 20
0.8257957627
 30
0.0
 10
5.3111700808
 20
0.8263394387
 30
0.0
 10
5.3182417039
 20
0.826884047
 30
0.0
 10
5.3260891847
 20
0.8274294644
 30
0.0
 10
5.3346945144
 20
0.8279753622
 30
0.0
 10
5.3440377455
 20
0.8285216007
 30
0.0
 10
5.3540969601
 20
0.8290682207
 30
0.0
 10
5.3688711235
 20
0.8298195669
 30
0.0
 10
5.3889402313
 20
0.8307494159
 30
0.0
 10
5.4148112072
 20
0.8318372439
 30
0.0
 10
5.4428861088
 20
0.8329262796
 30
0.0
 10
5.4729039368
 20
0.8340163573
 30
0.0
 10
5.5045853541
 20
0.8351071428
 30
0.0
 10
5.5376354805
 20
0.8361984017
 30
0.0
 10
5.5717469514
 20
0.8372900492
 30
0.0
 10
5.6066021464
 20
0.8383818911
 30
0.0
 10
5.6418769103
 20
0.8394738801
 30
0.0
 10
5.6772428284
 20
0.8405658747
 30
0.0
 10
5.712370961
 20
0.8416578224
 30
0.0
 10
5.7469342737
 20
0.8427495774
 30
0.0
 10
5.7806112722
 20
0.8438410786
 30
0.0
 10
5.8130885026
 20
0.8449321491
 30
0.0
 10
5.8440637547
 20
0.8460226285
 30
0.0
 10
5.8732489634
 20
0.8471123164
 30
0.0
 10
5.900372275
 20
0.848200841
 30
0.0
 10
5.9215693715
 20
0.8491293948
 30
0.0
 10
5.9373081662
 20
0.8498785855
 30
0.0
 10
5.9481336321
 20
0.8504254486
 30
0.0
 10
5.9582690033
 20
0.8509720987
 30
0.0
 10
5.9676908844
 20
0.8515184086
 30
0.0
 10
5.9763772148
 20
0.852064304
 30
0.0
 10
5.9843077197
 20
0.8526097798
 30
0.0
 10
5.9914641451
 20
0.8531545584
 30
0.0
 10
5.9978299876
 20
0.8536982335
 30
0.0
 10
6.0033903085
 20
0.8542407598
 30
0.0
 10
6.0075124362
 20
0.8547100981
 30
0.0
 10
6.0103967042
 20
0.8550917874
 30
0.0
 10
6.0122495729
 20
0.8553643764
 30
0.0
 10
6.0138927463
 20
0.8556365192
 30
0.0
 10
6.0153252939
 20
0.8559080716
 30
0.0
 10
6.0165465128
 20
0.856178927
 30
0.0
 10
6.0174294703
 20
0.8564142978
 30
0.0
 10
6.0180277977
 20
0.8566063944
 30
0.0
 10
6.0183992592
 20
0.85674261
 30
0.0
 10
6.0187177469
 20
0.8568786294
 30
0.0
 10
6.0189089211
 20
0.8569763595
 30
0.0
 10
6.0189947822
 20
0.8570259768
 30
0.0
  0
SPLINE
  5
36B
100
AcDbEntity
  8
ALL_ASSEMBLY_MEMBERS
100
AcDbSpline
 62
7
  6
CONTINUOUS
 70
0
 71
3
 72
30
 73
26
 74
0
 42
0.0000001
 43
0.0000001
 44
0.0000000001
 40
0.0
 40
0.0
 40
0.0
 40
0.0
 40
0.0015811644
 40
0.0033125117
 40
0.0053110634
 40
0.0076542227
 40
0.0103903704
 40
0.0135499428
 40
0.0212078721
 40
0.0307211253
 40
0.042131242
 40
0.0554595905
 40
0.0707173483
 40
0.0879100411
 40
0.1070398245
 40
0.1281067264
 40
0.1511087733
 40
0.2028875422
 40
0.2623020701
 40
0.3292694026
 40
0.4037027791
 40
0.4854977591
 40
0.5745191641
 40
0.7736820759
 40
1.0
 40
1.0
 40
1.0
 40
1.0
 10
5.2838418104
 20
0.7504889226
 30
0.0
 10
5.2838417783
 20
0.7505268715
 30
0.0
 10
5.2838551494
 20
0.7506068241
 30
0.0
 10
5.2839128181
 20
0.7507220463
 30
0.0
 10
5.2840060844
 20
0.7508352152
 30
0.0
 10
5.2841343978
 20
0.7509473372
 30
0.0
 10
5.2842978999
 20
0.7510591447
 30
0.0
 10
5.284581874
 20
0.7512184503
 30
0.0
 10
5.2850308931
 20
0.7514121851
 30
0.0
 10
5.2856805656
 20
0.7516333829
 30
0.0
 10
5.2864724383
 20
0.7518553666
 30
0.0
 10
5.2874063536
 20
0.7520780457
 30
0.0
 10
5.2884823076
 20
0.7523011785
 30
0.0
 10
5.2897000116
 20
0.7525246566
 30
0.0
 10
5.2910591647
 20
0.752748382
 30
0.0
 10
5.2925594001
 20
0.7529723117
 30
0.0
 10
5.2948387121
 20
0.7532834683
 30
0.0
 10
5.2980366956
 20
0.7536675988
 30
0.0
 10
5.3022894568
 20
0.7541134849
 30
0.0
 10
5.3070884965
 20
0.7545601356
 30
0.0
 10
5.3124266893
 20
0.755007357
 30
0.0
 10
5.3182958373
 20
0.7554549648
 30
0.0
 10
5.3271538896
 20
0.7560757288
 30
0.0
 10
5.339478648
 20
0.756841927
 30
0.0
 10
5.3496751876
 20
0.7574012744
 30
0.0
 10
5.3550995594
 20
0.7576846824
 30
0.0
  0
SPLINE
  5
36C
100
AcDbEntity
  8
ALL_ASSEMBLY_MEMBERS
100
AcDbSpline
 62
7
  6
CONTINUOUS
 70
0
 71
3
 72
40
 73
36
 74
0
 42
0.0000001
 43
0.0000001
 44
0.0000000001
 40
0.0
 40
0.0
 40
0.0
 40
0.0
 40
0.0264344169
 40
0.0553373747
 40
0.0865367444
 40
0.1198518919
 40
0.1920319623
 40
0.2701846072
 40
0.3524757463
 40
0.4369736674
 40
0.5216946092
 40
0.6046495221
 40
0.6838909731
 40
0.7215328936
 40
0.7575591597
 40
0.7917566136
 40
0.8239258548
 40
0.8538772189
 40
0.8814355814
 40
0.9064399118
 40
0.9287433327
 40
0.9482179799
 40
0.9568574905
 40
0.964749504
 40
0.9718831747
 40
0.9782478726
 40
0.9838346233
 40
0.9886381119
 40
0.9926544419
 40
0.9943667918
 40
0.9958819151
 40
0.9972003563
 40
0.9983237369
 40
0.9992551024
 40
1.0
 40
1.0
 40
1.0
 40
1.0
 10
5.3550995594
 20
0.7576846824
 30
0.0
 10
5.3609487371
 20
0.7579902854
 30
0.0
 10
5.3731951189
 20
0.7585955603
 30
0.0
 10
5.3923497735
 20
0.7594622541
 30
0.0
 10
5.4130304132
 20
0.7603298583
 30
0.0
 10
5.4432949202
 20
0.7615192681
 30
0.0
 10
5.4839599889
 20
0.7629862344
 30
0.0
 10
5.535474476
 20
0.7647069497
 30
0.0
 10
5.5897196323
 20
0.7664297509
 30
0.0
 10
5.6454208115
 20
0.7681536887
 30
0.0
 10
5.7012691342
 20
0.7698776923
 30
0.0
 10
5.7559522267
 20
0.7716009374
 30
0.0
 10
5.8002070334
 20
0.77305904
 30
0.0
 10
5.8340671898
 20
0.7742379383
 30
0.0
 10
5.8579515344
 20
0.7751066081
 30
0.0
 10
5.8806224546
 20
0.7759749302
 30
0.0
 10
5.9019463203
 20
0.7768427105
 30
0.0
 10
5.9217978747
 20
0.7777098416
 30
0.0
 10
5.9400602883
 20
0.7785760919
 30
0.0
 10
5.9566261289
 20
0.7794409838
 30
0.0
 10
5.9713982079
 20
0.7803043512
 30
0.0
 10
5.9825448289
 20
0.7810479157
 30
0.0
 10
5.9905000327
 20
0.7816512888
 30
0.0
 10
5.9957256749
 20
0.7820851707
 30
0.0
 10
6.0004454341
 20
0.7825184903
 30
0.0
 10
6.0046520923
 20
0.7829511439
 30
0.0
 10
6.0083395265
 20
0.7833828528
 30
0.0
 10
6.0115026739
 20
0.7838133028
 30
0.0
 10
6.0138066746
 20
0.7841870918
 30
0.0
 10
6.0153825224
 20
0.784492425
 30
0.0
 10
6.0163664187
 20
0.7847087309
 30
0.0
 10
6.0172163701
 20
0.7849245601
 30
0.0
 10
6.0179325248
 20
0.7851397605
 30
0.0
 10
6.0185150125
 20
0.7853540752
 30
0.0
 10
6.0188517734
 20
0.7855133317
 30
0.0
 10
6.0189946521
 20
0.7855959571
 30
0.0
  0
LINE
  5
36D
100
AcDbEntity
  8
ALL_ASSEMBLY_MEMBERS
100
AcDbLine
 62
7
  6
CONTINUOUS
 10
5.2456574165
 20
0.7822888439
 11
5.24662173
 21
0.7826957498
  0
SPLINE
  5
36E
100
AcDbEntity
  8
ALL_ASSEMBLY_MEMBERS
100
AcDbSpline
 62
7
  6
CONTINUOUS
 70
0
 71
3
 72
37
 73
33
 74
0
 42
0.0000001
 43
0.0000001
 44
0.0000000001
 40
0.0
 40
0.0
 40
0.0
 40
0.0
 40
0.0010082043
 40
0.0021901472
 40
0.0035471879
 40
0.0050800963
 40
0.0086748679
 40
0.0129752952
 40
0.0179776829
 40
0.0236766298
 40
0.030066258
 40
0.0371403898
 40
0.0448913764
 40
0.0533091637
 40
0.0721035423
 40
0.0934372752
 40
0.1172053218
 40
0.1432942031
 40
0.1715777984
 40
0.2019178277
 40
0.2341692657
 40
0.2681732251
 40
0.3037668583
 40
0.3790208561
 40
0.4584712181
 40
0.5405759884
 40
0.6237413056
 40
0.7063526527
 40
0.7868064842
 40
0.8635413849
 40
0.9350683961
 40
1.0
 40
1.0
 40
1.0
 40
1.0
 10
5.24662173
 20
0.7826957498
 30
0.0
 10
5.246839024
 20
0.7827679908
 30
0.0
 10
5.2473161825
 20
0.7829095212
 30
0.0
 10
5.2480977177
 20
0.7831057544
 30
0.0
 10
5.2490015221
 20
0.7833024275
 30
0.0
 10
5.2504480762
 20
0.7835800182
 30
0.0
 10
5.2525627217
 20
0.783919908
 30
0.0
 10
5.2554660086
 20
0.7843111704
 30
0.0
 10
5.2588507619
 20
0.7847035918
 30
0.0
 10
5.2627126436
 20
0.7850969775
 30
0.0
 10
5.2670471621
 20
0.7854909803
 30
0.0
 10
5.2718494281
 20
0.7858854065
 30
0.0
 10
5.2771137191
 20
0.786280143
 30
0.0
 10
5.2850358821
 20
0.786827137
 30
0.0
 10
5.2960412743
 20
0.7875028269
 30
0.0
 10
5.3105324493
 20
0.7882885793
 30
0.0
 10
5.3266824866
 20
0.7890756956
 30
0.0
 10
5.3444126477
 20
0.7898637704
 30
0.0
 10
5.363636787
 20
0.7906525253
 30
0.0
 10
5.3842616594
 20
0.7914418823
 30
0.0
 10
5.4061866439
 20
0.7922315545
 30
0.0
 10
5.4293055654
 20
0.7930216491
 30
0.0
 10
5.462187392
 20
0.7940953385
 30
0.0
 10
5.5053883065
 20
0.7954248156
 30
0.0
 10
5.559150573
 20
0.7969939369
 30
0.0
 10
5.6147104002
 20
0.7985640288
 30
0.0
 10
5.6709884315
 20
0.8001345277
 30
0.0
 10
5.7268913556
 20
0.8017048202
 30
0.0
 10
5.7813332126
 20
0.8032743044
 30
0.0
 10
5.8332565183
 20
0.8048421785
 30
0.0
 10
5.8816527157
 20
0.8064075598
 30
0.0
 10
5.9126263654
 20
0.807508041
 30
0.0
 10
5.927363254
 20
0.8080688782
 30
0.0
  0
SPLINE
  5
36F
100
AcDbEntity
  8
ALL_ASSEMBLY_MEMBERS
100
AcDbSpline
 62
7
  6
CONTINUOUS
 70
0
 71
3
 72
32
 73
28
 74
0
 42
0.0000001
 43
0.0000001
 44
0.0000000001
 40
0.0
 40
0.0
 40
0.0
 40
0.0
 40
0.2229400125
 40
0.3253080201
 40
0.4212360793
 40
0.5104802029
 40
0.5927991569
 40
0.6679703122
 40
0.7358083005
 40
0.7961333223
 40
0.8487818112
 40
0.8721898379
 40
0.8936356462
 40
0.9131063322
 40
0.9305897255
 40
0.946075981
 40
0.9595625488
 40
0.9710514445
 40
0.9805501852
 40
0.9845590098
 40
0.9880791439
 40
0.991117421
 40
0.9936850185
 40
0.995801197
 40
0.9975017034
 40
0.9988563788
 40
1.0
 40
1.0
 40
1.0
 40
1.0
 10
5.927363254
 20
0.8080688782
 30
0.0
 10
5.9371322256
 20
0.8084406529
 30
0.0
 10
5.9513859763
 20
0.8090069505
 30
0.0
 10
5.9698399877
 20
0.8098095114
 30
0.0
 10
5.9824352528
 20
0.8103939755
 30
0.0
 10
5.9941503646
 20
0.8109780366
 30
0.0
 10
6.0049540835
 20
0.8115616598
 30
0.0
 10
6.0148176722
 20
0.8121448197
 30
0.0
 10
6.0237150318
 20
0.8127271194
 30
0.0
 10
6.0316224759
 20
0.8133083795
 30
0.0
 10
6.0375820581
 20
0.8138091513
 30
0.0
 10
6.0418383442
 20
0.8142148104
 30
0.0
 10
6.0446439005
 20
0.814506787
 30
0.0
 10
6.0471881584
 20
0.8147984688
 30
0.0
 10
6.0494692519
 20
0.8150897759
 30
0.0
 10
6.0514856166
 20
0.8153806444
 30
0.0
 10
6.0532361999
 20
0.8156707602
 30
0.0
 10
6.0547201999
 20
0.8159599692
 30
0.0
 10
6.0557875723
 20
0.8162116746
 30
0.0
 10
6.0565054194
 20
0.8164176793
 30
0.0
 10
6.0569455489
 20
0.8165631031
 30
0.0
 10
6.0573187445
 20
0.8167082278
 30
0.0
 10
6.0576252259
 20
0.816853077
 30
0.0
 10
6.0578656787
 20
0.8169978086
 30
0.0
 10
6.0580410277
 20
0.8171434951
 30
0.0
 10
6.0581528613
 20
0.8172932162
 30
0.0
 10
6.0581808414
 20
0.8174034475
 30
0.0
 10
6.0581807841
 20
0.8174535959
 30
0.0
  0
LINE
  5
370
100
AcDbEntity
  8
ALL_ASSEMBLY_MEMBERS
100
AcDbLine
 62
7
  6
CONTINUOUS
 10
5.2843671689
 20
0.8046669316
 11
5.284573924
 21
0.8047766108
  0
SPLINE
  5
371
100
AcDbEntity
  8
ALL_ASSEMBLY_MEMBERS
100
AcDbSpline
 62
7
  6
CONTINUOUS
 70
0
 71
3
 72
23
 73
19
 74
0
 42
0.0000001
 43
0.0000001
 44
0.0000000001
 40
0.0
 40
0.0
 40
0.0
 40
0.0
 40
0.0065807921
 40
0.0147560312
 40
0.0245567074
 40
0.0359983531
 40
0.0490886917
 40
0.0638311123
 40
0.0982728748
 40
0.1393062665
 40
0.1868698856
 40
0.2408893334
 40
0.3012865182
 40
0.3679718657
 40
0.44082647
 40
0.6045418762
 40
0.7913613545
 40
1.0
 40
1.0
 40
1.0
 40
1.0
 10
5.284573924
 20
0.8047766108
 30
0.0
 10
5.284754945
 20
0.8048652946
 30
0.0
 10
5.2851744156
 20
0.8050361604
 30
0.0
 10
5.2858906714
 20
0.8052668924
 30
0.0
 10
5.2867618178
 20
0.8054985767
 30
0.0
 10
5.287787632
 20
0.805730959
 30
0.0
 10
5.2889680228
 20
0.8059638575
 30
0.0
 10
5.2908472237
 20
0.8062921118
 30
0.0
 10
5.2935817175
 20
0.8066943078
 30
0.0
 10
5.2973221363
 20
0.8071576303
 30
0.0
 10
5.3016660254
 20
0.8076223103
 30
0.0
 10
5.3066058524
 20
0.8080880993
 30
0.0
 10
5.3121336432
 20
0.8085545616
 30
0.0
 10
5.318240176
 20
0.8090214946
 30
0.0
 10
5.3275066184
 20
0.8096701295
 30
0.0
 10
5.3404510496
 20
0.8104699575
 30
0.0
 10
5.3575540728
 20
0.8113989388
 30
0.0
 10
5.3696531273
 20
0.8119883658
 30
0.0
 10
5.3760370231
 20
0.8122863248
 30
0.0
  0
SPLINE
  5
372
100
AcDbEntity
  8
ALL_ASSEMBLY_MEMBERS
100
AcDbSpline
 62
7
  6
CONTINUOUS
 70
0
 71
3
 72
48
 73
44
 74
0
 42
0.0000001
 43
0.0000001
 44
0.0000000001
 40
0.0
 40
0.0
 40
0.0
 40
0.0
 40
0.0297747182
 40
0.0618163555
 40
0.0959453859
 40
0.1319651902
 40
0.2088510451
 40
0.2907240976
 40
0.3757203829
 40
0.4619045411
 40
0.5473140782
 40
0.6300042203
 40
0.6697380287
 40
0.7080923915
 40
0.7448504815
 40
0.7798012953
 40
0.8127471996
 40
0.8434997925
 40
0.8718845775
 40
0.8977407804
 40
0.9209208075
 40
0.94129586
 40
0.9503938361
 40
0.9587493505
 40
0.9663512712
 40
0.9731886352
 40
0.9792516887
 40
0.9845342466
 40
0.9868813306
 40
0.9890315705
 40
0.9909845732
 40
0.9927401041
 40
0.9942981802
 40
0.9956594819
 40
0.99682561
 40
0.9977992946
 40
0.9985854512
 40
0.9989111689
 40
0.9991944292
 40
0.9994384189
 40
0.9996481442
 40
0.9998314642
 40
1.0
 40
1.0
 40
1.0
 40
1.0
 10
5.3760370231
 20
0.8122863248
 30
0.0
 10
5.382427605
 20
0.8125845958
 30
0.0
 10
5.3956965965
 20
0.8131766271
 30
0.0
 10
5.4162941829
 20
0.8140312772
 30
0.0
 10
5.4382346817
 20
0.8148863538
 30
0.0
 10
5.4698057464
 20
0.816052534
 30
0.0
 10
5.5116320807
 20
0.8174934377
 30
0.0
 10
5.5639790207
 20
0.819190027
 30
0.0
 10
5.6183247962
 20
0.8208879931
 30
0.0
 10
5.6734307798
 20
0.8225865135
 30
0.0
 10
5.7280410285
 20
0.8242847283
 30
0.0
 10
5.7726741676
 20
0.8257171499
 30
0.0
 10
5.8072003986
 20
0.8268739951
 30
0.0
 10
5.8318619754
 20
0.8277299399
 30
0.0
 10
5.8554952252
 20
0.8285855408
 30
0.0
 10
5.8779656031
 20
0.8294408504
 30
0.0
 10
5.8991446466
 20
0.8302956588
 30
0.0
 10
5.9189116873
 20
0.8311498807
 30
0.0
 10
5.9371539099
 20
0.8320033158
 30
0.0
 10
5.953767193
 20
0.8328555347
 30
0.0
 10
5.9686570351
 20
0.8337064227
 30
0.0
 10
5.9799468151
 20
0.8344382207
 30
0.0
 10
5.988053215
 20
0.8350313121
 30
0.0
 10
5.9934197839
 20
0.8354588386
 30
0.0
 10
5.9982989872
 20
0.8358859149
 30
0.0
 10
6.0026836154
 20
0.8363124013
 30
0.0
 10
6.0065673239
 20
0.8367382793
 30
0.0
 10
6.0094866325
 20
0.8371052072
 30
0.0
 10
6.0115669155
 20
0.8374023667
 30
0.0
 10
6.0129363137
 20
0.8376162124
 30
0.0
 10
6.0141769587
 20
0.8378298611
 30
0.0
 10
6.0152883472
 20
0.8380432698
 30
0.0
 10
6.0162700862
 20
0.8382563692
 30
0.0
 10
6.0171219261
 20
0.8384690714
 30
0.0
 10
6.0178440242
 20
0.8386811492
 30
0.0
 10
6.018436464
 20
0.8388925246
 30
0.0
 10
6.0188457116
 20
0.8390776265
 30
0.0
 10
6.0191044331
 20
0.8392296174
 30
0.0
 10
6.0192537261
 20
0.8393364743
 30
0.0
 10
6.0193709581
 20
0.8394436571
 30
0.0
 10
6.0194561776
 20
0.8395518172
 30
0.0
 10
6.019508809
 20
0.8396617617
 30
0.0
 10
6.0195210527
 20
0.8397377436
 30
0.0
 10
6.0195210888
 20
0.839773956
 30
0.0
  0
LINE
  5
373
100
AcDbEntity
  8
ALL_ASSEMBLY_MEMBERS
100
AcDbLine
 62
7
  6
CONTINUOUS
 10
5.2843671043
 20
0.7332369062
 11
5.2853779856
 21
0.7336684612
  0
SPLINE
  5
374
100
AcDbEntity
  8
ALL_ASSEMBLY_MEMBERS
100
AcDbSpline
 62
7
  6
CONTINUOUS
 70
0
 71
3
 72
36
 73
32
 74
0
 42
0.0000001
 43
0.0000001
 44
0.0000000001
 40
0.0
 40
0.0
 40
0.0
 40
0.0
 40
0.0010851895
 40
0.0023430888
 40
0.0037751714
 40
0.0053823025
 40
0.009122137
 40
0.0135615179
 40
0.0186972785
 40
0.0245253527
 40
0.0310408791
 40
0.0382362455
 40
0.0546300525
 40
0.0736322237
 40
0.0951523199
 40
0.1190859724
 40
0.1453205492
 40
0.1737264369
 40
0.2041691825
 40
0.236499404
 40
0.2705615129
 40
0.3061907003
 40
0.381451242
 40
0.4608236254
 40
0.5427704533
 40
0.6257041605
 40
0.7080177568
 40
0.7881162111
 40
0.8644478361
 40
0.9355344323
 40
1.0
 40
1.0
 40
1.0
 40
1.0
 10
5.2853779856
 20
0.7336684612
 30
0.0
 10
5.2855896975
 20
0.7337401216
 30
0.0
 10
5.2860515297
 20
0.7338809557
 30
0.0
 10
5.2868040313
 20
0.7340772619
 30
0.0
 10
5.2876670808
 20
0.7342739306
 30
0.0
 10
5.2890357375
 20
0.7345506479
 30
0.0
 10
5.2910230246
 20
0.7348900364
 30
0.0
 10
5.2937375548
 20
0.7352813828
 30
0.0
 10
5.2968858749
 20
0.7356737826
 30
0.0
 10
5.3004645604
 20
0.736067035
 30
0.0
 10
5.3044696634
 20
0.7364607968
 30
0.0
 10
5.3106458226
 20
0.7370105571
 30
0.0
 10
5.3193922865
 20
0.7376871259
 30
0.0
 10
5.3310889153
 20
0.7384706077
 30
0.0
 10
5.3443414377
 20
0.7392557885
 30
0.0
 10
5.3590858092
 20
0.7400424289
 30
0.0
 10
5.3752501971
 20
0.7408298474
 30
0.0
 10
5.3927566454
 20
0.7416180946
 30
0.0
 10
5.4115197437
 20
0.7424067463
 30
0.0
 10
5.4314487684
 20
0.7431958605
 30
0.0
 10
5.4524467968
 20
0.7439852757
 30
0.0
 10
5.4822825262
 20
0.7450577778
 30
0.0
 10
5.5214473665
 20
0.7463858597
 30
0.0
 10
5.5701492684
 20
0.747953752
 30
0.0
 10
5.6204323299
 20
0.7495225767
 30
0.0
 10
5.6713214528
 20
0.7510917794
 30
0.0
 10
5.7218297036
 20
0.7526607479
 30
0.0
 10
5.770977517
 20
0.7542288851
 30
0.0
 10
5.8178118057
 20
0.7557953855
 30
0.0
 10
5.8614244404
 20
0.7573593533
 30
0.0
 10
5.889321863
 20
0.7584593762
 30
0.0
 10
5.9025876629
 20
0.7590200622
 30
0.0
  0
LINE
  5
375
100
AcDbEntity
  8
ALL_ASSEMBLY_MEMBERS
100
AcDbLine
 62
7
  6
CONTINUOUS
 10
5.9025876629
 20
0.7590200622
 11
5.9050555144
 21
0.7591248186
  0
SPLINE
  5
376
100
AcDbEntity
  8
ALL_ASSEMBLY_MEMBERS
100
AcDbSpline
 62
7
  6
CONTINUOUS
 70
0
 71
3
 72
30
 73
26
 74
0
 42
0.0000001
 43
0.0000001
 44
0.0000000001
 40
0.0
 40
0.0
 40
0.0
 40
0.0
 40
0.226309579
 40
0.4254712487
 40
0.5144932253
 40
0.5962897229
 40
0.6707254358
 40
0.7376952578
 40
0.7971122112
 40
0.8488931467
 40
0.8718961195
 40
0.892963935
 40
0.9120946226
 40
0.9292881375
 40
0.9445465598
 40
0.9578753348
 40
0.9692855518
 40
0.9787984798
 40
0.9864555404
 40
0.9896144786
 40
0.99234993
 40
0.9946922901
 40
0.9966898937
 40
0.9984201143
 40
1.0
 40
1.0
 40
1.0
 40
1.0
 10
5.948135774
 20
0.7611415351
 30
0.0
 10
5.9535695473
 20
0.7614252098
 30
0.0
 10
5.9637839084
 20
0.761985083
 30
0.0
 10
5.9761302799
 20
0.7627519781
 30
0.0
 10
5.9850040501
 20
0.7633733136
 30
0.0
 10
5.99088371
 20
0.763821335
 30
0.0
 10
5.9962315253
 20
0.7642689673
 30
0.0
 10
6.0010392596
 20
0.7647160299
 30
0.0
 10
6.0052997502
 20
0.7651623272
 30
0.0
 10
6.0085035599
 20
0.7655468114
 30
0.0
 10
6.0107870345
 20
0.7658582561
 30
0.0
 10
6.0122900172
 20
0.7660823926
 30
0.0
 10
6.0136516685
 20
0.7663063242
 30
0.0
 10
6.0148716184
 20
0.766530008
 30
0.0
 10
6.0159495607
 20
0.766753346
 30
0.0
 10
6.0168852014
 20
0.7669762294
 30
0.0
 10
6.0176785318
 20
0.7671984159
 30
0.0
 10
6.0183293892
 20
0.7674198145
 30
0.0
 10
6.0187792242
 20
0.7676137275
 30
0.0
 10
6.0190637115
 20
0.767773186
 30
0.0
 10
6.019227506
 20
0.7678850948
 30
0.0
 10
6.0193560526
 20
0.7679973178
 30
0.0
 10
6.0194494938
 20
0.7681105883
 30
0.0
 10
6.0195072789
 20
0.768225917
 30
0.0
 10
6.0195206839
 20
0.7683059521
 30
0.0
 10
6.0195206549
 20
0.7683439373
 30
0.0
  0
SPLINE
  5
377
100
AcDbEntity
  8
ALL_ASSEMBLY_MEMBERS
100
AcDbSpline
 62
7
  6
CONTINUOUS
 70
0
 71
3
 72
36
 73
32
 74
0
 42
0.0000001
 43
0.0000001
 44
0.0000000001
 40
0.0
 40
0.0
 40
0.0
 40
0.0
 40
0.0007267288
 40
0.0015813104
 40
0.0025672241
 40
0.0036866755
 40
0.0063313166
 40
0.0095225656
 40
0.0132637743
 40
0.0175556971
 40
0.022397057
 40
0.0277859485
 40
0.0401969311
 40
0.0547682462
 40
0.0714706197
 40
0.0902652157
 40
0.1111120477
 40
0.1339673585
 40
0.158777284
 40
0.185486013
 40
0.2140364217
 40
0.2443626727
 40
0.310063572
 40
0.3819996936
 40
0.4595197158
 40
0.5419244545
 40
0.6284724055
 40
0.7183709127
 40
0.8108167408
 40
0.9050032953
 40
1.0
 40
1.0
 40
1.0
 40
1.0
 10
6.0577047003
 20
1.0222640549
 30
0.0
 10
6.0576194118
 20
1.022214783
 30
0.0
 10
6.0574277985
 20
1.0221180003
 30
0.0
 10
6.0571064651
 20
1.0219840628
 30
0.0
 10
6.056728219
 20
1.0218498844
 30
0.0
 10
6.0561129029
 20
1.0216600582
 30
0.0
 10
6.0551986896
 20
1.0214279216
 30
0.0
 10
6.0539281556
 20
1.0211611253
 30
0.0
 10
6.0524303709
 20
1.0208935621
 30
0.0
 10
6.0507060451
 20
1.0206253523
 30
0.0
 10
6.0487561114
 20
1.0203566684
 30
0.0
 10
6.0457105353
 20
1.019980019
 30
0.0
 10
6.0413472542
 20
1.0195171602
 30
0.0
 10
6.0354504664
 20
1.0189824274
 30
0.0
 10
6.028685489
 20
1.0184464853
 30
0.0
 10
6.0210677132
 20
1.0179094151
 30
0.0
 10
6.012614188
 20
1.0173716589
 30
0.0
 10
6.0033439076
 20
1.0168334628
 30
0.0
 10
5.9932779298
 20
1.0162948293
 30
0.0
 10
5.982439059
 20
1.0157558663
 30
0.0
 10
5.9708516771
 20
1.0152167095
 30
0.0
 10
5.9539830965
 20
1.0144776855
 30
0.0
 10
5.9312363834
 20
1.0135618767
 30
0.0
 10
5.9020945767
 20
1.0124885897
 30
0.0
 10
5.8706874216
 20
1.0114142015
 30
0.0
 10
5.837298788
 20
1.0103389406
 30
0.0
 10
5.8022316182
 20
1.0092631514
 30
0.0
 10
5.7658029212
 20
1.0081869018
 30
0.0
 10
5.7283384923
 20
1.0071102927
 30
0.0
 10
5.6901827994
 20
1.0060335566
 30
0.0
 10
5.6645516775
 20
1.0053167435
 30
0.0
 10
5.6516812358
 20
1.0049568004
 30
0.0
  0
SPLINE
  5
378
100
AcDbEntity
  8
ALL_ASSEMBLY_MEMBERS
100
AcDbSpline
 62
7
  6
CONTINUOUS
 70
0
 71
3
 72
31
 73
27
 74
0
 42
0.0000001
 43
0.0000001
 44
0.0000000001
 40
0.0
 40
0.0
 40
0.0
 40
0.0
 40
0.001435777
 40
0.0030386122
 40
0.0049323624
 40
0.0071936928
 40
0.0098679245
 40
0.0129821086
 40
0.0165527988
 40
0.0205906572
 40
0.0300929006
 40
0.0415247877
 40
0.0549028209
 40
0.0702349665
 40
0.087524497
 40
0.1067718649
 40
0.12797311
 40
0.15111866
 40
0.2031984481
 40
0.2629193569
 40
0.3301831272
 40
0.4048710707
 40
0.4868419479
 40
0.5759520795
 40
0.774923666
 40
1.0
 40
1.0
 40
1.0
 40
1.0
 10
5.283841774
 20
1.0362089567
 30
0.0
 10
5.2838417307
 20
1.0362514211
 30
0.0
 10
5.2838588082
 20
1.0363418599
 30
0.0
 10
5.2839312816
 20
1.0364705158
 30
0.0
 10
5.2840475153
 20
1.0365964034
 30
0.0
 10
5.2842071342
 20
1.0367211422
 30
0.0
 10
5.2844105171
 20
1.0368456042
 30
0.0
 10
5.2846580184
 20
1.036970072
 30
0.0
 10
5.2849498231
 20
1.0370946665
 30
0.0
 10
5.2854244781
 20
1.0372706195
 30
0.0
 10
5.2861315291
 20
1.0374860235
 30
0.0
 10
5.2871159004
 20
1.0377336447
 30
0.0
 10
5.2882770896
 20
1.0379819581
 30
0.0
 10
5.2896147274
 20
1.0382308602
 30
0.0
 10
5.2911285002
 20
1.0384801512
 30
0.0
 10
5.2928178851
 20
1.0387297189
 30
0.0
 10
5.2946821279
 20
1.0389795002
 30
0.0
 10
5.2975128799
 20
1.0393265813
 30
0.0
 10
5.3014811693
 20
1.0397550635
 30
0.0
 10
5.3067538565
 20
1.0402524902
 30
0.0
 10
5.3126977545
 20
1.0407506728
 30
0.0
 10
5.3193017138
 20
1.0412494761
 30
0.0
 10
5.3265534221
 20
1.0417488576
 30
0.0
 10
5.337476199
 20
1.0424409765
 30
0.0
 10
5.3526294544
 20
1.0432946851
 30
0.0
 10
5.365155512
 20
1.0439201125
 30
0.0
 10
5.3718048103
 20
1.0442368012
 30
0.0
  0
SPLINE
  5
379
100
AcDbEntity
  8
ALL_ASSEMBLY_MEMBERS
100
AcDbSpline
 62
7
  6
CONTINUOUS
 70
0
 71
3
 72
36
 73
32
 74
0
 42
0.0000001
 43
0.0000001
 44
0.0000000001
 40
0.0
 40
0.0
 40
0.0
 40
0.0
 40
0.0949961346
 40
0.1891810095
 40
0.2816261546
 40
0.3715254135
 40
0.4580742013
 40
0.5404789477
 40
0.6179986142
 40
0.6899347807
 40
0.7556361745
 40
0.7859628308
 40
0.8145134267
 40
0.8412221871
 40
0.8660320384
 40
0.8888871106
 40
0.9097337221
 40
0.928528294
 40
0.9452306213
 40
0.9598018429
 40
0.972213126
 40
0.977602219
 40
0.9824437482
 40
0.9867357586
 40
0.9904769772
 40
0.993668302
 40
0.9963130673
 40
0.9974325882
 40
0.9984185707
 40
0.9992732163
 40
1.0
 40
1.0
 40
1.0
 40
1.0
 10
5.6516812358
 20
0.9424560764
 30
0.0
 10
5.6388108721
 20
0.9420961354
 30
0.0
 10
5.6131800563
 20
0.941379331
 30
0.0
 10
5.5750247628
 20
0.9403026062
 30
0.0
 10
5.5375605541
 20
0.9392260047
 30
0.0
 10
5.5011317364
 20
0.9381497515
 30
0.0
 10
5.4660643522
 20
0.9370739572
 30
0.0
 10
5.4326756541
 20
0.9359986962
 30
0.0
 10
5.4012685418
 20
0.9349243089
 30
0.0
 10
5.3721267116
 20
0.9338510267
 30
0.0
 10
5.3493798719
 20
0.93293521
 30
0.0
 10
5.3325111448
 20
0.9321961838
 30
0.0
 10
5.320923679
 20
0.9316570231
 30
0.0
 10
5.3100847892
 20
0.9311180604
 30
0.0
 10
5.3000188499
 20
0.9305794321
 30
0.0
 10
5.2907486422
 20
0.9300412402
 30
0.0
 10
5.2822951827
 20
0.9295034885
 30
0.0
 10
5.2746774462
 20
0.9289664291
 30
0.0
 10
5.2679124906
 20
0.9284304962
 30
0.0
 10
5.262015682
 20
0.9278957553
 30
0.0
 10
5.2576523448
 20
0.9274329031
 30
0.0
 10
5.2546066772
 20
0.9270562548
 30
0.0
 10
5.252656681
 20
0.9267875696
 30
0.0
 10
5.2509323191
 20
0.9265193572
 30
0.0
 10
5.2494345127
 20
0.9262517822
 30
0.0
 10
5.2481639511
 20
0.9259849794
 30
0.0
 10
5.2472497016
 20
0.9257528374
 30
0.0
 10
5.2466343498
 20
0.9255630065
 30
0.0
 10
5.2462560761
 20
0.9254288239
 30
0.0
 10
5.245934717
 20
0.9252948821
 30
0.0
 10
5.2457430873
 20
0.9251980962
 30
0.0
 10
5.2456577913
 20
0.9251488225
 30
0.0
  0
SPLINE
  5
37A
100
AcDbEntity
  8
ALL_ASSEMBLY_MEMBERS
100
AcDbSpline
 62
7
  6
CONTINUOUS
 70
0
 71
3
 72
38
 73
34
 74
0
 42
0.0000001
 43
0.0000001
 44
0.0000000001
 40
0.0
 40
0.0
 40
0.0
 40
0.0
 40
0.0966087664
 40
0.192490921
 40
0.2866243267
 40
0.3781201018
 40
0.4660937642
 40
0.5496849358
 40
0.6280922909
 40
0.7005697065
 40
0.7664255491
 40
0.7966762923
 40
0.8250436204
 40
0.8514634806
 40
0.8758762147
 40
0.898222758
 40
0.9184527478
 40
0.9365231506
 40
0.952391481
 40
0.9660220811
 40
0.9719903453
 40
0.9773899756
 40
0.9822181599
 40
0.9864722661
 40
0.9901505655
 40
0.9932532301
 40
0.9957815733
 40
0.9968313982
 40
0.9977392494
 40
0.9985064435
 40
0.9991352693
 40
0.999630052
 40
1.0
 40
1.0
 40
1.0
 40
1.0
 10
5.6516812358
 20
0.7431989991
 30
0.0
 10
5.6643054064
 20
0.7434381456
 30
0.0
 10
5.6894588159
 20
0.7439137439
 30
0.0
 10
5.7269128591
 20
0.7446262602
 30
0.0
 10
5.7636985567
 20
0.7453373721
 30
0.0
 10
5.7994504747
 20
0.7460469335
 30
0.0
 10
5.8338243121
 20
0.7467548801
 30
0.0
 10
5.8664871955
 20
0.7474611333
 30
0.0
 10
5.8971243168
 20
0.7481655029
 30
0.0
 10
5.9254428856
 20
0.7488677631
 30
0.0
 10
5.9474681307
 20
0.749466677
 30
0.0
 10
5.9637292839
 20
0.7499496239
 30
0.0
 10
5.974837901
 20
0.7503010725
 30
0.0
 10
5.98518312
 20
0.7506520121
 30
0.0
 10
5.9947409781
 20
0.7510023659
 30
0.0
 10
6.0034892774
 20
0.7513521233
 30
0.0
 10
6.0114079607
 20
0.751701195
 30
0.0
 10
6.0184791067
 20
0.7520493009
 30
0.0
 10
6.0246866121
 20
0.7523963557
 30
0.0
 10
6.0293124601
 20
0.7526960307
 30
0.0
 10
6.0325706349
 20
0.7529392977
 30
0.0
 10
6.034680268
 20
0.7531133098
 30
0.0
 10
6.0365650593
 20
0.7532869744
 30
0.0
 10
6.0382238486
 20
0.7534602357
 30
0.0
 10
6.0396558162
 20
0.7536329001
 30
0.0
 10
6.0408603927
 20
0.753804848
 30
0.0
 10
6.0417208839
 20
0.7539547171
 30
0.0
 10
6.0422941923
 20
0.7540778391
 30
0.0
 10
6.0426398089
 20
0.7541641473
 30
0.0
 10
6.04292849
 20
0.7542500924
 30
0.0
 10
6.0431606929
 20
0.7543356782
 30
0.0
 10
6.0433366235
 20
0.7544206082
 30
0.0
 10
6.0434304178
 20
0.7544860281
 30
0.0
 10
6.0434646194
 20
0.7545202051
 30
0.0
  0
SPLINE
  5
37B
100
AcDbEntity
  8
ALL_ASSEMBLY_MEMBERS
100
AcDbSpline
 62
7
  6
CONTINUOUS
 70
0
 71
3
 72
38
 73
34
 74
0
 42
0.0000001
 43
0.0000001
 44
0.0000000001
 40
0.0
 40
0.0
 40
0.0
 40
0.0
 40
0.0004173929
 40
0.0008778038
 40
0.0014139263
 40
0.0020467614
 40
0.0027890912
 40
0.0036487789
 40
0.0057378584
 40
0.0083383735
 40
0.0114615246
 40
0.0151133415
 40
0.0192972511
 40
0.0240152
 40
0.0292674982
 40
0.0350531904
 40
0.0413709298
 40
0.0555958562
 40
0.0719278469
 40
0.0903502736
 40
0.1108392327
 40
0.1333650916
 40
0.1578976847
 40
0.212855925
 40
0.2754093794
 40
0.3452162683
 40
0.4218893814
 40
0.5050039803
 40
0.594100797
 40
0.6886846876
 40
0.78823473
 40
0.8921982381
 40
1.0
 40
1.0
 40
1.0
 40
1.0
 10
6.0581812357
 20
0.8888835606
 30
0.0
 10
6.0581812377
 20
0.888847752
 30
0.0
 10
6.0581678806
 20
0.8887720103
 30
0.0
 10
6.0581108586
 20
0.8886633908
 30
0.0
 10
6.0580190389
 20
0.8885568587
 30
0.0
 10
6.0578929077
 20
0.8884513102
 30
0.0
 10
6.0577322981
 20
0.8883460228
 30
0.0
 10
6.0574532023
 20
0.8881958133
 30
0.0
 10
6.0570124372
 20
0.888013263
 30
0.0
 10
6.0563750847
 20
0.8878048565
 30
0.0
 10
6.0555981067
 20
0.8875956865
 30
0.0
 10
6.0546814995
 20
0.8873858421
 30
0.0
 10
6.0536251144
 20
0.8871755642
 30
0.0
 10
6.0524291369
 20
0.8869649749
 30
0.0
 10
6.0510939011
 20
0.8867541592
 30
0.0
 10
6.0496199205
 20
0.8865431413
 30
0.0
 10
6.0473802593
 20
0.8862498659
 30
0.0
 10
6.0442373515
 20
0.8858877729
 30
0.0
 10
6.040056332
 20
0.8854675146
 30
0.0
 10
6.0353355874
 20
0.8850466246
 30
0.0
 10
6.0300816426
 20
0.8846251885
 30
0.0
 10
6.0243020147
 20
0.8842032977
 30
0.0
 10
6.0155694496
 20
0.8836179462
 30
0.0
 10
6.0034045742
 20
0.8828956765
 30
0.0
 10
5.9873561808
 20
0.8820559871
 30
0.0
 10
5.9694426416
 20
0.8812149362
 30
0.0
 10
5.9497634479
 20
0.8803727195
 30
0.0
 10
5.9284279963
 20
0.879529717
 30
0.0
 10
5.9055548726
 20
0.8786861381
 30
0.0
 10
5.8812708548
 20
0.8778420747
 30
0.0
 10
5.8557106914
 20
0.8769976849
 30
0.0
 10
5.8290159741
 20
0.8761529674
 30
0.0
 10
5.8108568595
 20
0.875598701
 30
0.0
 10
5.801612615
 20
0.8753205583
 30
0.0
  0
SPLINE
  5
37C
100
AcDbEntity
  8
ALL_ASSEMBLY_MEMBERS
100
AcDbSpline
 62
7
  6
CONTINUOUS
 70
0
 71
3
 72
29
 73
25
 74
0
 42
0.0000001
 43
0.0000001
 44
0.0000000001
 40
0.0
 40
0.0
 40
0.0
 40
0.0
 40
0.0068514937
 40
0.0095135027
 40
0.0126183335
 40
0.0161825165
 40
0.0202169055
 40
0.0247289256
 40
0.02972351
 40
0.0411706572
 40
0.0545727514
 40
0.0699347523
 40
0.0872570939
 40
0.1065375348
 40
0.1277721534
 40
0.1509558346
 40
0.2031298196
 40
0.2629550463
 40
0.3303166738
 40
0.4050951826
 40
0.4871403371
 40
0.5762774922
 40
0.7751150751
 40
1.0
 40
1.0
 40
1.0
 40
1.0
 10
5.283841883
 20
0.9647789309
 30
0.0
 10
5.2838420029
 20
0.9649915261
 30
0.0
 10
5.284111544
 20
0.9652369135
 30
0.0
 10
5.2844392977
 20
0.9654309206
 30
0.0
 10
5.2847013483
 20
0.9655600569
 30
0.0
 10
5.2850074447
 20
0.9656873379
 30
0.0
 10
5.2853611099
 20
0.9658153917
 30
0.0
 10
5.2857613167
 20
0.9659433585
 30
0.0
 10
5.2863864611
 20
0.9661224229
 30
0.0
 10
5.2872861902
 20
0.9663428098
 30
0.0
 10
5.2885077904
 20
0.9665975443
 30
0.0
 10
5.2899149761
 20
0.9668527932
 30
0.0
 10
5.2915070759
 20
0.9671084794
 30
0.0
 10
5.2932834287
 20
0.9673644583
 30
0.0
 10
5.2952433079
 20
0.9676206847
 30
0.0
 10
5.2982193021
 20
0.9679766978
 30
0.0
 10
5.3023910157
 20
0.9684161259
 30
0.0
 10
5.3079330836
 20
0.9689262847
 30
0.0
 10
5.3141790901
 20
0.9694373367
 30
0.0
 10
5.3211165575
 20
0.9699490049
 30
0.0
 10
5.3287313242
 20
0.9704611627
 30
0.0
 10
5.3401907804
 20
0.9711707298
 30
0.0
 10
5.3560803871
 20
0.9720462876
 30
0.0
 10
5.3692124809
 20
0.9726879687
 30
0.0
 10
5.3761828645
 20
0.9730130992
 30
0.0
  0
LINE
  5
37D
100
AcDbEntity
  8
ALL_ASSEMBLY_MEMBERS
100
AcDbLine
 62
7
  6
CONTINUOUS
 10
5.4191122849
 20
0.9748551711
 11
5.4283886389
 21
0.9752204956
  0
SPLINE
  5
37E
100
AcDbEntity
  8
ALL_ASSEMBLY_MEMBERS
100
AcDbSpline
 62
7
  6
CONTINUOUS
 70
0
 71
3
 72
38
 73
34
 74
0
 42
0.0000001
 43
0.0000001
 44
0.0000000001
 40
0.0
 40
0.0
 40
0.0
 40
0.0
 40
0.0703390136
 40
0.146316416
 40
0.2265390926
 40
0.3095360646
 40
0.3937853317
 40
0.4777415774
 40
0.5598645444
 40
0.6386480442
 40
0.7126477302
 40
0.7474261997
 40
0.7805074681
 40
0.811741054
 40
0.8409841541
 40
0.8681011167
 40
0.8929709777
 40
0.9154770927
 40
0.9355198719
 40
0.9530080023
 40
0.9607685462
 40
0.967862875
 40
0.9742835621
 40
0.9800233977
 40
0.9850760084
 40
0.9894380959
 40
0.9931081209
 40
0.9946836983
 40
0.9960866615
 40
0.9973177311
 40
0.9983782393
 40
0.9992707129
 40
1.0
 40
1.0
 40
1.0
 40
1.0
 10
5.4283886389
 20
0.9752204956
 30
0.0
 10
5.4422433537
 20
0.9757593267
 30
0.0
 10
5.4710656954
 20
0.9768207507
 30
0.0
 10
5.5156949612
 20
0.9783451474
 30
0.0
 10
5.5628206704
 20
0.9798712191
 30
0.0
 10
5.6115777062
 20
0.9813983018
 30
0.0
 10
5.6610710407
 20
0.9829257937
 30
0.0
 10
5.7103920128
 20
0.9844531929
 30
0.0
 10
5.7586350758
 20
0.985979949
 30
0.0
 10
5.8049145304
 20
0.9875055385
 30
0.0
 10
5.8418639505
 20
0.9888004069
 30
0.0
 10
5.8698076482
 20
0.9898463945
 30
0.0
 10
5.8893257833
 20
0.9906143612
 30
0.0
 10
5.9077519157
 20
0.99138196
 30
0.0
 10
5.9250013077
 20
0.9921490673
 30
0.0
 10
5.9409949833
 20
0.992915697
 30
0.0
 10
5.9556590673
 20
0.9936814131
 30
0.0
 10
5.968926683
 20
0.9944461416
 30
0.0
 10
5.9807366157
 20
0.9952094086
 30
0.0
 10
5.9896404105
 20
0.9958669014
 30
0.0
 10
5.9959935572
 20
0.9964001637
 30
0.0
 10
6.0001698626
 20
0.996783684
 30
0.0
 10
6.0039460607
 20
0.9971667483
 30
0.0
 10
6.0073175709
 20
0.9975492481
 30
0.0
 10
6.0102804968
 20
0.9979309845
 30
0.0
 10
6.0128316768
 20
0.9983117311
 30
0.0
 10
6.0146969466
 20
0.9986420248
 30
0.0
 10
6.0159796447
 20
0.9989113615
 30
0.0
 10
6.0167872015
 20
0.9991026987
 30
0.0
 10
6.0174901401
 20
0.9992936663
 30
0.0
 10
6.0180884751
 20
0.9994841905
 30
0.0
 10
6.0185822197
 20
0.9996741488
 30
0.0
 10
6.0188705692
 20
0.9998139766
 30
0.0
 10
6.0189950008
 20
0.9998859681
 30
0.0
  0
SPLINE
  5
37F
100
AcDbEntity
  8
ALL_ASSEMBLY_MEMBERS
100
AcDbSpline
 62
7
  6
CONTINUOUS
 70
0
 71
3
 72
40
 73
36
 74
0
 42
0.0000001
 43
0.0000001
 44
0.0000000001
 40
0.0
 40
0.0
 40
0.0
 40
0.0
 40
0.0003506393
 40
0.0007607921
 40
0.0012693787
 40
0.0018971698
 40
0.0026551129
 40
0.0035493149
 40
0.0045834084
 40
0.0057596749
 40
0.008543979
 40
0.0119096821
 40
0.0158600688
 40
0.0203954575
 40
0.0255142608
 40
0.0312142946
 40
0.0374930183
 40
0.0443476577
 40
0.0597720547
 40
0.0774526825
 40
0.0973466276
 40
0.1194099897
 40
0.1435911888
 40
0.1698297665
 40
0.1980645699
 40
0.2282298353
 40
0.2940492853
 40
0.3666593305
 40
0.4453600975
 40
0.5293986074
 40
0.6179696564
 40
0.7102108946
 40
0.8052403188
 40
0.9021734979
 40
1.0
 40
1.0
 40
1.0
 40
1.0
 10
6.0581812357
 20
0.9603135847
 30
0.0
 10
6.058181238
 20
0.960265972
 30
0.0
 10
6.0581561677
 20
0.9601620251
 30
0.0
 10
6.0580550398
 20
0.9600193694
 30
0.0
 10
6.0578959827
 20
0.9598804781
 30
0.0
 10
6.0576780682
 20
0.9597425714
 30
0.0
 10
6.0574004978
 20
0.9596046366
 30
0.0
 10
6.0570626579
 20
0.9594664909
 30
0.0
 10
6.0566643004
 20
0.9593280898
 30
0.0
 10
6.0560148575
 20
0.959132129
 30
0.0
 10
6.0550487452
 20
0.958892611
 30
0.0
 10
6.0537049133
 20
0.9586174029
 30
0.0
 10
6.0521192714
 20
0.9583413948
 30
0.0
 10
6.0502926628
 20
0.9580646836
 30
0.0
 10
6.0482261625
 20
0.9577875024
 30
0.0
 10
6.0459211034
 20
0.9575099727
 30
0.0
 10
6.043378837
 20
0.9572321682
 30
0.0
 10
6.0395202427
 20
0.9568461412
 30
0.0
 10
6.0341149588
 20
0.95636972
 30
0.0
 10
6.0269395019
 20
0.9558166447
 30
0.0
 10
6.0188602603
 20
0.9552625527
 30
0.0
 10
6.0098965194
 20
0.9547077483
 30
0.0
 10
6.000069787
 20
0.9541524565
 30
0.0
 10
5.9894038477
 20
0.9535966954
 30
0.0
 10
5.9779243393
 20
0.953040608
 30
0.0
 10
5.9610740617
 20
0.9522765151
 30
0.0
 10
5.9382003051
 20
0.9513306714
 30
0.0
 10
5.9087372534
 20
0.9502242112
 30
0.0
 10
5.8767987153
 20
0.949116373
 30
0.0
 10
5.8426916856
 20
0.9480075052
 30
0.0
 10
5.8067451234
 20
0.9468979603
 30
0.0
 10
5.7693054614
 20
0.945787875
 30
0.0
 10
5.7307298498
 20
0.944677387
 30
0.0
 10
5.6913955222
 20
0.943566747
 30
0.0
 10
5.6649597497
 20
0.9428274319
 30
0.0
 10
5.6516812358
 20
0.9424560764
 30
0.0
  0
SPLINE
  5
380
100
AcDbEntity
  8
ALL_ASSEMBLY_MEMBERS
100
AcDbSpline
 62
7
  6
CONTINUOUS
 70
0
 71
3
 72
35
 73
31
 74
0
 42
0.0000001
 43
0.0000001
 44
0.0000000001
 40
0.0
 40
0.0
 40
0.0
 40
0.0
 40
0.0005034319
 40
0.0010413181
 40
0.0016420006
 40
0.0023260212
 40
0.0039934055
 40
0.0061118214
 40
0.0087119107
 40
0.0118097835
 40
0.0154146485
 40
0.0195321096
 40
0.0241657285
 40
0.0293174614
 40
0.0411751588
 40
0.0551009702
 40
0.0710855237
 40
0.0891170901
 40
0.1091821337
 40
0.1312602732
 40
0.1553261788
 40
0.2093175263
 40
0.270939078
 40
0.3399180233
 40
0.4159577966
 40
0.4987324111
 40
0.5878732724
 40
0.6830008617
 40
0.7836933889
 40
1.0
 40
1.0
 40
1.0
 40
1.0
 10
5.2838414856
 20
0.8933489362
 30
0.0
 10
5.2838415335
 20
0.8933805701
 30
0.0
 10
5.2838507477
 20
0.8934462719
 30
0.0
 10
5.2838907508
 20
0.8935423297
 30
0.0
 10
5.2839559822
 20
0.8936372492
 30
0.0
 10
5.2840846823
 20
0.8937716633
 30
0.0
 10
5.2843153926
 20
0.893935369
 30
0.0
 10
5.2846721245
 20
0.894120221
 30
0.0
 10
5.2851275275
 20
0.8943056496
 30
0.0
 10
5.2856819687
 20
0.8944915973
 30
0.0
 10
5.2863360164
 20
0.8946780006
 30
0.0
 10
5.2870897489
 20
0.8948647341
 30
0.0
 10
5.2879431927
 20
0.895051733
 30
0.0
 10
5.289277775
 20
0.8953137341
 30
0.0
 10
5.2911951021
 20
0.8956358352
 30
0.0
 10
5.2937933011
 20
0.8960079636
 30
0.0
 10
5.2967827592
 20
0.896380949
 30
0.0
 10
5.3001605027
 20
0.8967546419
 30
0.0
 10
5.3039231833
 20
0.897128742
 30
0.0
 10
5.3080666881
 20
0.8975032084
 30
0.0
 10
5.3143373807
 20
0.8980230292
 30
0.0
 10
5.323091007
 20
0.8986647106
 30
0.0
 10
5.3346662345
 20
0.8994100609
 30
0.0
 10
5.3476293727
 20
0.9001567815
 30
0.0
 10
5.3619236104
 20
0.9009045186
 30
0.0
 10
5.3774862991
 20
0.9016528852
 30
0.0
 10
5.3942496455
 20
0.9024019014
 30
0.0
 10
5.4121399229
 20
0.9031512447
 30
0.0
 10
5.4380162692
 20
0.9041754737
 30
0.0
 10
5.4579220414
 20
0.9049055576
 30
0.0
 10
5.4715054546
 20
0.905387089
 30
0.0
  0
SPLINE
  5
381
100
AcDbEntity
  8
ALL_ASSEMBLY_MEMBERS
100
AcDbSpline
 62
7
  6
CONTINUOUS
 70
0
 71
3
 72
38
 73
34
 74
0
 42
0.0000001
 43
0.0000001
 44
0.0000000001
 40
0.0
 40
0.0
 40
0.0
 40
0.0
 40
0.0766754396
 40
0.1573969744
 40
0.2408699206
 40
0.3257543561
 40
0.410687971
 40
0.4943082187
 40
0.5752732722
 40
0.6522834051
 40
0.7241037218
 40
0.7577050381
 40
0.7895834816
 40
0.8196130927
 40
0.8476737046
 40
0.873650924
 40
0.8974442783
 40
0.9189563671
 40
0.9381028393
 40
0.9548102106
 40
0.9622271733
 40
0.9690106056
 40
0.9751550268
 40
0.9806551765
 40
0.985506137
 40
0.989703853
 40
0.9932473962
 40
0.9947744204
 40
0.9961388667
 40
0.9973416197
 40
0.998384135
 40
0.9992688478
 40
1.0
 40
1.0
 40
1.0
 40
1.0
 10
5.4715054546
 20
0.905387089
 30
0.0
 10
5.4855081331
 20
0.9058834833
 30
0.0
 10
5.514253708
 20
0.9068656005
 30
0.0
 10
5.5582464687
 20
0.9082946544
 30
0.0
 10
5.6037400557
 20
0.9097244867
 30
0.0
 10
5.650003704
 20
0.9111547157
 30
0.0
 10
5.6962942825
 20
0.9125849598
 30
0.0
 10
5.7418683103
 20
0.9140148488
 30
0.0
 10
5.7859937211
 20
0.9154439326
 30
0.0
 10
5.8279617054
 20
0.9168717986
 30
0.0
 10
5.8612767817
 20
0.918085336
 30
0.0
 10
5.8863475172
 20
0.9190652985
 30
0.0
 10
5.9037858808
 20
0.9197836765
 30
0.0
 10
5.9202108594
 20
0.9205016969
 30
0.0
 10
5.9355563904
 20
0.9212192571
 30
0.0
 10
5.9497610122
 20
0.9219363853
 30
0.0
 10
5.9627673689
 20
0.9226526849
 30
0.0
 10
5.9745234924
 20
0.9233680126
 30
0.0
 10
5.9849821504
 20
0.9240821226
 30
0.0
 10
5.9928656003
 20
0.9246971449
 30
0.0
 10
5.9984915969
 20
0.9251958568
 30
0.0
 10
6.0021920564
 20
0.9255546171
 30
0.0
 10
6.0055404913
 20
0.9259129687
 30
0.0
 10
6.0085336169
 20
0.9262708253
 30
0.0
 10
6.0111682985
 20
0.9266279077
 30
0.0
 10
6.013441801
 20
0.9269841638
 30
0.0
 10
6.015107458
 20
0.927293072
 30
0.0
 10
6.0162562352
 20
0.9275447282
 30
0.0
 10
6.0169827743
 20
0.9277237739
 30
0.0
 10
6.0176178695
 20
0.9279025156
 30
0.0
 10
6.0181615789
 20
0.9280808983
 30
0.0
 10
6.0186139068
 20
0.9282588008
 30
0.0
 10
6.0188796111
 20
0.9283890856
 30
0.0
 10
6.0189952896
 20
0.9284559424
 30
0.0
  0
SPLINE
  5
382
100
AcDbEntity
  8
ALL_ASSEMBLY_MEMBERS
100
AcDbSpline
 62
7
  6
CONTINUOUS
 70
0
 71
3
 72
38
 73
34
 74
0
 42
0.0000001
 43
0.0000001
 44
0.0000000001
 40
0.0
 40
0.0
 40
0.0
 40
0.0
 40
0.0004572778
 40
0.0009519333
 40
0.0015140648
 40
0.002164495
 40
0.0029167704
 40
0.003779615
 40
0.0058570673
 40
0.008425102
 40
0.011497024
 40
0.0150800814
 40
0.0191784201
 40
0.0237944508
 40
0.0289295438
 40
0.0345844099
 40
0.040759298
 40
0.0546654716
 40
0.0706361451
 40
0.0886563984
 40
0.1087101652
 40
0.1307802165
 40
0.1548431718
 40
0.2088369896
 40
0.2704665766
 40
0.3394673997
 40
0.4155370758
 40
0.4983525388
 40
0.5875454187
 40
0.6827345477
 40
0.7835010144
 40
0.8894094404
 40
1.0
 40
1.0
 40
1.0
 40
1.0
 10
6.0581809347
 20
1.031743587
 30
0.0
 10
6.0581809646
 20
1.0317119598
 30
0.0
 10
6.0581708341
 20
1.0316457812
 30
0.0
 10
6.058126694
 20
1.03154969
 30
0.0
 10
6.0580549057
 20
1.0314550539
 30
0.0
 10
6.0579559688
 20
1.0313612638
 30
0.0
 10
6.05782986
 20
1.0312677824
 30
0.0
 10
6.0576114078
 20
1.0311349686
 30
0.0
 10
6.0572654939
 20
1.0309731047
 30
0.0
 10
6.0567644404
 20
1.0307882441
 30
0.0
 10
6.0561537825
 20
1.0306027896
 30
0.0
 10
6.055433516
 20
1.0304168069
 30
0.0
 10
6.0546035209
 20
1.0302304645
 30
0.0
 10
6.0536639116
 20
1.0300438474
 30
0.0
 10
6.0526148161
 20
1.0298570307
 30
0.0
 10
6.0514564079
 20
1.0296700467
 30
0.0
 10
6.0496954308
 20
1.0294101807
 30
0.0
 10
6.0472224839
 20
1.0290893564
 30
0.0
 10
6.0439306124
 20
1.0287170218
 30
0.0
 10
6.040211225
 20
1.0283440635
 30
0.0
 10
6.0360681537
 20
1.0279705982
 30
0.0
 10
6.0315056438
 20
1.0275968028
 30
0.0
 10
6.0245998787
 20
1.0270779188
 30
0.0
 10
6.0149596681
 20
1.0264374166
 30
0.0
 10
6.0022118924
 20
1.0256933366
 30
0.0
 10
5.9879350187
 20
1.0249480071
 30
0.0
 10
5.972191111
 20
1.0242015754
 30
0.0
 10
5.9550492332
 20
1.0234545511
 30
0.0
 10
5.9365838452
 20
1.0227068836
 30
0.0
 10
5.9168759558
 20
1.0219588992
 30
0.0
 10
5.8960111809
 20
1.0212105484
 30
0.0
 10
5.8740805388
 20
1.020461962
 30
0.0
 10
5.8591145559
 20
1.0199726307
 30
0.0
 10
5.8514695912
 20
1.0197271262
 30
0.0
  0
LINE
  5
383
100
AcDbEntity
  8
ALL_ASSEMBLY_MEMBERS
100
AcDbLine
 62
7
  6
CONTINUOUS
 10
5.8514695912
 20
1.0197271262
 11
5.8496903034
 21
1.0196700681
  0
LINE
  5
384
100
AcDbEntity
  8
ALL_ASSEMBLY_MEMBERS
100
AcDbLine
 62
7
  6
CONTINUOUS
 10
5.8496903034
 20
1.0196700681
 11
5.6516812358
 21
1.0138860941
  0
SPLINE
  5
385
100
AcDbEntity
  8
ALL_ASSEMBLY_MEMBERS
100
AcDbSpline
 62
7
  6
CONTINUOUS
 70
0
 71
3
 72
37
 73
33
 74
0
 42
0.0000001
 43
0.0000001
 44
0.0000000001
 40
0.0
 40
0.0
 40
0.0
 40
0.0
 40
0.0960828967
 40
0.1912056189
 40
0.2844484751
 40
0.375011735
 40
0.4620995987
 40
0.5449202988
 40
0.6227313906
 40
0.694828285
 40
0.7605535835
 40
0.7908361785
 40
0.8193052595
 40
0.845892247
 40
0.8705371509
 40
0.893183905
 40
0.9137768227
 40
0.9322674235
 40
0.9486150425
 40
0.9627797455
 40
0.969031996
 40
0.9747266171
 40
0.9798609763
 40
0.9844325887
 40
0.9884392023
 40
0.9918789537
 40
0.994750777
 40
0.9970561468
 40
0.9979980403
 40
0.9988008996
 40
0.999466901
 40
1.0
 40
1.0
 40
1.0
 40
1.0
 10
5.6516812358
 20
0.7431989991
 30
0.0
 10
5.6398561571
 20
0.7429749901
 30
0.0
 10
5.6163241845
 20
0.7425284299
 30
0.0
 10
5.5813168249
 20
0.7418559056
 30
0.0
 10
5.5469890465
 20
0.7411822772
 30
0.0
 10
5.5136505226
 20
0.7405076946
 30
0.0
 10
5.4815951901
 20
0.7398322279
 30
0.0
 10
5.4511099517
 20
0.7391559097
 30
0.0
 10
5.4224704993
 20
0.738478986
 30
0.0
 10
5.3959360261
 20
0.7378015528
 30
0.0
 10
5.3752514602
 20
0.7372222758
 30
0.0
 10
5.3599362774
 20
0.7367539798
 30
0.0
 10
5.3494371761
 20
0.7364122627
 30
0.0
 10
5.3396324364
 20
0.7360703707
 30
0.0
 10
5.3305448593
 20
0.735728368
 30
0.0
 10
5.3221956778
 20
0.735386366
 30
0.0
 10
5.3146047434
 20
0.7350443934
 30
0.0
 10
5.3077900457
 20
0.7347025954
 30
0.0
 10
5.3017677179
 20
0.7343611694
 30
0.0
 10
5.2972517469
 20
0.7340664085
 30
0.0
 10
5.2940464775
 20
0.7338270633
 30
0.0
 10
5.2919509004
 20
0.7336551739
 30
0.0
 10
5.2900629517
 20
0.7334834128
 30
0.0
 10
5.288383714
 20
0.733311851
 30
0.0
 10
5.2869142676
 20
0.7331405821
 30
0.0
 10
5.285655564
 20
0.7329698853
 30
0.0
 10
5.2846084849
 20
0.7327998206
 30
0.0
 10
5.2838696858
 20
0.7326511312
 30
0.0
 10
5.2833863888
 20
0.7325283694
 30
0.0
 10
5.2831020782
 20
0.7324428278
 30
0.0
 10
5.2828707023
 20
0.7323576315
 30
0.0
 10
5.2827368828
 20
0.7322943258
 30
0.0
 10
5.2826800696
 20
0.7322614869
 30
0.0
  0
SPLINE
  5
386
100
AcDbEntity
  8
ALL_ASSEMBLY_MEMBERS
100
AcDbSpline
 62
7
  6
CONTINUOUS
 70
0
 71
3
 72
36
 73
32
 74
0
 42
0.0000001
 43
0.0000001
 44
0.0000000001
 40
0.0
 40
0.0
 40
0.0
 40
0.0
 40
0.094994429
 40
0.189180885
 40
0.281627315
 40
0.3715264072
 40
0.4580755085
 40
0.5404803077
 40
0.6180001647
 40
0.6899357261
 40
0.7556372031
 40
0.7859632441
 40
0.8145141924
 40
0.8412230661
 40
0.8660322337
 40
0.8888873454
 40
0.9097346732
 40
0.9285286176
 40
0.9452306548
 40
0.9598031022
 40
0.972214156
 40
0.9776028383
 40
0.9824441141
 40
0.986736293
 40
0.9904782441
 40
0.9936699259
 40
0.9963143405
 40
0.9974335414
 40
0.9984191731
 40
0.9992734853
 40
1.0
 40
1.0
 40
1.0
 40
1.0
 10
5.6516812358
 20
0.8710260641
 30
0.0
 10
5.6388111193
 20
0.8706661304
 30
0.0
 10
5.6131803528
 20
0.8699493278
 30
0.0
 10
5.57502495
 20
0.8688726012
 30
0.0
 10
5.5375604228
 20
0.8677959915
 30
0.0
 10
5.5011314571
 20
0.8667197334
 30
0.0
 10
5.4660640899
 20
0.8656439438
 30
0.0
 10
5.4326753586
 20
0.8645686743
 30
0.0
 10
5.4012683343
 20
0.8634943053
 30
0.0
 10
5.3721265866
 20
0.8624210042
 30
0.0
 10
5.3493799284
 20
0.86150522
 30
0.0
 10
5.3325112479
 20
0.8607661733
 30
0.0
 10
5.3209238163
 20
0.8602270299
 30
0.0
 10
5.3100849691
 20
0.8596880799
 30
0.0
 10
5.3000191154
 20
0.8591494365
 30
0.0
 10
5.2907489097
 20
0.8586112429
 30
0.0
 10
5.2822954412
 20
0.858073528
 30
0.0
 10
5.2746777429
 20
0.8575364471
 30
0.0
 10
5.2679127573
 20
0.8570004776
 30
0.0
 10
5.2620158535
 20
0.8564658101
 30
0.0
 10
5.257652443
 20
0.8560029438
 30
0.0
 10
5.2546069031
 20
0.8556262798
 30
0.0
 10
5.2526569782
 20
0.8553575881
 30
0.0
 10
5.2509325325
 20
0.8550893595
 30
0.0
 10
5.2494345493
 20
0.8548218174
 30
0.0
 10
5.2481638825
 20
0.8545550337
 30
0.0
 10
5.2472496825
 20
0.8543228689
 30
0.0
 10
5.2466344815
 20
0.8541330207
 30
0.0
 10
5.2462563544
 20
0.8539988328
 30
0.0
 10
5.2459351379
 20
0.8538648852
 30
0.0
 10
5.245743601
 20
0.8537680974
 30
0.0
 10
5.2456583464
 20
0.8537188251
 30
0.0
  0
SPLINE
  5
387
100
AcDbEntity
  8
ALL_ASSEMBLY_MEMBERS
100
AcDbSpline
 62
7
  6
CONTINUOUS
 70
0
 71
3
 72
40
 73
36
 74
0
 42
0.0000001
 43
0.0000001
 44
0.0000000001
 40
0.0
 40
0.0
 40
0.0
 40
0.0
 40
0.0003506512
 40
0.0007608272
 40
0.0012694598
 40
0.0018973196
 40
0.0026553503
 40
0.0035496538
 40
0.0045838569
 40
0.0057602356
 40
0.0085447498
 40
0.0119106062
 40
0.0158610892
 40
0.0203967059
 40
0.025515842
 40
0.0312162477
 40
0.0374953164
 40
0.0443502079
 40
0.0597748371
 40
0.077455992
 40
0.0973503043
 40
0.1194133817
 40
0.1435942622
 40
0.1698325193
 40
0.1980667946
 40
0.2282316296
 40
0.2940509859
 40
0.3666620779
 40
0.4453637754
 40
0.529402662
 40
0.6179735699
 40
0.7102144829
 40
0.8052426151
 40
0.9021740325
 40
1.0
 40
1.0
 40
1.0
 40
1.0
 10
5.2451812374
 20
0.8442393144
 30
0.0
 10
5.2451812306
 20
0.8442869288
 30
0.0
 10
5.2452062969
 20
0.8443908831
 30
0.0
 10
5.2453074365
 20
0.8445335453
 30
0.0
 10
5.2454665142
 20
0.8446724416
 30
0.0
 10
5.2456844581
 20
0.8448103533
 30
0.0
 10
5.245962065
 20
0.8449482931
 30
0.0
 10
5.2462999466
 20
0.8450864439
 30
0.0
 10
5.2466983488
 20
0.84522485
 30
0.0
 10
5.2473478513
 20
0.8454208164
 30
0.0
 10
5.2483140284
 20
0.8456603406
 30
0.0
 10
5.2496579221
 20
0.8459355579
 30
0.0
 10
5.2512436272
 20
0.8462115813
 30
0.0
 10
5.2530703256
 20
0.8464882957
 30
0.0
 10
5.2551369532
 20
0.8467654807
 30
0.0
 10
5.2574421555
 20
0.8470430133
 30
0.0
 10
5.259984554
 20
0.8473208202
 30
0.0
 10
5.2638432613
 20
0.8477068482
 30
0.0
 10
5.2692486818
 20
0.848183284
 30
0.0
 10
5.276424293
 20
0.8487363484
 30
0.0
 10
5.2845036182
 20
0.8492904306
 30
0.0
 10
5.2934673269
 20
0.8498452364
 30
0.0
 10
5.3032939345
 20
0.850400513
 30
0.0
 10
5.313959716
 20
0.8509562562
 30
0.0
 10
5.3254390509
 20
0.8515123336
 30
0.0
 10
5.3422891859
 20
0.852276417
 30
0.0
 10
5.3651630136
 20
0.8532222599
 30
0.0
 10
5.394626321
 20
0.8543287242
 30
0.0
 10
5.4265651786
 20
0.855436574
 30
0.0
 10
5.4606723667
 20
0.8565454406
 30
0.0
 10
5.4966189168
 20
0.8576549842
 30
0.0
 10
5.5340583401
 20
0.85876506
 30
0.0
 10
5.5726334932
 20
0.8598755339
 30
0.0
 10
5.6119673336
 20
0.8609861595
 30
0.0
 10
5.6384027945
 20
0.8617254656
 30
0.0
 10
5.6516812358
 20
0.862096819
 30
0.0
  0
SPLINE
  5
388
100
AcDbEntity
  8
ALL_ASSEMBLY_MEMBERS
100
AcDbSpline
 62
7
  6
CONTINUOUS
 70
0
 71
3
 72
36
 73
32
 74
0
 42
0.0000001
 43
0.0000001
 44
0.0000000001
 40
0.0
 40
0.0
 40
0.0
 40
0.0
 40
0.0949962008
 40
0.1891810626
 40
0.2816257789
 40
0.3715245878
 40
0.4580730437
 40
0.5404776785
 40
0.6179973926
 40
0.6899337738
 40
0.7556354447
 40
0.7859622889
 40
0.8145130861
 40
0.841222037
 40
0.8660320575
 40
0.8888872731
 40
0.9097339296
 40
0.9285284265
 40
0.9452306695
 40
0.9598018676
 40
0.9722131227
 40
0.9776022081
 40
0.9824437404
 40
0.9867357695
 40
0.9904770144
 40
0.9936683436
 40
0.996313098
 40
0.9974326106
 40
0.9984185845
 40
0.9992732222
 40
1.0
 40
1.0
 40
1.0
 40
1.0
 10
5.6516812358
 20
1.0138860941
 30
0.0
 10
5.6388108633
 20
1.0135261532
 30
0.0
 10
5.6131800407
 20
1.012809349
 30
0.0
 10
5.5750247986
 20
1.0117326264
 30
0.0
 10
5.5375607113
 20
1.010656029
 30
0.0
 10
5.5011320581
 20
1.0095797818
 30
0.0
 10
5.4660647955
 20
1.008503992
 30
0.0
 10
5.4326761514
 20
1.0074287348
 30
0.0
 10
5.4012690191
 20
1.0063543477
 30
0.0
 10
5.3721271162
 20
1.0052810656
 30
0.0
 10
5.3493801847
 20
1.0043652463
 30
0.0
 10
5.3325113675
 20
1.0036262179
 30
0.0
 10
5.3209238234
 20
1.0030870542
 30
0.0
 10
5.3100848579
 20
1.0025480875
 30
0.0
 10
5.3000188507
 20
1.0020094552
 30
0.0
 10
5.2907485946
 20
1.0014712618
 30
0.0
 10
5.2822951198
 20
1.0009335108
 30
0.0
 10
5.2746773989
 20
1.0003964516
 30
0.0
 10
5.2679124682
 20
0.9998605192
 30
0.0
 10
5.262015678
 20
0.9993257811
 30
0.0
 10
5.2576523489
 20
0.9988629287
 30
0.0
 10
5.2546066857
 20
0.9984862803
 30
0.0
 10
5.2526566877
 20
0.9982175949
 30
0.0
 10
5.2509323192
 20
0.9979493824
 30
0.0
 10
5.2494345058
 20
0.9976818088
 30
0.0
 10
5.2481639414
 20
0.997415006
 30
0.0
 10
5.2472496941
 20
0.9971828638
 30
0.0
 10
5.2466343463
 20
0.9969930327
 30
0.0
 10
5.2462560761
 20
0.9968588501
 30
0.0
 10
5.2459347203
 20
0.9967249083
 30
0.0
 10
5.2457430926
 20
0.9966281225
 30
0.0
 10
5.2456577975
 20
0.9965788489
 30
0.0
  0
SPLINE
  5
389
100
AcDbEntity
  8
ALL_ASSEMBLY_MEMBERS
100
AcDbSpline
 62
7
  6
CONTINUOUS
 70
0
 71
3
 72
38
 73
34
 74
0
 42
0.0000001
 43
0.0000001
 44
0.0000000001
 40
0.0
 40
0.0
 40
0.0
 40
0.0
 40
0.0004174953
 40
0.0008780678
 40
0.0014142864
 40
0.0020471034
 40
0.0027892982
 40
0.0036487528
 40
0.0057371883
 40
0.0083370455
 40
0.0114598038
 40
0.0151117753
 40
0.0192965926
 40
0.0240155023
 40
0.0292682475
 40
0.0350540087
 40
0.0413716036
 40
0.0555962623
 40
0.071929123
 40
0.0903530708
 40
0.110841922
 40
0.1333670341
 40
0.1578993818
 40
0.2128575047
 40
0.2754086549
 40
0.3452158166
 40
0.4218880369
 40
0.5050043517
 40
0.5941020257
 40
0.6886868852
 40
0.7882365463
 40
0.8921995875
 40
1.0
 40
1.0
 40
1.0
 40
1.0
 10
5.2451816312
 20
0.9156692976
 30
0.0
 10
5.2451816914
 20
0.9157051143
 30
0.0
 10
5.245195156
 20
0.9157808512
 30
0.0
 10
5.2452522509
 20
0.9158894572
 30
0.0
 10
5.2453440931
 20
0.9159959902
 30
0.0
 10
5.2454702079
 20
0.9161015442
 30
0.0
 10
5.245630769
 20
0.9162068379
 30
0.0
 10
5.2459097554
 20
0.9163570542
 30
0.0
 10
5.2463503615
 20
0.9165396216
 30
0.0
 10
5.2469875429
 20
0.9167480438
 30
0.0
 10
5.2477644221
 20
0.9169572268
 30
0.0
 10
5.2486810676
 20
0.9171670814
 30
0.0
 10
5.2497376119
 20
0.9173773422
 30
0.0
 10
5.2509337678
 20
0.9175879256
 30
0.0
 10
5.2522691036
 20
0.9177987505
 30
0.0
 10
5.2537430865
 20
0.9180097731
 30
0.0
 10
5.2559826729
 20
0.9183030533
 30
0.0
 10
5.2591255568
 20
0.9186651598
 30
0.0
 10
5.2633066789
 20
0.9190854016
 30
0.0
 10
5.2680275306
 20
0.9195062558
 30
0.0
 10
5.2732814287
 20
0.9199277024
 30
0.0
 10
5.2790608488
 20
0.920349593
 30
0.0
 10
5.2877931491
 20
0.9209349243
 30
0.0
 10
5.2999575603
 20
0.9216571427
 30
0.0
 10
5.3160054549
 20
0.9224968444
 30
0.0
 10
5.3339183962
 20
0.9233378335
 30
0.0
 10
5.3535972987
 20
0.924180076
 30
0.0
 10
5.3749324795
 20
0.9250230484
 30
0.0
 10
5.3978054603
 20
0.9258666426
 30
0.0
 10
5.422089129
 20
0.9267106893
 30
0.0
 10
5.4476488045
 20
0.9275550728
 30
0.0
 10
5.4743428132
 20
0.9283997678
 30
0.0
 10
5.4925014181
 20
0.9289540222
 30
0.0
 10
5.5017453667
 20
0.9292321577
 30
0.0
  0
SPLINE
  5
38A
100
AcDbEntity
  8
ALL_ASSEMBLY_MEMBERS
100
AcDbSpline
 62
7
  6
CONTINUOUS
 70
0
 71
3
 72
36
 73
32
 74
0
 42
0.0000001
 43
0.0000001
 44
0.0000000001
 40
0.0
 40
0.0
 40
0.0
 40
0.0
 40
0.0949964521
 40
0.1891838148
 40
0.2816321721
 40
0.3715329554
 40
0.4580823868
 40
0.5404869577
 40
0.6180057079
 40
0.6899398957
 40
0.7556394452
 40
0.7859652104
 40
0.8145153703
 40
0.841223996
 40
0.86603387
 40
0.8888891576
 40
0.9097358739
 40
0.9285301867
 40
0.9452322508
 40
0.9598033549
 40
0.9722142095
 40
0.9776030534
 40
0.9824443694
 40
0.9867362469
 40
0.990477411
 40
0.9936686413
 40
0.9963132854
 40
0.9974327439
 40
0.9984186673
 40
0.9992732599
 40
1.0
 40
1.0
 40
1.0
 40
1.0
 10
5.6516812358
 20
0.862096819
 30
0.0
 10
5.6645516428
 20
0.862456761
 30
0.0
 10
5.6901828389
 20
0.8631735756
 30
0.0
 10
5.7283389483
 20
0.8642503237
 30
0.0
 10
5.7658041362
 20
0.865326954
 30
0.0
 10
5.8022336833
 20
0.8664032312
 30
0.0
 10
5.8373013378
 20
0.8674790359
 30
0.0
 10
5.8706899754
 20
0.868554304
 30
0.0
 10
5.9020966723
 20
0.869628677
 30
0.0
 10
5.9312378604
 20
0.8707019511
 30
0.0
 10
5.9539840622
 20
0.8716177389
 30
0.0
 10
5.9708523597
 20
0.8723567546
 30
0.0
 10
5.9824396277
 20
0.8728959074
 30
0.0
 10
5.9932784433
 20
0.87343487
 30
0.0
 10
6.0033443964
 20
0.8739735053
 30
0.0
 10
6.0126146506
 20
0.8745117008
 30
0.0
 10
6.0210681185
 20
0.8750494528
 30
0.0
 10
6.0286857979
 20
0.8755865196
 30
0.0
 10
6.0354506662
 20
0.8761224573
 30
0.0
 10
6.0413473661
 20
0.8766571829
 30
0.0
 10
6.0457105951
 20
0.8771200351
 30
0.0
 10
6.0487561415
 20
0.8774966805
 30
0.0
 10
6.0507060567
 20
0.8777653621
 30
0.0
 10
6.0524303643
 20
0.8780335704
 30
0.0
 10
6.0539281339
 20
0.8783011343
 30
0.0
 10
6.0551986595
 20
0.8785679308
 30
0.0
 10
6.0561128714
 20
0.8788000677
 30
0.0
 10
6.0567281902
 20
0.8789898941
 30
0.0
 10
6.0571064402
 20
0.8791240729
 30
0.0
 10
6.0574277781
 20
0.8792580108
 30
0.0
 10
6.0576193947
 20
0.8793547936
 30
0.0
 10
6.0577046849
 20
0.8794040655
 30
0.0
  0
SPLINE
  5
38B
100
AcDbEntity
  8
ALL_ASSEMBLY_MEMBERS
100
AcDbSpline
 62
7
  6
CONTINUOUS
 70
0
 71
3
 72
40
 73
36
 74
0
 42
0.0000001
 43
0.0000001
 44
0.0000000001
 40
0.0
 40
0.0
 40
0.0
 40
0.0
 40
0.0003506577
 40
0.0007608437
 40
0.0012694841
 40
0.0018973483
 40
0.0026553802
 40
0.0035496828
 40
0.0045838842
 40
0.005760262
 40
0.0085447822
 40
0.0119106651
 40
0.0158612016
 40
0.0203968698
 40
0.025516049
 40
0.0312164901
 40
0.0374955871
 40
0.0443505003
 40
0.059775146
 40
0.0774562655
 40
0.0973505575
 40
0.1194137002
 40
0.1435947151
 40
0.1698331939
 40
0.1980678187
 40
0.2282331683
 40
0.2940535812
 40
0.3666654845
 40
0.4453675433
 40
0.5294064865
 40
0.6179769548
 40
0.7102168525
 40
0.8052431648
 40
0.902173881
 40
1.0
 40
1.0
 40
1.0
 40
1.0
 10
5.2451812362
 20
0.9870992921
 30
0.0
 10
5.2451812329
 20
0.9871469074
 30
0.0
 10
5.2452063072
 20
0.9872508617
 30
0.0
 10
5.2453074518
 20
0.9873935236
 30
0.0
 10
5.2454665328
 20
0.9875324206
 30
0.0
 10
5.2456844783
 20
0.987670333
 30
0.0
 10
5.2459620855
 20
0.9878082737
 30
0.0
 10
5.2462999667
 20
0.9879464251
 30
0.0
 10
5.2466983681
 20
0.9880848319
 30
0.0
 10
5.2473478707
 20
0.9882807994
 30
0.0
 10
5.2483140519
 20
0.9885203251
 30
0.0
 10
5.2496579572
 20
0.9887955436
 30
0.0
 10
5.2512436805
 20
0.9890715668
 30
0.0
 10
5.2530703989
 20
0.9893482825
 30
0.0
 10
5.2551370442
 20
0.9896254686
 30
0.0
 10
5.2574422609
 20
0.9899030021
 30
0.0
 10
5.2599846709
 20
0.9901808098
 30
0.0
 10
5.2638433873
 20
0.990566838
 30
0.0
 10
5.2692488081
 20
0.9910432726
 30
0.0
 10
5.2764244139
 20
0.9915963363
 30
0.0
 10
5.2845037403
 20
0.9921504176
 30
0.0
 10
5.2934674732
 20
0.9927052228
 30
0.0
 10
5.3032941378
 20
0.9932605019
 30
0.0
 10
5.3139600148
 20
0.9938162495
 30
0.0
 10
5.3254394968
 20
0.9943723335
 30
0.0
 10
5.3422898921
 20
0.9951364253
 30
0.0
 10
5.3651640426
 20
0.9960822801
 30
0.0
 10
5.3946276521
 20
0.9971887507
 30
0.0
 10
5.4265666759
 20
0.9982966047
 30
0.0
 10
5.4606738606
 20
0.9994054666
 30
0.0
 10
5.4966202201
 20
1.0005150039
 30
0.0
 10
5.5340591982
 20
1.0016250651
 30
0.0
 10
5.5726338705
 20
1.0027355256
 30
0.0
 10
5.6119673885
 20
1.0038461418
 30
0.0
 10
5.6384027742
 20
1.0045854463
 30
0.0
 10
5.6516812358
 20
1.0049568004
 30
0.0
  0
SPLINE
  5
38C
100
AcDbEntity
  8
ALL_ASSEMBLY_MEMBERS
100
AcDbSpline
 62
7
  6
CONTINUOUS
 70
0
 71
3
 72
38
 73
34
 74
0
 42
0.0000001
 43
0.0000001
 44
0.0000000001
 40
0.0
 40
0.0
 40
0.0
 40
0.0
 40
0.0007308013
 40
0.0016284878
 40
0.0026978785
 40
0.0039416974
 40
0.0053615771
 40
0.0069585308
 40
0.0106849344
 40
0.0151202122
 40
0.020261041
 40
0.0261031289
 40
0.0326415951
 40
0.0398695777
 40
0.0477779025
 40
0.0655975897
 40
0.0860210085
 40
0.108948492
 40
0.1342719786
 40
0.1618703024
 40
0.191609421
 40
0.2233487987
 40
0.2569329962
 40
0.292202563
 40
0.3671068862
 40
0.4466197327
 40
0.5292096046
 40
0.6132852733
 40
0.6972263545
 40
0.7794176935
 40
0.8582703613
 40
0.9322793517
 40
1.0
 40
1.0
 40
1.0
 40
1.0
 10
5.2843677495
 20
1.0189569374
 30
0.0
 10
5.284495736
 20
1.0190309086
 30
0.0
 10
5.2847931867
 20
1.0191743789
 30
0.0
 10
5.2853033679
 20
1.0193689575
 30
0.0
 10
5.2859231546
 20
1.0195641814
 30
0.0
 10
5.2866526389
 20
1.0197598801
 30
0.0
 10
5.2874919988
 20
1.0199559665
 30
0.0
 10
5.2888278695
 20
1.0202321531
 30
0.0
 10
5.2907730355
 20
1.0205706358
 30
0.0
 10
5.2934356004
 20
1.020960741
 30
0.0
 10
5.2965299009
 20
1.0213519223
 30
0.0
 10
5.3000524374
 20
1.0217439994
 30
0.0
 10
5.3039994131
 20
1.0221365933
 30
0.0
 10
5.308366149
 20
1.022529607
 30
0.0
 10
5.3150100449
 20
1.0230760747
 30
0.0
 10
5.3243213269
 20
1.0237500217
 30
0.0
 10
5.3366701668
 20
1.0245321471
 30
0.0
 10
5.3505394617
 20
1.0253158489
 30
0.0
 10
5.3658620894
 20
1.0261006573
 30
0.0
 10
5.3825641687
 20
1.0268862325
 30
0.0
 10
5.4005653325
 20
1.0276724907
 30
0.0
 10
5.419778368
 20
1.0284590967
 30
0.0
 10
5.4401109545
 20
1.0292461712
 30
0.0
 10
5.4691703567
 20
1.0303174436
 30
0.0
 10
5.5075169766
 20
1.0316434498
 30
0.0
 10
5.5554328629
 20
1.0332065603
 30
0.0
 10
5.6052048187
 20
1.0347707976
 30
0.0
 10
5.6558729201
 20
1.0363355978
 30
0.0
 10
5.7064603715
 20
1.0379003397
 30
0.0
 10
5.7559908323
 20
1.0394644624
 30
0.0
 10
5.8035112677
 20
1.0410272104
 30
0.0
 10
5.8481029985
 20
1.0425878344
 30
0.0
 10
5.876751069
 20
1.0436807332
 30
0.0
 10
5.8904381895
 20
1.0442368012
 30
0.0
  0
SPLINE
  5
38D
100
AcDbEntity
  8
ALL_ASSEMBLY_MEMBERS
100
AcDbSpline
 62
7
  6
CONTINUOUS
 70
0
 71
3
 72
13
 73
9
 74
0
 42
0.0000001
 43
0.0000001
 44
0.0000000001
 40
0.0
 40
0.0
 40
0.0
 40
0.0
 40
0.1367582381
 40
0.2725544256
 40
0.4063195453
 40
0.53689469
 40
0.7832086911
 40
1.0
 40
1.0
 40
1.0
 40
1.0
 10
5.6035245538
 20
6.5380669657
 30
0.0
 10
5.5910829098
 20
6.5298227422
 30
0.0
 10
5.5661080093
 20
6.5136611678
 30
0.0
 10
5.5284088855
 20
6.4903078321
 30
0.0
 10
5.4908776768
 20
6.4679785384
 30
0.0
 10
5.442526016
 20
6.4402615004
 30
0.0
 10
5.3856318621
 20
6.409244158
 30
0.0
 10
5.3407098545
 20
6.3860750252
 30
0.0
 10
5.3195783886
 20
6.3754335466
 30
0.0
  0
LINE
  5
38E
100
AcDbEntity
  8
ALL_ASSEMBLY_MEMBERS
100
AcDbLine
 62
7
  6
CONTINUOUS
 10
5.9928330179
 20
6.9758591075
 11
5.9881114262
 21
6.9597369323
  0
SPLINE
  5
38F
100
AcDbEntity
  8
ALL_ASSEMBLY_MEMBERS
100
AcDbSpline
 62
7
  6
CONTINUOUS
 70
0
 71
3
 72
22
 73
18
 74
0
 42
0.0000001
 43
0.0000001
 44
0.0000000001
 40
0.0
 40
0.0
 40
0.0
 40
0.0
 40
0.0394305593
 40
0.0858777519
 40
0.1905159194
 40
0.2471576831
 40
0.3062539546
 40
0.36765572
 40
0.431249128
 40
0.4969246956
 40
0.5645539534
 40
0.6339805802
 40
0.7050145094
 40
0.7774280581
 40
0.8509478226
 40
0.9252735975
 40
1.0
 40
1.0
 40
1.0
 40
1.0
 10
5.9881114262
 20
6.9597369323
 30
0.0
 10
5.9858051676
 20
6.9524576001
 30
0.0
 10
5.9803165909
 20
6.9367474581
 30
0.0
 10
5.9661280167
 20
6.9026706361
 30
0.0
 10
5.947199536
 20
6.867045965
 30
0.0
 10
5.9241384652
 20
6.8311209829
 30
0.0
 10
5.9040909861
 20
6.8032636351
 30
0.0
 10
5.8818518046
 20
6.77538377
 30
0.0
 10
5.857518266
 20
6.7475955643
 30
0.0
 10
5.8311990537
 20
6.7199908288
 30
0.0
 10
5.8030144822
 20
6.6926468015
 30
0.0
 10
5.7731002469
 20
6.6656342572
 30
0.0
 10
5.7416085832
 20
6.6390209412
 30
0.0
 10
5.7087108246
 20
6.6128744425
 30
0.0
 10
5.6745961603
 20
6.5872618148
 30
0.0
 10
5.6394821279
 20
6.5622587607
 30
0.0
 10
5.6155876972
 20
6.5460604048
 30
0.0
 10
5.6035245538
 20
6.5380669657
 30
0.0
  0
SPLINE
  5
390
100
AcDbEntity
  8
ALL_ASSEMBLY_MEMBERS
100
AcDbSpline
 62
7
  6
CONTINUOUS
 70
0
 71
3
 72
36
 73
32
 74
0
 42
0.0000001
 43
0.0000001
 44
0.0000000001
 40
0.0
 40
0.0
 40
0.0
 40
0.0
 40
0.211071266
 40
0.3099149438
 40
0.403783166
 40
0.4922863363
 40
0.575030347
 40
0.6516193771
 40
0.7216534264
 40
0.7847186432
 40
0.8403967853
 40
0.8653354084
 40
0.8882785733
 40
0.9091865564
 40
0.9280197027
 40
0.9447383382
 40
0.9593027722
 40
0.9716749256
 40
0.9770311538
 40
0.9818316016
 40
0.9860743769
 40
0.9897575874
 40
0.9928793405
 40
0.9954377436
 40
0.9974309041
 40
0.9982149269
 40
0.9988569291
 40
0.9993566742
 40
0.9997139254
 40
0.9999284463
 40
1.0
 40
1.0
 40
1.0
 40
1.0
 10
5.3195783886
 20
6.3754334856
 30
0.0
 10
5.311048818
 20
6.371528783
 30
0.0
 10
5.2985741036
 20
6.3656872108
 30
0.0
 10
5.282413209
 20
6.3578847752
 30
0.0
 10
5.271196902
 20
6.352370692
 30
0.0
 10
5.26065697
 20
6.3471032883
 30
0.0
 10
5.250833733
 20
6.3421201397
 30
0.0
 10
5.2417677449
 20
6.3374590134
 30
0.0
 10
5.2335001275
 20
6.3331580859
 30
0.0
 10
5.2260738322
 20
6.3292538648
 30
0.0
 10
5.2204329557
 20
6.3262606872
 30
0.0
 10
5.2163725462
 20
6.3240933957
 30
0.0
 10
5.2136774947
 20
6.3226498819
 30
0.0
 10
5.2112234503
 20
6.3213311218
 30
0.0
 10
5.2090145976
 20
6.3201405162
 30
0.0
 10
5.2070551195
 20
6.3190814614
 30
0.0
 10
5.2053491523
 20
6.3181572866
 30
0.0
 10
5.2040876658
 20
6.3174728088
 30
0.0
 10
5.2032078094
 20
6.3169948987
 30
0.0
 10
5.2026455363
 20
6.3166892751
 30
0.0
 10
5.2021486613
 20
6.3164190109
 30
0.0
 10
5.2017174213
 20
6.3161842886
 30
0.0
 10
5.2013519102
 20
6.3159851969
 30
0.0
 10
5.2010526319
 20
6.3158220957
 30
0.0
 10
5.2008440723
 20
6.3157083002
 30
0.0
 10
5.2007112552
 20
6.3156358882
 30
0.0
 10
5.2006349226
 20
6.315594077
 30
0.0
 10
5.2005795738
 20
6.3155642178
 30
0.0
 10
5.2005307093
 20
6.3155366988
 30
0.0
 10
5.2005180307
 20
6.3155312195
 30
0.0
 10
5.2004940186
 20
6.3155165965
 30
0.0
 10
5.2004965095
 20
6.3155185734
 30
0.0
  0
SPLINE
  5
391
100
AcDbEntity
  8
ALL_ASSEMBLY_MEMBERS
100
AcDbSpline
 62
7
  6
CONTINUOUS
 70
0
 71
3
 72
11
 73
7
 74
0
 42
0.0000001
 43
0.0000001
 44
0.0000000001
 40
0.0
 40
0.0
 40
0.0
 40
0.0
 40
0.2696395685
 40
0.5325870302
 40
0.7799500561
 40
1.0
 40
1.0
 40
1.0
 40
1.0
 10
5.6516812358
 20
6.465283759
 30
0.0
 10
5.6306100542
 20
6.4472420702
 30
0.0
 10
5.588179879
 20
6.4125447494
 30
0.0
 10
5.5241310254
 20
6.3641856587
 30
0.0
 10
5.4627137841
 20
6.3208815305
 30
0.0
 10
5.4226849337
 20
6.2942269356
 30
0.0
 10
5.4037002452
 20
6.2818953504
 30
0.0
  0
SPLINE
  5
392
100
AcDbEntity
  8
ALL_ASSEMBLY_MEMBERS
100
AcDbSpline
 62
7
  6
CONTINUOUS
 70
0
 71
3
 72
44
 73
40
 74
0
 42
0.0000001
 43
0.0000001
 44
0.0000000001
 40
0.0
 40
0.0
 40
0.0
 40
0.0
 40
0.1076392007
 40
0.2110286857
 40
0.3098049965
 40
0.4036009442
 40
0.4920402327
 40
0.5747357285
 40
0.6512975533
 40
0.7213293843
 40
0.7844148423
 40
0.8132207878
 40
0.8401317155
 40
0.865095391
 40
0.8880667122
 40
0.9090047659
 40
0.9278686666
 40
0.944617504
 40
0.9592103447
 40
0.9656855428
 40
0.9716080776
 40
0.9769759196
 40
0.9817870977
 40
0.9860396403
 40
0.9897315758
 40
0.9928609323
 40
0.9942140272
 40
0.9954257377
 40
0.9964958174
 40
0.9974240197
 40
0.9982100981
 40
0.9988538059
 40
0.9993548966
 40
0.9995518835
 40
0.9997131236
 40
0.9998385862
 40
0.9999282403
 40
0.9999820552
 40
1.0
 40
1.0
 40
1.0
 40
1.0
 10
5.4037002452
 20
6.2818953504
 30
0.0
 10
5.4002962977
 20
6.2796843767
 30
0.0
 10
5.3936462959
 20
6.2753134232
 30
0.0
 10
5.3839498483
 20
6.2687970752
 30
0.0
 10
5.3747456637
 20
6.2624850382
 30
0.0
 10
5.3660580237
 20
6.256417334
 30
0.0
 10
5.357912182
 20
6.2506334788
 30
0.0
 10
5.3503349264
 20
6.2451718184
 30
0.0
 10
5.3433533313
 20
6.2400711946
 30
0.0
 10
5.3369951611
 20
6.2353710053
 30
0.0
 10
5.3321035646
 20
6.231716488
 30
0.0
 10
5.3285238464
 20
6.2290229097
 30
0.0
 10
5.3260965228
 20
6.2271887244
 30
0.0
 10
5.3238477974
 20
6.2254831419
 30
0.0
 10
5.3217811394
 20
6.2239102284
 30
0.0
 10
5.3198997785
 20
6.222473653
 30
0.0
 10
5.3182067953
 20
6.221177015
 30
0.0
 10
5.3167052718
 20
6.2200239083
 30
0.0
 10
5.3155752242
 20
6.2191540922
 30
0.0
 10
5.3147690702
 20
6.2185327947
 30
0.0
 10
5.3142385838
 20
6.2181236722
 30
0.0
 10
5.3137579126
 20
6.2177527058
 30
0.0
 10
5.3133272071
 20
6.2174200691
 30
0.0
 10
5.3129466176
 20
6.2171259325
 30
0.0
 10
5.3126162941
 20
6.2168704667
 30
0.0
 10
5.3123725217
 20
6.2166818081
 30
0.0
 10
5.3122027476
 20
6.2165503466
 30
0.0
 10
5.312094386
 20
6.2164664102
 30
0.0
 10
5.3119987027
 20
6.2163922677
 30
0.0
 10
5.3119157194
 20
6.2163279479
 30
0.0
 10
5.3118454463
 20
6.2162734502
 30
0.0
 10
5.3117879261
 20
6.2162288581
 30
0.0
 10
5.3117479211
 20
6.2161977633
 30
0.0
 10
5.3117223678
 20
6.2161780137
 30
0.0
 10
5.3117078645
 20
6.2161665815
 30
0.0
 10
5.3116969005
 20
6.2161585184
 30
0.0
 10
5.3116883336
 20
6.2161508497
 30
0.0
 10
5.3116845036
 20
6.2161496586
 30
0.0
 10
5.3116813545
 20
6.2161453663
 30
0.0
 10
5.3116812358
 20
6.2161460324
 30
0.0
  0
SPLINE
  5
393
100
AcDbEntity
  8
ALL_ASSEMBLY_MEMBERS
100
AcDbSpline
 62
7
  6
CONTINUOUS
 70
0
 71
3
 72
21
 73
17
 74
0
 42
0.0000001
 43
0.0000001
 44
0.0000000001
 40
0.0
 40
0.0
 40
0.0
 40
0.0
 40
0.0523056177
 40
0.1065148434
 40
0.1626014442
 40
0.22050387
 40
0.2801539825
 40
0.3414560228
 40
0.4683779038
 40
0.5997255785
 40
0.6664739318
 40
0.7335841665
 40
0.8008034822
 40
0.8678500451
 40
0.9343695969
 40
1.0
 40
1.0
 40
1.0
 40
1.0
 10
5.3195799086
 20
6.3754344852
 30
0.0
 10
5.3218472241
 20
6.3750138915
 30
0.0
 10
5.3264212711
 20
6.373909625
 30
0.0
 10
5.3332033166
 20
6.3715574816
 30
0.0
 10
5.3399702204
 20
6.3685010775
 30
0.0
 10
5.3466587732
 20
6.364759536
 30
0.0
 10
5.3532167741
 20
6.3603667966
 30
0.0
 10
5.3618197755
 20
6.353613878
 30
0.0
 10
5.3719261005
 20
6.3437289026
 30
0.0
 10
5.3808052083
 20
6.3324311355
 30
0.0
 10
5.3871444133
 20
6.3225993172
 30
0.0
 10
5.3914844992
 20
6.3148628061
 30
0.0
 10
5.3953474834
 20
6.3068630776
 30
0.0
 10
5.3986996647
 20
6.2986641596
 30
0.0
 10
5.4015186517
 20
6.2903413337
 30
0.0
 10
5.4030387222
 20
6.2847121175
 30
0.0
 10
5.4037004252
 20
6.2818953504
 30
0.0
  0
SPLINE
  5
394
100
AcDbEntity
  8
ALL_ASSEMBLY_MEMBERS
100
AcDbSpline
 62
7
  6
CONTINUOUS
 70
0
 71
3
 72
47
 73
43
 74
0
 42
0.0000001
 43
0.0000001
 44
0.0000000001
 40
0.0
 40
0.0
 40
0.0
 40
0.0
 40
0.0000247233
 40
0.0000984431
 40
0.00022113
 40
0.0003927545
 40
0.000613287
 40
0.0008826887
 40
0.0015655282
 40
0.0024327907
 40
0.0034751749
 40
0.0046833813
 40
0.0060481124
 40
0.0092102548
 40
0.0128900806
 40
0.0170174252
 40
0.0215229375
 40
0.0263524798
 40
0.0314660893
 40
0.0423897221
 40
0.0540489819
 40
0.0662883877
 40
0.0789837256
 40
0.0920601004
 40
0.1054516201
 40
0.1191153464
 40
0.1471323823
 40
0.1759213214
 40
0.205365805
 40
0.2353938999
 40
0.2659561468
 40
0.2970204167
 40
0.3605641298
 40
0.425906472
 40
0.4929635955
 40
0.5616549488
 40
0.6318814548
 40
0.7035137104
 40
0.776385388
 40
0.8502792302
 40
0.9249378194
 40
1.0
 40
1.0
 40
1.0
 40
1.0
 10
5.9916806654
 20
6.9607213566
 30
0.0
 10
5.9916801088
 20
6.9607163473
 30
0.0
 10
5.9916749997
 20
6.9606968562
 30
0.0
 10
5.9916669998
 20
6.960652529
 30
0.0
 10
5.9916513426
 20
6.9605791223
 30
0.0
 10
5.9916305286
 20
6.960476262
 30
0.0
 10
5.9916033372
 20
6.9603441599
 30
0.0
 10
5.9915553597
 20
6.9601099416
 30
0.0
 10
5.9914807285
 20
6.9597465979
 30
0.0
 10
5.9913739558
 20
6.9592289868
 30
0.0
 10
5.9912447587
 20
6.9586066438
 30
0.0
 10
5.9910939086
 20
6.9578852195
 30
0.0
 10
5.9908527623
 20
6.9567411933
 30
0.0
 10
5.9905031678
 20
6.9551050879
 30
0.0
 10
5.9900271096
 20
6.9529201154
 30
0.0
 10
5.9894816594
 20
6.9504699978
 30
0.0
 10
5.988871446
 20
6.9477942109
 30
0.0
 10
5.9882007092
 20
6.9449260453
 30
0.0
 10
5.987208827
 20
6.940789335
 30
0.0
 10
5.9858421805
 20
6.9353107981
 30
0.0
 10
5.9840363107
 20
6.9284451916
 30
0.0
 10
5.9820450783
 20
6.9212554911
 30
0.0
 10
5.979875452
 20
6.9138161514
 30
0.0
 10
5.9775367031
 20
6.9061822308
 30
0.0
 10
5.9750320812
 20
6.8983934424
 30
0.0
 10
5.9714478505
 20
6.8877534838
 30
0.0
 10
5.9665774511
 20
6.874236037
 30
0.0
 10
5.9601636032
 20
6.8578620776
 30
0.0
 10
5.9531463927
 20
6.8412912458
 30
0.0
 10
5.9455383272
 20
6.8245852639
 30
0.0
 10
5.9373488311
 20
6.8077882667
 30
0.0
 10
5.9255789079
 20
6.7851447478
 30
0.0
 10
5.9094463015
 20
6.7567908289
 30
0.0
 10
5.8880559812
 20
6.7230389894
 30
0.0
 10
5.8645736225
 20
6.6894202602
 30
0.0
 10
5.8390946366
 20
6.6560287666
 30
0.0
 10
5.8117279418
 20
6.6229478035
 30
0.0
 10
5.7825998385
 20
6.5902577784
 30
0.0
 10
5.7518575794
 20
6.5580409373
 30
0.0
 10
5.7196709955
 20
6.5263821635
 30
0.0
 10
5.6862417862
 20
6.49537975
 30
0.0
 10
5.6633046636
 20
6.4752365021
 30
0.0
 10
5.6516812358
 20
6.465283759
 30
0.0
  0
ENDSEC
  0
SECTION
  2
OBJECTS
  0
DICTIONARY
  5
C
100
AcDbDictionary
280
0
281
1
  3
ACAD_GROUP
350
D
  3
ACAD_MLINESTYLE
350
17
  3
ACAD_LAYOUT
350
1A
  3
ACAD_PLOTSETTINGS
350
19
  3
ACAD_PLOTSTYLENAME
350
E
  0
DICTIONARY
  5
D
102
{ACAD_REACTORS
330
C
102
}
100
AcDbDictionary
280
0
281
1
  0
ACDBDICTIONARYWDFLT
  5
E
102
{ACAD_REACTORS
330
C
102
}
100
AcDbDictionary
281
1
  3
Normal
350
F
100
AcDbDictionaryWithDefault
340
F
  0
DICTIONARY
  5
17
102
{ACAD_REACTORS
330
C
102
}
100
AcDbDictionary
280
0
281
1
  3
Standard
350
18
  0
DICTIONARY
  5
19
102
{ACAD_REACTORS
330
C
102
}
100
AcDbDictionary
281
1
  0
DICTIONARY
  5
1A
102
{ACAD_REACTORS
330
C
102
}
100
AcDbDictionary
281
1
  3
Model
350
395
  3
Layout1
350
396
  0
ACDBPLACEHOLDER
  5
F
102
{ACAD_REACTORS
330
E
102
}
  0
MLINESTYLE
  5
18
102
{ACAD_REACTORS
330
17
102
}
100
AcDbMlineStyle
  2
STANDARD
 70
0
  3

 62
256
 51
90.0
 52
90.0
 71
2
 49
0.5
 62
256
  6
BYLAYER
 49
-0.5
 62
256
  6
BYLAYER
  0
LAYOUT
  5
395
102
{ACAD_REACTORS
330
1A
102
}
100
AcDbPlotSettings
  1

  2
none_device
  4
ANSI_A_(11.00_x_8.50_Inches)
  6

 40
0.0
 41
0.0
 42
0.0
 43
0.0
 44
279.4
 45
215.9
 46
0.0
 47
0.0
 48
0.0
 49
0.0
140
0.0
141
0.0
142
1.0
143
1.0
 70
1024
 72
0
 73
0
 74
0
  7

 75
0
147
1.0
148
0.0
149
0.0
100
AcDbLayout
  1
Model
 70
0
 71
0
 10
0.0
 20
0.0
 11
11.0
 21
8.5
 12
0.0
 22
0.0
 32
0.0
 14
0.0
 24
0.0
 34
0.0
 15
0.0
 25
0.0
 35
0.0
146
0.0
 13
0.0
 23
0.0
 33
0.0
 16
1.0
 26
0.0
 36
0.0
 17
0.0
 27
1.0
 37
0.0
 76
0
330
221
345
0
346
0
  0
LAYOUT
  5
396
102
{ACAD_REACTORS
330
1A
102
}
100
AcDbPlotSettings
  1

  2
none_device
  4
ANSI_A_(11.00_x_8.50_Inches)
  6

 40
0.0
 41
0.0
 42
0.0
 43
0.0
 44
279.4
 45
215.9
 46
0.0
 47
0.0
 48
0.0
 49
0.0
140
0.0
141
0.0
142
1.0
143
1.0
 70
0
 72
0
 73
0
 74
0
  7

 75
0
147
1.0
148
0.0
149
0.0
100
AcDbLayout
  1
Layout1
 70
0
 71
1
 10
0.0
 20
0.0
 11
11.0
 21
8.5
 12
0.0
 22
0.0
 32
0.0
 14
0.0
 24
0.0
 34
0.0
 15
0.0
 25
0.0
 35
0.0
146
0.0
 13
0.0
 23
0.0
 33
0.0
 16
1.0
 26
0.0
 36
0.0
 17
0.0
 27
1.0
 37
0.0
 76
0
330
222
345
0
346
0
  0
ENDSEC
  0
EOF
