  0
SECTION
  2
HEADER
  9
$ACADVER
  1
AC1015
  9
$DWGCODEPAGE
  3
ANSI_1252
  9
$EXTMAX
 10
11.6929133858
 20
8.2677165354
 30
0.0
  9
$EXTMIN
 10
0.0
 20
0.0
 30
0.0
  9
$LIMMIN
 10
0.0
 20
0.0
  9
$LIMMAX
 10
11.6929133858
 20
8.2677165354
  9
$VIEWCTR
 10
5.8464566929
 20
4.1338582677
  9
$VIEWSIZE
 40
8.2677165354
  9
$CLAYER
  8
0
  9
$LTSCALE
 40
0.6431102362
  9
$CELTYPE
  6
BYLAYER
  9
$DIMSCALE
 40
1.0
  9
$DIMASZ
 40
0.1875
  9
$DIMEXO
 40
0.0730807087
  9
$DIMDLI
 40
0.4443307087
  9
$DIMEXE
 40
0.2104724409
  9
$DIMCEN
 40
0.1052362205
  9
$DIMLFAC
 40
1.0
  9
$DIMBLK
  1
_CLOSED
  9
$DIMTXT
 40
0.15625
  9
$DIMTOL
 70
0
  9
$DIMLIM
 70
0
  9
$DIMTFAC
 40
1.0
  9
$PDMODE
 70
3
  9
$PDSIZE
 40
0.3125
  9
$HANDSEED
  5
336
  9
$TILEMODE
 70
1
  9
$MEASUREMENT
 70
0
  9
$INSUNITS
 70
1
  0
ENDSEC
  0
SECTION
  2
CLASSES
  0
CLASS
  1
ACDBDICTIONARYWDFLT
  2
AcDbDictionaryWithDefault
  3
AutoCAD 2000
 90
0
280
0
281
0
  0
CLASS
  1
ACDBPLACEHOLDER
  2
AcDbPlaceHolder
  3
AutoCAD 2000
 90
0
280
0
281
0
  0
CLASS
  1
LAYOUT
  2
AcDbLayout
  3
AutoCAD 2000
 90
0
280
0
281
0
  0
ENDSEC
  0
SECTION
  2
TABLES
  0
TABLE
  2
VPORT
  5
8
100
AcDbSymbolTable
 70
2
  0
VPORT
  5
1F4
100
AcDbSymbolTableRecord
100
AcDbViewportTableRecord
  2
*ACTIVE
 70
0
 10
0.0
 20
0.0
 11
1.0
 21
1.0
 12
5.8464566929
 22
4.1338582677
 13
0.0
 23
0.0
 14
1.0
 24
1.0
 15
0.0
 25
0.0
 16
0.0
 26
0.0
 36
1.0
 17
0.0
 27
0.0
 37
0.0
 40
8.2677165354
 41
1.4142857143
 42
50.0
 43
0.0
 44
0.0
 50
0.0
 51
0.0
 71
0
 72
100
 73
1
 74
1
 75
0
 76
0
 77
0
 78
0
  0
ENDTAB
  0
TABLE
  2
LTYPE
  5
5
100
AcDbSymbolTable
 70
6
  0
LTYPE
  5
14
100
AcDbSymbolTableRecord
100
AcDbLinetypeTableRecord
  2
BYBLOCK
 70
0
  3

 72
65
 73
0
 40
0.0
  0
LTYPE
  5
15
100
AcDbSymbolTableRecord
100
AcDbLinetypeTableRecord
  2
BYLAYER
 70
0
  3

 72
65
 73
0
 40
0.0
  0
LTYPE
  5
16
100
AcDbSymbolTableRecord
100
AcDbLinetypeTableRecord
  2
CONTINUOUS
 70
64
  3
Solid line
 72
65
 73
0
 40
0.0
  0
LTYPE
  5
1F5
100
AcDbSymbolTableRecord
100
AcDbLinetypeTableRecord
  2
CENTER
 70
64
  3
____ _ ____ _ ____ _ ____ _ ____ _ ____ _ ____
 72
65
 73
4
 40
0.6
 49
0.375
 74
0
 49
-0.075
 74
0
 49
0.075
 74
0
 49
-0.075
 74
0
  0
LTYPE
  5
1F6
100
AcDbSymbolTableRecord
100
AcDbLinetypeTableRecord
  2
HIDDEN
 70
64
  3
- - - - - - - - - - - - - - - - - - - -
 72
65
 73
2
 40
0.2
 49
0.1
 74
0
 49
-0.1
 74
0
  0
LTYPE
  5
1F7
100
AcDbSymbolTableRecord
100
AcDbLinetypeTableRecord
  2
PHANTOM
 70
64
  3
_____ _ _ _____ _ _ _____ _ _ _____
 72
65
 73
6
 40
0.8
 49
0.45
 74
0
 49
-0.05
 74
0
 49
0.1
 74
0
 49
-0.05
 74
0
 49
0.1
 74
0
 49
-0.05
 74
0
  0
LTYPE
  5
1F8
100
AcDbSymbolTableRecord
100
AcDbLinetypeTableRecord
  2
DOT
 70
64
  3
. . . . . . . . . . . . . . . . . . . .
 72
65
 73
2
 40
0.2
 49
0.1
 74
0
 49
-0.1
 74
0
  0
LTYPE
  5
1F9
100
AcDbSymbolTableRecord
100
AcDbLinetypeTableRecord
  2
DASHED
 70
64
  3
- - - - - - - - - - - - - - - - - - - -
 72
65
 73
2
 40
0.2
 49
0.1
 74
0
 49
-0.1
 74
0
  0
ENDTAB
  0
TABLE
  2
LAYER
  5
2
100
AcDbSymbolTable
 70
36
  0
LAYER
  5
10
100
AcDbSymbolTableRecord
100
AcDbLayerTableRecord
  2
0
 70
0
 62
7
  6
CONTINUOUS
370
-3
390
F
  0
LAYER
  5
1FA
100
AcDbSymbolTableRecord
100
AcDbLayerTableRecord
  2
DEFAULT_1
 70
0
 62
7
  6
CENTER
370
-3
390
F
  0
LAYER
  5
1FB
100
AcDbSymbolTableRecord
100
AcDbLayerTableRecord
  2
DEFAULT_2
 70
0
 62
8
  6
HIDDEN
370
-3
390
F
  0
LAYER
  5
1FC
100
AcDbSymbolTableRecord
100
AcDbLayerTableRecord
  2
DEFAULT_3
 70
0
 62
7
  6
PHANTOM
370
-3
390
F
  0
LAYER
  5
1FD
100
AcDbSymbolTableRecord
100
AcDbLayerTableRecord
  2
281
 70
0
 62
7
  6
CONTINUOUS
370
-3
390
F
  0
LAYER
  5
1FE
100
AcDbSymbolTableRecord
100
AcDbLayerTableRecord
  2
289
 70
0
 62
7
  6
CONTINUOUS
370
-3
390
F
  0
LAYER
  5
1FF
100
AcDbSymbolTableRecord
100
AcDbLayerTableRecord
  2
5-011
 70
0
 62
7
  6
CONTINUOUS
370
-3
390
F
  0
LAYER
  5
200
100
AcDbSymbolTableRecord
100
AcDbLayerTableRecord
  2
50280
 70
0
 62
7
  6
CONTINUOUS
370
-3
390
F
  0
LAYER
  5
201
100
AcDbSymbolTableRecord
100
AcDbLayerTableRecord
  2
50281
 70
0
 62
7
  6
CONTINUOUS
370
-3
390
F
  0
LAYER
  5
202
100
AcDbSymbolTableRecord
100
AcDbLayerTableRecord
  2
50282
 70
0
 62
7
  6
CONTINUOUS
370
-3
390
F
  0
LAYER
  5
203
100
AcDbSymbolTableRecord
100
AcDbLayerTableRecord
  2
50283
 70
0
 62
7
  6
CONTINUOUS
370
-3
390
F
  0
LAYER
  5
204
100
AcDbSymbolTableRecord
100
AcDbLayerTableRecord
  2
50303
 70
0
 62
7
  6
CONTINUOUS
370
-3
390
F
  0
LAYER
  5
205
100
AcDbSymbolTableRecord
100
AcDbLayerTableRecord
  2
50304
 70
0
 62
7
  6
CONTINUOUS
370
-3
390
F
  0
LAYER
  5
206
100
AcDbSymbolTableRecord
100
AcDbLayerTableRecord
  2
50305
 70
0
 62
7
  6
CONTINUOUS
370
-3
390
F
  0
LAYER
  5
207
100
AcDbSymbolTableRecord
100
AcDbLayerTableRecord
  2
50306
 70
0
 62
7
  6
CONTINUOUS
370
-3
390
F
  0
LAYER
  5
208
100
AcDbSymbolTableRecord
100
AcDbLayerTableRecord
  2
50307
 70
0
 62
7
  6
CONTINUOUS
370
-3
390
F
  0
LAYER
  5
209
100
AcDbSymbolTableRecord
100
AcDbLayerTableRecord
  2
50628
 70
0
 62
7
  6
CONTINUOUS
370
-3
390
F
  0
LAYER
  5
20A
100
AcDbSymbolTableRecord
100
AcDbLayerTableRecord
  2
6-289
 70
0
 62
7
  6
CONTINUOUS
370
-3
390
F
  0
LAYER
  5
20B
100
AcDbSymbolTableRecord
100
AcDbLayerTableRecord
  2
91182
 70
0
 62
7
  6
CONTINUOUS
370
-3
390
F
  0
LAYER
  5
20C
100
AcDbSymbolTableRecord
100
AcDbLayerTableRecord
  2
92068
 70
0
 62
7
  6
CONTINUOUS
370
-3
390
F
  0
LAYER
  5
20D
100
AcDbSymbolTableRecord
100
AcDbLayerTableRecord
  2
ALL_ASSEMBLY_MEMBERS
 70
0
 62
7
  6
CONTINUOUS
370
-3
390
F
  0
LAYER
  5
20E
100
AcDbSymbolTableRecord
100
AcDbLayerTableRecord
  2
ALL_ASSEMBLY_MEMBERS_1
 70
0
 62
7
  6
CONTINUOUS
370
-3
390
F
  0
LAYER
  5
20F
100
AcDbSymbolTableRecord
100
AcDbLayerTableRecord
  2
ALL_ASSEMBLY_MEMBERS_2
 70
0
 62
7
  6
CONTINUOUS
370
-3
390
F
  0
LAYER
  5
210
100
AcDbSymbolTableRecord
100
AcDbLayerTableRecord
  2
ALL_ASSEMBLY_MEMBERS_3
 70
0
 62
7
  6
CONTINUOUS
370
-3
390
F
  0
LAYER
  5
211
100
AcDbSymbolTableRecord
100
AcDbLayerTableRecord
  2
COLOR2
 70
0
 62
7
  6
CONTINUOUS
370
-3
390
F
  0
LAYER
  5
212
100
AcDbSymbolTableRecord
100
AcDbLayerTableRecord
  2
DEFAULT_COORDINATE_SYSTEM
 70
0
 62
7
  6
CONTINUOUS
370
-3
390
F
  0
LAYER
  5
213
100
AcDbSymbolTableRecord
100
AcDbLayerTableRecord
  2
DEFAULT_DATUM_AXES
 70
0
 62
7
  6
CONTINUOUS
370
-3
390
F
  0
LAYER
  5
214
100
AcDbSymbolTableRecord
100
AcDbLayerTableRecord
  2
DEFAULT_DATUM_CURVES
 70
0
 62
7
  6
CONTINUOUS
370
-3
390
F
  0
LAYER
  5
215
100
AcDbSymbolTableRecord
100
AcDbLayerTableRecord
  2
DEFAULT_DATUM_PLANES
 70
0
 62
7
  6
CONTINUOUS
370
-3
390
F
  0
LAYER
  5
216
100
AcDbSymbolTableRecord
100
AcDbLayerTableRecord
  2
INTF_50280
 70
0
 62
7
  6
CONTINUOUS
370
-3
390
F
  0
LAYER
  5
217
100
AcDbSymbolTableRecord
100
AcDbLayerTableRecord
  2
INTF_50281
 70
0
 62
7
  6
CONTINUOUS
370
-3
390
F
  0
LAYER
  5
218
100
AcDbSymbolTableRecord
100
AcDbLayerTableRecord
  2
INTF_50282
 70
0
 62
7
  6
CONTINUOUS
370
-3
390
F
  0
LAYER
  5
219
100
AcDbSymbolTableRecord
100
AcDbLayerTableRecord
  2
INTF_50283
 70
0
 62
7
  6
CONTINUOUS
370
-3
390
F
  0
LAYER
  5
21A
100
AcDbSymbolTableRecord
100
AcDbLayerTableRecord
  2
INTF_50303
 70
0
 62
7
  6
CONTINUOUS
370
-3
390
F
  0
LAYER
  5
21B
100
AcDbSymbolTableRecord
100
AcDbLayerTableRecord
  2
INTF_50304
 70
0
 62
7
  6
CONTINUOUS
370
-3
390
F
  0
LAYER
  5
21C
100
AcDbSymbolTableRecord
100
AcDbLayerTableRecord
  2
INTF_50305
 70
0
 62
7
  6
CONTINUOUS
370
-3
390
F
  0
LAYER
  5
21D
100
AcDbSymbolTableRecord
100
AcDbLayerTableRecord
  2
INTF_50306
 70
0
 62
7
  6
CONTINUOUS
370
-3
390
F
  0
LAYER
  5
21E
100
AcDbSymbolTableRecord
100
AcDbLayerTableRecord
  2
INTF_50307
 70
0
 62
7
  6
CONTINUOUS
370
-3
390
F
  0
LAYER
  5
21F
100
AcDbSymbolTableRecord
100
AcDbLayerTableRecord
  2
INTF_50628
 70
0
 62
7
  6
CONTINUOUS
370
-3
390
F
  0
LAYER
  5
220
100
AcDbSymbolTableRecord
100
AcDbLayerTableRecord
  2
INTF_91182
 70
0
 62
7
  6
CONTINUOUS
370
-3
390
F
  0
LAYER
  5
221
100
AcDbSymbolTableRecord
100
AcDbLayerTableRecord
  2
INTF_92068
 70
0
 62
7
  6
CONTINUOUS
370
-3
390
F
  0
ENDTAB
  0
TABLE
  2
STYLE
  5
3
100
AcDbSymbolTable
 70
1
  0
STYLE
  5
11
100
AcDbSymbolTableRecord
100
AcDbTextStyleTableRecord
  2
STANDARD
 70
0
 40
0.0
 41
0.8
 50
0.0
 71
0
 42
0.2
  3
txt
  4

  0
STYLE
  5
222
100
AcDbSymbolTableRecord
100
AcDbTextStyleTableRecord
  2
TEXTSTYLE_1
 70
0
 40
0.0
 41
0.8
 50
0.0
 71
0
 42
0.2
  3
gdt
  4

  0
ENDTAB
  0
TABLE
  2
VIEW
  5
6
100
AcDbSymbolTable
 70
0
  0
ENDTAB
  0
TABLE
  2
UCS
  5
7
100
AcDbSymbolTable
 70
0
  0
ENDTAB
  0
TABLE
  2
APPID
  5
9
100
AcDbSymbolTable
 70
1
  0
APPID
  5
223
100
AcDbSymbolTableRecord
100
AcDbRegAppTableRecord
  2
ACAD
 70
0
  0
ENDTAB
  0
TABLE
  2
BLOCK_RECORD
  5
1
100
AcDbSymbolTable
 70
0
  0
BLOCK_RECORD
  5
224
100
AcDbSymbolTableRecord
100
AcDbBlockTableRecord
  2
*Model_Space
  0
BLOCK_RECORD
  5
225
100
AcDbSymbolTableRecord
100
AcDbBlockTableRecord
  2
*Paper_Space
  0
ENDTAB
  0
TABLE
  2
DIMSTYLE
  5
A
100
AcDbSymbolTable
 70
1
100
AcDbDimStyleTable
 71
0
  0
DIMSTYLE
105
226
100
AcDbSymbolTableRecord
100
AcDbDimStyleTableRecord
  2
STANDARD
 70
0
  3

  4

 40
1.0
 41
0.1875
 42
0.0625
 43
0.38
 44
0.18
 45
0.0
 46
0.0
 47
0.01
 48
0.01
140
0.15625
141
0.09
142
0.0
143
25.4
144
1.0
145
0.0
146
1.0
147
0.09
 71
0.0
 72
0.0
 73
1
 74
1
 75
0
 76
0
 77
0
 78
4
170
0
171
2
172
0
173
0
174
0
175
0
176
0
177
0
178
0
270
2
271
2
272
2
273
2
274
2
275
0
280
0
281
0
282
0
283
1
284
4
285
0
286
0
287
3
288
0
340
11
  0
ENDTAB
  0
ENDSEC
  0
SECTION
  2
BLOCKS
  0
BLOCK
  5
20
100
AcDbEntity
  8
0
100
AcDbBlockBegin
  2
*Model_Space
 70
0
 10
0.0
 20
0.0
 30
0.0
  3
*Model_Space
  1

  0
ENDBLK
  5
21
100
AcDbEntity
  8
0
100
AcDbBlockEnd
  0
BLOCK
  5
1C
100
AcDbEntity
  8
0
100
AcDbBlockBegin
  2
*Paper_Space
 70
0
 10
0.0
 20
0.0
 30
0.0
  3
*Paper_Space
  1

  0
ENDBLK
  5
1D
100
AcDbEntity
  8
0
100
AcDbBlockEnd
  0
ENDSEC
  0
SECTION
  2
ENTITIES
  0
LINE
  5
227
100
AcDbEntity
  8
0
100
AcDbLine
 62
7
  6
CONTINUOUS
 10
4.6236365439
 20
1.336294336
 11
4.6236365439
 21
1.3983626333
  0
LINE
  5
228
100
AcDbEntity
  8
0
100
AcDbLine
 62
7
  6
CONTINUOUS
 10
6.0217681428
 20
2.7152461153
 11
6.021833352
 21
2.7152137827
  0
LWPOLYLINE
  5
229
100
AcDbEntity
  8
0
100
AcDbPolyline
 62
7
  6
CONTINUOUS
 90
4
 70
0
 10
6.021756364
 20
2.7152519103
 10
6.0212485605
 20
2.7155905803
 10
6.0106821318
 20
2.7277306729
 10
6.003637665
 20
2.753296884
  0
LINE
  5
22A
100
AcDbEntity
  8
0
100
AcDbLine
 62
7
  6
CONTINUOUS
 10
5.1236365439
 20
3.9458450323
 11
5.1236365439
 21
5.3503867072
  0
LINE
  5
22B
100
AcDbEntity
  8
0
100
AcDbLine
 62
7
  6
CONTINUOUS
 10
5.1461365439
 20
6.9750407378
 11
5.1461365439
 21
6.9585294616
  0
LINE
  5
22C
100
AcDbEntity
  8
0
100
AcDbLine
 62
7
  6
CONTINUOUS
 10
5.1461365439
 20
6.6016661322
 11
5.1461365439
 21
6.5851548571
  0
LINE
  5
22D
100
AcDbEntity
  8
0
100
AcDbLine
 62
7
  6
CONTINUOUS
 10
5.1736365439
 20
6.4832744954
 11
5.1736365439
 21
6.3997121061
  0
LINE
  5
22E
100
AcDbEntity
  8
0
100
AcDbLine
 62
7
  6
CONTINUOUS
 10
5.1761365439
 20
6.5006276723
 11
5.1761365439
 21
6.7800977975
  0
LINE
  5
22F
100
AcDbEntity
  8
0
100
AcDbLine
 62
7
  6
CONTINUOUS
 10
5.1946365439
 20
6.0837710462
 11
5.1946365439
 21
6.5084229627
  0
LINE
  5
230
100
AcDbEntity
  8
0
100
AcDbLine
 62
9
  6
CONTINUOUS
 10
5.1236366455
 20
5.3506404303
 11
5.1236365439
 21
5.3503867072
  0
LINE
  5
231
100
AcDbEntity
  8
0
100
AcDbLine
 62
9
  6
CONTINUOUS
 10
4.8233431469
 20
1.7512043014
 11
4.827099074
 21
1.8022161084
  0
LINE
  5
232
100
AcDbEntity
  8
0
100
AcDbLine
 62
9
  6
CONTINUOUS
 10
4.871321571
 20
2.0777477549
 11
4.8748630481
 21
2.1258469488
  0
LINE
  5
233
100
AcDbEntity
  8
0
100
AcDbLine
 62
7
  6
CONTINUOUS
 10
4.8270990781
 20
1.802216136
 11
4.8748630496
 21
2.125846959
  0
LINE
  5
234
100
AcDbEntity
  8
0
100
AcDbLine
 62
7
  6
CONTINUOUS
 10
5.2948291248
 20
6.1664812466
 11
5.2948288387
 21
6.166857585
  0
LINE
  5
235
100
AcDbEntity
  8
0
100
AcDbLine
 62
7
  6
CONTINUOUS
 10
5.2524765441
 20
6.1833144794
 11
5.2524766025
 21
6.1831466586
  0
LINE
  5
236
100
AcDbEntity
  8
0
100
AcDbLine
 62
7
  6
CONTINUOUS
 10
5.2136365439
 20
3.5084534378
 11
5.2136365439
 21
3.5405928183
  0
LINE
  5
237
100
AcDbEntity
  8
0
100
AcDbLine
 62
7
  6
CONTINUOUS
 10
5.2536365439
 20
5.8347017972
 11
5.2536365439
 21
5.8134470163
  0
LINE
  5
238
100
AcDbEntity
  8
0
100
AcDbLine
 62
7
  6
CONTINUOUS
 10
5.3236365439
 20
3.3313657429
 11
5.3236351273
 21
2.753257692
  0
LINE
  5
239
100
AcDbEntity
  8
0
100
AcDbLine
 62
7
  6
CONTINUOUS
 10
4.8270990651
 20
1.8022160482
 11
4.8233701095
 21
1.7867021934
  0
LWPOLYLINE
  5
23A
100
AcDbEntity
  8
0
100
AcDbPolyline
 62
7
  6
CONTINUOUS
 90
3
 70
0
 10
5.3236351273
 20
2.753257692
 10
5.3167277775
 20
2.7279670618
 10
5.3066440076
 20
2.7160338013
  0
LINE
  5
23B
100
AcDbEntity
  8
0
100
AcDbLine
 62
7
  6
CONTINUOUS
 10
6.0036365439
 20
3.3313657429
 11
6.003637665
 21
2.753296884
  0
LINE
  5
23C
100
AcDbEntity
  8
0
100
AcDbLine
 62
7
  6
CONTINUOUS
 10
6.0736365439
 20
5.8171031215
 11
6.0736365439
 21
5.8347017972
  0
LINE
  5
23D
100
AcDbEntity
  8
0
100
AcDbLine
 62
7
  6
CONTINUOUS
 10
6.1136365439
 20
3.5084534378
 11
6.1136365439
 21
3.5405928183
  0
LINE
  5
23E
100
AcDbEntity
  8
0
100
AcDbLine
 62
7
  6
CONTINUOUS
 10
6.1326365439
 20
6.5084229627
 11
6.1326365439
 21
6.083771146
  0
LINE
  5
23F
100
AcDbEntity
  8
0
100
AcDbLine
 62
7
  6
CONTINUOUS
 10
6.1511365439
 20
6.7800977975
 11
6.1511365439
 21
6.5006121938
  0
LINE
  5
240
100
AcDbEntity
  8
0
100
AcDbLine
 62
7
  6
CONTINUOUS
 10
6.1536365439
 20
6.4832744954
 11
6.1536365439
 21
6.3997121061
  0
LINE
  5
241
100
AcDbEntity
  8
0
100
AcDbLine
 62
7
  6
CONTINUOUS
 10
6.1811365439
 20
6.9750407378
 11
6.1811365439
 21
6.9585294999
  0
LINE
  5
242
100
AcDbEntity
  8
0
100
AcDbLine
 62
7
  6
CONTINUOUS
 10
6.1811365439
 20
6.6016660963
 11
6.1811365439
 21
6.5851548571
  0
LINE
  5
243
100
AcDbEntity
  8
0
100
AcDbLine
 62
7
  6
CONTINUOUS
 10
6.5001740097
 20
1.802216136
 11
6.4524100829
 21
2.1258466562
  0
LINE
  5
244
100
AcDbEntity
  8
0
100
AcDbLine
 62
9
  6
CONTINUOUS
 10
6.5001740098
 20
1.8022161355
 11
6.5001826097
 21
1.8021578324
  0
LINE
  5
245
100
AcDbEntity
  8
0
100
AcDbLine
 62
9
  6
CONTINUOUS
 10
6.4524100988
 20
2.1258465487
 11
6.4524205703
 21
2.125775545
  0
LINE
  5
246
100
AcDbEntity
  8
0
100
AcDbLine
 62
9
  6
CONTINUOUS
 10
6.4524205703
 20
2.125775545
 11
6.4559515168
 21
2.0777477549
  0
LINE
  5
247
100
AcDbEntity
  8
0
100
AcDbLine
 62
9
  6
CONTINUOUS
 10
6.2036364423
 20
3.9460987553
 11
6.2036365439
 21
3.9458450323
  0
LINE
  5
248
100
AcDbEntity
  8
0
100
AcDbLine
 62
7
  6
CONTINUOUS
 10
6.2036365439
 20
3.9458450323
 11
6.2036365439
 21
5.3503867072
  0
LINE
  5
249
100
AcDbEntity
  8
0
100
AcDbLine
 62
7
  6
CONTINUOUS
 10
6.7036365439
 20
1.336294336
 11
6.7036365439
 21
1.3983626333
  0
LINE
  5
24A
100
AcDbEntity
  8
0
100
AcDbLine
 62
7
  6
CONTINUOUS
 10
5.3055029921
 20
2.7152451479
 11
5.3055576144
 21
2.7152721854
  0
ARC
  5
24B
100
AcDbEntity
  8
0
100
AcDbCircle
 62
7
  6
CONTINUOUS
 10
5.3453128547
 20
1.2267162435
 40
0.778477259
100
AcDbArc
 50
132.1003682568
 51
133.0562528757
  0
ARC
  5
24C
100
AcDbEntity
  8
0
100
AcDbCircle
 62
9
  6
CONTINUOUS
 10
5.3311253534
 20
1.2475725793
 40
0.7531881528
100
AcDbArc
 50
132.3579452043
 51
133.1023554673
  0
ARC
  5
24D
100
AcDbEntity
  8
0
100
AcDbCircle
 62
9
  6
CONTINUOUS
 10
5.3245628908
 20
1.2546106302
 40
0.7435652758
100
AcDbArc
 50
133.1037153901
 51
133.4052380171
  0
ARC
  5
24E
100
AcDbEntity
  8
0
100
AcDbCircle
 62
9
  6
CONTINUOUS
 10
5.2458272372
 20
1.3287564307
 40
0.6353468911
100
AcDbArc
 50
139.1641993349
 51
142.6637446423
  0
ARC
  5
24F
100
AcDbEntity
  8
0
100
AcDbCircle
 62
9
  6
CONTINUOUS
 10
5.06134609
 20
1.3991228277
 40
0.4377491154
100
AcDbArc
 50
188.2010370061
 51
189.5083772327
  0
ARC
  5
250
100
AcDbEntity
  8
0
100
AcDbCircle
 62
9
  6
CONTINUOUS
 10
5.0559041355
 20
1.3984239295
 40
0.4322631249
100
AcDbArc
 50
180.0081247072
 51
188.2122408751
  0
ARC
  5
251
100
AcDbEntity
  8
0
100
AcDbCircle
 62
7
  6
CONTINUOUS
 10
5.4984217581
 20
3.5084889375
 40
0.2847852164
100
AcDbArc
 50
180.0071421653
 51
184.794698118
  0
ARC
  5
252
100
AcDbEntity
  8
0
100
AcDbCircle
 62
9
  6
CONTINUOUS
 10
5.5900822703
 20
3.2933608901
 40
0.2777134224
100
AcDbArc
 50
134.7716763795
 51
137.088491005
  0
ARC
  5
253
100
AcDbEntity
  8
0
100
AcDbCircle
 62
9
  6
CONTINUOUS
 10
5.4780143039
 20
3.5084314508
 40
0.2643777609
100
AcDbArc
 50
173.097517753
 51
179.9952349903
  0
ARC
  5
254
100
AcDbEntity
  8
0
100
AcDbCircle
 62
7
  6
CONTINUOUS
 10
5.3661386405
 20
5.3881783838
 40
0.8296833009
100
AcDbArc
 50
28.5269567217
 51
32.2719512919
  0
ARC
  5
255
100
AcDbEntity
  8
0
100
AcDbCircle
 62
7
  6
CONTINUOUS
 10
5.5048797078
 20
5.7685523253
 40
0.2514202347
100
AcDbArc
 50
163.462475515
 51
165.0328304507
  0
ARC
  5
256
100
AcDbEntity
  8
0
100
AcDbCircle
 62
7
  6
CONTINUOUS
 10
5.4838638362
 20
6.3941717208
 40
0.3109755181
100
AcDbArc
 50
158.4448728479
 51
160.6676424751
  0
ARC
  5
257
100
AcDbEntity
  8
0
100
AcDbCircle
 62
7
  6
CONTINUOUS
 10
5.4833373094
 20
6.40505689
 40
0.3104139512
100
AcDbArc
 50
199.4871325075
 51
201.5572538675
  0
ARC
  5
258
100
AcDbEntity
  8
0
100
AcDbCircle
 62
7
  6
CONTINUOUS
 10
5.4786925556
 20
6.3959903997
 40
0.3054937558
100
AcDbArc
 50
160.668428758
 51
164.1240468433
  0
ARC
  5
259
100
AcDbEntity
  8
0
100
AcDbCircle
 62
7
  6
CONTINUOUS
 10
5.4738179442
 20
6.3974273771
 40
0.3004119914
100
AcDbArc
 50
164.1333329322
 51
165.4682718947
  0
ARC
  5
25A
100
AcDbEntity
  8
0
100
AcDbCircle
 62
7
  6
CONTINUOUS
 10
5.4707632096
 20
6.4831375058
 40
0.2971299862
100
AcDbArc
 50
174.6088344875
 51
176.9848114524
  0
ARC
  5
25B
100
AcDbEntity
  8
0
100
AcDbCircle
 62
9
  6
CONTINUOUS
 10
5.4892905771
 20
6.1857363834
 40
0.2962324992
100
AcDbArc
 50
199.4146018849
 51
200.5648118389
  0
ARC
  5
25C
100
AcDbEntity
  8
0
100
AcDbCircle
 62
7
  6
CONTINUOUS
 10
5.4693892057
 20
6.483220099
 40
0.2957535402
100
AcDbArc
 50
176.9867885121
 51
177.469317815
  0
ARC
  5
25D
100
AcDbEntity
  8
0
100
AcDbCircle
 62
7
  6
CONTINUOUS
 10
5.4683321993
 20
6.4832633348
 40
0.2946956556
100
AcDbArc
 50
177.468641629
 51
179.997830109
  0
ARC
  5
25E
100
AcDbEntity
  8
0
100
AcDbCircle
 62
7
  6
CONTINUOUS
 10
5.4645621832
 20
6.3995268012
 40
0.2909256983
100
AcDbArc
 50
165.4111272638
 51
179.9635054949
  0
ARC
  5
25F
100
AcDbEntity
  8
0
100
AcDbCircle
 62
9
  6
CONTINUOUS
 10
5.4610742302
 20
6.4832151967
 40
0.2874386833
100
AcDbArc
 50
176.8385914433
 51
177.4027610304
  0
ARC
  5
260
100
AcDbEntity
  8
0
100
AcDbCircle
 62
9
  6
CONTINUOUS
 10
5.4599462846
 20
6.4832627637
 40
0.2863097409
100
AcDbArc
 50
177.4020417039
 51
179.9976522802
  0
ARC
  5
261
100
AcDbEntity
  8
0
100
AcDbCircle
 62
9
  6
CONTINUOUS
 10
5.4863189608
 20
6.181163378
 40
0.2476088238
100
AcDbArc
 50
179.0531035446
 51
179.999782301
  0
ARC
  5
262
100
AcDbEntity
  8
0
100
AcDbCircle
 62
7
  6
CONTINUOUS
 10
5.4940921285
 20
6.1831413401
 40
0.2416156929
100
AcDbArc
 50
178.4969779096
 51
179.0716167065
  0
ARC
  5
263
100
AcDbEntity
  8
0
100
AcDbCircle
 62
7
  6
CONTINUOUS
 10
5.4936597675
 20
6.1831479957
 40
0.2411832808
100
AcDbArc
 50
179.0715334104
 51
179.9604499307
  0
ARC
  5
264
100
AcDbEntity
  8
0
100
AcDbCircle
 62
7
  6
CONTINUOUS
 10
5.513254117
 20
6.1668538732
 40
0.2184489449
100
AcDbArc
 50
165.4317410148
 51
177.6517495658
  0
ARC
  5
265
100
AcDbEntity
  8
0
100
AcDbCircle
 62
9
  6
CONTINUOUS
 10
5.6636389946
 20
5.9535497522
 40
0.5531267249
100
AcDbArc
 50
90.0003892772
 51
91.2156278627
  0
ARC
  5
266
100
AcDbEntity
  8
0
100
AcDbCircle
 62
7
  6
CONTINUOUS
 10
5.6625763821
 20
5.9640952838
 40
0.5319576895
100
AcDbArc
 50
91.0558413061
 51
99.317275307
  0
ARC
  5
267
100
AcDbEntity
  8
0
100
AcDbCircle
 62
7
  6
CONTINUOUS
 10
5.6610271159
 20
5.9744458346
 40
0.5214928865
100
AcDbArc
 50
99.3334196014
 51
100.4090382007
  0
ARC
  5
268
100
AcDbEntity
  8
0
100
AcDbCircle
 62
7
  6
CONTINUOUS
 10
5.5783468976
 20
5.7213144961
 40
0.3396173338
100
AcDbArc
 50
133.7864706701
 51
136.7001745886
  0
ARC
  5
269
100
AcDbEntity
  8
0
100
AcDbCircle
 62
7
  6
CONTINUOUS
 10
5.5784568911
 20
5.727501733
 40
0.3176664937
100
AcDbArc
 50
134.9959014957
 51
137.251014027
  0
ARC
  5
26A
100
AcDbEntity
  8
0
100
AcDbCircle
 62
9
  6
CONTINUOUS
 10
5.5823271204
 20
6.1228774664
 40
0.3622196511
100
AcDbArc
 50
132.1937421012
 51
133.8540785252
  0
ARC
  5
26B
100
AcDbEntity
  8
0
100
AcDbCircle
 62
7
  6
CONTINUOUS
 10
5.5886641266
 20
6.2007248707
 40
0.31335408
100
AcDbArc
 50
209.7234525638
 51
215.2438884853
  0
ARC
  5
26C
100
AcDbEntity
  8
0
100
AcDbCircle
 62
7
  6
CONTINUOUS
 10
5.5506641882
 20
6.1575029487
 40
0.3044505076
100
AcDbArc
 50
141.8664082722
 51
147.1984008116
  0
ARC
  5
26D
100
AcDbEntity
  8
0
100
AcDbCircle
 62
7
  6
CONTINUOUS
 10
5.5597474508
 20
6.2201802006
 40
0.299521109
100
AcDbArc
 50
215.7089080815
 51
221.3548216253
  0
ARC
  5
26E
100
AcDbEntity
  8
0
100
AcDbCircle
 62
7
  6
CONTINUOUS
 10
5.5522229601
 20
6.1813316152
 40
0.2916785036
100
AcDbArc
 50
146.1474207355
 51
150.8489597882
  0
ARC
  5
26F
100
AcDbEntity
  8
0
100
AcDbCircle
 62
7
  6
CONTINUOUS
 10
5.537958863
 20
6.1659923954
 40
0.2891721361
100
AcDbArc
 50
147.2485176641
 51
148.8293262467
  0
ARC
  5
270
100
AcDbEntity
  8
0
100
AcDbCircle
 62
7
  6
CONTINUOUS
 10
5.5483032775
 20
6.2152710937
 40
0.2873758592
100
AcDbArc
 50
208.2012584655
 51
216.2459210171
  0
ARC
  5
271
100
AcDbEntity
  8
0
100
AcDbCircle
 62
7
  6
CONTINUOUS
 10
5.5618131671
 20
6.182152209
 40
0.2855795107
100
AcDbArc
 50
153.6583840716
 51
155.8027837638
  0
ARC
  5
272
100
AcDbEntity
  8
0
100
AcDbCircle
 62
7
  6
CONTINUOUS
 10
5.5422826226
 20
6.1870544184
 40
0.280209611
100
AcDbArc
 50
150.8808316592
 51
152.9486734146
  0
ARC
  5
273
100
AcDbEntity
  8
0
100
AcDbCircle
 62
7
  6
CONTINUOUS
 10
5.5378940353
 20
6.1893101191
 40
0.2752752711
100
AcDbArc
 50
152.9513889745
 51
155.2133993499
  0
ARC
  5
274
100
AcDbEntity
  8
0
100
AcDbCircle
 62
7
  6
CONTINUOUS
 10
5.5495286276
 20
6.1875992248
 40
0.2721416828
100
AcDbArc
 50
155.7887346376
 51
162.4180118774
  0
ARC
  5
275
100
AcDbEntity
  8
0
100
AcDbCircle
 62
7
  6
CONTINUOUS
 10
5.5566206033
 20
6.1859274835
 40
0.2660998571
100
AcDbArc
 50
210.2248958328
 51
216.2471054957
  0
ARC
  5
276
100
AcDbEntity
  8
0
100
AcDbCircle
 62
7
  6
CONTINUOUS
 10
5.5436817064
 20
6.1983858417
 40
0.2660052288
100
AcDbArc
 50
200.0600750279
 51
205.0783935365
  0
ARC
  5
277
100
AcDbEntity
  8
0
100
AcDbCircle
 62
7
  6
CONTINUOUS
 10
5.5364917367
 20
6.1920204576
 40
0.2583784268
100
AcDbArc
 50
162.4793575097
 51
164.5233076293
  0
ARC
  5
278
100
AcDbEntity
  8
0
100
AcDbCircle
 62
7
  6
CONTINUOUS
 10
5.5333607806
 20
6.1929108533
 40
0.2551234042
100
AcDbArc
 50
164.5283887319
 51
165.2965516752
  0
ARC
  5
279
100
AcDbEntity
  8
0
100
AcDbCircle
 62
7
  6
CONTINUOUS
 10
5.5331645457
 20
6.1947914618
 40
0.2548933212
100
AcDbArc
 50
186.8148920251
 51
200.1120269062
  0
ARC
  5
27A
100
AcDbEntity
  8
0
100
AcDbCircle
 62
7
  6
CONTINUOUS
 10
5.5317274205
 20
6.1933245365
 40
0.2534385334
100
AcDbArc
 50
165.2932878438
 51
171.3101018295
  0
ARC
  5
27B
100
AcDbEntity
  8
0
100
AcDbCircle
 62
7
  6
CONTINUOUS
 10
5.5273505513
 20
6.1939381769
 40
0.2490192016
100
AcDbArc
 50
171.2975184645
 51
186.7786867104
  0
ARC
  5
27C
100
AcDbEntity
  8
0
100
AcDbCircle
 62
7
  6
CONTINUOUS
 10
5.5373153244
 20
6.1747114283
 40
0.2437729026
100
AcDbArc
 50
200.6936660438
 51
210.2312154711
  0
ARC
  5
27D
100
AcDbEntity
  8
0
100
AcDbCircle
 62
7
  6
CONTINUOUS
 10
5.5367459624
 20
6.1733550908
 40
0.2421665489
100
AcDbArc
 50
161.6567359686
 51
166.8054099766
  0
ARC
  5
27E
100
AcDbEntity
  8
0
100
AcDbCircle
 62
7
  6
CONTINUOUS
 10
5.5321420195
 20
6.174506181
 40
0.2374214115
100
AcDbArc
 50
166.8222571008
 51
168.7752646832
  0
ARC
  5
27F
100
AcDbEntity
  8
0
100
AcDbCircle
 62
7
  6
CONTINUOUS
 10
5.5296631159
 20
6.175002145
 40
0.2348933831
100
AcDbArc
 50
168.7762254371
 51
171.4379482822
  0
ARC
  5
280
100
AcDbEntity
  8
0
100
AcDbCircle
 62
7
  6
CONTINUOUS
 10
5.5277354348
 20
6.1708211169
 40
0.2334364912
100
AcDbArc
 50
199.110707905
 51
200.6313080163
  0
ARC
  5
281
100
AcDbEntity
  8
0
100
AcDbCircle
 62
7
  6
CONTINUOUS
 10
5.5275214281
 20
6.1753396237
 40
0.2327253205
100
AcDbArc
 50
171.4416072727
 51
172.4932903014
  0
ARC
  5
282
100
AcDbEntity
  8
0
100
AcDbCircle
 62
7
  6
CONTINUOUS
 10
5.5240623353
 20
6.1695558907
 40
0.2295515965
100
AcDbArc
 50
195.4036135884
 51
199.1124690226
  0
ARC
  5
283
100
AcDbEntity
  8
0
100
AcDbCircle
 62
7
  6
CONTINUOUS
 10
5.5242259908
 20
6.1757395749
 40
0.2294058785
100
AcDbArc
 50
172.4847985548
 51
179.975399484
  0
ARC
  5
284
100
AcDbEntity
  8
0
100
AcDbCircle
 62
7
  6
CONTINUOUS
 10
5.5204808258
 20
6.1685252926
 40
0.2258249992
100
AcDbArc
 50
194.2273190473
 51
195.3928894357
  0
ARC
  5
285
100
AcDbEntity
  8
0
100
AcDbCircle
 62
7
  6
CONTINUOUS
 10
5.5192747347
 20
6.1665125899
 40
0.22447851
100
AcDbArc
 50
177.6276772838
 51
179.9033295365
  0
ARC
  5
286
100
AcDbEntity
  8
0
100
AcDbCircle
 62
7
  6
CONTINUOUS
 10
5.604829447
 20
6.1539255285
 40
0.3372216884
100
AcDbArc
 50
136.6704675553
 51
138.4106347568
  0
ARC
  5
287
100
AcDbEntity
  8
0
100
AcDbCircle
 62
7
  6
CONTINUOUS
 10
5.6636365439
 20
6.7800977975
 40
0.9794250637
100
AcDbArc
 50
294.2335087085
 51
245.6564600736
  0
ARC
  5
288
100
AcDbEntity
  8
0
100
AcDbCircle
 62
9
  6
CONTINUOUS
 10
5.6636365439
 20
6.7800977975
 40
0.7622057121
100
AcDbArc
 50
308.0625468234
 51
231.8910302961
  0
ARC
  5
289
100
AcDbEntity
  8
0
100
AcDbCircle
 62
9
  6
CONTINUOUS
 10
5.6636365439
 20
6.7800977975
 40
0.7298140957
100
AcDbArc
 50
310.2161919197
 51
229.7838052043
  0
ARC
  5
28A
100
AcDbEntity
  8
0
100
AcDbCircle
 62
7
  6
CONTINUOUS
 10
5.6636365439
 20
6.7800977975
 40
0.619
100
AcDbArc
 50
322.5140817629
 51
217.4860800246
  0
ARC
  5
28B
100
AcDbEntity
  8
0
100
AcDbCircle
 62
7
  6
CONTINUOUS
 10
5.6636365439
 20
6.7800977975
 40
0.593
100
AcDbArc
 50
325.9741967027
 51
214.0263477947
  0
ARC
  5
28C
100
AcDbEntity
  8
0
100
AcDbCircle
 62
9
  6
CONTINUOUS
 10
5.6636365439
 20
6.7800977975
 40
0.5632512627
100
AcDbArc
 50
330.3682393564
 51
345.260331478
  0
ARC
  5
28D
100
AcDbEntity
  8
0
100
AcDbCircle
 62
9
  6
CONTINUOUS
 10
5.6636365439
 20
6.7800977975
 40
0.5632512627
100
AcDbArc
 50
194.739668522
 51
209.7232041481
  0
ARC
  5
28E
100
AcDbEntity
  8
0
100
AcDbCircle
 62
9
  6
CONTINUOUS
 10
5.6636365439
 20
6.7800977975
 40
0.5632512627
100
AcDbArc
 50
14.739668522
 51
165.260331478
  0
ARC
  5
28F
100
AcDbEntity
  8
0
100
AcDbCircle
 62
7
  6
CONTINUOUS
 10
5.6636365439
 20
6.7800977975
 40
0.553
100
AcDbArc
 50
198.8985985245
 51
208.352927644
  0
ARC
  5
290
100
AcDbEntity
  8
0
100
AcDbCircle
 62
7
  6
CONTINUOUS
 10
5.6636365439
 20
6.7800977975
 40
0.553
100
AcDbArc
 50
331.8281172222
 51
341.1014014755
  0
ARC
  5
291
100
AcDbEntity
  8
0
100
AcDbCircle
 62
7
  6
CONTINUOUS
 10
5.6636365439
 20
6.7800977975
 40
0.553
100
AcDbArc
 50
18.8985985245
 51
161.1014014755
  0
ARC
  5
292
100
AcDbEntity
  8
0
100
AcDbCircle
 62
7
  6
CONTINUOUS
 10
5.6636365439
 20
6.7800977975
 40
0.5475
100
AcDbArc
 50
333.2770876912
 51
206.7025628611
  0
ARC
  5
293
100
AcDbEntity
  8
0
100
AcDbCircle
 62
9
  6
CONTINUOUS
 10
5.6636365439
 20
6.7800977975
 40
0.5175
100
AcDbArc
 50
341.7473851509
 51
198.8779271878
  0
ARC
  5
294
100
AcDbEntity
  8
0
100
AcDbCircle
 62
7
  6
CONTINUOUS
 10
5.6636365439
 20
6.7800977975
 40
0.4875
100
AcDbArc
 50
0.0
 51
180.0
  0
ARC
  5
295
100
AcDbEntity
  8
0
100
AcDbCircle
 62
7
  6
CONTINUOUS
 10
5.9828327706
 20
1.2276595482
 40
0.7771923523
100
AcDbArc
 50
47.0847129452
 51
47.9004542919
  0
ARC
  5
296
100
AcDbEntity
  8
0
100
AcDbCircle
 62
9
  6
CONTINUOUS
 10
5.9972618283
 20
1.248696805
 40
0.7516105467
100
AcDbArc
 50
46.9021835113
 51
47.6432396282
  0
ARC
  5
297
100
AcDbEntity
  8
0
100
AcDbCircle
 62
9
  6
CONTINUOUS
 10
6.0354145726
 20
1.2880168578
 40
0.6968300777
100
AcDbArc
 50
41.642739979
 51
46.8361094935
  0
ARC
  5
298
100
AcDbEntity
  8
0
100
AcDbCircle
 62
9
  6
CONTINUOUS
 10
6.0775956327
 20
1.3255278526
 40
0.6403826106
100
AcDbArc
 50
38.4010874432
 51
41.6424329429
  0
ARC
  5
299
100
AcDbEntity
  8
0
100
AcDbCircle
 62
7
  6
CONTINUOUS
 10
6.2448503019
 20
1.3983410616
 40
0.4587862425
100
AcDbArc
 50
0.0026983607
 51
3.3027581915
  0
ARC
  5
29A
100
AcDbEntity
  8
0
100
AcDbCircle
 62
9
  6
CONTINUOUS
 10
6.2715636131
 20
1.3984789405
 40
0.4320729464
100
AcDbArc
 50
351.8433069549
 51
359.9845768667
  0
ARC
  5
29B
100
AcDbEntity
  8
0
100
AcDbCircle
 62
9
  6
CONTINUOUS
 10
6.1505404076
 20
1.7505853599
 40
0.3534172988
100
AcDbArc
 50
6.1172657713
 51
8.390776978
  0
ARC
  5
29C
100
AcDbEntity
  8
0
100
AcDbCircle
 62
9
  6
CONTINUOUS
 10
6.1556736343
 20
1.7511201085
 40
0.3482563169
100
AcDbArc
 50
0.013851583
 51
6.1197849346
  0
ARC
  5
29D
100
AcDbEntity
  8
0
100
AcDbCircle
 62
7
  6
CONTINUOUS
 10
5.8288474853
 20
3.508488655
 40
0.2847890608
100
AcDbArc
 50
355.2046442124
 51
359.9929147657
  0
ARC
  5
29E
100
AcDbEntity
  8
0
100
AcDbCircle
 62
9
  6
CONTINUOUS
 10
5.8487426457
 20
3.5083727911
 40
0.2648939105
100
AcDbArc
 50
0.0174436417
 51
6.8514593872
  0
ARC
  5
29F
100
AcDbEntity
  8
0
100
AcDbCircle
 62
7
  6
CONTINUOUS
 10
5.9635142063
 20
5.3866275213
 40
0.8325285644
100
AcDbArc
 50
147.6775257317
 51
151.5488022397
  0
ARC
  5
2A0
100
AcDbEntity
  8
0
100
AcDbCircle
 62
7
  6
CONTINUOUS
 10
5.6657147891
 20
5.6308208946
 40
0.5178161731
100
AcDbArc
 50
79.2852081586
 51
79.9880480127
  0
ARC
  5
2A1
100
AcDbEntity
  8
0
100
AcDbCircle
 62
7
  6
CONTINUOUS
 10
5.7504139257
 20
5.7227891927
 40
0.3375232134
100
AcDbArc
 50
43.2585830111
 51
46.1971538998
  0
ARC
  5
2A2
100
AcDbEntity
  8
0
100
AcDbCircle
 62
7
  6
CONTINUOUS
 10
5.7476355311
 20
5.7263672192
 40
0.3193035627
100
AcDbArc
 50
42.7210019076
 51
44.9692443592
  0
ARC
  5
2A3
100
AcDbEntity
  8
0
100
AcDbCircle
 62
7
  6
CONTINUOUS
 10
5.8432863167
 20
6.4052999926
 40
0.3111073073
100
AcDbArc
 50
338.445054562
 51
340.5105718542
  0
ARC
  5
2A4
100
AcDbEntity
  8
0
100
AcDbCircle
 62
7
  6
CONTINUOUS
 10
5.8441084386
 20
6.3944323457
 40
0.3102294769
100
AcDbArc
 50
19.3296946613
 51
21.5578015768
  0
ARC
  5
2A5
100
AcDbEntity
  8
0
100
AcDbCircle
 62
7
  6
CONTINUOUS
 10
5.8496722336
 20
6.3963367763
 40
0.3043489457
100
AcDbArc
 50
15.8694380256
 51
19.3380831195
  0
ARC
  5
2A6
100
AcDbEntity
  8
0
100
AcDbCircle
 62
7
  6
CONTINUOUS
 10
5.7458928805
 20
6.1481175793
 40
0.3030865137
100
AcDbArc
 50
45.6597203361
 51
47.6932252037
  0
ARC
  5
2A7
100
AcDbEntity
  8
0
100
AcDbCircle
 62
7
  6
CONTINUOUS
 10
5.8538722875
 20
6.3975407082
 40
0.2999797567
100
AcDbArc
 50
14.5320566924
 51
15.8676124403
  0
ARC
  5
2A8
100
AcDbEntity
  8
0
100
AcDbCircle
 62
9
  6
CONTINUOUS
 10
5.7927491146
 20
6.1628662782
 40
0.2997181153
100
AcDbArc
 50
31.7403553324
 51
32.8321665108
  0
ARC
  5
2A9
100
AcDbEntity
  8
0
100
AcDbCircle
 62
7
  6
CONTINUOUS
 10
5.8568484335
 20
6.4831624067
 40
0.2967905915
100
AcDbArc
 50
3.0142370359
 51
5.3929060581
  0
ARC
  5
2AA
100
AcDbEntity
  8
0
100
AcDbCircle
 62
9
  6
CONTINUOUS
 10
5.8382533085
 20
6.1856377666
 40
0.2959443186
100
AcDbArc
 50
339.4321672201
 51
340.5860553221
  0
ARC
  5
2AB
100
AcDbEntity
  8
0
100
AcDbCircle
 62
7
  6
CONTINUOUS
 10
5.8578840416
 20
6.4832201464
 40
0.29575338
100
AcDbArc
 50
2.5306676866
 51
3.0136164766
  0
ARC
  5
2AC
100
AcDbEntity
  8
0
100
AcDbCircle
 62
7
  6
CONTINUOUS
 10
5.8589401898
 20
6.4832633481
 40
0.2946963543
100
AcDbArc
 50
0.0021672868
 51
2.5313430504
  0
ARC
  5
2AD
100
AcDbEntity
  8
0
100
AcDbCircle
 62
7
  6
CONTINUOUS
 10
5.8627101612
 20
6.3995267365
 40
0.2909264418
100
AcDbArc
 50
0.0365071537
 51
14.5901790837
  0
ARC
  5
2AE
100
AcDbEntity
  8
0
100
AcDbCircle
 62
9
  6
CONTINUOUS
 10
5.8658281559
 20
6.4832269254
 40
0.287809175
100
AcDbArc
 50
2.5978721414
 51
3.0528687152
  0
ARC
  5
2AF
100
AcDbEntity
  8
0
100
AcDbCircle
 62
9
  6
CONTINUOUS
 10
5.8670188268
 20
6.4832712899
 40
0.2866177172
100
AcDbArc
 50
0.0006407909
 51
2.5998010784
  0
ARC
  5
2B0
100
AcDbEntity
  8
0
100
AcDbCircle
 62
9
  6
CONTINUOUS
 10
5.7932247905
 20
6.1735253677
 40
0.2767080622
100
AcDbArc
 50
28.4631725136
 51
30.5141829869
  0
ARC
  5
2B1
100
AcDbEntity
  8
0
100
AcDbCircle
 62
7
  6
CONTINUOUS
 10
5.7839585124
 20
6.1573278897
 40
0.2689680044
100
AcDbArc
 50
32.6426866321
 51
35.2151919154
  0
ARC
  5
2B2
100
AcDbEntity
  8
0
100
AcDbCircle
 62
7
  6
CONTINUOUS
 10
5.7926000626
 20
6.162861021
 40
0.2587068189
100
AcDbArc
 50
27.9897393149
 51
32.6431428375
  0
ARC
  5
2B3
100
AcDbEntity
  8
0
100
AcDbCircle
 62
7
  6
CONTINUOUS
 10
5.8038859518
 20
6.1909812453
 40
0.2534405831
100
AcDbArc
 50
23.4507051252
 51
28.3042313534
  0
ARC
  5
2B4
100
AcDbEntity
  8
0
100
AcDbCircle
 62
7
  6
CONTINUOUS
 10
5.8226233748
 20
5.7686173856
 40
0.2511812334
100
AcDbArc
 50
14.9662886056
 51
16.5434891129
  0
ARC
  5
2B5
100
AcDbEntity
  8
0
100
AcDbCircle
 62
7
  6
CONTINUOUS
 10
5.8104343054
 20
6.193830061
 40
0.2462993909
100
AcDbArc
 50
20.9051743211
 51
23.4489536232
  0
ARC
  5
2B6
100
AcDbEntity
  8
0
100
AcDbCircle
 62
7
  6
CONTINUOUS
 10
5.8148712983
 20
6.2042404197
 40
0.2416639003
100
AcDbArc
 50
336.7016508748
 51
341.5803146175
  0
ARC
  5
2B7
100
AcDbEntity
  8
0
100
AcDbCircle
 62
7
  6
CONTINUOUS
 10
5.8093054506
 20
6.1715590722
 40
0.2398733732
100
AcDbArc
 50
18.9056832391
 51
28.0278153788
  0
ARC
  5
2B8
100
AcDbEntity
  8
0
100
AcDbCircle
 62
7
  6
CONTINUOUS
 10
5.8197456296
 20
6.1971639112
 40
0.2364115094
100
AcDbArc
 50
13.2790208394
 51
20.9556082355
  0
ARC
  5
2B9
100
AcDbEntity
  8
0
100
AcDbCircle
 62
9
  6
CONTINUOUS
 10
5.8322262612
 20
6.1868178988
 40
0.2351222901
100
AcDbArc
 50
358.0654461507
 51
359.9989469509
  0
ARC
  5
2BA
100
AcDbEntity
  8
0
100
AcDbCircle
 62
7
  6
CONTINUOUS
 10
5.8146752155
 20
6.1809205686
 40
0.234019378
100
AcDbArc
 50
339.4392263512
 51
342.0073170771
  0
ARC
  5
2BB
100
AcDbEntity
  8
0
100
AcDbCircle
 62
7
  6
CONTINUOUS
 10
5.8262323649
 20
6.200617491
 40
0.229740185
100
AcDbArc
 50
341.5422829551
 51
352.7846645321
  0
ARC
  5
2BC
100
AcDbEntity
  8
0
100
AcDbCircle
 62
7
  6
CONTINUOUS
 10
5.8190787148
 20
6.1751883821
 40
0.229451563
100
AcDbArc
 50
18.0599247426
 51
18.83904311
  0
ARC
  5
2BD
100
AcDbEntity
  8
0
100
AcDbCircle
 62
7
  6
CONTINUOUS
 10
5.8212678752
 20
6.1788584453
 40
0.2271121576
100
AcDbArc
 50
341.988354221
 51
347.1199003073
  0
ARC
  5
2BE
100
AcDbEntity
  8
0
100
AcDbCircle
 62
7
  6
CONTINUOUS
 10
5.8308871554
 20
6.199617429
 40
0.2250043824
100
AcDbArc
 50
355.501409689
 51
13.3226199504
  0
ARC
  5
2BF
100
AcDbEntity
  8
0
100
AcDbCircle
 62
7
  6
CONTINUOUS
 10
5.824099353
 20
6.1766531721
 40
0.2242242357
100
AcDbArc
 50
6.2758829252
 51
18.1017885092
  0
ARC
  5
2C0
100
AcDbEntity
  8
0
100
AcDbCircle
 62
7
  6
CONTINUOUS
 10
5.8325060172
 20
6.1996140189
 40
0.2233902746
100
AcDbArc
 50
352.8379008157
 51
355.4697147776
  0
ARC
  5
2C1
100
AcDbEntity
  8
0
100
AcDbCircle
 62
7
  6
CONTINUOUS
 10
5.8275285366
 20
6.1775822543
 40
0.2207245971
100
AcDbArc
 50
347.0805755949
 51
1.1060373486
  0
ARC
  5
2C2
100
AcDbEntity
  8
0
100
AcDbCircle
 62
7
  6
CONTINUOUS
 10
5.8301130618
 20
6.1774590002
 40
0.2181585241
100
AcDbArc
 50
1.1549788527
 51
6.238167506
  0
SPLINE
  5
2C3
100
AcDbEntity
  8
0
100
AcDbSpline
 62
7
  6
CONTINUOUS
 70
0
 71
3
 72
32
 73
28
 74
26
 42
0.0000001
 43
0.0000001
 44
0.0000000001
 12
-1.3575084987
 22
-0.0
 32
0.0
 13
-0.0000001171
 23
1.3575084987
 33
0.0
 40
0.0
 40
0.0
 40
0.0
 40
0.0
 40
0.0750979836
 40
0.1498364665
 40
0.2237091481
 40
0.2963367066
 40
0.3320801548
 40
0.367382832
 40
0.4364913625
 40
0.4702378659
 40
0.5034024783
 40
0.5678724076
 40
0.6297705358
 40
0.6597420271
 40
0.6890554626
 40
0.7177207157
 40
0.7457533049
 40
0.773174851
 40
0.8000159346
 40
0.826315916
 40
0.8521204595
 40
0.8774822493
 40
0.9024627729
 40
0.9271299176
 40
0.9515562746
 40
0.9758192193
 40
1.0
 40
1.0
 40
1.0
 40
1.0
 10
5.6636365439
 20
0.6677952219
 30
0.0
 10
5.6296544936
 20
0.6677952219
 30
0.0
 10
5.5618339785
 20
0.6699397424
 30
0.0
 10
5.4609929276
 20
0.6795165402
 30
0.0
 10
5.3620786865
 20
0.6953986374
 30
0.0
 10
5.2816315963
 20
0.7138415841
 30
0.0
 10
5.2190928228
 20
0.7316505009
 30
0.0
 10
5.1587381425
 20
0.7511616896
 30
0.0
 10
5.1003101854
 20
0.7735939012
 30
0.0
 10
5.0442195009
 20
0.7989673634
 30
0.0
 10
4.9910578055
 20
0.8256090687
 30
0.0
 10
4.9285431326
 20
0.8618901981
 30
0.0
 10
4.8706674226
 20
0.9027670198
 30
0.0
 10
4.8283041328
 20
0.9376165149
 30
0.0
 10
4.7988818278
 20
0.964442838
 30
0.0
 10
4.7715379521
 20
0.9921660383
 30
0.0
 10
4.7463368111
 20
1.0207203251
 30
0.0
 10
4.7233443559
 20
1.0500411317
 30
0.0
 10
4.7026185678
 20
1.0800593783
 30
0.0
 10
4.6842042666
 20
1.1106994917
 30
0.0
 10
4.6681466581
 20
1.1418885871
 30
0.0
 10
4.6544933612
 20
1.1735550403
 30
0.0
 10
4.6432766335
 20
1.2056207663
 30
0.0
 10
4.6345191185
 20
1.2380061354
 30
0.0
 10
4.628244604
 20
1.2706338005
 30
0.0
 10
4.6244782016
 20
1.3034223215
 30
0.0
 10
4.6236408758
 20
1.3253523969
 30
0.0
 10
4.6236408749
 20
1.3362942687
 30
0.0
 11
5.6636365439
 21
0.6677952219
 31
0.0
 11
5.5617413293
 21
0.6710174788
 31
0.0
 11
5.4607408121
 21
0.6806427992
 31
0.0
 11
5.3617330934
 21
0.6965836344
 31
0.0
 11
5.2656489688
 21
0.7186817695
 31
0.0
 11
5.2189846585
 21
0.7319795133
 31
0.0
 11
5.1733880938
 21
0.7467318965
 31
0.0
 11
5.0858445313
 21
0.7804581061
 31
0.0
 11
5.0441111857
 21
0.7993523041
 31
0.0
 11
5.0038690393
 21
0.8195384874
 31
0.0
 11
4.9282480544
 21
0.8635947065
 31
0.0
 11
4.8597080139
 21
0.9122037497
 31
0.0
 11
4.8283020855
 21
0.9380700087
 31
0.0
 11
4.7989113575
 21
0.9648969891
 31
0.0
 11
4.7716023626
 21
0.9926182019
 31
0.0
 11
4.7464399686
 21
1.0211663582
 31
0.0
 11
4.7234888015
 21
1.0504740912
 31
0.0
 11
4.7028048717
 21
1.0804712568
 31
0.0
 11
4.6844334297
 21
1.1110842433
 31
0.0
 11
4.6684190487
 21
1.1422392201
 31
0.0
 11
4.6548053004
 21
1.1738621745
 31
0.0
 11
4.6436233225
 21
1.2058768244
 31
0.0
 11
4.6348958368
 21
1.2382053524
 31
0.0
 11
4.6286454065
 21
1.2707699121
 31
0.0
 11
4.62489201
 21
1.3034925053
 31
0.0
 11
4.6236408749
 21
1.3362942687
 31
0.0
  0
SPLINE
  5
2C4
100
AcDbEntity
  8
0
100
AcDbSpline
 62
7
  6
CONTINUOUS
 70
0
 71
3
 72
11
 73
7
 74
5
 42
0.0000001
 43
0.0000001
 44
0.0000000001
 12
0.0334022855
 22
0.0943986478
 32
0.0
 13
0.0
 23
0.1001339972
 33
0.0
 40
0.0
 40
0.0
 40
0.0
 40
0.0
 40
0.2526092906
 40
0.5029927973
 40
0.7518924485
 40
1.0
 40
1.0
 40
1.0
 40
1.0
 10
6.1365681294
 20
6.3015043522
 30
0.0
 10
6.1393807053
 20
6.3094530107
 30
0.0
 10
6.1443349729
 20
6.3255181553
 30
0.0
 10
6.1496936484
 20
6.3500659466
 30
0.0
 10
6.1529179332
 20
6.3748328977
 30
0.0
 10
6.1536365439
 20
6.3914307725
 30
0.0
 10
6.1536365439
 20
6.3997121061
 30
0.0
 11
6.1365681294
 21
6.3015043522
 31
0.0
 11
6.1440114894
 21
6.3256791777
 31
0.0
 11
6.14935103
 21
6.3501759029
 31
0.0
 11
6.152563837
 21
6.3748912746
 31
0.0
 11
6.1536365439
 21
6.3997121061
 31
0.0
  0
SPLINE
  5
2C5
100
AcDbEntity
  8
0
100
AcDbSpline
 62
7
  6
CONTINUOUS
 70
0
 71
3
 72
11
 73
7
 74
5
 42
0.0000001
 43
0.0000001
 44
0.0000000001
 12
0.0
 22
-0.1001340517
 32
0.0
 13
0.0334023242
 23
-0.094398692
 33
0.0
 40
0.0
 40
0.0
 40
0.0
 40
0.0
 40
0.2481075726
 40
0.4970072632
 40
0.7473907484
 40
1.0
 40
1.0
 40
1.0
 40
1.0
 10
5.1736365439
 20
6.3997121061
 30
0.0
 10
5.1736365439
 20
6.3914307673
 30
0.0
 10
5.1743551569
 20
6.3748328815
 30
0.0
 10
5.1775794448
 20
6.3500659158
 30
0.0
 10
5.1829381246
 20
6.3255181121
 30
0.0
 10
5.1878923977
 20
6.3094529617
 30
0.0
 10
5.1907049764
 20
6.3015043007
 30
0.0
 11
5.1736365439
 21
6.3997121061
 31
0.0
 11
5.174709253
 21
6.374891259
 31
0.0
 11
5.1779220638
 21
6.3501758701
 31
0.0
 11
5.183261609
 21
6.3256791342
 31
0.0
 11
5.1907049764
 21
6.3015043007
 31
0.0
  0
SPLINE
  5
2C6
100
AcDbEntity
  8
0
100
AcDbSpline
 62
7
  6
CONTINUOUS
 70
0
 71
3
 72
14
 73
10
 74
8
 42
0.0000001
 43
0.0000001
 44
0.0000000001
 12
-0.2433304884
 22
-0.0447045209
 32
0.0
 13
-0.1838989102
 23
-0.1654974671
 33
0.0
 40
0.0
 40
0.0
 40
0.0
 40
0.0
 40
0.260561631
 40
0.3887839585
 40
0.5152639592
 40
0.6398108925
 40
0.7622560515
 40
0.8823932478
 40
1.0
 40
1.0
 40
1.0
 40
1.0
 10
5.5668067549
 20
6.4873565034
 30
0.0
 10
5.5456725585
 20
6.4834737424
 30
0.0
 10
5.51444589
 20
6.4757145656
 30
0.0
 10
5.4743748898
 20
6.4615108702
 30
0.0
 10
5.4456294265
 20
6.4491234368
 30
0.0
 10
5.4182144478
 20
6.4350346631
 30
0.0
 10
5.3923034644
 20
6.4193224947
 30
0.0
 10
5.3680670732
 20
6.402105391
 30
0.0
 10
5.3529637555
 20
6.3895675242
 30
0.0
 10
5.3457545043
 20
6.383079651
 30
0.0
 11
5.5668067549
 21
6.4873565034
 31
0.0
 11
5.5042620126
 21
6.4717447771
 31
0.0
 11
5.4743666982
 21
6.4611338201
 31
0.0
 11
5.4456352161
 21
6.4487377921
 31
0.0
 11
5.4182378002
 21
6.4346367367
 31
0.0
 11
5.3923438706
 21
6.4189145212
 31
0.0
 11
5.3681250847
 21
6.4016847402
 31
0.0
 11
5.3457545043
 21
6.383079651
 31
0.0
  0
SPLINE
  5
2C7
100
AcDbEntity
  8
0
100
AcDbSpline
 62
7
  6
CONTINUOUS
 70
0
 71
3
 72
9
 73
5
 74
3
 42
0.0000001
 43
0.0000001
 44
0.0000000001
 12
-0.0373229775
 22
-0.0348807675
 32
0.0
 13
-0.0315333651
 23
-0.0401910373
 33
0.0
 40
0.0
 40
0.0
 40
0.0
 40
0.0
 40
0.2534402579
 40
1.0
 40
1.0
 40
1.0
 40
1.0
 10
5.3457545043
 20
6.383079651
 30
0.0
 10
5.3426014559
 20
6.3801329208
 30
0.0
 10
5.3303772657
 20
6.368276896
 30
0.0
 10
5.3190387807
 20
6.355501936
 30
0.0
 10
5.3111916004
 20
6.3455002659
 30
0.0
 11
5.3457545043
 21
6.383079651
 31
0.0
 11
5.3364621427
 21
6.3740643078
 31
0.0
 11
5.3111916004
 21
6.3455002659
 31
0.0
  0
SPLINE
  5
2C8
100
AcDbEntity
  8
0
100
AcDbSpline
 62
7
  6
CONTINUOUS
 70
0
 71
3
 72
9
 73
5
 74
3
 42
0.0000001
 43
0.0000001
 44
0.0000000001
 12
-0.0216569874
 22
-0.0358057163
 32
0.0
 13
-0.0159757485
 23
-0.0386762186
 33
0.0
 40
0.0
 40
0.0
 40
0.0
 40
0.0
 40
0.252786501
 40
1.0
 40
1.0
 40
1.0
 40
1.0
 10
5.2905347121
 20
6.3156647504
 30
0.0
 10
5.2887098474
 20
6.3126476832
 30
0.0
 10
5.2817116271
 20
6.3005806281
 30
0.0
 10
5.2756146581
 20
6.2879882852
 30
0.0
 10
5.2716355598
 20
6.2783551543
 30
0.0
 11
5.2905347121
 21
6.3156647504
 31
0.0
 11
5.285229327
 21
6.3065133395
 31
0.0
 11
5.2716355598
 21
6.2783551543
 31
0.0
  0
SPLINE
  5
2C9
100
AcDbEntity
  8
0
100
AcDbSpline
 62
7
  6
CONTINUOUS
 70
0
 71
3
 72
11
 73
7
 74
5
 42
0.0000001
 43
0.0000001
 44
0.0000000001
 12
-0.0348861552
 22
-0.0844570487
 32
0.0
 13
-0.002396723
 23
-0.0913470997
 33
0.0
 40
0.0
 40
0.0
 40
0.0
 40
0.0
 40
0.2533206153
 40
0.5039948742
 40
0.7526838978
 40
1.0
 40
1.0
 40
1.0
 40
1.0
 10
5.2716355598
 20
6.2783551543
 30
0.0
 10
5.2686897657
 20
6.2712235838
 30
0.0
 10
5.2634474733
 20
6.2567692605
 30
0.0
 10
5.2576111455
 20
6.2345661991
 30
0.0
 10
5.253860562
 20
6.2121028211
 30
0.0
 10
5.2527571479
 20
6.1970093775
 30
0.0
 10
5.2525595652
 20
6.1894788413
 30
0.0
 11
5.2716355598
 21
6.2783551543
 31
0.0
 11
5.2637570358
 21
6.2565890828
 31
0.0
 11
5.2579394091
 21
6.2344339171
 31
0.0
 11
5.2542025965
 21
6.2120184194
 31
0.0
 11
5.2525595652
 21
6.1894788413
 31
0.0
  0
SPLINE
  5
2CA
100
AcDbEntity
  8
0
100
AcDbSpline
 62
7
  6
CONTINUOUS
 70
0
 71
3
 72
9
 73
5
 74
3
 42
0.0000001
 43
0.0000001
 44
0.0000000001
 12
-0.0132677104
 22
0.0523305136
 32
0.0
 13
-0.0000046863
 23
0.0539862462
 33
0.0
 40
0.0
 40
0.0
 40
0.0
 40
0.0
 40
0.5021751976
 40
1.0
 40
1.0
 40
1.0
 40
1.0
 10
5.3015822687
 20
6.1130243736
 30
0.0
 10
5.2993613637
 20
6.121784069
 30
0.0
 10
5.295985477
 20
6.1395110559
 30
0.0
 10
5.2948293125
 20
6.1575232885
 30
0.0
 10
5.2948285348
 20
6.1664818526
 30
0.0
 11
5.3015822687
 21
6.1130243736
 31
0.0
 11
5.29653056
 21
6.1396601085
 31
0.0
 11
5.2948285348
 21
6.1664818526
 31
0.0
  0
SPLINE
  5
2CB
100
AcDbEntity
  8
0
100
AcDbSpline
 62
7
  6
CONTINUOUS
 70
0
 71
3
 72
10
 73
6
 74
4
 42
0.0000001
 43
0.0000001
 44
0.0000000001
 12
-0.031009807
 22
-0.0827023644
 32
0.0
 13
-0.0566521333
 23
-0.0677630061
 33
0.0
 40
0.0
 40
0.0
 40
0.0
 40
0.0
 40
0.2438010538
 40
0.4914535908
 40
1.0
 40
1.0
 40
1.0
 40
1.0
 10
6.0337876053
 20
6.0987327963
 30
0.0
 10
6.0312675307
 20
6.0920118218
 30
0.0
 10
6.0255676585
 20
6.0786863868
 30
0.0
 10
6.0116574934
 20
6.0527094918
 30
0.0
 10
5.9986480832
 20
6.0344799874
 30
0.0
 10
5.9890446702
 20
6.0229931096
 30
0.0
 11
6.0337876053
 21
6.0987327963
 31
0.0
 11
6.0253326811
 21
6.0789283845
 31
0.0
 11
6.015019448
 21
6.0596383827
 31
0.0
 11
5.9890446702
 21
6.0229931096
 31
0.0
  0
SPLINE
  5
2CC
100
AcDbEntity
  8
0
100
AcDbSpline
 62
7
  6
CONTINUOUS
 70
0
 71
3
 72
31
 73
27
 74
25
 42
0.0000001
 43
0.0000001
 44
0.0000000001
 12
0.283519933
 22
0.7715352903
 32
0.0
 13
0.4739563553
 23
-0.6715769725
 33
0.0
 40
0.0
 40
0.0
 40
0.0
 40
0.0
 40
0.05489067
 40
0.1117219211
 40
0.1409550748
 40
0.1707424555
 40
0.2319630178
 40
0.295326623
 40
0.3277398149
 40
0.3605603294
 40
0.3937295669
 40
0.4271856422
 40
0.4946516775
 40
0.5285413702
 40
0.5624246896
 40
0.5962237974
 40
0.6298623777
 40
0.6632685426
 40
0.6963725586
 40
0.7613892295
 40
0.824494397
 40
0.8552348627
 40
0.8853880109
 40
0.9149408028
 40
0.943893464
 40
1.0
 40
1.0
 40
1.0
 40
1.0
 10
5.3105991249
 20
6.2487094925
 30
0.0
 10
5.315786658
 20
6.2628261889
 30
0.0
 10
5.3290938763
 20
6.2906070062
 30
0.0
 10
5.351602548
 20
6.3222092088
 30
0.0
 10
5.3729667213
 20
6.3457227617
 30
0.0
 10
5.3969491102
 20
6.3683542622
 30
0.0
 10
5.4309181806
 20
6.3938178507
 30
0.0
 10
5.4686386107
 20
6.4147613516
 30
0.0
 10
5.5009386743
 20
6.4288857041
 30
0.0
 10
5.5262787394
 20
6.438146569
 30
0.0
 10
5.5524083967
 20
6.4459317902
 30
0.0
 10
5.5881991829
 20
6.4543022545
 30
0.0
 10
5.6248601932
 20
6.4595553767
 30
0.0
 10
5.6618691144
 20
6.4616663521
 30
0.0
 10
5.6897150096
 20
6.4616794613
 30
0.0
 10
5.7174473489
 20
6.4601226496
 30
0.0
 10
5.7449157524
 20
6.4569977742
 30
0.0
 10
5.7719722034
 20
6.4523301339
 30
0.0
 10
5.8070844022
 20
6.4441405847
 30
0.0
 10
5.8491475669
 20
6.430277812
 30
0.0
 10
5.8886052468
 20
6.4115995263
 30
0.0
 10
5.9177312404
 20
6.3940637174
 30
0.0
 10
5.9380533636
 20
6.3798459719
 30
0.0
 10
5.9569258574
 20
6.364512713
 30
0.0
 10
5.9797582585
 20
6.3429269385
 30
0.0
 10
5.9948392116
 20
6.3249879625
 30
0.0
 10
6.0037032281
 20
6.31242801
 30
0.0
 11
5.3105991249
 21
6.2487094925
 31
0.0
 11
5.3299570299
 21
6.2894648117
 31
0.0
 11
5.3569373843
 21
6.3275996996
 31
0.0
 11
5.3730823287
 21
6.3453967814
 31
0.0
 11
5.3908804752
 21
6.3622111319
 31
0.0
 11
5.4310547243
 21
6.3925152237
 31
0.0
 11
5.4765321755
 21
6.4179022489
 31
0.0
 11
5.5009384926
 21
6.4285877523
 31
0.0
 11
5.526274464
 21
6.4378554201
 31
0.0
 11
5.5524017373
 21
6.4456473946
 31
0.0
 11
5.5791772388
 21
6.4519190702
 31
0.0
 11
5.634067963
 21
6.4598148061
 31
0.0
 11
5.6618792201
 21
6.4614041182
 31
0.0
 11
5.6897306103
 21
6.461416648
 31
0.0
 11
5.7174688889
 21
6.4598555477
 31
0.0
 11
5.744941542
 21
6.4567269475
 31
0.0
 11
5.7720000695
 21
6.452053324
 31
0.0
 11
5.7984973407
 21
6.4458627316
 31
0.0
 11
5.849233217
 21
6.4290711365
 31
0.0
 11
5.8960715611
 21
6.4067824405
 31
0.0
 11
5.9177108686
 21
6.3937358392
 31
0.0
 11
5.9380082608
 21
6.379511725
 31
0.0
 11
5.9568498049
 21
6.3641791715
 31
0.0
 11
5.9741328311
 21
6.347818692
 31
0.0
 11
6.0037032281
 21
6.31242801
 31
0.0
  0
SPLINE
  5
2CD
100
AcDbEntity
  8
0
100
AcDbSpline
 62
7
  6
CONTINUOUS
 70
0
 71
3
 72
25
 73
21
 74
19
 42
0.0000001
 43
0.0000001
 44
0.0000000001
 12
-0.0
 22
0.663461972
 32
0.0
 13
0.65335784
 23
-0.1153486937
 33
0.0
 40
0.0
 40
0.0
 40
0.0
 40
0.0
 40
0.0531769578
 40
0.1068769847
 40
0.161465041
 40
0.2172964012
 40
0.2457855462
 40
0.2746838966
 40
0.30401221
 40
0.3337861804
 40
0.3946741104
 40
0.4573742397
 40
0.5217923489
 40
0.5877592019
 40
0.6550289026
 40
0.7233144399
 40
0.7923036172
 40
0.8616579645
 40
0.9310096442
 40
1.0
 40
1.0
 40
1.0
 40
1.0
 10
5.2536365439
 20
5.8347017972
 30
0.0
 10
5.2536365439
 20
5.8464620937
 30
0.0
 10
5.2553852328
 20
5.8701335856
 30
0.0
 10
5.2631768972
 20
5.9051032992
 30
0.0
 10
5.2760625632
 20
5.9391601178
 30
0.0
 10
5.2907785996
 20
5.966236857
 30
0.0
 10
5.3048121425
 20
5.9869895326
 30
0.0
 10
5.3165378035
 20
6.0021809901
 30
0.0
 10
5.329355151
 20
6.0168418527
 30
0.0
 10
5.3479857555
 20
6.0357565602
 30
0.0
 10
5.3738484204
 20
6.057818849
 30
0.0
 10
5.4082767718
 20
6.0812627347
 30
0.0
 10
5.4458999281
 20
6.1016102228
 30
0.0
 10
5.4862507592
 20
6.1185897678
 30
0.0
 10
5.5288137441
 20
6.1320126875
 30
0.0
 10
5.5730622162
 20
6.141694372
 30
0.0
 10
5.6184427697
 20
6.1475293024
 30
0.0
 10
5.6643932466
 20
6.1494354944
 30
0.0
 10
5.7103349167
 20
6.1474009321
 30
0.0
 10
5.7407138682
 20
6.1434041575
 30
0.0
 10
5.7557389982
 20
6.1407515084
 30
0.0
 11
5.2536365439
 21
5.8347017972
 31
0.0
 11
5.2562205464
 21
5.869887932
 31
0.0
 11
5.2639398072
 21
5.9046695666
 31
0.0
 11
5.2767050974
 21
5.9385624222
 31
0.0
 11
5.2943410404
 21
5.9711366776
 31
0.0
 11
5.3049207964
 21
5.9867998228
 31
0.0
 11
5.3166292736
 21
6.0019825045
 31
0.0
 11
5.3294302036
 21
6.0166371468
 31
0.0
 11
5.3432854969
 21
6.0307171788
 31
0.0
 11
5.3739773452
 21
6.056983393
 31
0.0
 11
5.4083249111
 21
6.080451118
 31
0.0
 11
5.4458939913
 21
6.1008271678
 31
0.0
 11
5.4862153517
 21
6.1178475753
 31
0.0
 11
5.5287700924
 21
6.1313015795
 31
0.0
 11
5.5730219686
 21
6.1410124778
 31
0.0
 11
5.6184181889
 21
6.1468632302
 31
0.0
 11
5.6643923229
 21
6.1487775526
 31
0.0
 11
5.7103591017
 21
6.1467335392
 31
0.0
 11
5.7557389982
 21
6.1407515084
 31
0.0
  0
SPLINE
  5
2CE
100
AcDbEntity
  8
0
100
AcDbSpline
 62
7
  6
CONTINUOUS
 70
0
 71
3
 72
21
 73
17
 74
15
 42
0.0000001
 43
0.0000001
 44
0.0000000001
 12
0.4638081277
 22
-0.0877640591
 32
0.0
 13
-0.0
 23
-0.4720386737
 33
0.0
 40
0.0
 40
0.0
 40
0.0
 40
0.0
 40
0.1409570126
 40
0.2782433084
 40
0.3451902576
 40
0.4108371065
 40
0.4751061314
 40
0.5379649997
 40
0.5994381219
 40
0.6595830051
 40
0.7184958298
 40
0.776303526
 40
0.8331640845
 40
0.88926949
 40
0.9448155072
 40
1.0
 40
1.0
 40
1.0
 40
1.0
 10
5.7619873205
 20
6.1396088551
 30
0.0
 10
5.7837796565
 20
6.1354852019
 30
0.0
 10
5.8263237429
 20
6.1245550081
 30
0.0
 10
5.8768032677
 20
6.1040029014
 30
0.0
 10
5.9141750572
 20
6.0837667607
 30
0.0
 10
5.9402610346
 20
6.0670059715
 30
0.0
 10
5.9644474513
 20
6.0486475859
 30
0.0
 10
5.9865617392
 20
6.0288067706
 30
0.0
 10
6.0064638156
 20
6.0076266325
 30
0.0
 10
6.0240109227
 20
5.9852378564
 30
0.0
 10
6.0390772575
 20
5.9617898317
 30
0.0
 10
6.0515695838
 20
5.9374519972
 30
0.0
 10
6.0613886112
 20
5.9123886509
 30
0.0
 10
6.068434346
 20
5.8867751507
 30
0.0
 10
6.0726831792
 20
5.8608222511
 30
0.0
 10
6.0736365439
 20
5.8433848688
 30
0.0
 10
6.0736365439
 20
5.8347017972
 30
0.0
 11
5.7619873205
 21
6.1396088551
 31
0.0
 11
5.8264090224
 21
6.1229643921
 31
0.0
 11
5.8863732249
 21
6.0983898119
 31
0.0
 11
5.9141533901
 21
6.0833259372
 31
0.0
 11
5.9402099562
 21
6.0665538679
 31
0.0
 11
5.9643576151
 21
6.0481894358
 31
0.0
 11
5.9864264324
 21
6.028355525
 31
0.0
 11
6.0062750555
 21
6.0071881313
 31
0.0
 11
6.0237657079
 21
5.9848250022
 31
0.0
 11
6.0387783847
 21
5.9614163
 31
0.0
 11
6.0512160273
 21
5.9371282171
 31
0.0
 11
6.0609830965
 21
5.9121280072
 31
0.0
 11
6.0679969348
 21
5.8865897192
 31
0.0
 11
6.072222678
 21
5.8607126137
 31
0.0
 11
6.0736365439
 21
5.8347017972
 31
0.0
  0
SPLINE
  5
2CF
100
AcDbEntity
  8
0
100
AcDbSpline
 62
7
  6
CONTINUOUS
 70
0
 71
3
 72
12
 73
8
 74
6
 42
0.0000001
 43
0.0000001
 44
0.0000000001
 12
-0.0
 22
-0.4089737744
 32
0.0
 13
-0.1771742067
 23
-0.3686039183
 33
0.0
 40
0.0
 40
0.0
 40
0.0
 40
0.0
 40
0.2512540466
 40
0.3771260731
 40
0.5027536933
 40
0.7525315896
 40
1.0
 40
1.0
 40
1.0
 40
1.0
 10
6.2036365439
 20
3.9458450323
 30
0.0
 10
6.2036365439
 20
3.911592927
 30
0.0
 10
6.2007862871
 20
3.8601240959
 30
0.0
 10
6.1914024514
 20
3.7922073133
 30
0.0
 10
6.1783051001
 20
3.7251040153
 30
0.0
 10
6.155062496
 20
3.6432433945
 30
0.0
 10
6.1292491
 20
3.5803778431
 30
0.0
 10
6.1146340936
 20
3.5499719012
 30
0.0
 11
6.2036365439
 21
3.9458450323
 31
0.0
 11
6.1979794197
 21
3.8432445577
 31
0.0
 11
6.1909277375
 21
3.792251469
 31
0.0
 11
6.1810785758
 21
3.7418259377
 31
0.0
 11
6.1531447718
 21
3.6435668001
 31
0.0
 11
6.1146340936
 21
3.5499719012
 31
0.0
  0
SPLINE
  5
2D0
100
AcDbEntity
  8
0
100
AcDbSpline
 62
7
  6
CONTINUOUS
 70
0
 71
3
 72
13
 73
9
 74
7
 42
0.0000001
 43
0.0000001
 44
0.0000000001
 12
-0.177924729
 22
0.369197474
 32
0.0
 13
-0.0
 23
0.4098340933
 33
0.0
 40
0.0
 40
0.0
 40
0.0
 40
0.0
 40
0.2476284211
 40
0.4972347847
 40
0.622690396
 40
0.7484681787
 40
0.8743316009
 40
1.0
 40
1.0
 40
1.0
 40
1.0
 10
5.2130076002
 20
3.5492375231
 30
0.0
 10
5.1983211937
 20
3.579712119
 30
0.0
 10
5.1723836913
 20
3.6426807625
 30
0.0
 10
5.1490692423
 20
3.7246834974
 30
0.0
 10
5.1359188146
 20
3.7918587081
 30
0.0
 10
5.1288464458
 20
3.8429146902
 30
0.0
 10
5.1245896342
 20
3.8943077344
 30
0.0
 10
5.1236365439
 20
3.9286773008
 30
0.0
 10
5.1236365439
 20
3.9458450323
 30
0.0
 11
5.2130076002
 21
3.5492375231
 31
0.0
 11
5.1743024112
 21
3.6430534712
 31
0.0
 11
5.1462788021
 21
3.7414373825
 31
0.0
 11
5.1363972527
 21
3.7918948762
 31
0.0
 11
5.1293178463
 21
3.8429544564
 31
0.0
 11
5.1250593386
 21
3.8943614942
 31
0.0
 11
5.1236365439
 21
3.9458450323
 31
0.0
  0
SPLINE
  5
2D1
100
AcDbEntity
  8
0
100
AcDbSpline
 62
7
  6
CONTINUOUS
 70
0
 71
3
 72
36
 73
32
 74
30
 42
0.0000001
 43
0.0000001
 44
0.0000000001
 12
-0.1236346658
 22
1.3101465001
 32
0.0
 13
-0.1236258515
 23
-1.3101473319
 33
0.0
 40
0.0
 40
0.0
 40
0.0
 40
0.0
 40
0.0274345423
 40
0.0551135878
 40
0.0831522699
 40
0.1116649866
 40
0.1703792946
 40
0.2317723153
 40
0.2635277521
 40
0.2959345162
 40
0.3289385617
 40
0.3624704457
 40
0.4307103277
 40
0.4652585047
 40
0.4999244541
 40
0.5345903273
 40
0.5691383719
 40
0.6373776806
 40
0.6709092182
 40
0.7039127972
 40
0.7363190695
 40
0.7680740087
 40
0.7991480494
 40
0.8295328664
 40
0.8592447836
 40
0.8883238932
 40
0.9168362034
 40
0.9448745523
 40
0.9587571475
 40
0.9725655294
 40
1.0
 40
1.0
 40
1.0
 40
1.0
 10
6.1523253137
 20
6.5110562851
 30
0.0
 10
6.1511946936
 20
6.523037375
 30
0.0
 10
6.1474608095
 20
6.5469930767
 30
0.0
 10
6.1375635817
 20
6.5821836481
 30
0.0
 10
6.1234481868
 20
6.6164203698
 30
0.0
 10
6.099021145
 20
6.6607936688
 30
0.0
 10
6.0583890155
 20
6.7124217236
 30
0.0
 10
6.0074747052
 20
6.7559929211
 30
0.0
 10
5.961256757
 20
6.7860450347
 30
0.0
 10
5.9236332512
 20
6.8061835365
 30
0.0
 10
5.8837895441
 20
6.8235137466
 30
0.0
 10
5.8278447918
 20
6.8427726371
 30
0.0
 10
5.7691920319
 20
6.8557103742
 30
0.0
 10
5.709211468
 20
6.8622180964
 30
0.0
 10
5.6636319044
 20
6.8638650958
 30
0.0
 10
5.6180524057
 20
6.8622175452
 30
0.0
 10
5.5580723318
 20
6.8557086509
 30
0.0
 10
5.4994201067
 20
6.8427702022
 30
0.0
 10
5.4434763776
 20
6.8235111043
 30
0.0
 10
5.4036327086
 20
6.8061799901
 30
0.0
 10
5.3660128075
 20
6.7860431293
 30
0.0
 10
5.330946406
 20
6.7632406456
 30
0.0
 10
5.2987337912
 20
6.7379654919
 30
0.0
 10
5.2696607712
 20
6.7104142897
 30
0.0
 10
5.2439994195
 20
6.6808035341
 30
0.0
 10
5.2219739931
 20
6.6493877073
 30
0.0
 10
5.2038226009
 20
6.6164177313
 30
0.0
 10
5.1920206969
 20
6.5877852707
 30
0.0
 10
5.1847177485
 20
6.5644418377
 30
0.0
 10
5.1788746314
 20
6.5409671225
 30
0.0
 10
5.1760781254
 20
6.5230353621
 30
0.0
 10
5.1749475888
 20
6.5110542959
 30
0.0
 11
6.1523253137
 21
6.5110562851
 31
0.0
 11
6.1467771216
 21
6.5467303781
 31
0.0
 11
6.1369387424
 21
6.5818012493
 31
0.0
 11
6.1229112363
 21
6.6159288074
 31
0.0
 11
6.1048484732
 21
6.6488168269
 31
0.0
 11
6.0573455685
 21
6.7097555156
 31
0.0
 11
5.9962093026
 21
6.7625719351
 31
0.0
 11
5.9611963454
 21
6.7853847061
 31
0.0
 11
5.9236158692
 21
6.8055442986
 31
0.0
 11
5.8837990983
 21
6.8228931899
 31
0.0
 11
5.8420843799
 21
6.8372828277
 31
0.0
 11
5.7544190909
 21
6.8567532031
 31
0.0
 11
5.70922142
 21
6.8616694868
 31
0.0
 11
5.6636318721
 21
6.8633153814
 31
0.0
 11
5.6180424468
 21
6.8616688746
 31
0.0
 11
5.5728450384
 21
6.8567517888
 31
0.0
 11
5.4851807562
 21
6.8372803595
 31
0.0
 11
5.4434666341
 21
6.8228903908
 31
0.0
 11
5.4036506773
 21
6.8055411684
 31
0.0
 11
5.3660710888
 21
6.7853812899
 31
0.0
 11
5.3310589019
 21
6.7625685362
 31
0.0
 11
5.2989149829
 21
6.7372909163
 31
0.0
 11
5.2699243372
 21
6.7097522849
 31
0.0
 11
5.2443500105
 21
6.6801760039
 31
0.0
 11
5.2224228688
 21
6.6488139996
 31
0.0
 11
5.2043606085
 21
6.6159263142
 31
0.0
 11
5.1903335705
 21
6.5817990379
 31
0.0
 11
5.1848823442
 21
6.5643622406
 31
0.0
 11
5.180495514
 21
6.5467283349
 31
0.0
 11
5.1749475888
 21
6.5110542959
 31
0.0
  0
SPLINE
  5
2D2
100
AcDbEntity
  8
0
100
AcDbSpline
 62
7
  6
CONTINUOUS
 70
0
 71
3
 72
11
 73
7
 74
5
 42
0.0000001
 43
0.0000001
 44
0.0000000001
 12
0.0581022119
 22
-0.1491253603
 32
0.0
 13
0.1162562102
 23
-0.1099942439
 33
0.0
 40
0.0
 40
0.0
 40
0.0
 40
0.0
 40
0.2424045429
 40
0.4893891336
 40
0.7417489426
 40
1.0
 40
1.0
 40
1.0
 40
1.0
 10
5.1946363604
 20
6.0837783686
 30
0.0
 10
5.1993311071
 20
6.0717288137
 30
0.0
 10
5.210301083
 20
6.0479579607
 30
0.0
 10
5.2309589225
 20
6.0141124314
 30
0.0
 10
5.2557478292
 20
5.9820940033
 30
0.0
 10
5.2746259233
 20
5.962379308
 30
0.0
 10
5.2846336864
 20
5.9529105981
 30
0.0
 11
5.1946363604
 21
6.0837783686
 31
0.0
 11
5.2108509308
 21
6.0485338018
 31
0.0
 11
5.2314041955
 21
6.014768916
 31
0.0
 11
5.2560852768
 21
5.9827986294
 31
0.0
 11
5.2846336864
 21
5.9529105981
 31
0.0
  0
SPLINE
  5
2D3
100
AcDbEntity
  8
0
100
AcDbSpline
 62
7
  6
CONTINUOUS
 70
0
 71
3
 72
11
 73
7
 74
5
 42
0.0000001
 43
0.0000001
 44
0.0000000001
 12
0.1190842497
 22
0.1111435561
 32
0.0
 13
0.0591361262
 23
0.1517790077
 33
0.0
 40
0.0
 40
0.0
 40
0.0
 40
0.0
 40
0.2584139527
 40
0.5108224424
 40
0.7577459337
 40
1.0
 40
1.0
 40
1.0
 40
1.0
 10
6.0405611132
 20
5.9509575627
 30
0.0
 10
6.0508187904
 20
5.9605312446
 30
0.0
 10
6.0701643564
 20
5.9804882252
 30
0.0
 10
6.0955515502
 20
6.0129674331
 30
0.0
 10
6.1166748764
 20
6.0473479851
 30
0.0
 10
6.1278614122
 20
6.0715220073
 30
0.0
 10
6.1326367345
 20
6.0837783679
 30
0.0
 11
6.0405611132
 21
5.9509575627
 31
0.0
 11
6.0698208016
 21
5.9812189008
 31
0.0
 11
6.0950948657
 21
6.0136488369
 31
0.0
 11
6.1161079084
 21
6.0479454694
 31
0.0
 11
6.1326367345
 21
6.0837783679
 31
0.0
  0
SPLINE
  5
2D4
100
AcDbEntity
  8
0
100
AcDbSpline
 62
7
  6
CONTINUOUS
 70
0
 71
3
 72
15
 73
11
 74
9
 42
0.0000001
 43
0.0000001
 44
0.0000000001
 12
-0.0246795207
 22
0.4277928159
 32
0.0
 13
-0.3138167999
 23
0.2917786629
 33
0.0
 40
0.0
 40
0.0
 40
0.0
 40
0.0
 40
0.1181251843
 40
0.2371481533
 40
0.357683321
 40
0.4802916976
 40
0.6054390574
 40
0.7335461477
 40
0.8649777972
 40
1.0
 40
1.0
 40
1.0
 40
1.0
 10
6.7028745208
 20
1.4247726944
 30
0.0
 10
6.7019027632
 20
1.4416170628
 30
0.0
 10
6.6980853304
 20
1.4753543194
 30
0.0
 10
6.6868682371
 20
1.5252929001
 30
0.0
 10
6.670225832
 20
1.5743722578
 30
0.0
 10
6.6483437075
 20
1.6223039855
 30
0.0
 10
6.6213891606
 20
1.6688254151
 30
0.0
 10
6.5895566648
 20
1.7137013704
 30
0.0
 10
6.5530747899
 20
1.756739593
 30
0.0
 10
6.5261597855
 20
1.7837129116
 30
0.0
 10
6.5120357069
 20
1.7968451108
 30
0.0
 11
6.7028745208
 21
1.4247726944
 31
0.0
 11
6.6972017136
 21
1.4750709329
 31
0.0
 11
6.6860527531
 21
1.524839271
 31
0.0
 11
6.6695166386
 21
1.57377045
 31
0.0
 11
6.6477483413
 21
1.6215867964
 31
0.0
 11
6.6209189531
 21
1.6680189917
 31
0.0
 11
6.5892176075
 21
1.7128344069
 31
0.0
 11
6.5528524852
 21
1.7558391493
 31
0.0
 11
6.5120357069
 21
1.7968451108
 31
0.0
  0
SPLINE
  5
2D5
100
AcDbEntity
  8
0
100
AcDbSpline
 62
7
  6
CONTINUOUS
 70
0
 71
3
 72
16
 73
12
 74
10
 42
0.0000001
 43
0.0000001
 44
0.0000000001
 12
-0.3309838747
 22
-0.3092819191
 32
0.0
 13
0.0
 23
-0.4529962812
 33
0.0
 40
0.0
 40
0.0
 40
0.0
 40
0.0
 40
0.1353100709
 40
0.2668181075
 40
0.3948378408
 40
0.5197992683
 40
0.6421858618
 40
0.7026067182
 40
0.7626042785
 40
0.8816231269
 40
1.0
 40
1.0
 40
1.0
 40
1.0
 10
4.8138339177
 20
1.7955369378
 30
0.0
 10
4.7989054339
 20
1.781587285
 30
0.0
 10
4.7705470445
 20
1.7528909767
 30
0.0
 10
4.7324184127
 20
1.7069581732
 30
0.0
 10
4.6995620603
 20
1.658983549
 30
0.0
 10
4.6722554137
 20
1.6092070882
 30
0.0
 10
4.6542233279
 20
1.5662704793
 30
0.0
 10
4.6428462599
 20
1.5313996445
 30
0.0
 10
4.6335650088
 20
1.4964391566
 30
0.0
 10
4.6257455847
 20
1.4521162569
 30
0.0
 10
4.6236365439
 20
1.4162373944
 30
0.0
 10
4.6236365439
 20
1.3983626333
 30
0.0
 11
4.8138339177
 21
1.7955369378
 31
0.0
 11
4.7708096383
 21
1.7518793684
 31
0.0
 11
4.7328221191
 21
1.7059898359
 31
0.0
 11
4.7001239962
 21
1.6580945487
 31
0.0
 11
4.6729618313
 21
1.6084299108
 31
0.0
 11
4.651554118
 21
1.5572891453
 31
0.0
 11
4.6430718096
 21
1.5312662609
 31
0.0
 11
4.6361035783
 21
1.5049960506
 31
0.0
 11
4.6267675145
 21
1.4518954342
 31
0.0
 11
4.6236365439
 21
1.3983626333
 31
0.0
  0
SPLINE
  5
2D6
100
AcDbEntity
  8
0
100
AcDbSpline
 62
7
  6
CONTINUOUS
 70
0
 71
3
 72
32
 73
28
 74
26
 42
0.0000001
 43
0.0000001
 44
0.0000000001
 12
0.0000001171
 22
-1.3575086337
 32
0.0
 13
-1.3575086337
 23
0.0
 33
0.0
 40
0.0
 40
0.0
 40
0.0
 40
0.0
 40
0.0241807845
 40
0.0484437325
 40
0.0728700921
 40
0.0975372402
 40
0.1225177672
 40
0.1478795589
 40
0.1736841051
 40
0.1999840906
 40
0.2268251778
 40
0.2542467257
 40
0.2822793186
 40
0.3109445765
 40
0.3402580155
 40
0.3702295092
 40
0.4321276484
 40
0.4965975874
 40
0.5297622067
 40
0.5635087163
 40
0.6326172531
 40
0.6679199375
 40
0.7036633965
 40
0.7762909792
 40
0.8501636398
 40
0.9249020469
 40
1.0
 40
1.0
 40
1.0
 40
1.0
 10
6.703632213
 20
1.3362944033
 30
0.0
 10
6.7036322139
 20
1.3253525287
 30
0.0
 10
6.7027948905
 20
1.303422448
 30
0.0
 10
6.699028505
 20
1.2706339175
 30
0.0
 10
6.6927540004
 20
1.2380062425
 30
0.0
 10
6.6839964849
 20
1.2056208654
 30
0.0
 10
6.6727797572
 20
1.173555132
 30
0.0
 10
6.6591264729
 20
1.1418886657
 30
0.0
 10
6.643068864
 20
1.1106995617
 30
0.0
 10
6.6246545573
 20
1.080059442
 30
0.0
 10
6.6039287665
 20
1.050041188
 30
0.0
 10
6.580936317
 20
1.0207203668
 30
0.0
 10
6.5557351698
 20
0.992166074
 30
0.0
 10
6.528391286
 20
0.9644428687
 30
0.0
 10
6.4989689774
 20
0.9376165368
 30
0.0
 10
6.456605685
 20
0.9027670239
 30
0.0
 10
6.3987299522
 20
0.861890204
 30
0.0
 10
6.3362152688
 20
0.825609054
 30
0.0
 10
6.2830535543
 20
0.7989673499
 30
0.0
 10
6.2269628539
 20
0.7735938872
 30
0.0
 10
6.1685348856
 20
0.7511616619
 30
0.0
 10
6.1081801855
 20
0.7316504779
 30
0.0
 10
6.0456413859
 20
0.7138415599
 30
0.0
 10
5.9651942804
 20
0.6953986142
 30
0.0
 10
5.866280061
 20
0.6795165289
 30
0.0
 10
5.7654390581
 20
0.6699397255
 30
0.0
 10
5.6976185838
 20
0.6677952219
 30
0.0
 10
5.6636365439
 20
0.6677952219
 30
0.0
 11
6.703632213
 21
1.3362944033
 31
0.0
 11
6.7023810843
 21
1.3034926312
 31
0.0
 11
6.6986277013
 21
1.2707700287
 31
0.0
 11
6.6923772803
 21
1.2382054602
 31
0.0
 11
6.683649796
 21
1.2058769236
 31
0.0
 11
6.6724678197
 21
1.1738622646
 31
0.0
 11
6.6588540802
 21
1.1422392999
 31
0.0
 11
6.6428397004
 21
1.1110843144
 31
0.0
 11
6.6244682537
 21
1.0804713202
 31
0.0
 11
6.6037843217
 21
1.0504741456
 31
0.0
 11
6.5808331581
 21
1.0211664022
 31
0.0
 11
6.5556707595
 21
0.9926182383
 31
0.0
 11
6.5283617566
 21
0.9648970188
 31
0.0
 11
6.4989710247
 21
0.9380700297
 31
0.0
 11
6.4675650947
 21
0.9122037613
 31
0.0
 11
6.3990250329
 21
0.8635947079
 31
0.0
 11
6.3234040305
 21
0.819538475
 31
0.0
 11
6.2831618695
 21
0.7993522901
 31
0.0
 11
6.2414285105
 21
0.7804580904
 31
0.0
 11
6.1538849318
 21
0.7467318726
 31
0.0
 11
6.1082883517
 21
0.7319794904
 31
0.0
 11
6.0616240212
 21
0.7186817457
 31
0.0
 11
5.9655398536
 21
0.6965836079
 31
0.0
 11
5.8665321523
 21
0.6806427811
 31
0.0
 11
5.7655317276
 21
0.6710174682
 31
0.0
 11
5.6636365439
 21
0.6677952219
 31
0.0
  0
SPLINE
  5
2D7
100
AcDbEntity
  8
0
100
AcDbSpline
 62
7
  6
CONTINUOUS
 70
0
 71
3
 72
30
 73
26
 74
24
 42
0.0000001
 43
0.0000001
 44
0.0000000001
 12
0.0106238086
 22
-0.0179147233
 32
0.0
 13
-0.0030410078
 23
0.0206047299
 33
0.0
 40
0.0
 40
0.0
 40
0.0
 40
0.0
 40
0.0659994527
 40
0.0922625656
 40
0.1141668333
 40
0.1318095872
 40
0.145286348
 40
0.1546907832
 40
0.160114826
 40
0.1616514128
 40
0.1639292355
 40
0.1699242223
 40
0.1795558244
 40
0.1927420991
 40
0.2093923875
 40
0.2294137318
 40
0.2527138123
 40
0.2792011018
 40
0.3087849598
 40
0.3768836888
 40
0.4563059951
 40
0.5463655049
 40
0.6463964746
 40
0.7557561824
 40
1.0
 40
1.0
 40
1.0
 40
1.0
 10
6.5028561091
 20
1.7882873585
 30
0.0
 10
6.503089831
 20
1.7878932378
 30
0.0
 10
6.5034108765
 20
1.7873390883
 30
0.0
 10
6.503794177
 20
1.7866447647
 30
0.0
 10
6.5040094128
 20
1.7862428381
 30
0.0
 10
6.5041792671
 20
1.7859132128
 30
0.0
 10
6.5043028231
 20
1.7856679267
 30
0.0
 10
6.5043917013
 20
1.7854762665
 30
0.0
 10
6.5044315991
 20
1.7853965592
 30
0.0
 10
6.5044649166
 20
1.7853075074
 30
0.0
 10
6.5044134721
 20
1.7854137771
 30
0.0
 10
6.5043792557
 20
1.7854936151
 30
0.0
 10
6.5042926425
 20
1.7856962238
 30
0.0
 10
6.5041946018
 20
1.7859427865
 30
0.0
 10
6.5040689869
 20
1.7862688824
 30
0.0
 10
6.5039249754
 20
1.7866583158
 30
0.0
 10
6.503761795
 20
1.7871151018
 30
0.0
 10
6.503582242
 20
1.787635953
 30
0.0
 10
6.5033100707
 20
1.7884539966
 30
0.0
 10
6.5029415203
 20
1.7896271178
 30
0.0
 10
6.5024811594
 20
1.7912111549
 30
0.0
 10
6.5019991529
 20
1.793019298
 30
0.0
 10
6.501510429
 20
1.7950402368
 30
0.0
 10
6.5008448984
 20
1.7981187487
 30
0.0
 10
6.5004216011
 20
1.8005385493
 30
0.0
 10
6.5001740187
 20
1.8022160753
 30
0.0
 11
6.5028561091
 21
1.7882873585
 31
0.0
 11
6.5035433717
 21
1.7870968615
 31
0.0
 11
6.5038075681
 21
1.7866178875
 31
0.0
 11
6.5040225351
 21
1.7862154868
 31
0.0
 11
6.504191068
 21
1.7858889519
 31
0.0
 11
6.504315962
 21
1.7856375756
 31
0.0
 11
6.5044000126
 21
1.7854606506
 31
0.0
 11
6.5044460151
 21
1.7853574694
 31
0.0
 11
6.5044567648
 21
1.7853273248
 31
0.0
 11
6.504435057
 21
1.7853695095
 31
0.0
 11
6.5043836871
 21
1.7854833161
 31
0.0
 11
6.5043054504
 21
1.7856680373
 31
0.0
 11
6.5042030002
 21
1.7859228561
 31
0.0
 11
6.5040783732
 21
1.7862464795
 31
0.0
 11
6.5039334389
 21
1.7866374855
 31
0.0
 11
6.5037700668
 21
1.7870944519
 31
0.0
 11
6.5035901262
 21
1.7876159565
 31
0.0
 11
6.5033954866
 21
1.7882005774
 31
0.0
 11
6.5029695881
 21
1.7895534789
 31
0.0
 11
6.5025073267
 21
1.7911417797
 31
0.0
 11
6.502023658
 21
1.7929541025
 31
0.0
 11
6.5015335373
 21
1.7949790705
 31
0.0
 11
6.5010519202
 21
1.7972053066
 31
0.0
 11
6.5001740187
 21
1.8022160753
 31
0.0
  0
SPLINE
  5
2D8
100
AcDbEntity
  8
0
100
AcDbSpline
 62
7
  6
CONTINUOUS
 70
0
 71
3
 72
20
 73
16
 74
14
 42
0.0000001
 43
0.0000001
 44
0.0000000001
 12
-0.1107948787
 22
0.7507047803
 32
0.0
 13
-0.6802093212
 23
0.3363754624
 33
0.0
 40
0.0
 40
0.0
 40
0.0
 40
0.0
 40
0.1248959668
 40
0.1874220917
 40
0.2499352095
 40
0.3124346109
 40
0.3749327182
 40
0.4374414995
 40
0.4999658018
 40
0.5624980971
 40
0.6250281769
 40
0.6875473035
 40
0.7500578932
 40
0.8750200798
 40
1.0
 40
1.0
 40
1.0
 40
1.0
 10
6.4524100426
 20
2.1258469298
 30
0.0
 10
6.4477974314
 20
2.1571002629
 30
0.0
 10
6.4379964749
 20
2.203641022
 30
0.0
 10
6.4194108447
 20
2.2640942965
 30
0.0
 10
6.4027282065
 20
2.3085352225
 30
0.0
 10
6.3833821927
 20
2.3518714105
 30
0.0
 10
6.3614489656
 20
2.3939571195
 30
0.0
 10
6.3369993554
 20
2.4346397753
 30
0.0
 10
6.310124702
 20
2.4737730351
 30
0.0
 10
6.2809397087
 20
2.5112214746
 30
0.0
 10
6.2495567885
 20
2.5468461858
 30
0.0
 10
6.2160819134
 20
2.5805072314
 30
0.0
 10
6.1688502534
 20
2.6226003707
 30
0.0
 10
6.1052117338
 20
2.6697985645
 30
0.0
 10
6.0501443282
 20
2.7012054971
 30
0.0
 10
6.0218068259
 20
2.7152188899
 30
0.0
 11
6.4524100426
 21
2.1258469298
 31
0.0
 11
6.4328982098
 21
2.218592342
 31
0.0
 11
6.4189535786
 21
2.2639440391
 31
0.0
 11
6.4022825582
 21
2.3083554083
 31
0.0
 11
6.3829507965
 21
2.3516634703
 31
0.0
 11
6.3610314206
 21
2.3937200162
 31
0.0
 11
6.3365980821
 21
2.4343770256
 31
0.0
 11
6.309741352
 21
2.4734898621
 31
0.0
 11
6.2805728721
 21
2.5109181041
 31
0.0
 11
6.2492056043
 21
2.5465215938
 31
0.0
 11
6.2157534859
 21
2.580162061
 31
0.0
 11
6.1803421461
 21
2.6117238677
 31
0.0
 11
6.1041753249
 21
2.6682089625
 31
0.0
 11
6.0218068259
 21
2.7152188899
 31
0.0
  0
SPLINE
  5
2D9
100
AcDbEntity
  8
0
100
AcDbSpline
 62
7
  6
CONTINUOUS
 70
0
 71
3
 72
20
 73
16
 74
14
 42
0.0000001
 43
0.0000001
 44
0.0000000001
 12
-0.6803874342
 22
-0.3362939531
 32
0.0
 13
-0.1108129306
 23
-0.7508269959
 33
0.0
 40
0.0
 40
0.0
 40
0.0
 40
0.0
 40
0.0625064948
 40
0.1250092808
 40
0.1875104109
 40
0.2500121695
 40
0.3125181903
 40
0.3750281001
 40
0.4375390105
 40
0.5000498262
 40
0.6250052742
 40
0.7499536246
 40
0.8124822708
 40
0.875035436
 40
1.0
 40
1.0
 40
1.0
 40
1.0
 10
5.305575951
 20
2.7152787704
 30
0.0
 10
5.2913997398
 20
2.7082719183
 30
0.0
 10
5.2634560439
 20
2.6934150252
 30
0.0
 10
5.2229487894
 20
2.6686755602
 30
0.0
 10
5.1839901578
 20
2.6415618732
 30
0.0
 10
5.1467200366
 20
2.6121693811
 30
0.0
 10
5.1112815487
 20
2.5805885667
 30
0.0
 10
5.0778026925
 20
2.5469349627
 30
0.0
 10
5.0464054869
 20
2.5113271587
 30
0.0
 10
5.0075053939
 20
2.4614247613
 30
0.0
 10
4.9646348536
 20
2.3947800602
 30
0.0
 10
4.9301431844
 20
2.3234332135
 30
0.0
 10
4.9078915407
 20
2.2641836665
 30
0.0
 10
4.889287974
 20
2.2036938765
 30
0.0
 10
4.8794789439
 20
2.1571225333
 30
0.0
 10
4.8748630473
 20
2.1258469439
 30
0.0
 11
5.305575951
 21
2.7152787704
 31
0.0
 11
5.2636898173
 21
2.693005462
 31
0.0
 11
5.223206372
 21
2.668279523
 31
0.0
 11
5.1842718091
 21
2.6411822542
 31
0.0
 11
5.1470264162
 21
2.6118055948
 31
0.0
 11
5.1116091517
 21
2.5802440405
 31
0.0
 11
5.0781499493
 21
2.5466095916
 31
0.0
 11
5.0467745649
 21
2.5110223509
 31
0.0
 11
5.017606044
 21
2.4736050153
 31
0.0
 11
4.9663099557
 21
2.3938389829
 31
0.0
 11
4.9250344159
 21
2.308462073
 31
0.0
 11
4.9083499478
 21
2.2640349148
 31
0.0
 11
4.8943923714
 21
2.2186576461
 31
0.0
 11
4.8748630473
 21
2.1258469439
 31
0.0
  0
SPLINE
  5
2DA
100
AcDbEntity
  8
0
100
AcDbSpline
 62
7
  6
CONTINUOUS
 70
0
 71
3
 72
15
 73
11
 74
9
 42
0.0000001
 43
0.0000001
 44
0.0000000001
 12
-0.0201146125
 22
-0.2398912197
 32
0.0
 13
-0.1771839048
 23
-0.1629670482
 33
0.0
 40
0.0
 40
0.0
 40
0.0
 40
0.0
 40
0.1210779327
 40
0.2427275666
 40
0.3652484103
 40
0.4889450276
 40
0.6140631177
 40
0.7408237438
 40
0.8694257544
 40
1.0
 40
1.0
 40
1.0
 40
1.0
 10
6.1126396815
 20
3.4846811238
 30
0.0
 10
6.1118278696
 20
3.4749992794
 30
0.0
 10
6.1092094507
 20
3.4556588995
 30
0.0
 10
6.102366626
 20
3.4271116182
 30
0.0
 10
6.0926479075
 20
3.3991871443
 30
0.0
 10
6.0801706122
 20
3.3720785425
 30
0.0
 10
6.0650392635
 20
3.3459649039
 30
0.0
 10
6.0473722831
 20
3.3210142664
 30
0.0
 10
6.0273234159
 20
3.2973632856
 30
0.0
 10
6.0125725857
 20
3.2826629898
 30
0.0
 10
6.0048607008
 20
3.27556989
 30
0.0
 11
6.1126396815
 21
3.4846811238
 31
0.0
 11
6.1087356338
 21
3.4557963052
 31
0.0
 11
6.1019172141
 21
3.4273160418
 31
0.0
 11
6.0922410972
 21
3.3994535785
 31
0.0
 11
6.0798071389
 21
3.3723959038
 31
0.0
 11
6.064723529
 21
3.3463247973
 31
0.0
 11
6.0471107469
 21
3.3214052499
 31
0.0
 11
6.0271089999
 21
3.2977753012
 31
0.0
 11
6.0048607008
 21
3.27556989
 31
0.0
  0
SPLINE
  5
2DB
100
AcDbEntity
  8
0
100
AcDbSpline
 62
7
  6
CONTINUOUS
 70
0
 71
3
 72
15
 73
11
 74
9
 42
0.0000001
 43
0.0000001
 44
0.0000000001
 12
-0.1770545289
 22
0.1629437321
 32
0.0
 13
-0.0201025227
 23
0.239780847
 33
0.0
 40
0.0
 40
0.0
 40
0.0
 40
0.0
 40
0.1305684421
 40
0.2591665094
 40
0.3859245842
 40
0.5110406398
 40
0.6347372898
 40
0.7572609481
 40
0.8789161654
 40
1.0
 40
1.0
 40
1.0
 40
1.0
 10
5.3223278106
 20
3.2756478223
 30
0.0
 10
5.3146218992
 20
3.282739592
 30
0.0
 10
5.299882303
 20
3.2974364246
 30
0.0
 10
5.2798495313
 20
3.3210810074
 30
0.0
 10
5.262196831
 20
3.346023581
 30
0.0
 10
5.2470772087
 20
3.372127472
 30
0.0
 10
5.2346099477
 20
3.3992255954
 30
0.0
 10
5.2248988749
 20
3.427138965
 30
0.0
 10
5.2180611423
 20
3.4556746892
 30
0.0
 10
5.2154444831
 20
3.4750071236
 30
0.0
 10
5.2146331196
 20
3.4846849851
 30
0.0
 11
5.3223278106
 21
3.2756478223
 31
0.0
 11
5.3000968133
 21
3.2978480738
 31
0.0
 11
5.2801109702
 21
3.3214715384
 31
0.0
 11
5.2625122735
 21
3.3463830589
 31
0.0
 11
5.2474405698
 21
3.372444443
 31
0.0
 11
5.2350165237
 21
3.3994915709
 31
0.0
 11
5.2253479712
 21
3.4273429817
 31
0.0
 11
5.2185345736
 21
3.4558119444
 31
0.0
 11
5.2146331196
 21
3.4846849851
 31
0.0
  0
SPLINE
  5
2DC
100
AcDbEntity
  8
0
100
AcDbSpline
 62
7
  6
CONTINUOUS
 70
0
 71
3
 72
41
 73
37
 74
35
 42
0.0000001
 43
0.0000001
 44
0.0000000001
 12
0.0
 22
1.253347126
 32
0.0
 13
0.0
 23
-1.253347126
 33
0.0
 40
0.0
 40
0.0
 40
0.0
 40
0.0
 40
0.0269919586
 40
0.0542023135
 40
0.0679352134
 40
0.0817715635
 40
0.109817666
 40
0.1384890886
 40
0.1678850254
 40
0.1980606812
 40
0.229042813
 40
0.2608244051
 40
0.2933734594
 40
0.3266283522
 40
0.3605057597
 40
0.3949043866
 40
0.429705917
 40
0.464783443
 40
0.5000001149
 40
0.5352167852
 40
0.5702943105
 40
0.6050958388
 40
0.6394944615
 40
0.6733718668
 40
0.7066267528
 40
0.7391758047
 40
0.7709573898
 40
0.8019395152
 40
0.8321151652
 40
0.8615111013
 40
0.8901825323
 40
0.9182286156
 40
0.9320649387
 40
0.9457977973
 40
0.973008074
 40
1.0
 40
1.0
 40
1.0
 40
1.0
 10
6.1136365439
 20
3.5405928183
 30
0.0
 10
6.1136365439
 20
3.5518695828
 30
0.0
 10
6.1121685335
 20
3.5745386184
 30
0.0
 10
6.1067452253
 20
3.602476562
 30
0.0
 10
6.1003023384
 20
3.6244504251
 30
0.0
 10
6.092397381
 20
3.6463131201
 30
0.0
 10
6.0798621916
 20
3.6730748905
 30
0.0
 10
6.0608790864
 20
3.7037246889
 30
0.0
 10
6.038073271
 20
3.7327822085
 30
0.0
 10
6.0116799986
 20
3.7599787048
 30
0.0
 10
5.9819422699
 20
3.7850400022
 30
0.0
 10
5.9491646703
 20
3.8077504139
 30
0.0
 10
5.9136477977
 20
3.8278753419
 30
0.0
 10
5.8757435958
 20
3.8452443813
 30
0.0
 10
5.8358081193
 20
3.8596807123
 30
0.0
 10
5.7942267445
 20
3.8710526967
 30
0.0
 10
5.7513969923
 20
3.8792574539
 30
0.0
 10
5.707727224
 20
3.8842044371
 30
0.0
 10
5.6636363978
 20
3.8858665241
 30
0.0
 10
5.6195455717
 20
3.8842044214
 30
0.0
 10
5.5758758101
 20
3.8792574016
 30
0.0
 10
5.53304606
 20
3.8710526462
 30
0.0
 10
5.4914647018
 20
3.8596806153
 30
0.0
 10
5.4515292292
 20
3.8452442898
 30
0.0
 10
5.4136250514
 20
3.8278752083
 30
0.0
 10
5.37810819
 20
3.8077502754
 30
0.0
 10
5.3453306126
 20
3.7850398416
 30
0.0
 10
5.3155929117
 20
3.7599785257
 30
0.0
 10
5.2891996448
 20
3.7327820301
 30
0.0
 10
5.2663938708
 20
3.7037244775
 30
0.0
 10
5.2474107695
 20
3.6730746825
 30
0.0
 10
5.2348756217
 20
3.6463129093
 30
0.0
 10
5.2269706856
 20
3.6244502463
 30
0.0
 10
5.2205278007
 20
3.6024764464
 30
0.0
 10
5.2151045283
 20
3.5745385586
 30
0.0
 10
5.2136365439
 20
3.5518695692
 30
0.0
 10
5.2136365439
 20
3.5405928183
 30
0.0
 11
6.1136365439
 21
3.5405928183
 31
0.0
 11
6.1114654487
 21
3.574353374
 31
0.0
 11
6.1049860375
 21
3.6078362266
 31
0.0
 11
6.1001467615
 21
3.6243540191
 31
0.0
 11
6.0942546848
 21
3.6406641298
 31
0.0
 11
6.0793800739
 21
3.672513369
 31
0.0
 11
6.0605008355
 21
3.7030897684
 31
0.0
 11
6.0377957798
 21
3.7321054564
 31
0.0
 11
6.0114906699
 21
3.7592796504
 31
0.0
 11
5.9818321538
 21
3.7843445143
 31
0.0
 11
5.9491136117
 21
3.8070644206
 31
0.0
 11
5.913642305
 21
3.8272148533
 31
0.0
 11
5.8757648482
 21
3.8446077932
 31
0.0
 11
5.8358439328
 21
3.859071021
 31
0.0
 11
5.7942639556
 21
3.8704671822
 31
0.0
 11
5.7514272298
 21
3.8786878619
 31
0.0
 11
5.7077438073
 21
3.8836496877
 31
0.0
 11
5.663636397
 21
3.8853117618
 31
0.0
 11
5.6195289897
 21
3.8836496684
 31
0.0
 11
5.5758455711
 21
3.8786878158
 31
0.0
 11
5.5330088505
 21
3.8704671232
 31
0.0
 11
5.4914288868
 21
3.8590709326
 31
0.0
 11
5.4515079785
 21
3.8446076929
 31
0.0
 11
5.4136305434
 21
3.8272147263
 31
0.0
 11
5.3781592489
 21
3.8070642781
 31
0.0
 11
5.34544073
 21
3.7843443541
 31
0.0
 11
5.3157822373
 21
3.7592794748
 31
0.0
 11
5.2894771443
 21
3.7321052745
 31
0.0
 11
5.2667721175
 21
3.7030895652
 31
0.0
 11
5.2478928886
 21
3.6725131475
 31
0.0
 11
5.2330183171
 21
3.6406639164
 31
0.0
 11
5.2271262572
 21
3.6243538356
 31
0.0
 11
5.2222869902
 21
3.6078360943
 31
0.0
 11
5.2158076152
 21
3.5743533345
 31
0.0
 11
5.2136365439
 21
3.5405928183
 31
0.0
  0
SPLINE
  5
2DD
100
AcDbEntity
  8
0
100
AcDbSpline
 62
7
  6
CONTINUOUS
 70
0
 71
3
 72
9
 73
5
 74
3
 42
0.0000001
 43
0.0000001
 44
0.0000000001
 12
0.0954786968
 22
-0.1035466509
 32
0.0
 13
0.0752156125
 23
-0.1190827531
 33
0.0
 40
0.0
 40
0.0
 40
0.0
 40
0.0
 40
0.4967592161
 40
1.0
 40
1.0
 40
1.0
 40
1.0
 10
5.9822181721
 20
5.9429717257
 30
0.0
 10
5.9980281463
 20
5.925825808
 30
0.0
 10
6.0282310223
 20
5.8897815259
 30
0.0
 10
6.0550380316
 20
5.8511540019
 30
0.0
 10
6.0676552196
 20
5.8311782359
 30
0.0
 11
5.9822181721
 21
5.9429717257
 31
0.0
 11
6.0271972632
 21
5.8893776835
 31
0.0
 11
6.0676552196
 21
5.8311782359
 31
0.0
  0
SPLINE
  5
2DE
100
AcDbEntity
  8
0
100
AcDbSpline
 62
7
  6
CONTINUOUS
 70
0
 71
3
 72
15
 73
11
 74
9
 42
0.0000001
 43
0.0000001
 44
0.0000000001
 12
0.215947286
 22
-0.3970160459
 32
0.0
 13
0.0
 23
-0.4519457611
 33
0.0
 40
0.0
 40
0.0
 40
0.0
 40
0.0
 40
0.123132589
 40
0.2470836561
 40
0.371649902
 40
0.4966990011
 40
0.6221956018
 40
0.7480862508
 40
0.8741347333
 40
1.0
 40
1.0
 40
1.0
 40
1.0
 10
6.0950921826
 20
5.7844120435
 30
0.0
 10
6.1039555654
 20
5.768116839
 30
0.0
 10
6.1206711484
 20
5.7348238926
 30
0.0
 10
6.1425570237
 20
5.6832514736
 30
0.0
 10
6.1612424526
 20
5.6301268909
 30
0.0
 10
6.1766305431
 20
5.5757145229
 30
0.0
 10
6.1886662424
 20
5.5202600054
 30
0.0
 10
6.1972863021
 20
5.4640205463
 30
0.0
 10
6.2024739672
 20
5.4073084968
 30
0.0
 10
6.2036365439
 20
5.3693481318
 30
0.0
 10
6.2036365439
 20
5.3503867072
 30
0.0
 11
6.0950921826
 21
5.7844120435
 31
0.0
 11
6.1200780531
 21
5.7346873466
 31
0.0
 11
6.1419724722
 21
5.6831239814
 31
0.0
 11
6.1606590628
 21
5.6300185714
 31
0.0
 11
6.1760473534
 21
5.5756385004
 31
0.0
 11
6.1880813833
 21
5.5202122007
 31
0.0
 11
6.1967097885
 21
5.4639745225
 31
0.0
 11
6.2019015293
 21
5.4072445152
 31
0.0
 11
6.2036365439
 21
5.3503867072
 31
0.0
  0
SPLINE
  5
2DF
100
AcDbEntity
  8
0
100
AcDbSpline
 62
7
  6
CONTINUOUS
 70
0
 71
3
 72
14
 73
10
 74
8
 42
0.0000001
 43
0.0000001
 44
0.0000000001
 12
-0.0
 22
0.4505623359
 32
0.0
 13
0.2146916538
 23
0.3961236073
 33
0.0
 40
0.0
 40
0.0
 40
0.0
 40
0.0
 40
0.1257208171
 40
0.2517666227
 40
0.3777867068
 40
0.503455793
 40
0.6286060377
 40
0.7531532625
 40
1.0
 40
1.0
 40
1.0
 40
1.0
 10
5.1236365439
 20
5.3503867072
 30
0.0
 10
5.1236365439
 20
5.3692683956
 30
0.0
 10
5.1247933705
 20
5.4070904161
 30
0.0
 10
5.129952225
 20
5.4636269487
 30
0.0
 10
5.1385192265
 20
5.5197437648
 30
0.0
 10
5.1504925169
 20
5.5750951455
 30
0.0
 10
5.1658102594
 20
5.6293909233
 30
0.0
 10
5.1904844408
 20
5.6997977034
 30
0.0
 10
5.213870451
 20
5.750658553
 30
0.0
 10
5.2315357624
 20
5.7832524931
 30
0.0
 11
5.1236365439
 21
5.3503867072
 31
0.0
 11
5.125360697
 21
5.4070055264
 31
0.0
 11
5.1305213818
 21
5.4635620554
 31
0.0
 11
5.1391009363
 21
5.5196900223
 31
0.0
 11
5.151077855
 21
5.5750305752
 31
0.0
 11
5.1663921513
 21
5.6292991421
 31
0.0
 11
5.1849616714
 21
5.6822539414
 31
0.0
 11
5.2315357624
 21
5.7832524931
 31
0.0
  0
SPLINE
  5
2E0
100
AcDbEntity
  8
0
100
AcDbSpline
 62
7
  6
CONTINUOUS
 70
0
 71
3
 72
10
 73
6
 74
4
 42
0.0000001
 43
0.0000001
 44
0.0000000001
 12
0.0750874764
 22
0.1185918191
 32
0.0
 13
0.0951479799
 23
0.1031940434
 33
0.0
 40
0.0
 40
0.0
 40
0.0
 40
0.0
 40
0.2524715342
 40
0.6286682522
 40
1.0
 40
1.0
 40
1.0
 40
1.0
 10
5.2599841376
 20
5.8317671095
 30
0.0
 10
5.2663032877
 20
5.8417474623
 30
0.0
 10
5.2825805594
 20
5.8662597708
 30
0.0
 10
5.3106091429
 20
5.9037664635
 30
0.0
 10
5.333412961
 20
5.9303285578
 30
0.0
 10
5.3451901162
 20
5.9431016326
 30
0.0
 11
5.2599841376
 21
5.8317671095
 31
0.0
 11
5.2795937733
 21
5.8612851395
 31
0.0
 11
5.3112144596
 21
5.9035753098
 31
0.0
 11
5.3451901162
 21
5.9431016326
 31
0.0
  0
SPLINE
  5
2E1
100
AcDbEntity
  8
0
100
AcDbSpline
 62
7
  6
CONTINUOUS
 70
0
 71
3
 72
9
 73
5
 74
3
 42
0.0000001
 43
0.0000001
 44
0.0000000001
 12
-0.028289134
 22
0.0525833208
 32
0.0
 13
-0.0387753932
 23
0.0454064931
 33
0.0
 40
0.0
 40
0.0
 40
0.0
 40
0.0
 40
0.4939041994
 40
1.0
 40
1.0
 40
1.0
 40
1.0
 10
6.0270257717
 20
6.3111509169
 30
0.0
 10
6.0223683976
 20
6.3198079579
 30
0.0
 10
6.0119356797
 20
6.3368111351
 30
0.0
 10
5.9997581634
 20
6.3526043167
 30
0.0
 10
5.9932168088
 20
6.3602643285
 30
0.0
 11
6.0270257717
 21
6.3111509169
 31
0.0
 11
6.0116372427
 21
6.3363086712
 31
0.0
 11
5.9932168088
 21
6.3602643285
 31
0.0
  0
SPLINE
  5
2E2
100
AcDbEntity
  8
0
100
AcDbSpline
 62
7
  6
CONTINUOUS
 70
0
 71
3
 72
19
 73
15
 74
13
 42
0.0000001
 43
0.0000001
 44
0.0000000001
 12
-0.2454955956
 22
0.2874785564
 32
0.0
 13
-0.3779730471
 23
-0.0069558266
 33
0.0
 40
0.0
 40
0.0
 40
0.0
 40
0.0
 40
0.0560048359
 40
0.1130282905
 40
0.1710809259
 40
0.2301565338
 40
0.2902372361
 40
0.3512907212
 40
0.4132659059
 40
0.4761007806
 40
0.604028513
 40
0.7345297398
 40
0.8668875754
 40
1.0
 40
1.0
 40
1.0
 40
1.0
 10
5.9932168088
 20
6.3602643285
 30
0.0
 10
5.9886338287
 20
6.3656310583
 30
0.0
 10
5.9790016467
 20
6.3761410452
 30
0.0
 10
5.9633896064
 20
6.3910293249
 30
0.0
 10
5.9465543936
 20
6.405129732
 30
0.0
 10
5.9285669743
 20
6.4183857983
 30
0.0
 10
5.9094971019
 20
6.430740184
 30
0.0
 10
5.8894224692
 20
6.4421418051
 30
0.0
 10
5.8684284343
 20
6.452552251
 30
0.0
 10
5.8391547103
 20
6.4651297053
 30
0.0
 10
5.8007185744
 20
6.4780930975
 30
0.0
 10
5.7526245669
 20
6.4890419402
 30
0.0
 10
5.7030428837
 20
6.4952803584
 30
0.0
 10
5.6695450396
 20
6.4962712883
 30
0.0
 10
5.65277407
 20
6.4959626527
 30
0.0
 11
5.9932168088
 21
6.3602643285
 31
0.0
 11
5.978920951
 21
6.3758809194
 31
0.0
 11
5.9633305279
 21
6.390768566
 31
0.0
 11
5.9465141908
 21
6.4048696218
 31
0.0
 11
5.9285425743
 21
6.4181275833
 31
0.0
 11
5.9094864621
 21
6.4304860923
 31
0.0
 11
5.8894228639
 21
6.4418948846
 31
0.0
 11
5.8684371429
 21
6.4523118712
 31
0.0
 11
5.8466152483
 21
6.4616955364
 31
0.0
 11
5.8008093028
 21
6.4772081924
 31
0.0
 11
5.7527140462
 21
6.4881954245
 31
0.0
 11
5.703073507
 21
6.4944751298
 31
0.0
 11
5.65277407
 21
6.4959626527
 31
0.0
  0
SPLINE
  5
2E3
100
AcDbEntity
  8
0
100
AcDbSpline
 62
9
  6
CONTINUOUS
 70
0
 71
3
 72
21
 73
17
 74
15
 42
0.0000001
 43
0.0000001
 44
0.0000000001
 12
0.0
 22
-0.0758921123
 32
0.0
 13
0.0
 23
0.0758921123
 33
0.0
 40
0.0
 40
0.0
 40
0.0
 40
0.0
 40
0.0485447536
 40
0.0998212344
 40
0.1553587611
 40
0.2159835612
 40
0.2817197157
 40
0.3519089565
 40
0.5000024644
 40
0.6480957103
 40
0.7182846422
 40
0.7840207954
 40
0.8446450478
 40
0.9001814338
 40
0.9514560316
 40
1.0
 40
1.0
 40
1.0
 40
1.0
 10
5.6927704022
 20
2.6002676671
 30
0.0
 10
5.6927704022
 20
2.5990396125
 30
0.0
 10
5.6923609378
 20
2.5965015924
 30
0.0
 10
5.6906367782
 20
2.592918645
 30
0.0
 10
5.6878696812
 20
2.5896599718
 30
0.0
 10
5.6842019946
 20
2.586835432
 30
0.0
 10
5.679769599
 20
2.5845324653
 30
0.0
 10
5.6729430474
 20
2.582221175
 30
0.0
 10
5.6636363549
 20
2.5810828201
 30
0.0
 10
5.6543296569
 20
2.5822212102
 30
0.0
 10
5.6475031683
 20
2.5845326272
 30
0.0
 10
5.6430707953
 20
2.5868356024
 30
0.0
 10
5.6394032371
 20
2.5896602296
 30
0.0
 10
5.6366361501
 20
2.5929187829
 30
0.0
 10
5.6349120613
 20
2.596501673
 30
0.0
 10
5.6345026856
 20
2.5990396324
 30
0.0
 10
5.6345026856
 20
2.6002676671
 30
0.0
 11
5.6927704022
 21
2.6002676671
 31
0.0
 11
5.6922069821
 21
2.5966268401
 31
0.0
 11
5.6905504518
 21
2.5931055438
 31
0.0
 11
5.6878571723
 21
2.5898634315
 31
0.0
 11
5.6842356108
 21
2.5870256544
 31
0.0
 11
5.6798228232
 21
2.5846984271
 31
0.0
 11
5.674784679
 21
2.5829686858
 31
0.0
 11
5.6636363456
 21
2.5815429635
 31
0.0
 11
5.6524880422
 21
2.582968765
 31
0.0
 11
5.6474499462
 21
2.5846985744
 31
0.0
 11
5.6430371845
 21
2.5870258503
 31
0.0
 11
5.6394157106
 21
2.589863672
 31
0.0
 11
5.6367224747
 21
2.5931057079
 31
0.0
 11
5.6350660368
 21
2.5966268897
 31
0.0
 11
5.6345026856
 21
2.6002676671
 31
0.0
  0
SPLINE
  5
2E4
100
AcDbEntity
  8
0
100
AcDbSpline
 62
9
  6
CONTINUOUS
 70
0
 71
3
 72
21
 73
17
 74
15
 42
0.0000001
 43
0.0000001
 44
0.0000000001
 12
0.0
 22
0.0758921123
 32
0.0
 13
0.0
 23
-0.0758921123
 33
0.0
 40
0.0
 40
0.0
 40
0.0
 40
0.0
 40
0.0485447536
 40
0.0998212344
 40
0.1553587611
 40
0.2159835612
 40
0.2817197157
 40
0.3519089565
 40
0.5000024644
 40
0.6480957103
 40
0.7182846422
 40
0.7840207954
 40
0.8446450478
 40
0.9001814338
 40
0.9514560316
 40
1.0
 40
1.0
 40
1.0
 40
1.0
 10
5.6345026856
 20
2.6002676671
 30
0.0
 10
5.6345026856
 20
2.6014957218
 30
0.0
 10
5.63491215
 20
2.6040337419
 30
0.0
 10
5.6366363096
 20
2.6076166893
 30
0.0
 10
5.6394034066
 20
2.6108753625
 30
0.0
 10
5.6430710932
 20
2.6136999022
 30
0.0
 10
5.6475034888
 20
2.6160028689
 30
0.0
 10
5.6543300404
 20
2.6183141593
 30
0.0
 10
5.6636367329
 20
2.6194525142
 30
0.0
 10
5.6729434309
 20
2.6183141241
 30
0.0
 10
5.6797699195
 20
2.616002707
 30
0.0
 10
5.6842022925
 20
2.6136997319
 30
0.0
 10
5.6878698508
 20
2.6108751047
 30
0.0
 10
5.6906369378
 20
2.6076165514
 30
0.0
 10
5.6923610265
 20
2.6040336612
 30
0.0
 10
5.6927704022
 20
2.6014957019
 30
0.0
 10
5.6927704022
 20
2.6002676671
 30
0.0
 11
5.6345026856
 21
2.6002676671
 31
0.0
 11
5.6350661058
 21
2.6039084941
 31
0.0
 11
5.636722636
 21
2.6074297904
 31
0.0
 11
5.6394159155
 21
2.6106719027
 31
0.0
 11
5.6430374771
 21
2.6135096799
 31
0.0
 11
5.6474502646
 21
2.6158369071
 31
0.0
 11
5.6524884088
 21
2.6175666484
 31
0.0
 11
5.6636367423
 21
2.6189923708
 31
0.0
 11
5.6747850456
 21
2.6175665693
 31
0.0
 11
5.6798231416
 21
2.6158367599
 31
0.0
 11
5.6842359034
 21
2.6135094839
 31
0.0
 11
5.6878573772
 21
2.6106716623
 31
0.0
 11
5.6905506131
 21
2.6074296263
 31
0.0
 11
5.692207051
 21
2.6039084445
 31
0.0
 11
5.6927704022
 21
2.6002676671
 31
0.0
  0
SPLINE
  5
2E5
100
AcDbEntity
  8
0
100
AcDbSpline
 62
9
  6
CONTINUOUS
 70
0
 71
3
 72
27
 73
23
 74
21
 42
0.0000001
 43
0.0000001
 44
0.0000000001
 12
0.7518127687
 22
-0.0
 32
0.0
 13
0.0005180451
 23
-0.7518125902
 33
0.0
 40
0.0
 40
0.0
 40
0.0
 40
0.0
 40
0.0703861627
 40
0.1405636077
 40
0.2101814764
 40
0.2789792871
 40
0.3467276973
 40
0.4132230318
 40
0.4782966455
 40
0.5418396651
 40
0.6037913606
 40
0.6641408893
 40
0.6937383406
 40
0.722959262
 40
0.7518188817
 40
0.7803366799
 40
0.836431815
 40
0.8640975901
 40
0.8915484762
 40
0.9459401034
 40
0.9729926194
 40
1.0
 40
1.0
 40
1.0
 40
1.0
 10
5.6636365439
 20
4.3595090315
 30
0.0
 10
5.6812756159
 20
4.3595090315
 30
0.0
 10
5.7165155744
 20
4.3581819926
 30
0.0
 10
5.7689013557
 20
4.3522517211
 30
0.0
 10
5.8202939095
 20
4.3424088906
 30
0.0
 10
5.8701827157
 20
4.3287726142
 30
0.0
 10
5.9180874465
 20
4.3114543123
 30
0.0
 10
5.9635574417
 20
4.2906369193
 30
0.0
 10
6.0061541888
 20
4.2665021657
 30
0.0
 10
6.0454788327
 20
4.2392835076
 30
0.0
 10
6.0811519045
 20
4.2092315673
 30
0.0
 10
6.1077305851
 20
4.1818776591
 30
0.0
 10
6.1267821292
 20
4.1588641224
 30
0.0
 10
6.1398689839
 20
4.141200342
 30
0.0
 10
6.1518110269
 20
4.1230649913
 30
0.0
 10
6.1660807895
 20
4.0984548808
 30
0.0
 10
6.1780670951
 20
4.0729113529
 30
0.0
 10
6.1875669113
 20
4.0466944507
 30
0.0
 10
6.1953139278
 20
4.020353073
 30
0.0
 10
6.2005543144
 20
3.9934831239
 30
0.0
 10
6.203186109
 20
3.9664189882
 30
0.0
 10
6.2036304578
 20
3.9528669177
 30
0.0
 10
6.2036351215
 20
3.9460987548
 30
0.0
 11
5.6636365439
 21
4.3595090315
 31
0.0
 11
5.7165163019
 21
4.3575183204
 31
0.0
 11
5.7689399396
 21
4.3515675739
 31
0.0
 11
5.8203421975
 21
4.3417064443
 31
0.0
 11
5.870226932
 21
4.3280393488
 31
0.0
 11
5.9181161682
 21
4.3106927173
 31
0.0
 11
5.9635521222
 21
4.2898413791
 31
0.0
 11
6.0060944136
 21
4.2656829363
 31
0.0
 11
6.0453437984
 21
4.2384488931
 31
0.0
 11
6.0809267374
 21
4.208395852
 31
0.0
 11
6.1124998544
 21
4.175811876
 31
0.0
 11
6.1266842909
 21
4.1586671458
 31
0.0
 11
6.1397559208
 21
4.141010572
 31
0.0
 11
6.1516818512
 21
4.1228850839
 31
0.0
 11
6.1624301735
 21
4.1043338281
 31
0.0
 11
6.1803006108
 21
4.0661341858
 31
0.0
 11
6.1873814465
 21
4.0465770834
 31
0.0
 11
6.1931997681
 21
4.0267762966
 31
0.0
 11
6.2010033859
 21
3.9866354774
 31
0.0
 11
6.2029699611
 21
3.9663923504
 31
0.0
 11
6.2036351215
 21
3.9460987548
 31
0.0
  0
SPLINE
  5
2E6
100
AcDbEntity
  8
0
100
AcDbSpline
 62
7
  6
CONTINUOUS
 70
0
 71
3
 72
21
 73
17
 74
15
 42
0.0000001
 43
0.0000001
 44
0.0000000001
 12
0.1117971541
 22
0.4225390152
 32
0.0
 13
0.4213990226
 23
0.1160201997
 33
0.0
 40
0.0
 40
0.0
 40
0.0
 40
0.0
 40
0.0557943518
 40
0.1121761629
 40
0.169273061
 40
0.2271987342
 40
0.345810805
 40
0.4066788787
 40
0.4686075775
 40
0.5316076821
 40
0.5956695632
 40
0.660770744
 40
0.7268758419
 40
0.7939287577
 40
0.8618610114
 40
1.0
 40
1.0
 40
1.0
 40
1.0
 10
5.1858731535
 20
6.5703781269
 30
0.0
 10
5.1879523701
 20
6.5782365571
 30
0.0
 10
5.1927841423
 20
6.5938715066
 30
0.0
 10
5.201936041
 20
6.6167982602
 30
0.0
 10
5.2129824304
 20
6.6392237495
 30
0.0
 10
5.23030815
 20
6.6685532636
 30
0.0
 10
5.2511911376
 20
6.6963019382
 30
0.0
 10
5.2751073294
 20
6.7221151769
 30
0.0
 10
5.2948024753
 20
6.7407162068
 30
0.0
 10
5.316008931
 20
6.7583065613
 30
0.0
 10
5.3386369433
 20
6.7748223655
 30
0.0
 10
5.3625962433
 20
6.7901931249
 30
0.0
 10
5.3877916671
 20
6.8043506173
 30
0.0
 10
5.4141166878
 20
6.8172455974
 30
0.0
 10
5.4507711227
 20
6.8327692829
 30
0.0
 10
5.4793449011
 20
6.8422219025
 30
0.0
 10
5.4987487793
 20
6.8475642069
 30
0.0
 11
5.1858731535
 21
6.5703781269
 31
0.0
 11
5.1930639011
 21
6.593680396
 31
0.0
 11
5.2021881702
 21
6.6165723049
 31
0.0
 11
5.2132042541
 21
6.6389651577
 31
0.0
 11
5.2260702131
 21
6.6607704846
 31
0.0
 11
5.2571410474
 21
6.7022708537
 31
0.0
 11
5.275211473
 21
6.7217962225
 31
0.0
 11
5.2948793993
 21
6.7403928352
 31
0.0
 11
5.3160630033
 21
6.7579850653
 31
0.0
 11
5.3386716898
 21
6.7745033012
 31
0.0
 11
5.3626146661
 21
6.7898780682
 31
0.0
 11
5.3877968466
 21
6.8040439041
 31
0.0
 11
5.4141112503
 21
6.816946465
 31
0.0
 11
5.4414488526
 21
6.8285333171
 31
0.0
 11
5.4987487793
 21
6.8475642069
 31
0.0
  0
SPLINE
  5
2E7
100
AcDbEntity
  8
0
100
AcDbSpline
 62
7
  6
CONTINUOUS
 70
0
 71
3
 72
29
 73
25
 74
23
 42
0.0000001
 43
0.0000001
 44
0.0000000001
 12
0.7430359423
 22
0.2045737502
 32
0.0
 13
0.1971731755
 23
-0.7450339386
 33
0.0
 40
0.0
 40
0.0
 40
0.0
 40
0.0
 40
0.0666271498
 40
0.1339493897
 40
0.2016605775
 40
0.2694412252
 40
0.3369720042
 40
0.4039378337
 40
0.4700471322
 40
0.5350312269
 40
0.5670378893
 40
0.598682884
 40
0.6299446336
 40
0.6608056426
 40
0.7212637394
 40
0.7508684074
 40
0.7800485905
 40
0.8088109633
 40
0.8371664305
 40
0.8651296854
 40
0.8927204806
 40
0.9468800592
 40
0.9735522194
 40
1.0
 40
1.0
 40
1.0
 40
1.0
 10
5.4987487793
 20
6.8475642069
 30
0.0
 10
5.5152509017
 20
6.8521075955
 30
0.0
 10
5.5488386697
 20
6.8598123921
 30
0.0
 10
5.6001839779
 20
6.8671153827
 30
0.0
 10
5.6522545476
 20
6.8701903908
 30
0.0
 10
5.7044542209
 20
6.8689778575
 30
0.0
 10
5.7561893391
 20
6.8635130808
 30
0.0
 10
5.8068699167
 20
6.8538380268
 30
0.0
 10
5.8559176242
 20
6.8400776043
 30
0.0
 10
5.8951709438
 20
6.8252486088
 30
0.0
 10
5.925218667
 20
6.8114712496
 30
0.0
 10
5.9468948539
 20
6.8002862301
 30
0.0
 10
5.9677593473
 20
6.7882274598
 30
0.0
 10
5.9942248089
 20
6.7711457469
 30
0.0
 10
6.0190472558
 20
6.752358266
 30
0.0
 10
6.0419253783
 20
6.7319697664
 30
0.0
 10
6.0578787143
 20
6.7160997918
 30
0.0
 10
6.0726994006
 20
6.6995963867
 30
0.0
 10
6.0863479274
 20
6.6825091266
 30
0.0
 10
6.0987849067
 20
6.6648855351
 30
0.0
 10
6.113600934
 20
6.6408941825
 30
0.0
 10
6.1259913109
 20
6.6158453901
 30
0.0
 10
6.1357113867
 20
6.5900408507
 30
0.0
 10
6.1396570427
 20
6.5769638167
 30
0.0
 10
6.141395307
 20
6.570395652
 30
0.0
 11
5.4987487793
 21
6.8475642069
 31
0.0
 11
5.548792393
 21
6.8590663167
 31
0.0
 11
5.6001563678
 21
6.8663946857
 31
0.0
 11
5.6522493087
 21
6.8694741965
 31
0.0
 11
5.7044726557
 21
6.8682618649
 31
0.0
 11
5.7562278425
 21
6.8627785479
 31
0.0
 11
5.806917955
 21
6.8530807217
 31
0.0
 11
5.855963855
 21
6.839284544
 31
0.0
 11
5.9027992584
 21
6.8215456678
 31
0.0
 11
5.9252193116
 21
6.8112596483
 31
0.0
 11
5.9468889971
 21
6.8000698103
 31
0.0
 11
5.9677445245
 21
6.7880068384
 31
0.0
 11
5.9877238867
 21
6.7751030839
 31
0.0
 11
6.0248363206
 21
6.746930888
 31
0.0
 11
6.0418631563
 21
6.7317437642
 31
0.0
 11
6.0578007394
 21
6.7158776294
 31
0.0
 11
6.0726053189
 21
6.6993795625
 31
0.0
 11
6.0862366877
 21
6.6822990714
 31
0.0
 11
6.0986546523
 21
6.6646856734
 31
0.0
 11
6.1098196596
 21
6.6465889782
 31
0.0
 11
6.1282734608
 21
6.6091500243
 31
0.0
 11
6.1355130602
 21
6.5899112951
 31
0.0
 11
6.141395307
 21
6.570395652
 31
0.0
  0
SPLINE
  5
2E8
100
AcDbEntity
  8
0
100
AcDbSpline
 62
9
  6
CONTINUOUS
 70
0
 71
3
 72
51
 73
47
 74
45
 42
0.0000001
 43
0.0000001
 44
0.0000000001
 12
0.0
 22
-2.1934125059
 32
0.0
 13
0.0000875585
 23
2.1934125041
 33
0.0
 40
0.0
 40
0.0
 40
0.0
 40
0.0
 40
0.0120780607
 40
0.0242070978
 40
0.0364225366
 40
0.048758699
 40
0.0739148016
 40
0.0999492374
 40
0.1133685705
 40
0.1270767721
 40
0.1410880779
 40
0.1554137736
 40
0.1700620051
 40
0.185037776
 40
0.2159690504
 40
0.2481894965
 40
0.2816271894
 40
0.3161708651
 40
0.3516809835
 40
0.3879897199
 40
0.4249145511
 40
0.4622612591
 40
0.4998249068
 40
0.5373914166
 40
0.5747490685
 40
0.6116903151
 40
0.6299456334
 40
0.6480248833
 40
0.6835610285
 40
0.7009822674
 40
0.7181451614
 40
0.7838177637
 40
0.7994680325
 40
0.8147899337
 40
0.8444321732
 40
0.8587699631
 40
0.872792814
 40
0.8865124577
 40
0.8999446824
 40
0.9260130077
 40
0.9387109006
 40
0.9512175564
 40
0.9635653323
 40
0.9757880847
 40
0.9879208746
 40
1.0
 40
1.0
 40
1.0
 40
1.0
 10
6.503929941
 20
1.7512043014
 30
0.0
 10
6.503929941
 20
1.7423735783
 30
0.0
 10
6.50325038
 20
1.7246674733
 30
0.0
 10
6.500206653
 20
1.6981880281
 30
0.0
 10
6.4951458446
 20
1.6718246538
 30
0.0
 10
6.4856603034
 20
1.6367117471
 30
0.0
 10
6.4686445369
 20
1.5933139663
 30
0.0
 10
6.4455007346
 20
1.5519704563
 30
0.0
 10
6.4234021949
 20
1.5199713446
 30
0.0
 10
6.4048344571
 20
1.4962847338
 30
0.0
 10
6.3844896613
 20
1.473217756
 30
0.0
 10
6.3624128935
 20
1.45082772
 30
0.0
 10
6.3386586348
 20
1.4291659186
 30
0.0
 10
6.3044629442
 20
1.4010186204
 30
0.0
 10
6.2577353049
 20
1.3680050456
 30
0.0
 10
6.1965958232
 20
1.3324961875
 30
0.0
 10
6.130357499
 20
1.3010137952
 30
0.0
 10
6.0596635621
 20
1.2738415191
 30
0.0
 10
5.9851839021
 20
1.2512513442
 30
0.0
 10
5.9076357801
 20
1.2334424638
 30
0.0
 10
5.8277554379
 20
1.2205956164
 30
0.0
 10
5.7463028085
 20
1.21282662
 30
0.0
 10
5.664053947
 20
1.2102104528
 30
0.0
 10
5.5817948927
 20
1.2127741242
 30
0.0
 10
5.5003169021
 20
1.2204942162
 30
0.0
 10
5.4334467857
 20
1.2312044787
 30
0.0
 10
5.3810266401
 20
1.2423108544
 30
0.0
 10
5.3300091158
 20
1.2549302064
 30
0.0
 10
5.2802503084
 20
1.2699900076
 30
0.0
 10
5.2320559924
 20
1.2875119277
 30
0.0
 10
5.1641498721
 20
1.3151020292
 30
0.0
 10
5.0998602403
 20
1.348492962
 30
0.0
 10
5.041252573
 20
1.3879921157
 30
0.0
 10
5.0056812506
 20
1.41444658
 30
0.0
 10
4.9727780412
 20
1.4428191259
 30
0.0
 10
4.9429746516
 20
1.4730130452
 30
0.0
 10
4.922596985
 20
1.4960859343
 30
0.0
 10
4.9040035923
 20
1.5197866757
 30
0.0
 10
4.881879933
 20
1.5518166914
 30
0.0
 10
4.8631619691
 20
1.5852262803
 30
0.0
 10
4.8482939571
 20
1.6196661257
 30
0.0
 10
4.8392128376
 20
1.645603032
 30
0.0
 10
4.8321364107
 20
1.6717965985
 30
0.0
 10
4.8270697608
 20
1.6981749288
 30
0.0
 10
4.8240227788
 20
1.7246631829
 30
0.0
 10
4.8233427943
 20
1.7423727999
 30
0.0
 10
4.8233431469
 20
1.7512043014
 30
0.0
 11
6.503929941
 21
1.7512043014
 31
0.0
 11
6.5029173848
 21
1.7247314895
 31
0.0
 11
6.4998851203
 21
1.6983008782
 31
0.0
 11
6.494841253
 21
1.6719864175
 31
0.0
 11
6.4877940388
 21
1.6458619466
 31
0.0
 11
6.467762795
 21
1.5944486316
 31
0.0
 11
6.4399945163
 21
1.5445505468
 31
0.0
 11
6.4232855538
 21
1.5203187751
 31
0.0
 11
6.4047506954
 21
1.4966433011
 31
0.0
 11
6.3844359561
 21
1.4735824592
 31
0.0
 11
6.3623880242
 21
1.4511940505
 31
0.0
 11
6.3386602756
 21
1.4295305776
 31
0.0
 11
6.3133099143
 21
1.4086415108
 31
0.0
 11
6.2579777928
 21
1.3693820362
 31
0.0
 11
6.1969225547
 21
1.3337886015
 31
0.0
 11
6.1307261154
 21
1.3022105033
 31
0.0
 11
6.0600315351
 21
1.2749497901
 31
0.0
 11
5.9855169135
 21
1.2522745981
 31
0.0
 11
5.9079086793
 21
1.2344001073
 31
0.0
 11
5.8279509057
 21
1.2215020802
 31
0.0
 11
5.7464063692
 21
1.2137020623
 31
0.0
 11
5.6640556742
 21
1.2110753943
 31
0.0
 11
5.5816970386
 21
1.2136494977
 31
0.0
 11
5.5001236935
 21
1.2214002648
 31
0.0
 11
5.4201221829
 21
1.2342531479
 31
0.0
 11
5.3809514038
 21
1.2425578003
 31
0.0
 11
5.3424581283
 21
1.2520870618
 31
0.0
 11
5.2678751721
 21
1.2747337385
 31
0.0
 11
5.231966072
 21
1.2877986028
 31
0.0
 11
5.1970938478
 21
1.3019794721
 31
0.0
 11
5.0696651393
 21
1.3691471231
 31
0.0
 11
5.0412082646
 21
1.3883456444
 31
0.0
 11
5.0142521777
 21
1.4084159363
 31
0.0
 11
4.9651059348
 21
1.4509828573
 31
0.0
 11
4.94302716
 21
1.4733781169
 31
0.0
 11
4.9226818197
 21
1.496445742
 31
0.0
 11
4.9041224859
 21
1.5201339254
 31
0.0
 11
4.8873936156
 21
1.5443863166
 31
0.0
 11
4.8595702166
 21
1.5943387912
 31
0.0
 11
4.8485465389
 21
1.6199160599
 31
0.0
 11
4.8394951805
 21
1.6458120351
 31
0.0
 11
4.8324402715
 21
1.6719608142
 31
0.0
 11
4.8273911193
 21
1.6982905957
 31
0.0
 11
4.8243559892
 21
1.7247291634
 31
0.0
 11
4.8233431469
 21
1.7512043014
 31
0.0
  0
SPLINE
  5
2E9
100
AcDbEntity
  8
0
100
AcDbSpline
 62
9
  6
CONTINUOUS
 70
0
 71
3
 72
24
 73
20
 74
18
 42
0.0000001
 43
0.0000001
 44
0.0000000001
 12
0.0000840294
 22
0.7520076265
 32
0.0
 13
0.7520076312
 23
0.0
 33
0.0
 40
0.0
 40
0.0
 40
0.0
 40
0.0
 40
0.0540031526
 40
0.1083665616
 40
0.1634335705
 40
0.2195143472
 40
0.248030965
 40
0.2768903925
 40
0.3356887711
 40
0.3960457438
 40
0.4580075663
 40
0.5215540564
 40
0.5866256058
 40
0.6531256285
 40
0.7209122177
 40
0.7897668774
 40
0.8594401044
 40
0.929637829
 40
1.0
 40
1.0
 40
1.0
 40
1.0
 10
5.1236378931
 20
3.9458450322
 30
0.0
 10
5.1236394057
 20
3.9593819597
 30
0.0
 10
5.1253885212
 20
3.986577408
 30
0.0
 10
5.1332149338
 20
4.0268973401
 30
0.0
 10
5.1461774698
 20
4.0664188807
 30
0.0
 10
5.1610605287
 20
4.0982051686
 30
0.0
 10
5.175320307
 20
4.1228271173
 30
0.0
 10
5.191325683
 20
4.1471720818
 30
0.0
 10
5.2142665597
 20
4.1764333488
 30
0.0
 10
5.2459443371
 20
4.2090643064
 30
0.0
 10
5.2816192151
 20
4.2391451262
 30
0.0
 10
5.3209405621
 20
4.2663944607
 30
0.0
 10
5.3635433549
 20
4.2905477628
 30
0.0
 10
5.4090252574
 20
4.3113956628
 30
0.0
 10
5.4569681634
 20
4.3287209717
 30
0.0
 10
5.5069001292
 20
4.3423919431
 30
0.0
 10
5.5583386578
 20
4.3522467382
 30
0.0
 10
5.6107508525
 20
4.3581788246
 30
0.0
 10
5.6459989141
 20
4.3595090315
 30
0.0
 10
5.6636365439
 20
4.3595090315
 30
0.0
 11
5.1236378931
 21
3.9458450322
 31
0.0
 11
5.1262370674
 21
3.9863725534
 31
0.0
 11
5.1340030818
 21
4.0265098464
 31
0.0
 11
5.1468686592
 21
4.0658714035
 31
0.0
 11
5.1647087274
 21
4.1040853853
 31
0.0
 11
5.1754485117
 21
4.1226469801
 31
0.0
 11
5.1873646023
 21
4.1407854947
 31
0.0
 11
5.2146027224
 21
4.1756166994
 31
0.0
 11
5.24617106
 21
4.2082294679
 31
0.0
 11
5.2817550987
 21
4.2383117111
 31
0.0
 11
5.3210032557
 21
4.2655738115
 31
0.0
 11
5.3635467812
 21
4.2897526105
 31
0.0
 11
5.4089907782
 21
4.3106259346
 31
0.0
 11
5.4569182311
 21
4.327990126
 31
0.0
 11
5.5068533649
 21
4.3416857829
 31
0.0
 11
5.5583088056
 21
4.3515626508
 31
0.0
 11
5.6107611747
 21
4.3575167429
 31
0.0
 11
5.6636365439
 21
4.3595090315
 31
0.0
  0
SPLINE
  5
2EA
100
AcDbEntity
  8
0
100
AcDbSpline
 62
9
  6
CONTINUOUS
 70
0
 71
3
 72
13
 73
9
 74
7
 42
0.0000001
 43
0.0000001
 44
0.0000000001
 12
-0.2724868729
 22
0.0
 32
0.0
 13
-0.2501226943
 23
-0.1081098224
 33
0.0
 40
0.0
 40
0.0
 40
0.0
 40
0.0
 40
0.2540310384
 40
0.3806540609
 40
0.5066208097
 40
0.6317282488
 40
0.7557900741
 40
1.0
 40
1.0
 40
1.0
 40
1.0
 10
5.6636365439
 20
5.7640507065
 30
0.0
 10
5.6405631695
 20
5.7640507065
 30
0.0
 10
5.6059567034
 20
5.7623483327
 30
0.0
 10
5.5602766837
 20
5.7566930981
 30
0.0
 10
5.5264695483
 20
5.7507754154
 30
0.0
 10
5.4932302948
 20
5.7432113297
 30
0.0
 10
5.450088063
 20
5.7310422737
 30
0.0
 10
5.418621697
 20
5.7194509796
 30
0.0
 10
5.3982608821
 20
5.7106504824
 30
0.0
 11
5.6636365439
 21
5.7640507065
 31
0.0
 11
5.5945002874
 21
5.7606443158
 31
0.0
 11
5.5602592474
 21
5.7563998042
 31
0.0
 11
5.526449682
 21
5.750477823
 31
0.0
 11
5.4932107359
 21
5.7429075024
 31
0.0
 11
5.4606776397
 21
5.7337210736
 31
0.0
 11
5.3982608821
 21
5.7106504824
 31
0.0
  0
SPLINE
  5
2EB
100
AcDbEntity
  8
0
100
AcDbSpline
 62
9
  6
CONTINUOUS
 70
0
 71
3
 72
23
 73
19
 74
17
 42
0.0000001
 43
0.0000001
 44
0.0000000001
 12
-0.4400298176
 22
-0.1901928393
 32
0.0
 13
-0.0003303182
 23
-0.4793740162
 33
0.0
 40
0.0
 40
0.0
 40
0.0
 40
0.0
 40
0.070081861
 40
0.1391613977
 40
0.2071815996
 40
0.2740998193
 40
0.3398891514
 40
0.4045390258
 40
0.468054589
 40
0.5304635877
 40
0.5918128357
 40
0.6521669005
 40
0.7116195015
 40
0.770287973
 40
0.8283054285
 40
0.8858219377
 40
0.9429973355
 40
1.0
 40
1.0
 40
1.0
 40
1.0
 10
5.3982608821
 20
5.7106504824
 30
0.0
 10
5.3879815126
 20
5.7062074597
 30
0.0
 10
5.3678103133
 20
5.6968144744
 30
0.0
 10
5.3386407786
 20
5.6811194721
 30
0.0
 10
5.3108824287
 20
5.6639859814
 30
0.0
 10
5.2846557484
 20
5.6454853162
 30
0.0
 10
5.260075396
 20
5.6256937174
 30
0.0
 10
5.2372438423
 20
5.6047015024
 30
0.0
 10
5.216266873
 20
5.582592799
 30
0.0
 10
5.1972374469
 20
5.5594647399
 30
0.0
 10
5.1802337913
 20
5.5354235745
 30
0.0
 10
5.1653389167
 20
5.5105692228
 30
0.0
 10
5.1526198858
 20
5.48501058
 30
0.0
 10
5.1421256175
 20
5.4588613447
 30
0.0
 10
5.1339111581
 20
5.4322313173
 30
0.0
 10
5.1280111611
 20
5.4052378147
 30
0.0
 10
5.1244463516
 20
5.3780028909
 30
0.0
 10
5.1236442427
 20
5.3597489618
 30
0.0
 10
5.1236379663
 20
5.3506404298
 30
0.0
 11
5.3982608821
 21
5.7106504824
 31
0.0
 11
5.3678117116
 21
5.6964553771
 31
0.0
 11
5.3386563985
 21
5.6807529204
 31
0.0
 11
5.3109176628
 21
5.6636127
 31
0.0
 11
5.2847144439
 21
5.6451074361
 31
0.0
 11
5.2601601633
 21
5.6253156684
 31
0.0
 11
5.2373595799
 21
5.6043250738
 31
0.0
 11
5.2164160854
 21
5.5822245408
 31
0.0
 11
5.1974211293
 21
5.559111037
 31
0.0
 11
5.1804552645
 21
5.5350889021
 31
0.0
 11
5.1655979135
 21
5.5102629075
 31
0.0
 11
5.1529136736
 21
5.4847411075
 31
0.0
 11
5.1424533402
 21
5.4586346122
 31
0.0
 11
5.1342660882
 21
5.4320549209
 31
0.0
 11
5.1283859836
 21
5.4051172984
 31
0.0
 11
5.124836081
 21
5.3779397536
 31
0.0
 11
5.1236379663
 21
5.3506404298
 31
0.0
  0
SPLINE
  5
2EC
100
AcDbEntity
  8
0
100
AcDbSpline
 62
7
  6
CONTINUOUS
 70
0
 71
3
 72
13
 73
9
 74
7
 42
0.0000001
 43
0.0000001
 44
0.0000000001
 12
0.2918854844
 22
0.0
 32
0.0
 13
0.2328923548
 23
-0.175949672
 33
0.0
 40
0.0
 40
0.0
 40
0.0
 40
0.0
 40
0.1298126582
 40
0.2593354193
 40
0.387853215
 40
0.5148296411
 40
0.7624993747
 40
1.0
 40
1.0
 40
1.0
 40
1.0
 10
5.6636365439
 20
6.0693191959
 30
0.0
 10
5.6762666875
 20
6.0693191959
 30
0.0
 10
5.7015087163
 20
6.06837245
 30
0.0
 10
5.7390423885
 20
6.0641613638
 30
0.0
 10
5.7758854255
 20
6.0571772731
 30
0.0
 10
5.8231761814
 20
6.044363326
 30
0.0
 10
5.8786902107
 20
6.0220654318
 30
0.0
 10
5.9191506938
 20
5.9971846144
 30
0.0
 10
5.9375880537
 20
5.9832552287
 30
0.0
 11
5.6636365439
 21
6.0693191959
 31
0.0
 11
5.7015005033
 21
6.0679031044
 31
0.0
 11
5.7390693687
 21
6.0636770057
 31
0.0
 11
5.7759226865
 21
6.0566756447
 31
0.0
 11
5.8116906196
 21
6.046965368
 31
0.0
 11
5.878690356
 21
6.0198166491
 31
0.0
 11
5.9375880537
 21
5.9832552287
 31
0.0
  0
SPLINE
  5
2ED
100
AcDbEntity
  8
0
100
AcDbSpline
 62
7
  6
CONTINUOUS
 70
0
 71
3
 72
9
 73
5
 74
3
 42
0.0000001
 43
0.0000001
 44
0.0000000001
 12
0.0380118718
 22
-0.0287178872
 32
0.0
 13
0.0336670088
 23
-0.0337068534
 33
0.0
 40
0.0
 40
0.0
 40
0.0
 40
0.0
 40
0.2535561061
 40
1.0
 40
1.0
 40
1.0
 40
1.0
 10
5.9375880537
 20
5.9832552287
 30
0.0
 10
5.9408007678
 20
5.9808280302
 30
0.0
 10
5.9533105322
 20
5.9710449807
 30
0.0
 10
5.9651615653
 20
5.9604144627
 30
0.0
 10
5.9735384097
 20
5.9520277044
 30
0.0
 11
5.9375880537
 21
5.9832552287
 31
0.0
 11
5.9471022718
 21
5.975812442
 31
0.0
 11
5.9735384097
 21
5.9520277044
 31
0.0
  0
SPLINE
  5
2EE
100
AcDbEntity
  8
0
100
AcDbSpline
 62
9
  6
CONTINUOUS
 70
0
 71
3
 72
33
 73
29
 74
27
 42
0.0000001
 43
0.0000001
 44
0.0000000001
 12
1.3414991215
 22
0.00000225
 32
0.0
 13
-0.0000001023
 23
1.3414991215
 33
0.0
 40
0.0
 40
0.0
 40
0.0
 40
0.0
 40
0.0751010664
 40
0.1125513534
 40
0.1498402631
 40
0.223704477
 40
0.2601981377
 40
0.2963381958
 40
0.3320808839
 40
0.3673824616
 40
0.4364851637
 40
0.5033775864
 40
0.5678492741
 40
0.6297511473
 40
0.6597207131
 40
0.6890328263
 40
0.7176973306
 40
0.7457309209
 40
0.7731569436
 40
0.8000039232
 40
0.8263062077
 40
0.8521086001
 40
0.8774687956
 40
0.9024515939
 40
0.9271280199
 40
0.9515671566
 40
0.9758351712
 40
1.0
 40
1.0
 40
1.0
 40
1.0
 10
5.6636886345
 20
0.7628011641
 30
0.0
 10
5.697271306
 20
0.7628012205
 30
0.0
 10
5.747619182
 20
0.7644190757
 30
0.0
 10
5.8144192904
 20
0.7697389863
 30
0.0
 10
5.88046919
 20
0.7771038682
 30
0.0
 10
5.9457172584
 20
0.7875461608
 30
0.0
 10
6.0098125608
 20
0.8011298939
 30
0.0
 10
6.0568592141
 20
0.8127991898
 30
0.0
 10
6.1029611196
 20
0.825944633
 30
0.0
 10
6.1625951043
 20
0.8452444817
 30
0.0
 10
6.2341773481
 20
0.8727165965
 30
0.0
 10
6.315252086
 20
0.9111819173
 30
0.0
 10
6.3900737318
 20
0.9546363676
 30
0.0
 10
6.4472682207
 20
0.9950329867
 30
0.0
 10
6.4891394182
 20
1.0294621778
 30
0.0
 10
6.5182258866
 20
1.0559571462
 30
0.0
 10
6.5452562075
 20
1.0833443548
 30
0.0
 10
6.5701563047
 20
1.1115684475
 30
0.0
 10
6.59287397
 20
1.1405526133
 30
0.0
 10
6.6133585194
 20
1.1702213753
 30
0.0
 10
6.6315591542
 20
1.2005012264
 30
0.0
 10
6.6474290317
 20
1.2313208236
 30
0.0
 10
6.660930707
 20
1.2626088282
 30
0.0
 10
6.6720285077
 20
1.2942966678
 30
0.0
 10
6.6806816068
 20
1.3263121445
 30
0.0
 10
6.6868723889
 20
1.3585691484
 30
0.0
 10
6.6905949969
 20
1.3909714435
 30
0.0
 10
6.6914258663
 20
1.4126379588
 30
0.0
 10
6.6914258654
 20
1.4234436577
 30
0.0
 11
5.6636886345
 21
0.7628011641
 31
0.0
 11
5.764385244
 21
0.7660191232
 31
0.0
 11
5.8144661283
 21
0.7700084992
 31
0.0
 11
5.8641806188
 21
0.7755559241
 31
0.0
 11
5.9620143643
 21
0.7912767441
 31
0.0
 11
6.0099046961
 21
0.8014368125
 31
0.0
 11
6.0569592849
 21
0.813113972
 31
0.0
 11
6.1030679931
 21
0.8262696925
 31
0.0
 11
6.1481213522
 21
0.8408602251
 31
0.0
 11
6.2346285521
 21
0.87417718
 31
0.0
 11
6.3156422862
 21
0.9127692419
 31
0.0
 11
6.3903674836
 21
0.9563174019
 31
0.0
 11
6.4581028952
 21
1.0043566873
 31
0.0
 11
6.4891425202
 21
1.0299088897
 31
0.0
 11
6.5181961141
 21
1.0564064757
 31
0.0
 11
6.5451896276
 21
1.0837928731
 31
0.0
 11
6.5700530212
 21
1.1120081327
 31
0.0
 11
6.5927318816
 21
1.1409791435
 31
0.0
 11
6.6131756017
 21
1.170629589
 31
0.0
 11
6.631333653
 21
1.2008831924
 31
0.0
 11
6.6471611091
 21
1.2316665123
 31
0.0
 11
6.6606222647
 21
1.262910775
 31
0.0
 11
6.6716822744
 21
1.2945476416
 31
0.0
 11
6.6803074219
 21
1.3265076506
 31
0.0
 11
6.6864787568
 21
1.3587066587
 31
0.0
 11
6.6901876946
 21
1.3910502157
 31
0.0
 11
6.6914258654
 21
1.4234436577
 31
0.0
  0
SPLINE
  5
2EF
100
AcDbEntity
  8
0
100
AcDbSpline
 62
7
  6
CONTINUOUS
 70
0
 71
3
 72
22
 73
18
 74
16
 42
0.0000001
 43
0.0000001
 44
0.0000000001
 12
0.0
 22
-0.1477843134
 32
0.0
 13
-0.0929157116
 23
-0.1149211635
 33
0.0
 40
0.0
 40
0.0
 40
0.0
 40
0.0
 40
0.1256467353
 40
0.2512961898
 40
0.3769367385
 40
0.5025579711
 40
0.6281131256
 40
0.6908742421
 40
0.7535359819
 40
0.7847907032
 40
0.8159804056
 40
0.8471094307
 40
0.8781949682
 40
0.9092640413
 40
0.9401590002
 40
0.9704957464
 40
1.0
 40
1.0
 40
1.0
 40
1.0
 10
6.2364535078
 20
6.7800977975
 30
0.0
 10
6.2364535078
 20
6.7739082586
 30
0.0
 10
6.2362367315
 20
6.7615279135
 30
0.0
 10
6.2352487061
 20
6.7429818721
 30
0.0
 10
6.2335619377
 20
6.7244865141
 30
0.0
 10
6.2311096708
 20
6.7060810264
 30
0.0
 10
6.2283314702
 20
6.6908590508
 30
0.0
 10
6.2255657666
 20
6.6788069216
 30
0.0
 10
6.2235729574
 20
6.6713481319
 30
0.0
 10
6.2217910033
 20
6.665447992
 30
0.0
 10
6.2203547361
 20
6.6610673633
 30
0.0
 10
6.2187981706
 20
6.6567366524
 30
0.0
 10
6.2171013034
 20
6.6524651252
 30
0.0
 10
6.2152536053
 20
6.6482690563
 30
0.0
 10
6.2132323486
 20
6.6441934398
 30
0.0
 10
6.2109798827
 20
6.640328075
 30
0.0
 10
6.2092660426
 20
6.6379213696
 30
0.0
 10
6.2083522397
 20
6.6367911485
 30
0.0
 11
6.2364535078
 21
6.7800977975
 31
0.0
 11
6.2361262561
 21
6.7615320649
 31
0.0
 11
6.2351321989
 21
6.7429896731
 31
0.0
 11
6.2334341525
 21
6.7244997784
 31
0.0
 11
6.2309621192
 21
6.7061002508
 31
0.0
 11
6.2275941056
 21
6.6878534
 31
0.0
 11
6.225511299
 21
6.6788151726
 31
0.0
 11
6.223109755
 21
6.6698715712
 31
0.0
 11
6.2217727823
 21
6.6654503414
 31
0.0
 11
6.2203332661
 21
6.6610715415
 31
0.0
 11
6.2187736843
 21
6.656743584
 31
0.0
 11
6.2170750914
 21
6.6524751882
 31
0.0
 11
6.2152183458
 21
6.6482758351
 31
0.0
 11
6.213174516
 21
6.6441930418
 31
0.0
 11
6.2109005366
 21
6.6403292415
 31
0.0
 11
6.2083522397
 21
6.6367911485
 31
0.0
  0
SPLINE
  5
2F0
100
AcDbEntity
  8
0
100
AcDbSpline
 62
7
  6
CONTINUOUS
 70
0
 71
3
 72
22
 73
18
 74
16
 42
0.0000001
 43
0.0000001
 44
0.0000000001
 12
-0.0929157088
 22
0.11492116
 32
0.0
 13
0.0
 23
0.1477843089
 33
0.0
 40
0.0
 40
0.0
 40
0.0
 40
0.0
 40
0.0295050397
 40
0.0598427343
 40
0.0907365996
 40
0.1218018729
 40
0.1528855286
 40
0.1840144264
 40
0.2152049656
 40
0.2464606317
 40
0.3091234452
 40
0.3718842143
 40
0.4974397158
 40
0.6230616082
 40
0.7487026341
 40
0.8743527198
 40
1.0
 40
1.0
 40
1.0
 40
1.0
 10
5.1189208481
 20
6.6367911485
 30
0.0
 10
5.1180070209
 20
6.6379213997
 30
0.0
 10
5.1162932247
 20
6.6403282478
 30
0.0
 10
5.1140408966
 20
6.6441937242
 30
0.0
 10
5.1120196647
 20
6.6482691269
 30
0.0
 10
5.110171671
 20
6.6524647017
 30
0.0
 10
5.1084749169
 20
6.6567359712
 30
0.0
 10
5.1069184693
 20
6.6610666621
 30
0.0
 10
5.105482212
 20
6.6654473786
 30
0.0
 10
5.103700123
 20
6.671347625
 30
0.0
 10
5.1017074095
 20
6.6788065262
 30
0.0
 10
5.0989415859
 20
6.6908586798
 30
0.0
 10
5.0961634802
 20
6.706080709
 30
0.0
 10
5.0937111874
 20
6.7244862637
 30
0.0
 10
5.0920244054
 20
6.742981708
 30
0.0
 10
5.0910363582
 20
6.7615278292
 30
0.0
 10
5.09081958
 20
6.773908232
 30
0.0
 10
5.09081958
 20
6.7800977975
 30
0.0
 11
5.1189208481
 21
6.6367911485
 31
0.0
 11
5.1163725774
 21
6.6403294033
 31
0.0
 11
5.1140986449
 21
6.6441933938
 31
0.0
 11
5.1120548044
 21
6.6482760008
 31
0.0
 11
5.1101979902
 21
6.6524747094
 31
0.0
 11
5.1084994481
 21
6.656742826
 31
0.0
 11
5.1069399444
 21
6.6610707914
 31
0.0
 11
5.1055004174
 21
6.6654497179
 31
0.0
 11
5.1041633671
 21
6.6698710699
 31
0.0
 11
5.1017618236
 21
6.6788148354
 31
0.0
 11
5.0996790004
 21
6.687853006
 31
0.0
 11
5.0963110118
 21
6.706099913
 31
0.0
 11
5.0938389739
 21
6.7244995379
 31
0.0
 11
5.0921409118
 21
6.7429895013
 31
0.0
 11
5.0911468367
 21
6.761531985
 31
0.0
 11
5.09081958
 21
6.7800977975
 31
0.0
  0
SPLINE
  5
2F1
100
AcDbEntity
  8
0
100
AcDbSpline
 62
7
  6
CONTINUOUS
 70
0
 71
3
 72
9
 73
5
 74
3
 42
0.0000001
 43
0.0000001
 44
0.0000000001
 12
0.004366128
 22
-0.0127534342
 32
0.0
 13
0.0062952391
 23
-0.0119198626
 33
0.0
 40
0.0
 40
0.0
 40
0.0
 40
0.0
 40
0.2489512502
 40
1.0
 40
1.0
 40
1.0
 40
1.0
 10
6.1868261287
 20
6.9592113324
 30
0.0
 10
6.1871884464
 20
6.9581530046
 30
0.0
 10
6.1887289221
 20
6.953931316
 30
0.0
 10
6.1906083117
 20
6.9498345466
 30
0.0
 10
6.1921843222
 20
6.946850414
 30
0.0
 11
6.1868261287
 21
6.9592113324
 31
0.0
 11
6.1879764579
 21
6.9560587573
 31
0.0
 11
6.1921843222
 21
6.946850414
 31
0.0
  0
SPLINE
  5
2F2
100
AcDbEntity
  8
0
100
AcDbSpline
 62
7
  6
CONTINUOUS
 70
0
 71
3
 72
9
 73
5
 74
3
 42
0.0000001
 43
0.0000001
 44
0.0000000001
 12
0.007124865
 22
-0.0134907365
 32
0.0
 13
0.0088793451
 23
-0.0124064864
 33
0.0
 40
0.0
 40
0.0
 40
0.0
 40
0.0
 40
0.245378482
 40
1.0
 40
1.0
 40
1.0
 40
1.0
 10
6.1921843222
 20
6.946850414
 30
0.0
 10
6.192767085
 20
6.9457469685
 30
0.0
 10
6.1952342134
 20
6.9412986947
 30
0.0
 10
6.1980364002
 20
6.9370415836
 30
0.0
 10
6.2002699152
 20
6.9339208498
 30
0.0
 11
6.1921843222
 21
6.946850414
 31
0.0
 11
6.1939980195
 21
6.9435754572
 31
0.0
 11
6.2002699152
 21
6.9339208498
 31
0.0
  0
LINE
  5
2F3
100
AcDbEntity
  8
0
100
AcDbLine
 62
7
  6
CONTINUOUS
 10
6.2002699152
 20
6.9339208498
 11
6.2083522397
 21
6.9234044464
  0
SPLINE
  5
2F4
100
AcDbEntity
  8
0
100
AcDbSpline
 62
7
  6
CONTINUOUS
 70
0
 71
3
 72
22
 73
18
 74
16
 42
0.0000001
 43
0.0000001
 44
0.0000000001
 12
0.0929157005
 22
-0.1149211497
 32
0.0
 13
-0.0
 23
-0.1477842957
 33
0.0
 40
0.0
 40
0.0
 40
0.0
 40
0.0
 40
0.0295052507
 40
0.0598432075
 40
0.0907367903
 40
0.121801057
 40
0.1528842067
 40
0.1840130566
 40
0.2152038051
 40
0.2464597195
 40
0.3091228328
 40
0.3718835
 40
0.4974390848
 40
0.6230611585
 40
0.7487023093
 40
0.8743525726
 40
1.0
 40
1.0
 40
1.0
 40
1.0
 10
6.2083522397
 20
6.9234044464
 30
0.0
 10
6.2092660734
 20
6.9222741873
 30
0.0
 10
6.2109798539
 20
6.9198672974
 30
0.0
 10
6.2132321322
 20
6.916001783
 30
0.0
 10
6.2152533448
 20
6.9119264301
 30
0.0
 10
6.2171014093
 20
6.9077309834
 30
0.0
 10
6.2187981325
 20
6.9034597835
 30
0.0
 10
6.2203545529
 20
6.8991291015
 30
0.0
 10
6.2217908163
 20
6.8947483665
 30
0.0
 10
6.2235729491
 20
6.8888480948
 30
0.0
 10
6.225565637
 20
6.8813891643
 30
0.0
 10
6.2283314994
 20
6.8693370072
 30
0.0
 10
6.2311095862
 20
6.8541149667
 30
0.0
 10
6.2335618921
 20
6.8357093966
 30
0.0
 10
6.2352486527
 20
6.8172139277
 30
0.0
 10
6.2362367089
 20
6.7986677872
 30
0.0
 10
6.2364535078
 20
6.7862873696
 30
0.0
 10
6.2364535078
 20
6.7800977975
 30
0.0
 11
6.2083522397
 21
6.9234044464
 31
0.0
 11
6.2109004981
 21
6.9198661448
 31
0.0
 11
6.2131744066
 21
6.9160020957
 31
0.0
 11
6.215218238
 21
6.9119195313
 31
0.0
 11
6.217075063
 21
6.9077209905
 31
0.0
 11
6.2187735904
 21
6.903452949
 31
0.0
 11
6.2203330772
 21
6.8991249855
 31
0.0
 11
6.2217726143
 21
6.8947460302
 31
0.0
 11
6.223109691
 21
6.8903246483
 31
0.0
 11
6.2255112383
 21
6.8813808387
 31
0.0
 11
6.2275940697
 21
6.8723426863
 31
0.0
 11
6.2309620594
 21
6.8540957687
 31
0.0
 11
6.2334341001
 21
6.8356961189
 31
0.0
 11
6.2351321513
 21
6.8172061376
 31
0.0
 11
6.2361262342
 21
6.7986636297
 31
0.0
 11
6.2364535078
 21
6.7800977975
 31
0.0
  0
SPLINE
  5
2F5
100
AcDbEntity
  8
0
100
AcDbSpline
 62
7
  6
CONTINUOUS
 70
0
 71
3
 72
9
 73
5
 74
3
 42
0.0000001
 43
0.0000001
 44
0.0000000001
 12
-0.0092039757
 22
-0.0113837754
 32
0.0
 13
-0.0084061065
 23
-0.0119850275
 33
0.0
 40
0.0
 40
0.0
 40
0.0
 40
0.0
 40
0.2551940422
 40
1.0
 40
1.0
 40
1.0
 40
1.0
 10
6.2083522397
 20
6.6367911485
 30
0.0
 10
6.2075693065
 20
6.6358227913
 30
0.0
 10
6.2045186536
 20
6.6320146253
 30
0.0
 10
6.2015617566
 20
6.6281281446
 30
0.0
 10
6.1994747839
 20
6.625152638
 30
0.0
 11
6.2083522397
 21
6.6367911485
 31
0.0
 11
6.2060183953
 21
6.6338740486
 31
0.0
 11
6.1994747839
 21
6.625152638
 31
0.0
  0
SPLINE
  5
2F6
100
AcDbEntity
  8
0
100
AcDbSpline
 62
7
  6
CONTINUOUS
 70
0
 71
3
 72
9
 73
5
 74
3
 42
0.0000001
 43
0.0000001
 44
0.0000000001
 12
-0.0079748943
 22
-0.0113702256
 32
0.0
 13
-0.0064849523
 23
-0.0122811385
 33
0.0
 40
0.0
 40
0.0
 40
0.0
 40
0.0
 40
0.2546667603
 40
1.0
 40
1.0
 40
1.0
 40
1.0
 10
6.1994747839
 20
6.625152638
 30
0.0
 10
6.1987978037
 20
6.6241874318
 30
0.0
 10
6.1961879751
 20
6.6203640776
 30
0.0
 10
6.193792451
 20
6.6163906451
 30
0.0
 10
6.1921813008
 20
6.6133394649
 30
0.0
 11
6.1994747839
 21
6.625152638
 31
0.0
 11
6.1974824293
 21
6.622230336
 31
0.0
 11
6.1921813008
 21
6.6133394649
 31
0.0
  0
SPLINE
  5
2F7
100
AcDbEntity
  8
0
100
AcDbSpline
 62
7
  6
CONTINUOUS
 70
0
 71
3
 72
9
 73
5
 74
3
 42
0.0000001
 43
0.0000001
 44
0.0000000001
 12
-0.0062913189
 22
-0.0119144376
 32
0.0
 13
-0.0043639813
 23
-0.0127471638
 33
0.0
 40
0.0
 40
0.0
 40
0.0
 40
0.0
 40
0.2518173789
 40
1.0
 40
1.0
 40
1.0
 40
1.0
 10
6.1921813008
 20
6.6133394649
 30
0.0
 10
6.191653213
 20
6.6123393774
 30
0.0
 10
6.189629892
 20
6.6083294866
 30
0.0
 10
6.1879144803
 20
6.6041633313
 30
0.0
 10
6.1868261287
 20
6.6009842625
 30
0.0
 11
6.1921813008
 21
6.6133394649
 31
0.0
 11
6.1906537234
 21
6.610309948
 31
0.0
 11
6.1868261287
 21
6.6009842625
 31
0.0
  0
SPLINE
  5
2F8
100
AcDbEntity
  8
0
100
AcDbSpline
 62
7
  6
CONTINUOUS
 70
0
 71
3
 72
9
 73
5
 74
3
 42
0.0000001
 43
0.0000001
 44
0.0000000001
 12
0.0092276051
 22
-0.011413001
 32
0.0
 13
0.0084245606
 23
-0.0120179893
 33
0.0
 40
0.0
 40
0.0
 40
0.0
 40
0.0
 40
0.2552078938
 40
1.0
 40
1.0
 40
1.0
 40
1.0
 10
5.1189208481
 20
6.6367911485
 30
0.0
 10
5.119705834
 20
6.6358202525
 30
0.0
 10
5.1227642553
 20
6.632002262
 30
0.0
 10
5.1257283463
 20
6.628105465
 30
0.0
 10
5.1278198617
 20
6.6251218305
 30
0.0
 11
5.1189208481
 21
6.6367911485
 31
0.0
 11
5.1212607567
 21
6.6338663572
 31
0.0
 11
5.1278198617
 21
6.6251218305
 31
0.0
  0
SPLINE
  5
2F9
100
AcDbEntity
  8
0
100
AcDbSpline
 62
7
  6
CONTINUOUS
 70
0
 71
3
 72
9
 73
5
 74
3
 42
0.0000001
 43
0.0000001
 44
0.0000000001
 12
0.0079386424
 22
-0.0113248067
 32
0.0
 13
0.0064605272
 23
-0.0122284454
 33
0.0
 40
0.0
 40
0.0
 40
0.0
 40
0.0
 40
0.2546468714
 40
1.0
 40
1.0
 40
1.0
 40
1.0
 10
5.1278198617
 20
6.6251218305
 30
0.0
 10
5.1284937119
 20
6.624160555
 30
0.0
 10
5.1310917875
 20
6.6203525809
 30
0.0
 10
5.133477109
 20
6.6163957185
 30
0.0
 10
5.1350822337
 20
6.6133575485
 30
0.0
 11
5.1278198617
 21
6.6251218305
 31
0.0
 11
5.1298030995
 21
6.6222115229
 31
0.0
 11
5.1350822337
 21
6.6133575485
 31
0.0
  0
SPLINE
  5
2FA
100
AcDbEntity
  8
0
100
AcDbSpline
 62
7
  6
CONTINUOUS
 70
0
 71
3
 72
9
 73
5
 74
3
 42
0.0000001
 43
0.0000001
 44
0.0000000001
 12
0.0063034488
 22
-0.0119311285
 32
0.0
 13
0.0043705965
 23
-0.0127664866
 33
0.0
 40
0.0
 40
0.0
 40
0.0
 40
0.0
 40
0.2518224687
 40
1.0
 40
1.0
 40
1.0
 40
1.0
 10
5.1350822337
 20
6.6133575485
 30
0.0
 10
5.1356113504
 20
6.6123560397
 30
0.0
 10
5.1376385266
 20
6.6083404685
 30
0.0
 10
5.1393569651
 20
6.6041681287
 30
0.0
 10
5.1404469591
 20
6.6009842625
 30
0.0
 11
5.1350822337
 21
6.6133575485
 31
0.0
 11
5.136612749
 21
6.6103236762
 31
0.0
 11
5.1404469591
 21
6.6009842625
 31
0.0
  0
SPLINE
  5
2FB
100
AcDbEntity
  8
0
100
AcDbSpline
 62
7
  6
CONTINUOUS
 70
0
 71
3
 72
22
 73
18
 74
16
 42
0.0000001
 43
0.0000001
 44
0.0000000001
 12
0.0
 22
0.1477842956
 32
0.0
 13
0.0929157005
 23
0.1149211497
 33
0.0
 40
0.0
 40
0.0
 40
0.0
 40
0.0
 40
0.1256469257
 40
0.2512966078
 40
0.3769373185
 40
0.5025587857
 40
0.6281140429
 40
0.6908750356
 40
0.7535371697
 40
0.7847922137
 40
0.8159821805
 40
0.847111131
 40
0.8781960006
 40
0.909263774
 40
0.9401583843
 40
0.9704954741
 40
1.0
 40
1.0
 40
1.0
 40
1.0
 10
5.09081958
 20
6.7800977975
 30
0.0
 10
5.09081958
 20
6.7862873449
 30
0.0
 10
5.0910363766
 20
6.798667709
 30
0.0
 10
5.0920244123
 20
6.8172137756
 30
0.0
 10
5.0937111617
 20
6.8357091643
 30
0.0
 10
5.0961634456
 20
6.8541146717
 30
0.0
 10
5.0989416228
 20
6.8693366616
 30
0.0
 10
5.1017073723
 20
6.8813887969
 30
0.0
 10
5.1037001475
 20
6.8888476254
 30
0.0
 10
5.1054821603
 20
6.8947477975
 30
0.0
 10
5.1069184355
 20
6.8991284492
 30
0.0
 10
5.108474969
 20
6.9034591457
 30
0.0
 10
5.1101717999
 20
6.9077305802
 30
0.0
 10
5.1120195907
 20
6.9119264831
 30
0.0
 10
5.1140408185
 20
6.9160020384
 30
0.0
 10
5.1162932179
 20
6.9198674548
 30
0.0
 10
5.1180070369
 20
6.922274215
 30
0.0
 10
5.1189208481
 20
6.9234044464
 30
0.0
 11
5.09081958
 21
6.7800977975
 31
0.0
 11
5.0911468486
 21
6.7986635556
 31
0.0
 11
5.0921409148
 21
6.8172059784
 31
0.0
 11
5.0938389526
 21
6.8356958956
 31
0.0
 11
5.096310991
 21
6.8540954553
 31
0.0
 11
5.0996790054
 21
6.8723423191
 31
0.0
 11
5.1017618204
 21
6.8813805247
 31
0.0
 11
5.1041633688
 21
6.890324184
 31
0.0
 11
5.1055003768
 21
6.8947454524
 31
0.0
 11
5.106939907
 21
6.8991242883
 31
0.0
 11
5.1084994695
 21
6.9034522404
 31
0.0
 11
5.1101980461
 21
6.9077205358
 31
0.0
 11
5.1120548065
 21
6.9119196718
 31
0.0
 11
5.1140986223
 21
6.9160024138
 31
0.0
 11
5.1163725683
 21
6.9198662922
 31
0.0
 11
5.1189208481
 21
6.9234044464
 31
0.0
  0
SPLINE
  5
2FC
100
AcDbEntity
  8
0
100
AcDbSpline
 62
7
  6
CONTINUOUS
 70
0
 71
3
 72
9
 73
5
 74
3
 42
0.0000001
 43
0.0000001
 44
0.0000000001
 12
0.0092039718
 22
0.0113837706
 32
0.0
 13
0.0084061026
 23
0.0119850227
 33
0.0
 40
0.0
 40
0.0
 40
0.0
 40
0.0
 40
0.2551940391
 40
1.0
 40
1.0
 40
1.0
 40
1.0
 10
5.1189208481
 20
6.9234044464
 30
0.0
 10
5.119703781
 20
6.9243728032
 30
0.0
 10
5.1227544327
 20
6.9281809675
 30
0.0
 10
5.1257113287
 20
6.9320674463
 30
0.0
 10
5.1277983005
 20
6.9350429518
 30
0.0
 11
5.1189208481
 21
6.9234044464
 31
0.0
 11
5.1212546915
 21
6.926321545
 31
0.0
 11
5.1277983005
 21
6.9350429518
 31
0.0
  0
SPLINE
  5
2FD
100
AcDbEntity
  8
0
100
AcDbSpline
 62
7
  6
CONTINUOUS
 70
0
 71
3
 72
9
 73
5
 74
3
 42
0.0000001
 43
0.0000001
 44
0.0000000001
 12
0.0079748941
 22
0.011370226
 32
0.0
 13
0.0064849533
 23
0.0122811382
 33
0.0
 40
0.0
 40
0.0
 40
0.0
 40
0.0
 40
0.2546667596
 40
1.0
 40
1.0
 40
1.0
 40
1.0
 10
5.1277983005
 20
6.9350429518
 30
0.0
 10
5.1284752806
 20
6.936008158
 30
0.0
 10
5.1310851091
 20
6.9398315124
 30
0.0
 10
5.1334806327
 20
6.9438049452
 30
0.0
 10
5.1350917832
 20
6.9468561253
 30
0.0
 11
5.1277983005
 21
6.9350429518
 31
0.0
 11
5.129790655
 21
6.9379652539
 31
0.0
 11
5.1350917832
 21
6.9468561253
 31
0.0
  0
SPLINE
  5
2FE
100
AcDbEntity
  8
0
100
AcDbSpline
 62
7
  6
CONTINUOUS
 70
0
 71
3
 72
9
 73
5
 74
3
 42
0.0000001
 43
0.0000001
 44
0.0000000001
 12
0.0062913226
 22
0.0119144423
 32
0.0
 13
0.0043639832
 23
0.0127471693
 33
0.0
 40
0.0
 40
0.0
 40
0.0
 40
0.0
 40
0.2518173867
 40
1.0
 40
1.0
 40
1.0
 40
1.0
 10
5.1350917832
 20
6.9468561253
 30
0.0
 10
5.1356198713
 20
6.9478562132
 30
0.0
 10
5.1376431937
 20
6.9518661054
 30
0.0
 10
5.139358607
 20
6.9560322622
 30
0.0
 10
5.1404469591
 20
6.9592113324
 30
0.0
 11
5.1350917832
 21
6.9468561253
 31
0.0
 11
5.1366193617
 21
6.9498856434
 31
0.0
 11
5.1404469591
 21
6.9592113324
 31
0.0
  0
SPLINE
  5
2FF
100
AcDbEntity
  8
0
100
AcDbSpline
 62
9
  6
CONTINUOUS
 70
0
 71
3
 72
14
 73
10
 74
8
 42
0.0000001
 43
0.0000001
 44
0.0000000001
 12
-0.0000000249
 22
0.3261097927
 32
0.0
 13
-0.2025302416
 23
0.2555955753
 33
0.0
 40
0.0
 40
0.0
 40
0.0
 40
0.0
 40
0.1192911737
 40
0.2392662106
 40
0.3604155311
 40
0.4832232703
 40
0.6081840233
 40
0.7357507268
 40
1.0
 40
1.0
 40
1.0
 40
1.0
 10
6.6914258654
 20
1.4234436577
 30
0.0
 10
6.6914258645
 20
1.4364109977
 30
0.0
 10
6.6902260468
 20
1.4624354745
 30
0.0
 10
6.6848591649
 20
1.5012957369
 30
0.0
 10
6.6759412105
 20
1.5398927931
 30
0.0
 10
6.6634920867
 20
1.5780661204
 30
0.0
 10
6.6475707863
 20
1.6156860382
 30
0.0
 10
6.6215008349
 20
1.6654974063
 30
0.0
 10
6.5972912349
 20
1.7007959664
 30
0.0
 10
6.5794517452
 20
1.7233096148
 30
0.0
 11
6.6914258654
 21
1.4234436577
 31
0.0
 11
6.6896420853
 21
1.4623047602
 31
0.0
 11
6.6843027618
 21
1.5010637584
 31
0.0
 11
6.6754259121
 21
1.5395615766
 31
0.0
 11
6.6630367569
 21
1.5776459005
 31
0.0
 11
6.6471848906
 21
1.6151872942
 31
0.0
 11
6.6279250676
 21
1.6520611565
 31
0.0
 11
6.5794517452
 21
1.7233096148
 31
0.0
  0
LINE
  5
300
100
AcDbEntity
  8
0
100
AcDbLine
 62
9
  6
CONTINUOUS
 10
6.512107355
 20
1.7962846499
 11
6.5107966881
 21
1.7975140439
  0
LINE
  5
301
100
AcDbEntity
  8
0
100
AcDbLine
 62
9
  6
CONTINUOUS
 10
6.5036556029
 20
1.8041099476
 11
6.502939063
 21
1.8047624454
  0
SPLINE
  5
302
100
AcDbEntity
  8
0
100
AcDbSpline
 62
7
  6
CONTINUOUS
 70
0
 71
3
 72
35
 73
31
 74
29
 42
0.0000001
 43
0.0000001
 44
0.0000000001
 12
-0.5585418502
 22
0.5084998243
 32
0.0
 13
-0.2376381731
 23
-0.7169861703
 33
0.0
 40
0.0
 40
0.0
 40
0.0
 40
0.0
 40
0.058495759
 40
0.0885997606
 40
0.1192425224
 40
0.150404827
 40
0.1820626103
 40
0.2141740744
 40
0.2466866853
 40
0.3126530886
 40
0.3460038449
 40
0.3795061031
 40
0.4130977335
 40
0.4467197313
 40
0.4803117808
 40
0.5138104356
 40
0.5802454481
 40
0.6130802342
 40
0.6455745848
 40
0.6776785898
 40
0.7093547518
 40
0.7405800241
 40
0.7713341499
 40
0.8313310543
 40
0.8605898563
 40
0.8893479749
 40
0.9176235211
 40
0.9454536493
 40
0.9728932695
 40
1.0
 40
1.0
 40
1.0
 40
1.0
 10
5.9499004021
 20
6.3722656685
 30
0.0
 10
5.9390096256
 20
6.3821806962
 30
0.0
 10
5.9214161886
 20
6.3960401745
 30
0.0
 10
5.8961395506
 20
6.412263341
 30
0.0
 10
5.8758981178
 20
6.4235135983
 30
0.0
 10
5.8546465723
 20
6.4336534497
 30
0.0
 10
5.8324737401
 20
6.4426169793
 30
0.0
 10
5.8094949129
 20
6.4503832768
 30
0.0
 10
5.777790969
 20
6.4591481306
 30
0.0
 10
5.7451054715
 20
6.4653511547
 30
0.0
 10
5.7118493448
 20
6.4689710006
 30
0.0
 10
5.6865854581
 20
6.4703731987
 30
0.0
 10
5.6612151173
 20
6.4704255647
 30
0.0
 10
5.635856447
 20
6.4691067071
 30
0.0
 10
5.6106262846
 20
6.4664446904
 30
0.0
 10
5.5774147451
 20
6.4611532779
 30
0.0
 10
5.5448464316
 20
6.4532829987
 30
0.0
 10
5.5133349181
 20
6.4428655585
 30
0.0
 10
5.4904996044
 20
6.4338628863
 30
0.0
 10
5.4684930233
 20
6.4236655047
 30
0.0
 10
5.4474278819
 20
6.4123009559
 30
0.0
 10
5.4273885315
 20
6.3998410151
 30
0.0
 10
5.4023647703
 20
6.3820127328
 30
0.0
 10
5.3794624973
 20
6.3621378754
 30
0.0
 10
5.3591591789
 20
6.3404155157
 30
0.0
 10
5.3454934382
 20
6.3234981066
 30
0.0
 10
5.3333520027
 20
6.3058899293
 30
0.0
 10
5.3228123147
 20
6.2876593121
 30
0.0
 10
5.3138996744
 20
6.268907262
 30
0.0
 10
5.3090315512
 20
6.256045534
 30
0.0
 10
5.3068843533
 20
6.2495671503
 30
0.0
 11
5.9499004021
 21
6.3722656685
 31
0.0
 11
5.9152606865
 21
6.3996945071
 31
0.0
 11
5.8961305801
 21
6.4119864717
 31
0.0
 11
5.8759039669
 21
6.4232385878
 31
0.0
 11
5.854663595
 21
6.4333822012
 31
0.0
 11
5.8324996217
 21
6.4423579041
 31
0.0
 11
5.8095250447
 21
6.4501347944
 31
0.0
 11
5.7858572492
 21
6.456687445
 31
0.0
 11
5.7369115436
 21
6.4660183205
 31
0.0
 11
5.711868404
 21
6.4687456918
 31
0.0
 11
5.6866015869
 21
6.4701471163
 31
0.0
 11
5.6612284773
 21
6.4701971769
 31
0.0
 11
5.6358664675
 21
6.4688818117
 31
0.0
 11
5.6106329698
 21
6.4662202624
 31
0.0
 11
5.5856453999
 21
6.4622378448
 31
0.0
 11
5.5368777075
 21
6.450411668
 31
0.0
 11
5.5133324169
 21
6.4426185402
 31
0.0
 11
5.4905027179
 21
6.4336058072
 31
0.0
 11
5.4685060161
 21
6.4233987978
 31
0.0
 11
5.4474516451
 21
6.4120329486
 31
0.0
 11
5.4274264077
 21
6.3995719106
 31
0.0
 11
5.4085132066
 21
6.3860842185
 31
0.0
 11
5.374354523
 21
6.356303012
 31
0.0
 11
5.3592748456
 21
6.3401465676
 31
0.0
 11
5.3456388144
 21
6.3232376089
 31
0.0
 11
5.3335293059
 21
6.3056446812
 31
0.0
 11
5.3230147497
 21
6.2874420079
 31
0.0
 11
5.314125187
 21
6.2687189009
 31
0.0
 11
5.3068843533
 21
6.2495671503
 31
0.0
  0
SPLINE
  5
303
100
AcDbEntity
  8
0
100
AcDbSpline
 62
9
  6
CONTINUOUS
 70
0
 71
3
 72
14
 73
10
 74
8
 42
0.0000001
 43
0.0000001
 44
0.0000000001
 12
-0.0
 22
0.1675528882
 32
0.0
 13
0.1140754164
 23
0.1227223277
 33
0.0
 40
0.0
 40
0.0
 40
0.0
 40
0.0
 40
0.1201396682
 40
0.2409401149
 40
0.3627826894
 40
0.486054834
 40
0.6111365542
 40
0.7383532422
 40
1.0
 40
1.0
 40
1.0
 40
1.0
 10
5.3236365439
 20
3.3313657429
 30
0.0
 10
5.3236365439
 20
3.3380756591
 30
0.0
 10
5.3243210234
 20
3.3515420474
 30
0.0
 10
5.3273767617
 20
3.3716043745
 30
0.0
 10
5.3324515827
 20
3.3914359978
 30
0.0
 10
5.3395232624
 20
3.4108983559
 30
0.0
 10
5.3485313782
 20
3.4298771681
 30
0.0
 10
5.3631750581
 20
3.4545991805
 30
0.0
 10
5.3767340982
 20
3.4717437732
 30
0.0
 10
5.3866832524
 20
3.4824470729
 30
0.0
 11
5.3236365439
 21
3.3313657429
 31
0.0
 11
5.3246535475
 21
3.3514697842
 31
0.0
 11
5.3276954981
 21
3.3714803541
 31
0.0
 11
5.3327487379
 21
3.3912601434
 31
0.0
 11
5.3397874492
 21
3.4106784133
 31
0.0
 11
5.3487596906
 21
3.4296185403
 31
0.0
 11
5.3596101336
 21
3.4479657316
 31
0.0
 11
5.3866832524
 21
3.4824470729
 31
0.0
  0
SPLINE
  5
304
100
AcDbEntity
  8
0
100
AcDbSpline
 62
9
  6
CONTINUOUS
 70
0
 71
3
 72
23
 73
19
 74
17
 42
0.0000001
 43
0.0000001
 44
0.0000000001
 12
0.4202760718
 22
0.4170600187
 32
0.0
 13
0.4161852856
 23
-0.4211423082
 33
0.0
 40
0.0
 40
0.0
 40
0.0
 40
0.0
 40
0.0575434532
 40
0.1168496836
 40
0.1778386013
 40
0.2403368348
 40
0.3041162957
 40
0.3688978949
 40
0.4343698616
 40
0.5001889361
 40
0.5660029769
 40
0.6314536729
 40
0.6962004044
 40
0.7599348129
 40
0.8223821207
 40
0.8833120699
 40
0.9425413893
 40
1.0
 40
1.0
 40
1.0
 40
1.0
 10
5.3944933296
 20
3.4905149194
 30
0.0
 10
5.4025547085
 20
3.4985146106
 30
0.0
 10
5.4199170421
 20
3.5137851443
 30
0.0
 10
5.4487352491
 20
3.5339337176
 30
0.0
 10
5.4803658667
 20
3.551416667
 30
0.0
 10
5.5143817447
 20
3.5660189981
 30
0.0
 10
5.55034508
 20
3.5775385067
 30
0.0
 10
5.5877827873
 20
3.5858416595
 30
0.0
 10
5.6262114378
 20
3.5908092038
 30
0.0
 10
5.6651308251
 20
3.5923893304
 30
0.0
 10
5.7040343113
 20
3.5905459991
 30
0.0
 10
5.7424168776
 20
3.5853211409
 30
0.0
 10
5.7797755537
 20
3.5767576281
 30
0.0
 10
5.8156312679
 20
3.5649883702
 30
0.0
 10
5.8495033132
 20
3.55012991
 30
0.0
 10
5.8809594128
 20
3.5324096398
 30
0.0
 10
5.9095694042
 20
3.5120397038
 30
0.0
 10
5.9267607653
 20
3.4966236759
 30
0.0
 10
5.9347319081
 20
3.4885575919
 30
0.0
 11
5.3944933296
 21
3.4905149194
 31
0.0
 11
5.4200365434
 21
3.5130620306
 31
0.0
 11
5.4487840006
 21
3.5332269086
 31
0.0
 11
5.4803638568
 21
3.5507401482
 31
0.0
 11
5.5143527719
 21
3.5653721116
 31
0.0
 11
5.5503055946
 21
3.576924353
 31
0.0
 11
5.5877477522
 21
3.5852496597
 31
0.0
 11
5.6261911773
 21
3.5902349688
 31
0.0
 11
5.6651298651
 21
3.59181772
 31
0.0
 11
5.7040539734
 21
3.5899716395
 31
0.0
 11
5.7424501044
 21
3.5847265382
 31
0.0
 11
5.7798125927
 21
3.5761424213
 31
0.0
 11
5.8156550147
 21
3.5643370595
 31
0.0
 11
5.8495009772
 21
3.549452139
 31
0.0
 11
5.8809067767
 21
3.5316994983
 31
0.0
 11
5.9094412902
 21
3.5113126374
 31
0.0
 11
5.9347319081
 21
3.4885575919
 31
0.0
  0
SPLINE
  5
305
100
AcDbEntity
  8
0
100
AcDbSpline
 62
9
  6
CONTINUOUS
 70
0
 71
3
 72
15
 73
11
 74
9
 42
0.0000001
 43
0.0000001
 44
0.0000000001
 12
0.1237452074
 22
-0.1252190889
 32
0.0
 13
-0.0
 23
-0.1760474271
 33
0.0
 40
0.0
 40
0.0
 40
0.0
 40
0.0
 40
0.1327609023
 40
0.2627382553
 40
0.3901428986
 40
0.5152460614
 40
0.6383916877
 40
0.7599750487
 40
0.8803790891
 40
1.0
 40
1.0
 40
1.0
 40
1.0
 10
5.9347319081
 20
3.4885575919
 30
0.0
 10
5.9402080832
 20
3.4830161922
 30
0.0
 10
5.9505962458
 20
3.4715926084
 30
0.0
 10
5.9644633884
 20
3.4533383392
 30
0.0
 10
5.9763695036
 20
3.4342726633
 30
0.0
 10
5.9862357282
 20
3.4145208934
 30
0.0
 10
5.9939770595
 20
3.3942063827
 30
0.0
 10
5.9995312525
 20
3.3734721077
 30
0.0
 10
6.0028836994
 20
3.3524816977
 30
0.0
 10
6.0036365439
 20
3.3383853941
 30
0.0
 10
6.0036365439
 20
3.3313657429
 30
0.0
 11
5.9347319081
 21
3.4885575919
 31
0.0
 11
5.9504383485
 21
3.4712495541
 31
0.0
 11
5.9642650098
 21
3.4530172329
 31
0.0
 11
5.9761284636
 21
3.4339822611
 31
0.0
 11
5.9859509766
 21
3.4142698595
 31
0.0
 11
5.9936552796
 21
3.3940055272
 31
0.0
 11
5.9991862994
 21
3.3733280568
 31
0.0
 11
6.002520451
 21
3.3523951001
 31
0.0
 11
6.0036365439
 21
3.3313657429
 31
0.0
  0
SPLINE
  5
306
100
AcDbEntity
  8
0
100
AcDbSpline
 62
7
  6
CONTINUOUS
 70
0
 71
3
 72
14
 73
10
 74
8
 42
0.0000001
 43
0.0000001
 44
0.0000000001
 12
0.0000036921
 22
-0.1923083952
 32
0.0
 13
0.1265026238
 23
-0.1448433811
 33
0.0
 40
0.0
 40
0.0
 40
0.0
 40
0.0
 40
0.1205415968
 40
0.2416910646
 40
0.3637844645
 40
0.4871542448
 40
0.6121700139
 40
0.7391697354
 40
1.0
 40
1.0
 40
1.0
 40
1.0
 10
5.252476488
 20
6.1831466204
 30
0.0
 10
5.2524766364
 20
6.1754195668
 30
0.0
 10
5.2532341332
 20
6.1599163181
 30
0.0
 10
5.2566060938
 20
6.1368079714
 30
0.0
 10
5.2621898172
 20
6.1139436889
 30
0.0
 10
5.2699607854
 20
6.0914674494
 30
0.0
 10
5.2798643197
 20
6.0694993801
 30
0.0
 10
5.2959687745
 20
6.0408041396
 30
0.0
 10
5.3109175931
 20
6.020753431
 30
0.0
 10
5.321916164
 20
6.0081602519
 30
0.0
 11
5.252476488
 21
6.1831466204
 31
0.0
 11
5.2536010572
 21
6.1599927531
 31
0.0
 11
5.2569570571
 21
6.1369376701
 31
0.0
 11
5.2625192598
 21
6.1141264262
 31
0.0
 11
5.2702575711
 21
6.0916988478
 31
0.0
 11
5.2801232866
 21
6.069774767
 31
0.0
 11
5.292063254
 21
6.0484692369
 31
0.0
 11
5.321916164
 21
6.0081602519
 31
0.0
  0
SPLINE
  5
307
100
AcDbEntity
  8
0
100
AcDbSpline
 62
9
  6
CONTINUOUS
 70
0
 71
3
 72
41
 73
37
 74
35
 42
0.0000001
 43
0.0000001
 44
0.0000000001
 12
-0.0710263849
 22
1.331768988
 32
0.0
 13
-0.0735483127
 23
-1.3316320927
 33
0.0
 40
0.0
 40
0.0
 40
0.0
 40
0.0
 40
0.0269536394
 40
0.0541650556
 40
0.0817685108
 40
0.1098948087
 40
0.1386532845
 40
0.1681239782
 40
0.1983585368
 40
0.229376693
 40
0.2611712441
 40
0.2937038716
 40
0.326914638
 40
0.36071857
 40
0.3950140053
 40
0.4296914343
 40
0.4996671715
 40
0.5347512856
 40
0.5697063785
 40
0.6044069682
 40
0.6387330926
 40
0.6725738224
 40
0.7058266552
 40
0.73840725
 40
0.7544289493
 40
0.7702601265
 40
0.8013241144
 40
0.8316004792
 40
0.8611159502
 40
0.8756092329
 40
0.8899347247
 40
0.9181140406
 40
0.945765946
 40
0.9594391751
 40
0.9730275694
 40
1.0
 40
1.0
 40
1.0
 40
1.0
 10
6.1532288772
 20
6.4985548945
 30
0.0
 10
6.1525907373
 20
6.5105202348
 30
0.0
 10
6.1498030377
 20
6.5345110464
 30
0.0
 10
6.1411774798
 20
6.5699122587
 30
0.0
 10
6.1281622678
 20
6.6045042179
 30
0.0
 10
6.1109166333
 20
6.6379617506
 30
0.0
 10
6.0895850699
 20
6.6699709733
 30
0.0
 10
6.0643881427
 20
6.7002572014
 30
0.0
 10
6.0355461597
 20
6.7285419645
 30
0.0
 10
6.003333153
 20
6.7545868526
 30
0.0
 10
5.9680310813
 20
6.7781473481
 30
0.0
 10
5.9299699712
 20
6.7990291114
 30
0.0
 10
5.8894859535
 20
6.8170249247
 30
0.0
 10
5.8469590767
 20
6.8319913538
 30
0.0
 10
5.8027673783
 20
6.8437804603
 30
0.0
 10
5.7420098435
 20
6.8551613845
 30
0.0
 10
5.6797895977
 20
6.85975311
 30
0.0
 10
5.6175436694
 20
6.8575462887
 30
0.0
 10
5.5712127321
 20
6.8524757204
 30
0.0
 10
5.5257171016
 20
6.8440574241
 30
0.0
 10
5.4814667104
 20
6.8323418032
 30
0.0
 10
5.4388604932
 20
6.8174518847
 30
0.0
 10
5.3982891188
 20
6.79951713
 30
0.0
 10
5.3663095558
 20
6.7820535839
 30
0.0
 10
5.3421123295
 20
6.7667090469
 30
0.0
 10
5.3191729952
 20
6.7506923919
 30
0.0
 10
5.2924038723
 20
6.7291488608
 30
0.0
 10
5.2634652727
 20
6.7008833952
 30
0.0
 10
5.2422430085
 20
6.6754961547
 30
0.0
 10
5.2272603959
 20
6.6543155789
 30
0.0
 10
5.2137679152
 20
6.6328552416
 30
0.0
 10
5.1993775539
 20
6.6051056431
 30
0.0
 10
5.1884088654
 20
6.5761359568
 30
0.0
 10
5.1818809484
 20
6.5525981884
 30
0.0
 10
5.1768597444
 20
6.5290063352
 30
0.0
 10
5.1747342483
 20
6.5110396025
 30
0.0
 10
5.1740729894
 20
6.4990671512
 30
0.0
 11
6.1532288772
 21
6.4985548945
 31
0.0
 11
6.1490917412
 21
6.5342630649
 31
0.0
 11
6.140524051
 21
6.5695280398
 31
0.0
 11
6.1275990133
 21
6.6039981669
 31
0.0
 11
6.1104490456
 21
6.6373590885
 31
0.0
 11
6.0892240106
 21
6.6693048714
 31
0.0
 11
6.0641244547
 21
6.6995507224
 31
0.0
 11
6.0353730876
 21
6.7278222045
 31
0.0
 11
6.0032334913
 21
6.7538670705
 31
0.0
 11
5.9679906314
 21
6.7774460852
 31
0.0
 11
5.9299695696
 21
6.798347653
 31
0.0
 11
5.8895117732
 21
6.8163737833
 31
0.0
 11
5.846994102
 21
6.8313646206
 31
0.0
 11
5.8028073316
 21
6.8431773392
 31
0.0
 11
5.7573526822
 21
6.8517066042
 31
0.0
 11
5.6642861536
 21
6.8586335213
 31
0.0
 11
5.6175253807
 21
6.856970456
 31
0.0
 11
5.5711845054
 21
6.851892458
 31
0.0
 11
5.5256817464
 21
6.8434526429
 31
0.0
 11
5.481431988
 21
6.8317174139
 31
0.0
 11
5.4388364016
 21
6.8168002773
 31
0.0
 11
5.3982901952
 21
6.7988349579
 31
0.0
 11
5.3601710571
 21
6.7779791847
 31
0.0
 11
5.3421289489
 21
6.7665313249
 31
0.0
 11
5.3248215397
 21
6.7544387375
 31
0.0
 11
5.2925769164
 21
6.7284265516
 31
0.0
 11
5.2637261478
 21
6.7001767642
 31
0.0
 11
5.2385223803
 21
6.669939913
 31
0.0
 11
5.227363971
 21
6.6541568407
 31
0.0
 11
5.2171999395
 21
6.6379794735
 31
0.0
 11
5.1999421751
 21
6.6045945714
 31
0.0
 11
5.1869232828
 21
6.5700907107
 31
0.0
 11
5.1820511734
 21
6.5525181585
 31
0.0
 11
5.1782818083
 21
6.534792178
 31
0.0
 11
5.1740729894
 21
6.4990671512
 31
0.0
  0
SPLINE
  5
308
100
AcDbEntity
  8
0
100
AcDbSpline
 62
9
  6
CONTINUOUS
 70
0
 71
3
 72
71
 73
67
 74
65
 42
0.0000001
 43
0.0000001
 44
0.0000000001
 12
-0.0000515131
 22
0.7231580117
 32
0.0
 13
-0.000046146
 23
-0.7231580121
 33
0.0
 40
0.0
 40
0.0
 40
0.0
 40
0.0
 40
0.0050384003
 40
0.0099721526
 40
0.0150796326
 40
0.0205930091
 40
0.02355974
 40
0.0266863552
 40
0.0334651318
 40
0.0410073447
 40
0.0493547645
 40
0.0585285669
 40
0.0685384243
 40
0.0793857911
 40
0.0910655853
 40
0.1035695479
 40
0.1168884857
 40
0.145920834
 40
0.1780769031
 40
0.2132798487
 40
0.2514897453
 40
0.2927406661
 40
0.314554246
 40
0.3372192037
 40
0.3608109997
 40
0.3854637016
 40
0.3982462708
 40
0.4113844597
 40
0.4249267833
 40
0.4389240709
 40
0.4534326208
 40
0.4685282263
 40
0.4841385325
 40
0.4999961389
 40
0.5158587066
 40
0.5314731984
 40
0.5465641616
 40
0.5610724694
 40
0.5750716758
 40
0.5886146303
 40
0.6017525799
 40
0.614534948
 40
0.6391877159
 40
0.6627797681
 40
0.6854447239
 40
0.7072583875
 40
0.7485094412
 40
0.7867194324
 40
0.8219224652
 40
0.8540786393
 40
0.8831110865
 40
0.8964300619
 40
0.9089340643
 40
0.9206139086
 40
0.9314613092
 40
0.9414711974
 40
0.9506450464
 40
0.9589925188
 40
0.9665347845
 40
0.9733136103
 40
0.9764402448
 40
0.9794069848
 40
0.9849203318
 40
0.9900277498
 40
0.9949614811
 40
1.0
 40
1.0
 40
1.0
 40
1.0
 10
6.0036365439
 20
2.7537906001
 30
0.0
 10
6.0036364574
 20
2.75500512
 30
0.0
 10
6.0033525613
 20
2.7574223884
 30
0.0
 10
6.0019945181
 20
2.7608365165
 30
0.0
 10
5.9997684568
 20
2.7638965071
 30
0.0
 10
5.9973007229
 20
2.7660834607
 30
0.0
 10
5.9949824129
 20
2.7676536368
 30
0.0
 10
5.9922797208
 20
2.7691841483
 30
0.0
 10
5.988403343
 20
2.7708488181
 30
0.0
 10
5.9831618667
 20
2.7724240173
 30
0.0
 10
5.9772330929
 20
2.7736231709
 30
0.0
 10
5.9706415219
 20
2.7744382583
 30
0.0
 10
5.9634106233
 20
2.7748623364
 30
0.0
 10
5.9555640914
 20
2.7748888128
 30
0.0
 10
5.9471253565
 20
2.774510543
 30
0.0
 10
5.9381172693
 20
2.7737214843
 30
0.0
 10
5.9249952917
 20
2.7720688519
 30
0.0
 10
5.907305047
 20
2.7688916582
 30
0.0
 10
5.8846922011
 20
2.7635080262
 30
0.0
 10
5.8602347865
 20
2.7564488487
 30
0.0
 10
5.8339947785
 20
2.7477459222
 30
0.0
 10
5.8110676233
 20
2.7393529469
 30
0.0
 10
5.7917635462
 20
2.7319767703
 30
0.0
 10
5.7764641389
 20
2.7260463704
 30
0.0
 10
5.7605258595
 20
2.7198707621
 30
0.0
 10
5.746754773
 20
2.7146955243
 30
0.0
 10
5.7352766625
 20
2.7105871204
 30
0.0
 10
5.7262666773
 20
2.7075337362
 30
0.0
 10
5.7169123366
 20
2.7045907198
 30
0.0
 10
5.7071614341
 20
2.7018168095
 30
0.0
 10
5.6969352593
 20
2.6993716585
 30
0.0
 10
5.6862060599
 20
2.697418669
 30
0.0
 10
5.6750496891
 20
2.6961119164
 30
0.0
 10
5.6636381122
 20
2.6956188559
 30
0.0
 10
5.6522258782
 20
2.6961153567
 30
0.0
 10
5.6410678405
 20
2.6974167141
 30
0.0
 10
5.6303386046
 20
2.6993693186
 30
0.0
 10
5.620113759
 20
2.701816927
 30
0.0
 10
5.6103625124
 20
2.7045915249
 30
0.0
 10
5.6010071365
 20
2.7075331241
 30
0.0
 10
5.5919972943
 20
2.7105870999
 30
0.0
 10
5.5805192399
 20
2.714695374
 30
0.0
 10
5.566748056
 20
2.7198704453
 30
0.0
 10
5.5508097352
 20
2.7260461592
 30
0.0
 10
5.5355102796
 20
2.7319766609
 30
0.0
 10
5.5162061031
 20
2.7393527221
 30
0.0
 10
5.4932788975
 20
2.7477457758
 30
0.0
 10
5.4670388099
 20
2.7564487044
 30
0.0
 10
5.4425813394
 20
2.7635079358
 30
0.0
 10
5.4199684267
 20
2.7688915933
 30
0.0
 10
5.402278125
 20
2.7720687969
 30
0.0
 10
5.3891561073
 20
2.7737214509
 30
0.0
 10
5.3801479905
 20
2.7745105247
 30
0.0
 10
5.3717092264
 20
2.7748888044
 30
0.0
 10
5.3638626672
 20
2.7748623632
 30
0.0
 10
5.3566317396
 20
2.7744383112
 30
0.0
 10
5.3500401375
 20
2.7736232124
 30
0.0
 10
5.3441113338
 20
2.7724240193
 30
0.0
 10
5.3388698316
 20
2.7708487769
 30
0.0
 10
5.3349934334
 20
2.769184083
 30
0.0
 10
5.3322907221
 20
2.7676535682
 30
0.0
 10
5.3299723999
 20
2.7660834117
 30
0.0
 10
5.3275046413
 20
2.7638965188
 30
0.0
 10
5.3252785442
 20
2.7608365844
 30
0.0
 10
5.3239204918
 20
2.7574224451
 30
0.0
 10
5.3236366214
 20
2.7550051486
 30
0.0
 10
5.3236365439
 20
2.7537906001
 30
0.0
 11
6.0036365439
 21
2.7537906001
 31
0.0
 11
6.0031927983
 21
2.7574070371
 31
0.0
 11
6.0018815491
 21
2.760725231
 31
0.0
 11
5.9997319741
 21
2.7637287923
 31
0.0
 11
5.996773251
 21
2.7664013314
 31
0.0
 11
5.9949995768
 21
2.7676083469
 31
0.0
 11
5.9930344981
 21
2.7687267177
 31
0.0
 11
5.9885439146
 21
2.7706928064
 31
0.0
 11
5.9833289794
 21
2.7722905789
 31
0.0
 11
5.9774171521
 21
2.7735111003
 31
0.0
 11
5.970835735
 21
2.7743455745
 31
0.0
 11
5.9636104726
 21
2.7747865805
 31
0.0
 11
5.9557662191
 21
2.7748274837
 31
0.0
 11
5.9473278078
 21
2.7744616689
 31
0.0
 11
5.9383190036
 21
2.7736836121
 31
0.0
 11
5.9287615739
 21
2.7724898292
 31
0.0
 11
5.9080857684
 21
2.7688429049
 31
0.0
 11
5.8854518292
 21
2.7635090934
 31
0.0
 11
5.8609791767
 21
2.7564974596
 31
0.0
 11
5.8347358326
 21
2.7478485943
 31
0.0
 11
5.8066999779
 21
2.7376566628
 31
0.0
 11
5.7919597004
 21
2.7320384532
 31
0.0
 11
5.7766723358
 21
2.7261274533
 31
0.0
 11
5.7607540981
 21
2.7199895665
 31
0.0
 11
5.7440550469
 21
2.7137468023
 31
0.0
 11
5.7353488316
 21
2.7106403616
 31
0.0
 11
5.7263482882
 21
2.7075975069
 31
0.0
 11
5.7170040644
 21
2.70466612
 31
0.0
 11
5.7072618562
 21
2.7019185143
 31
0.0
 11
5.6970533338
 21
2.6994962029
 31
0.0
 11
5.6863111352
 21
2.6975531852
 31
0.0
 11
5.6750972516
 21
2.6962555076
 31
0.0
 11
5.6636393673
 21
2.6957846457
 31
0.0
 11
5.6521779744
 21
2.6962574996
 31
0.0
 11
5.6409607182
 21
2.6975523614
 31
0.0
 11
5.6302217083
 21
2.6994941471
 31
0.0
 11
5.6200137755
 21
2.7019181842
 31
0.0
 11
5.61027037
 21
2.7046666563
 31
0.0
 11
5.600925439
 21
2.7075973129
 31
0.0
 11
5.5919251002
 21
2.7106402324
 31
0.0
 11
5.5832190307
 21
2.7137466492
 31
0.0
 11
5.566519879
 21
2.7199892807
 31
0.0
 11
5.5506014803
 21
2.7261272652
 31
0.0
 11
5.5353141334
 21
2.7320383069
 31
0.0
 11
5.5205737771
 21
2.7376564797
 31
0.0
 11
5.4925378295
 21
2.7478484369
 31
0.0
 11
5.4662944209
 21
2.7564973251
 31
0.0
 11
5.441821714
 21
2.7635089981
 31
0.0
 11
5.4191877035
 21
2.7688428382
 31
0.0
 11
5.3985118288
 21
2.7724897819
 31
0.0
 11
5.3889543736
 21
2.7736835789
 31
0.0
 11
5.3799455416
 21
2.7744616499
 31
0.0
 11
5.3715070948
 21
2.7748274804
 31
0.0
 11
5.3636628166
 21
2.774786607
 31
0.0
 11
5.3564375307
 21
2.7743456219
 31
0.0
 11
5.349856081
 21
2.7735111365
 31
0.0
 11
5.3439442224
 21
2.7722905786
 31
0.0
 11
5.3387292596
 21
2.770692766
 31
0.0
 11
5.3342386485
 21
2.7687266515
 31
0.0
 11
5.3322735548
 21
2.7676082789
 31
0.0
 11
5.3304998651
 21
2.7664012746
 31
0.0
 11
5.3275411155
 21
2.7637287967
 31
0.0
 11
5.3253915239
 21
2.7607253024
 31
0.0
 11
5.3240802726
 21
2.7574071256
 31
0.0
 11
5.3236365439
 21
2.7537906001
 31
0.0
  0
SPLINE
  5
309
100
AcDbEntity
  8
0
100
AcDbSpline
 62
9
  6
CONTINUOUS
 70
0
 71
3
 72
39
 73
35
 74
33
 42
0.0000001
 43
0.0000001
 44
0.0000000001
 12
0.0
 22
1.3576464344
 32
0.0
 13
0.0
 23
-1.3576464344
 33
0.0
 40
0.0
 40
0.0
 40
0.0
 40
0.0
 40
0.0269871287
 40
0.040558593
 40
0.054200214
 40
0.0817512709
 40
0.1097970516
 40
0.1384614421
 40
0.1678393841
 40
0.1979936489
 40
0.2289537679
 40
0.2607182895
 40
0.2932530274
 40
0.3264979187
 40
0.3603669576
 40
0.4294905255
 40
0.4645586268
 40
0.4997723518
 40
0.5349884725
 40
0.5700670889
 40
0.6048755044
 40
0.6392873914
 40
0.7064071221
 40
0.7389805097
 40
0.7707844796
 40
0.8017775984
 40
0.8319633131
 40
0.8613768881
 40
0.8900836502
 40
0.9181739726
 40
0.9320299367
 40
0.9457781188
 40
0.9730042331
 40
1.0
 40
1.0
 40
1.0
 40
1.0
 10
6.1511365439
 20
6.6280266855
 30
0.0
 10
6.1511365439
 20
6.6402396785
 30
0.0
 10
6.1499497516
 20
6.6586218722
 30
0.0
 10
6.1460499684
 20
6.682849615
 30
0.0
 10
6.1405760505
 20
6.7070365863
 30
0.0
 10
6.1307798022
 20
6.7368906246
 30
0.0
 10
6.1145718999
 20
6.7715033415
 30
0.0
 10
6.0940192299
 20
6.8046996139
 30
0.0
 10
6.0693401439
 20
6.836166979
 30
0.0
 10
6.0407711988
 20
6.8656079537
 30
0.0
 10
6.0085948929
 20
6.8927548497
 30
0.0
 10
5.9731117517
 20
6.9173449039
 30
0.0
 10
5.9346700824
 20
6.9391590202
 30
0.0
 10
5.8936262654
 20
6.9579770302
 30
0.0
 10
5.8356048269
 20
6.9789852466
 30
0.0
 10
5.7744313443
 20
6.9931123572
 30
0.0
 10
5.7117064469
 20
7.0002535464
 30
0.0
 10
5.6639495568
 20
7.0020682613
 30
0.0
 10
5.6161899993
 20
7.0003035186
 30
0.0
 10
5.5688822167
 20
6.994957893
 30
0.0
 10
5.5224684171
 20
6.9861008579
 30
0.0
 10
5.4629066077
 20
6.9698345256
 30
0.0
 10
5.4063474811
 20
6.9469232067
 30
0.0
 10
5.3545153858
 20
6.9175602084
 30
0.0
 10
5.318964329
 20
6.8929755842
 30
0.0
 10
5.2867308819
 20
6.8658238422
 30
0.0
 10
5.258108665
 20
6.836371553
 30
0.0
 10
5.2333782379
 20
6.8048795678
 30
0.0
 10
5.2127900497
 20
6.7716438369
 30
0.0
 10
5.1991717586
 20
6.7426242855
 30
0.0
 10
5.1905895334
 20
6.7189108919
 30
0.0
 10
5.183604586
 20
6.6950862313
 30
0.0
 10
5.1777261254
 20
6.6648080143
 30
0.0
 10
5.1761365439
 20
6.6402435877
 30
0.0
 10
5.1761365439
 20
6.6280266855
 30
0.0
 11
6.1511365439
 21
6.6280266855
 31
0.0
 11
6.1487906104
 21
6.6645904842
 31
0.0
 11
6.1458654854
 21
6.6827820617
 31
0.0
 11
6.1417787367
 21
6.7008460406
 31
0.0
 11
6.1301553088
 21
6.7363988125
 31
0.0
 11
6.1140475086
 21
6.7709001153
 31
0.0
 11
6.0936080674
 21
6.8040164659
 31
0.0
 11
6.0690371092
 21
6.8354341349
 31
0.0
 11
6.0405684431
 21
6.8648539047
 31
0.0
 11
6.0084753753
 21
6.8919979516
 31
0.0
 11
5.9730596182
 21
6.9166046349
 31
0.0
 11
5.9346636753
 21
6.9384403793
 31
0.0
 11
5.893652805
 21
6.9572887061
 31
0.0
 11
5.8504275395
 21
6.9729710941
 31
0.0
 11
5.7590273167
 21
6.9942537609
 31
0.0
 11
5.7117241175
 21
6.9996507331
 31
0.0
 11
5.6639509905
 21
7.0014708836
 31
0.0
 11
5.6161727942
 21
6.9996989975
 31
0.0
 11
5.5688504046
 21
6.9943444701
 31
0.0
 11
5.5224345329
 21
6.9854652715
 31
0.0
 11
5.4773716552
 21
6.9731356961
 31
0.0
 11
5.3930239462
 21
6.9386508496
 31
0.0
 11
5.3545648257
 21
6.9168200806
 31
0.0
 11
5.3190825937
 21
6.8922152421
 31
0.0
 11
5.2869332505
 21
6.8650683761
 31
0.0
 11
5.258413433
 21
6.8356387033
 31
0.0
 11
5.2337941916
 21
6.8041973892
 31
0.0
 11
5.2133111826
 21
6.7710403323
 31
0.0
 11
5.197155238
 21
6.7364947779
 31
0.0
 11
5.1907586419
 21
6.7188042126
 31
0.0
 11
5.1855102677
 21
6.7008921174
 31
0.0
 11
5.1784877654
 21
6.6646018964
 31
0.0
 11
5.1761365439
 21
6.6280266855
 31
0.0
  0
SPLINE
  5
30A
100
AcDbEntity
  8
0
100
AcDbSpline
 62
9
  6
CONTINUOUS
 70
0
 71
3
 72
29
 73
25
 74
23
 42
0.0000001
 43
0.0000001
 44
0.0000000001
 12
-0.1834707721
 22
-1.2830558907
 32
0.0
 13
-1.2961072267
 23
0.0
 33
0.0
 40
0.0
 40
0.0
 40
0.0
 40
0.0
 40
0.0240678689
 40
0.0483455279
 40
0.0728928906
 40
0.0977713405
 40
0.1230378533
 40
0.1487444029
 40
0.2016242312
 40
0.2288864048
 40
0.2567245144
 40
0.2851558618
 40
0.3141915561
 40
0.3740820649
 40
0.404948799
 40
0.4364134812
 40
0.501069341
 40
0.5679057547
 40
0.6367108726
 40
0.707220426
 40
0.7791370474
 40
0.8521508769
 40
0.9259211718
 40
1.0
 40
1.0
 40
1.0
 40
1.0
 10
6.6992656034
 20
1.3371760975
 30
0.0
 10
6.6977936866
 20
1.3268826238
 30
0.0
 10
6.6940997986
 20
1.3063040198
 30
0.0
 10
6.6863724963
 20
1.2757495458
 30
0.0
 10
6.6764504379
 20
1.2454660502
 30
0.0
 10
6.6643646492
 20
1.2155201214
 30
0.0
 10
6.6501417832
 20
1.1859709273
 30
0.0
 10
6.6281648519
 20
1.1468267074
 30
0.0
 10
6.6021407377
 20
1.1090718215
 30
0.0
 10
6.5725544155
 20
1.0729824866
 30
0.0
 10
6.5481913403
 20
1.0463338583
 30
0.0
 10
6.5219423741
 20
1.0204409626
 30
0.0
 10
6.4841204101
 20
0.9866486303
 30
0.0
 10
6.4430810455
 20
0.9549748039
 30
0.0
 10
6.3992671242
 20
0.9254825328
 30
0.0
 10
6.3524966674
 20
0.8967751364
 30
0.0
 10
6.2902809821
 20
0.8636557737
 30
0.0
 10
6.2109861424
 20
0.8288188683
 30
0.0
 10
6.1270435405
 20
0.7988386396
 30
0.0
 10
6.0391761654
 20
0.773948524
 30
0.0
 10
5.9481171274
 20
0.7543735114
 30
0.0
 10
5.8546295018
 20
0.740263989
 30
0.0
 10
5.759533395
 20
0.7317650121
 30
0.0
 10
5.6956412454
 20
0.7298635192
 30
0.0
 10
5.6636365439
 20
0.7298635192
 30
0.0
 11
6.6992656034
 21
1.3371760975
 31
0.0
 11
6.6937611331
 21
1.306471048
 31
0.0
 11
6.6860556858
 21
1.275962631
 31
0.0
 11
6.6761635683
 21
1.2457235045
 31
0.0
 11
6.6641102058
 21
1.2158158897
 31
0.0
 11
6.6499223777
 21
1.1863007371
 31
0.0
 11
6.6336271816
 21
1.1572389867
 31
0.0
 11
6.5948606241
 21
1.1007181804
 31
0.0
 11
6.5724739447
 21
1.0733799724
 31
0.0
 11
6.5481434052
 21
1.0467364733
 31
0.0
 11
6.5219233483
 21
1.0208436822
 31
0.0
 11
6.4938717792
 21
0.9957562301
 31
0.0
 11
6.4325098112
 21
0.9482138785
 31
0.0
 11
6.3993312241
 21
0.925859703
 31
0.0
 11
6.3645823683
 21
0.9045136005
 31
0.0
 11
6.2906654458
 21
0.8650308963
 31
0.0
 11
6.2113932413
 21
0.8300997893
 31
0.0
 11
6.1274389601
 21
0.8000242357
 31
0.0
 11
6.0395280071
 21
0.7750558509
 31
0.0
 11
5.9484094847
 21
0.7554133694
 31
0.0
 11
5.8548403556
 21
0.741258331
 31
0.0
 11
5.7596081509
 21
0.7327199004
 31
0.0
 11
5.6636365439
 21
0.7298635192
 31
0.0
  0
LINE
  5
30B
100
AcDbEntity
  8
0
100
AcDbLine
 62
9
  6
CONTINUOUS
 10
4.8245658103
 20
1.8049681752
 11
4.8236571652
 21
1.804141022
  0
SPLINE
  5
30C
100
AcDbEntity
  8
0
100
AcDbSpline
 62
9
  6
CONTINUOUS
 70
0
 71
3
 72
9
 73
5
 74
3
 42
0.0000001
 43
0.0000001
 44
0.0000000001
 12
-0.0509337645
 22
-0.0481747681
 32
0.0
 13
-0.0458335739
 23
-0.0530503548
 33
0.0
 40
0.0
 40
0.0
 40
0.0
 40
0.0
 40
0.2538917668
 40
1.0
 40
1.0
 40
1.0
 40
1.0
 10
4.8136190879
 20
1.7948196173
 30
0.0
 10
4.8093085334
 20
1.7907425583
 30
0.0
 10
4.7925242547
 20
1.7744813071
 30
0.0
 10
4.7765312129
 20
1.7573993871
 30
0.0
 10
4.7651322772
 20
1.7442056183
 30
0.0
 11
4.8136190879
 21
1.7948196173
 31
0.0
 11
4.800836757
 21
1.7824324616
 31
0.0
 11
4.7651322772
 21
1.7442056183
 31
0.0
  0
SPLINE
  5
30D
100
AcDbEntity
  8
0
100
AcDbSpline
 62
9
  6
CONTINUOUS
 70
0
 71
3
 72
36
 73
32
 74
30
 42
0.0000001
 43
0.0000001
 44
0.0000000001
 12
-1.0036916203
 22
-1.3171859499
 32
0.0
 13
1.6560119852
 23
0.0000027775
 33
0.0
 40
0.0
 40
0.0
 40
0.0
 40
0.0
 40
0.0281261574
 40
0.0555265321
 40
0.0822810918
 40
0.1084885884
 40
0.1342617845
 40
0.159725836
 40
0.1850195466
 40
0.2102870712
 40
0.2356727037
 40
0.2613151122
 40
0.2873422842
 40
0.3138729744
 40
0.3410140216
 40
0.3688552892
 40
0.3974711217
 40
0.4269159601
 40
0.45722137
 40
0.4884053275
 40
0.5204736317
 40
0.5534173744
 40
0.6218172432
 40
0.6572222573
 40
0.6933555227
 40
0.7301555893
 40
0.7675516809
 40
0.8438167098
 40
0.9215533788
 40
0.9607486165
 40
1.0
 40
1.0
 40
1.0
 40
1.0
 10
4.740669362
 20
1.7140890054
 30
0.0
 10
4.7312593658
 20
1.7017398789
 30
0.0
 10
4.7136017226
 20
1.6766402032
 30
0.0
 10
4.6905505204
 20
1.6374458346
 30
0.0
 10
4.6714057722
 20
1.5973651194
 30
0.0
 10
4.65624679
 20
1.5565677542
 30
0.0
 10
4.6451317931
 20
1.5152217425
 30
0.0
 10
4.6381306102
 20
1.4734926815
 30
0.0
 10
4.6352675021
 20
1.4315564036
 30
0.0
 10
4.6365387372
 20
1.3895848878
 30
0.0
 10
4.6419489825
 20
1.3477506614
 30
0.0
 10
4.651472406
 20
1.3062292438
 30
0.0
 10
4.6650593735
 20
1.2651909289
 30
0.0
 10
4.6826709469
 20
1.2248111412
 30
0.0
 10
4.7042316852
 20
1.1852553356
 30
0.0
 10
4.7296344109
 20
1.1466695532
 30
0.0
 10
4.7587814876
 20
1.1092080107
 30
0.0
 10
4.7915518336
 20
1.0730197214
 30
0.0
 10
4.8278000351
 20
1.0382400417
 30
0.0
 10
4.8673838266
 20
1.0050144379
 30
0.0
 10
4.9101520258
 20
0.9734834335
 30
0.0
 10
4.9719427201
 20
0.9333543249
 30
0.0
 10
5.0386819984
 20
0.8977126151
 30
0.0
 10
5.1093916288
 20
0.8665628158
 30
0.0
 10
5.1652585595
 20
0.8451539417
 30
0.0
 10
5.2231135877
 20
0.8260610283
 30
0.0
 10
5.3031118754
 20
0.8036440258
 30
0.0
 10
5.4066657891
 20
0.7819884519
 30
0.0
 10
5.5126425444
 20
0.7689701971
 30
0.0
 10
5.5987130195
 20
0.7636907264
 30
0.0
 10
5.642021714
 20
0.7628011278
 30
0.0
 10
5.6636886345
 20
0.7628011641
 30
0.0
 11
4.740669362
 21
1.7140890054
 31
0.0
 11
4.7139101921
 21
1.6759656871
 31
0.0
 11
4.6909507797
 21
1.6368276281
 31
0.0
 11
4.6718930883
 21
1.596829945
 31
0.0
 11
4.6568107465
 21
1.5561350221
 31
0.0
 11
4.6457620881
 21
1.5149091667
 31
0.0
 11
4.6388025869
 21
1.4733186524
 31
0.0
 11
4.6359548412
 21
1.4315288813
 31
0.0
 11
4.6372195755
 21
1.3897046757
 31
0.0
 11
4.6425960738
 21
1.3480109908
 31
0.0
 11
4.6520630932
 21
1.3066156001
 31
0.0
 11
4.6655806399
 21
1.2656888514
 31
0.0
 11
4.6831069513
 21
1.2254008258
 31
0.0
 11
4.7045738104
 21
1.1859127536
 31
0.0
 11
4.7298856153
 21
1.1473767035
 31
0.0
 11
4.7589450455
 21
1.109944266
 31
0.0
 11
4.7916356826
 21
1.0737647429
 31
0.0
 11
4.827815392
 21
1.0389843539
 31
0.0
 11
4.8673401929
 21
1.0057490752
 31
0.0
 11
4.9100564431
 21
0.9741972814
 31
0.0
 11
4.955787466
 21
0.9444492233
 31
0.0
 11
5.0555623231
 21
0.8908274189
 31
0.0
 11
5.1092055107
 21
0.8671627287
 31
0.0
 11
5.1650706941
 21
0.8457253249
 31
0.0
 11
5.222934334
 21
0.8266034139
 31
0.0
 11
5.2825608375
 21
0.8098760767
 31
0.0
 11
5.4061529222
 21
0.783883266
 31
0.0
 11
5.5339156193
 21
0.7681085617
 31
0.0
 11
5.5987015091
 21
0.7641325279
 31
0.0
 11
5.6636886345
 21
0.7628011641
 31
0.0
  0
SPLINE
  5
30E
100
AcDbEntity
  8
0
100
AcDbSpline
 62
9
  6
CONTINUOUS
 70
0
 71
3
 72
53
 73
49
 74
47
 42
0.0000001
 43
0.0000001
 44
0.0000000001
 12
0.6530168499
 22
0.3229151836
 32
0.0
 13
0.6528205495
 23
-0.3233118499
 33
0.0
 40
0.0
 40
0.0
 40
0.0
 40
0.0
 40
0.0178450385
 40
0.0373308494
 40
0.058518823
 40
0.0814396497
 40
0.1060998838
 40
0.1324952052
 40
0.1606137245
 40
0.1904477187
 40
0.2219973662
 40
0.2552798904
 40
0.290348479
 40
0.3085858266
 40
0.3273184296
 40
0.3465797708
 40
0.3664111469
 40
0.3868677363
 40
0.3973524428
 40
0.4080198522
 40
0.4299345734
 40
0.4526642815
 40
0.464314181
 40
0.4761330963
 40
0.5000736732
 40
0.5240116646
 40
0.5358278001
 40
0.5474743475
 40
0.5701964977
 40
0.5921037129
 40
0.602767571
 40
0.613248918
 40
0.6336993406
 40
0.6535251532
 40
0.6727813677
 40
0.6915091317
 40
0.7097418041
 40
0.7448014525
 40
0.7780754876
 40
0.8096169901
 40
0.8394429464
 40
0.8675533406
 40
0.8939403782
 40
0.9185922752
 40
0.9415048542
 40
0.9626846935
 40
0.9821625412
 40
1.0
 40
1.0
 40
1.0
 40
1.0
 10
5.3055736923
 20
2.715279909
 30
0.0
 10
5.3094580626
 20
2.7172007203
 30
0.0
 10
5.3178555411
 20
2.7206807535
 30
0.0
 10
5.3315064556
 20
2.7247015433
 30
0.0
 10
5.3466714577
 20
2.7277137287
 30
0.0
 10
5.3632674029
 20
2.7296926159
 30
0.0
 10
5.3812194403
 20
2.7306146925
 30
0.0
 10
5.4004546619
 20
2.7304669947
 30
0.0
 10
5.4209084299
 20
2.7292396459
 30
0.0
 10
5.4425269779
 20
2.7269379666
 30
0.0
 10
5.4652737728
 20
2.7235795009
 30
0.0
 10
5.489138683
 20
2.7192015833
 30
0.0
 10
5.5097059381
 20
2.7148213277
 30
0.0
 10
5.5267610191
 20
2.7109301813
 30
0.0
 10
5.5400510818
 20
2.7077951123
 30
0.0
 10
5.5537070757
 20
2.7045261046
 30
0.0
 10
5.5677722599
 20
2.701168221
 30
0.0
 10
5.5797838231
 20
2.6983863947
 30
0.0
 10
5.5896513838
 20
2.6962131931
 30
0.0
 10
5.5998846114
 20
2.6940560292
 30
0.0
 10
5.6130796514
 20
2.6915366372
 30
0.0
 10
5.6265974739
 20
2.6894690368
 30
0.0
 10
5.6377455653
 20
2.6882009887
 30
0.0
 10
5.649219559
 20
2.6872434401
 30
0.0
 10
5.663719122
 20
2.6867297573
 30
0.0
 10
5.678217628
 20
2.6872533506
 30
0.0
 10
5.689688929
 20
2.6882175724
 30
0.0
 10
5.7008330604
 20
2.6894909306
 30
0.0
 10
5.7143456029
 20
2.691563263
 30
0.0
 10
5.7275354698
 20
2.6940855621
 30
0.0
 10
5.7377648304
 20
2.6962440893
 30
0.0
 10
5.7476289539
 20
2.6984181268
 30
0.0
 10
5.7596366916
 20
2.7012002126
 30
0.0
 10
5.7736978128
 20
2.7045574844
 30
0.0
 10
5.7873501996
 20
2.7078253641
 30
0.0
 10
5.8006369715
 20
2.7109589009
 30
0.0
 10
5.8176879799
 20
2.7148477545
 30
0.0
 10
5.8382504702
 20
2.7192246463
 30
0.0
 10
5.862109919
 20
2.7235979599
 30
0.0
 10
5.8848514011
 20
2.726951442
 30
0.0
 10
5.9064645655
 20
2.7292479873
 30
0.0
 10
5.9269127004
 20
2.7304701956
 30
0.0
 10
5.9461419587
 20
2.7306128204
 30
0.0
 10
5.964087702
 20
2.7296857242
 30
0.0
 10
5.9806770233
 20
2.7277018689
 30
0.0
 10
5.9958350502
 20
2.724684817
 30
0.0
 10
6.0094786058
 20
2.7206593163
 30
0.0
 10
6.0178707113
 20
2.7171760977
 30
0.0
 10
6.0217522645
 20
2.7152537438
 30
0.0
 11
5.3055736923
 21
2.715279909
 31
0.0
 11
5.3175574814
 21
2.7203187021
 31
0.0
 11
5.3311578324
 21
2.7243853396
 31
0.0
 11
5.3462873958
 21
2.7274424506
 31
0.0
 11
5.3628624714
 21
2.7294624616
 31
0.0
 11
5.3808016689
 21
2.7304223802
 31
0.0
 11
5.4000301935
 21
2.7303080818
 31
0.0
 11
5.4204794657
 21
2.729112277
 31
0.0
 11
5.442094336
 21
2.7268405596
 31
0.0
 11
5.4648359237
 21
2.7235128446
 31
0.0
 11
5.4886900191
 21
2.7191702269
 31
0.0
 11
5.5136858612
 21
2.7138908046
 31
0.0
 11
5.526640142
 21
2.7109412936
 31
0.0
 11
5.5399243895
 21
2.707817393
 31
0.0
 11
5.5535727841
 21
2.7045596983
 31
0.0
 11
5.5676283119
 21
2.7012190796
 31
0.0
 11
5.582150715
 21
2.6978746648
 31
0.0
 11
5.5896104533
 21
2.6962338612
 31
0.0
 11
5.5972154061
 21
2.6946352485
 31
0.0
 11
5.6129021233
 21
2.6916686438
 31
0.0
 11
5.6292757861
 21
2.6892015573
 31
0.0
 11
5.6377088923
 21
2.6882475567
 31
0.0
 11
5.6462892587
 21
2.687533551
 31
0.0
 11
5.6637196734
 21
2.6869377414
 31
0.0
 11
5.6811478043
 21
2.6875451169
 31
0.0
 11
5.689725728
 21
2.6882640402
 31
0.0
 11
5.6981559177
 21
2.689222087
 31
0.0
 11
5.7145231352
 21
2.6916949864
 31
0.0
 11
5.7302036317
 21
2.6946650548
 31
0.0
 11
5.7378057261
 21
2.6962646886
 31
0.0
 11
5.7452628197
 21
2.6979061227
 31
0.0
 11
5.7597805331
 21
2.7012508831
 31
0.0
 11
5.7738320248
 21
2.7045909556
 31
0.0
 11
5.7874768432
 21
2.7078475462
 31
0.0
 11
5.8007578209
 21
2.7109699522
 31
0.0
 11
5.8137090054
 21
2.7139177205
 31
0.0
 11
5.8386990465
 21
2.719193091
 31
0.0
 11
5.8625476913
 21
2.7235311184
 31
0.0
 11
5.8852840063
 21
2.7268538835
 31
0.0
 11
5.9068935263
 21
2.7291204812
 31
0.0
 11
5.9273371696
 21
2.73031114
 31
0.0
 11
5.946559689
 21
2.7304203404
 31
0.0
 11
5.9644925337
 21
2.7294553792
 31
0.0
 11
5.9810609481
 21
2.7274303842
 31
0.0
 11
5.9961834793
 21
2.7243683973
 31
0.0
 11
6.0097763663
 21
2.7202970524
 31
0.0
 11
6.0217522645
 21
2.7152537438
 31
0.0
  0
SPLINE
  5
30F
100
AcDbEntity
  8
0
100
AcDbSpline
 62
9
  6
CONTINUOUS
 70
0
 71
3
 72
39
 73
35
 74
33
 42
0.0000001
 43
0.0000001
 44
0.0000000001
 12
-0.0000000002
 22
1.214919505
 32
0.0
 13
0.0000000002
 23
-1.214919505
 33
0.0
 40
0.0
 40
0.0
 40
0.0
 40
0.0
 40
0.0269869869
 40
0.0405582883
 40
0.0541996957
 40
0.0817503003
 40
0.1097957257
 40
0.1384599944
 40
0.1678379341
 40
0.197992185
 40
0.2289522519
 40
0.2607167984
 40
0.2932515953
 40
0.326496623
 40
0.3603657587
 40
0.4294893889
 40
0.4645575366
 40
0.4997713077
 40
0.5349874618
 40
0.5700661374
 40
0.6048746167
 40
0.6392865629
 40
0.7064063925
 40
0.738979877
 40
0.7707839295
 40
0.8017771188
 40
0.8319629291
 40
0.8613765952
 40
0.8900834355
 40
0.9181738249
 40
0.9320298248
 40
0.9457780442
 40
0.9730042171
 40
1.0
 40
1.0
 40
1.0
 40
1.0
 10
6.0998865439
 20
3.4863174759
 30
0.0
 10
6.0998865439
 20
3.4972464815
 30
0.0
 10
6.0988245698
 20
3.5136960654
 30
0.0
 10
6.0953348449
 20
3.5353765911
 30
0.0
 10
6.0904364318
 20
3.5570204951
 30
0.0
 10
6.0816702823
 20
3.5837356613
 30
0.0
 10
6.0671667
 20
3.6147093914
 30
0.0
 10
6.0487747698
 20
3.6444156145
 30
0.0
 10
6.0266904659
 20
3.672575041
 30
0.0
 10
6.0011250203
 20
3.6989210018
 30
0.0
 10
5.9723315208
 20
3.7232141675
 30
0.0
 10
5.9405786904
 20
3.7452191819
 30
0.0
 10
5.9061783796
 20
3.7647402989
 30
0.0
 10
5.8694493167
 20
3.7815800579
 30
0.0
 10
5.8175275673
 20
3.8003800526
 30
0.0
 10
5.7627850718
 20
3.8130221442
 30
0.0
 10
5.7066542779
 20
3.8194126444
 30
0.0
 10
5.6639179393
 20
3.8210367705
 30
0.0
 10
5.6211791994
 20
3.8194575821
 30
0.0
 10
5.5788447244
 20
3.8146740431
 30
0.0
 10
5.5373102345
 20
3.8067482022
 30
0.0
 10
5.4840099368
 20
3.7921919947
 30
0.0
 10
5.4333966495
 20
3.7716893233
 30
0.0
 10
5.3870134107
 20
3.7454132609
 30
0.0
 10
5.355199616
 20
3.7234132174
 30
0.0
 10
5.3263547364
 20
3.6991158241
 30
0.0
 10
5.3007413824
 20
3.6727597912
 30
0.0
 10
5.2786107544
 20
3.6445784156
 30
0.0
 10
5.2601868598
 20
3.6148366533
 30
0.0
 10
5.2480001591
 20
3.5888678265
 30
0.0
 10
5.2403201631
 20
3.5676473202
 30
0.0
 10
5.2340695299
 20
3.5463272484
 30
0.0
 10
5.2288090344
 20
3.5192320863
 30
0.0
 10
5.2273865439
 20
3.4972500436
 30
0.0
 10
5.2273865439
 20
3.4863174759
 30
0.0
 11
6.0998865439
 21
3.4863174759
 31
0.0
 11
6.0977872992
 21
3.5190372199
 31
0.0
 11
6.0951697447
 21
3.5353161581
 31
0.0
 11
6.091512681
 21
3.5514808491
 31
0.0
 11
6.0811114834
 21
3.5832955356
 31
0.0
 11
6.066697439
 21
3.6141694757
 31
0.0
 11
6.0484069106
 21
3.6438042832
 31
0.0
 11
6.0264192499
 21
3.6719192195
 31
0.0
 11
6.0009435805
 21
3.698246251
 31
0.0
 11
5.9722245726
 21
3.7225367997
 31
0.0
 11
5.9405320629
 21
3.7445567554
 31
0.0
 11
5.9061726501
 21
3.7640971516
 31
0.0
 11
5.8694730644
 21
3.7809641353
 31
0.0
 11
5.8307919435
 21
3.7949980695
 31
0.0
 11
5.749000438
 21
3.8140435584
 31
0.0
 11
5.7066700904
 21
3.8188732285
 31
0.0
 11
5.6639192156
 21
3.8205021676
 31
0.0
 11
5.621163812
 21
3.8189166278
 31
0.0
 11
5.5788162577
 21
3.8141251023
 31
0.0
 11
5.5372799102
 21
3.8061794313
 31
0.0
 11
5.4969543226
 21
3.7951460955
 31
0.0
 11
5.4214737754
 21
3.7642866556
 31
0.0
 11
5.3870576436
 21
3.744750941
 31
0.0
 11
5.3553054566
 21
3.7227327883
 31
0.0
 11
5.3265358274
 21
3.6984397958
 31
0.0
 11
5.3010141217
 21
3.6721039713
 31
0.0
 11
5.2789829686
 21
3.6439679547
 31
0.0
 11
5.260653206
 21
3.6142965868
 31
0.0
 11
5.2461956357
 21
3.5833826878
 31
0.0
 11
5.2404714942
 21
3.5675518566
 31
0.0
 11
5.2357748677
 21
3.5515227819
 31
0.0
 11
5.2294906027
 21
3.519047619
 31
0.0
 11
5.2273865439
 21
3.4863174759
 31
0.0
  0
SPLINE
  5
310
100
AcDbEntity
  8
0
100
AcDbSpline
 62
9
  6
CONTINUOUS
 70
0
 71
3
 72
15
 73
11
 74
9
 42
0.0000001
 43
0.0000001
 44
0.0000000001
 12
0.0
 22
-0.2351391412
 32
0.0
 13
0.1694772152
 23
-0.1629965928
 33
0.0
 40
0.0
 40
0.0
 40
0.0
 40
0.0
 40
0.119426037
 40
0.2395818639
 40
0.3609139239
 40
0.4838935114
 40
0.6089621603
 40
0.7364947267
 40
0.8667748091
 40
1.0
 40
1.0
 40
1.0
 40
1.0
 10
5.2273865439
 20
3.4863174759
 30
0.0
 10
5.2273865439
 20
3.4769568973
 30
0.0
 10
5.2284249409
 20
3.458162747
 30
0.0
 10
5.2330573407
 20
3.4302027105
 30
0.0
 10
5.2407529786
 20
3.4026345191
 30
0.0
 10
5.2514480555
 20
3.3756749465
 30
0.0
 10
5.2650493345
 20
3.3495120332
 30
0.0
 10
5.281471338
 20
3.3243377291
 30
0.0
 10
5.3005793021
 20
3.3003207436
 30
0.0
 10
5.3148641319
 20
3.2853603624
 30
0.0
 10
5.3223903433
 20
3.278121945
 30
0.0
 11
5.2273865439
 21
3.4863174759
 31
0.0
 11
5.2289278512
 21
3.4582780705
 31
0.0
 11
5.2335372389
 21
3.4304032673
 31
0.0
 11
5.2411905673
 21
3.4029190411
 31
0.0
 11
5.2518302175
 21
3.3760302157
 31
0.0
 11
5.2653735502
 21
3.349925809
 31
0.0
 11
5.2817303854
 21
3.3247916097
 31
0.0
 11
5.3007797398
 21
3.3008007616
 31
0.0
 11
5.3223903433
 21
3.278121945
 31
0.0
  0
SPLINE
  5
311
100
AcDbEntity
  8
0
100
AcDbSpline
 62
9
  6
CONTINUOUS
 70
0
 71
3
 72
15
 73
11
 74
9
 42
0.0000001
 43
0.0000001
 44
0.0000000001
 12
0.1676708007
 22
0.1626419457
 32
0.0
 13
-0.0
 23
0.23359345
 33
0.0
 40
0.0
 40
0.0
 40
0.0
 40
0.0
 40
0.1331222383
 40
0.2633464371
 40
0.390879929
 40
0.5159986742
 40
0.6390465116
 40
0.7604426367
 40
0.8806160683
 40
1.0
 40
1.0
 40
1.0
 40
1.0
 10
6.0059946603
 20
3.2791954554
 30
0.0
 10
6.0134348977
 20
3.286412542
 30
0.0
 10
6.0275578173
 20
3.3013216002
 30
0.0
 10
6.0464457129
 20
3.3252400009
 30
0.0
 10
6.0626671691
 20
3.3503078057
 30
0.0
 10
6.0761188187
 20
3.3763392183
 30
0.0
 10
6.0866939685
 20
3.4031567076
 30
0.0
 10
6.0942830735
 20
3.4305707419
 30
0.0
 10
6.0988595741
 20
3.458353148
 30
0.0
 10
6.0998865439
 20
3.4770217078
 30
0.0
 10
6.0998865439
 20
3.4863174759
 30
0.0
 11
6.0059946603
 21
3.2791954554
 31
0.0
 11
6.0273560951
 21
3.3017936932
 31
0.0
 11
6.0461839985
 21
3.3256863122
 31
0.0
 11
6.062346967
 21
3.3507115282
 31
0.0
 11
6.0757394788
 21
3.3766894697
 31
0.0
 11
6.0862580157
 21
3.4034388648
 31
0.0
 11
6.0938122466
 21
3.4307714883
 31
0.0
 11
6.0983636762
 21
3.4584717828
 31
0.0
 11
6.0998865439
 21
3.4863174759
 31
0.0
  0
SPLINE
  5
312
100
AcDbEntity
  8
0
100
AcDbSpline
 62
9
  6
CONTINUOUS
 70
0
 71
3
 72
23
 73
19
 74
17
 42
0.0000001
 43
0.0000001
 44
0.0000000001
 12
0.0828493702
 22
0.6859015526
 32
0.0
 13
0.6814639301
 23
-0.1137183804
 33
0.0
 40
0.0
 40
0.0
 40
0.0
 40
0.0
 40
0.053181214
 40
0.0800461847
 40
0.1071394369
 40
0.162138691
 40
0.2184825085
 40
0.2472360994
 40
0.2763938459
 40
0.3359470069
 40
0.3972047596
 40
0.4601321882
 40
0.5903554096
 40
0.7251893913
 40
0.7937359171
 40
0.8626017668
 40
0.9314619514
 40
1.0
 40
1.0
 40
1.0
 40
1.0
 10
5.215552717
 20
3.54020433
 30
0.0
 10
5.2170213937
 20
3.5523633557
 30
0.0
 10
5.2204995403
 20
3.5705427831
 30
0.0
 10
5.2275634816
 20
3.5941969739
 30
0.0
 10
5.2363237719
 20
3.6177286391
 30
0.0
 10
5.2503511173
 20
3.6464611109
 30
0.0
 10
5.2680482233
 20
3.6735372031
 30
0.0
 10
5.2843251801
 20
3.6942265619
 30
0.0
 10
5.3022502612
 20
3.7145044913
 30
0.0
 10
5.3272750622
 20
3.7384142437
 30
0.0
 10
5.3608261041
 20
3.7643186909
 30
0.0
 10
5.4106013682
 20
3.7953794134
 30
0.0
 10
5.4801354008
 20
3.8260084623
 30
0.0
 10
5.5550907352
 20
3.8445094207
 30
0.0
 10
5.6173965353
 20
3.8519934636
 30
0.0
 10
5.6649207311
 20
3.8538108779
 30
0.0
 10
5.7124281534
 20
3.8517885968
 30
0.0
 10
5.7438689375
 20
3.8478674502
 30
0.0
 10
5.7594376735
 20
3.8452694383
 30
0.0
 11
5.215552717
 21
3.54020433
 31
0.0
 11
5.2224373212
 21
3.5762957762
 31
0.0
 11
5.2277419599
 21
3.5940822585
 31
0.0
 11
5.2342672154
 21
3.6116264516
 31
0.0
 11
5.2508938921
 21
3.645794016
 31
0.0
 11
5.2721355841
 21
3.6784148472
 31
0.0
 11
5.2844123457
 21
3.6940327408
 31
0.0
 11
5.2977486501
 21
3.7091308314
 31
0.0
 11
5.3274525583
 21
3.7376009649
 31
0.0
 11
5.3609155119
 21
3.7635123233
 31
0.0
 11
5.3977701353
 21
3.7865747895
 31
0.0
 11
5.4799691425
 21
3.8231513062
 31
0.0
 11
5.5703576003
 21
3.8456855278
 31
0.0
 11
5.6173760105
 21
3.8513459752
 31
0.0
 11
5.6649195622
 21
3.8531699301
 31
0.0
 11
5.7124508007
 21
3.8511389052
 31
0.0
 11
5.7594376735
 21
3.8452694383
 31
0.0
  0
SPLINE
  5
313
100
AcDbEntity
  8
0
100
AcDbSpline
 62
9
  6
CONTINUOUS
 70
0
 71
3
 72
22
 73
18
 74
16
 42
0.0000001
 43
0.0000001
 44
0.0000000001
 12
0.4920977637
 22
-0.0821181551
 32
0.0
 13
0.0594642996
 23
-0.4953459372
 33
0.0
 40
0.0
 40
0.0
 40
0.0
 40
0.0
 40
0.0703010478
 40
0.1399574552
 40
0.2088157334
 40
0.2767309747
 40
0.4091644345
 40
0.4735820359
 40
0.5366861637
 40
0.598465869
 40
0.6589513506
 40
0.7182008801
 40
0.7763059542
 40
0.8333829709
 40
0.8895753977
 40
0.9450559526
 40
1.0
 40
1.0
 40
1.0
 40
1.0
 10
5.7594376735
 20
3.8452694383
 30
0.0
 10
5.7709693363
 20
3.8433451075
 30
0.0
 10
5.7938163969
 20
3.8388096131
 30
0.0
 10
5.8274067128
 20
3.8299156847
 30
0.0
 10
5.8599888986
 20
3.8190199215
 30
0.0
 10
5.9014492228
 20
3.8020688503
 30
0.0
 10
5.9404710234
 20
3.7813012867
 30
0.0
 10
5.9762173172
 20
3.7569323828
 30
0.0
 10
6.0008402516
 20
3.7372642697
 30
0.0
 10
6.0233587868
 20
3.7161634167
 30
0.0
 10
6.0436453501
 20
3.6937624917
 30
0.0
 10
6.0615631292
 20
3.6701852778
 30
0.0
 10
6.0770009574
 20
3.6455789155
 30
0.0
 10
6.0898704425
 20
3.6201033657
 30
0.0
 10
6.100078109
 20
3.5939132459
 30
0.0
 10
6.1075287825
 20
3.5671790326
 30
0.0
 10
6.1106558167
 20
3.5490456092
 30
0.0
 10
6.1117448865
 20
3.5399735057
 30
0.0
 11
5.7594376735
 21
3.8452694383
 31
0.0
 11
5.7938375207
 21
3.8384290305
 31
0.0
 11
5.8274291559
 21
3.829524758
 31
0.0
 11
5.8600050601
 21
3.818617075
 31
0.0
 11
5.8913602605
 21
3.8057751793
 31
0.0
 11
5.9496157315
 21
3.774602658
 31
0.0
 11
5.9761559339
 21
3.756478783
 31
0.0
 11
6.0007385102
 21
3.7368099327
 31
0.0
 11
6.0232126847
 21
3.7157170472
 31
0.0
 11
6.0434470603
 21
3.6933299473
 31
0.0
 11
6.0613120355
 21
3.6697795666
 31
0.0
 11
6.0766989329
 21
3.6452114647
 31
0.0
 11
6.0895167884
 21
3.6197835822
 31
0.0
 11
6.0996751971
 21
3.5936542508
 31
0.0
 11
6.1070956483
 21
3.5669880723
 31
0.0
 11
6.1117448865
 21
3.5399735057
 31
0.0
  0
SPLINE
  5
314
100
AcDbEntity
  8
0
100
AcDbSpline
 62
9
  6
CONTINUOUS
 70
0
 71
3
 72
22
 73
18
 74
16
 42
0.0000001
 43
0.0000001
 44
0.0000000001
 12
-0.0000532697
 22
0.4767284574
 32
0.0
 13
-0.4366950495
 23
0.1912261975
 33
0.0
 40
0.0
 40
0.0
 40
0.0
 40
0.0
 40
0.0570176985
 40
0.1142080564
 40
0.1717367803
 40
0.2297656833
 40
0.2884446682
 40
0.3479105132
 40
0.4082812461
 40
0.4696423513
 40
0.5320586826
 40
0.5955800832
 40
0.6602340899
 40
0.726022511
 40
0.7929308626
 40
0.8609331423
 40
1.0
 40
1.0
 40
1.0
 40
1.0
 10
6.2036351947
 20
5.3503867071
 30
0.0
 10
6.2036341823
 20
5.3594473603
 30
0.0
 10
6.2028523063
 20
5.3776054973
 30
0.0
 10
6.1993530643
 20
5.4047024764
 30
0.0
 10
6.1935342635
 20
5.4315638386
 30
0.0
 10
6.185420275
 20
5.4580690499
 30
0.0
 10
6.1750550984
 20
5.4841080938
 30
0.0
 10
6.1624769855
 20
5.5095679613
 30
0.0
 10
6.1477359673
 20
5.534335324
 30
0.0
 10
6.1309086457
 20
5.5583084999
 30
0.0
 10
6.1120688819
 20
5.5813834078
 30
0.0
 10
6.0912895223
 20
5.6034511353
 30
0.0
 10
6.0686652672
 20
5.6244176649
 30
0.0
 10
6.0443036543
 20
5.6442001408
 30
0.0
 10
6.0183067604
 20
5.6627131963
 30
0.0
 10
5.9813436038
 20
5.6857546889
 30
0.0
 10
5.9518901737
 20
5.7006422364
 30
0.0
 10
5.9316469043
 20
5.7095066452
 30
0.0
 11
6.2036351947
 21
5.3503867071
 31
0.0
 11
6.2024683597
 21
5.3775436109
 31
0.0
 11
6.1989805324
 21
5.4045838689
 31
0.0
 11
6.1931820858
 21
5.4313894737
 31
0.0
 11
6.1850966344
 21
5.4578455508
 31
0.0
 11
6.1747626078
 21
5.4838407297
 31
0.0
 11
6.1622192859
 21
5.5092638358
 31
0.0
 11
6.1475163607
 21
5.5340052604
 31
0.0
 11
6.1307249914
 21
5.5579586247
 31
0.0
 11
6.1119189872
 21
5.5810179483
 31
0.0
 11
6.0911732494
 21
5.6030779056
 31
0.0
 11
6.0685796244
 21
5.6240433239
 31
0.0
 11
6.0442433155
 21
5.6438270339
 31
0.0
 11
6.0182698885
 21
5.6623420835
 31
0.0
 11
5.990767531
 21
5.6795056318
 31
0.0
 11
5.9316469043
 21
5.7095066452
 31
0.0
  0
SPLINE
  5
315
100
AcDbEntity
  8
0
100
AcDbSpline
 62
9
  6
CONTINUOUS
 70
0
 71
3
 72
12
 73
8
 74
6
 42
0.0000001
 43
0.0000001
 44
0.0000000001
 12
-0.2522120825
 22
0.1104421897
 32
0.0
 13
-0.2753332741
 23
-0.0
 33
0.0
 40
0.0
 40
0.0
 40
0.0
 40
0.0
 40
0.2441347319
 40
0.3682369743
 40
0.4934091088
 40
0.7460302549
 40
1.0
 40
1.0
 40
1.0
 40
1.0
 10
5.9316469043
 20
5.7095066452
 30
0.0
 10
5.9111223279
 20
5.7184942367
 30
0.0
 10
5.8793711541
 20
5.7303213992
 30
0.0
 10
5.8358148901
 20
5.7427584844
 30
0.0
 10
5.7909085337
 20
5.7531039795
 30
0.0
 10
5.7334694178
 20
5.7617360141
 30
0.0
 10
5.6869453177
 20
5.7640507065
 30
0.0
 10
5.6636365439
 20
5.7640507065
 30
0.0
 11
5.9316469043
 21
5.7095066452
 31
0.0
 11
5.8686893503
 21
5.7330579026
 31
0.0
 11
5.8358353581
 21
5.7424477022
 31
0.0
 11
5.8022519063
 21
5.7501886814
 31
0.0
 11
5.7334762794
 21
5.7605719456
 31
0.0
 11
5.6636365439
 21
5.7640507065
 31
0.0
  0
SPLINE
  5
316
100
AcDbEntity
  8
0
100
AcDbSpline
 62
7
  6
CONTINUOUS
 70
0
 71
3
 72
9
 73
5
 74
3
 42
0.0000001
 43
0.0000001
 44
0.0000000001
 12
0.0335698766
 22
0.0335761036
 32
0.0
 13
0.0378832776
 23
0.0286207726
 33
0.0
 40
0.0
 40
0.0
 40
0.0
 40
0.0
 40
0.2466040718
 40
1.0
 40
1.0
 40
1.0
 40
1.0
 10
5.3538488278
 20
5.9521419321
 30
0.0
 10
5.3566083172
 20
5.9549019334
 30
0.0
 10
5.3679998169
 20
5.9658911924
 30
0.0
 10
5.3801711471
 20
5.976067498
 30
0.0
 10
5.3896848494
 20
5.9832550892
 30
0.0
 11
5.3538488278
 21
5.9521419321
 31
0.0
 11
5.3622741219
 21
5.9602724868
 31
0.0
 11
5.3896848494
 21
5.9832550892
 31
0.0
  0
SPLINE
  5
317
100
AcDbEntity
  8
0
100
AcDbSpline
 62
7
  6
CONTINUOUS
 70
0
 71
3
 72
13
 73
9
 74
7
 42
0.0000001
 43
0.0000001
 44
0.0000000001
 12
0.2328924265
 22
0.1759499601
 32
0.0
 13
0.2918857152
 23
-0.0
 33
0.0
 40
0.0
 40
0.0
 40
0.0
 40
0.0
 40
0.2375006062
 40
0.4851703356
 40
0.6121467644
 40
0.7406645654
 40
0.8701873336
 40
1.0
 40
1.0
 40
1.0
 40
1.0
 10
5.3896848494
 20
5.9832550892
 30
0.0
 10
5.4081222136
 20
5.9971844966
 30
0.0
 10
5.4485827143
 20
6.022065354
 30
0.0
 10
5.5040967785
 20
6.0443632842
 30
0.0
 10
5.5513875692
 20
6.0571772526
 30
0.0
 10
5.5882306357
 20
6.0641613551
 30
0.0
 10
5.6257643393
 20
6.0683724483
 30
0.0
 10
5.6510063896
 20
6.0693191959
 30
0.0
 10
5.6636365439
 20
6.0693191959
 30
0.0
 11
5.3896848494
 21
5.9832550892
 31
0.0
 11
5.4485825695
 21
6.019816567
 31
0.0
 11
5.5155823483
 21
6.0469653303
 31
0.0
 11
5.5513503082
 21
6.0566756232
 31
0.0
 11
5.5882036554
 21
6.0636769961
 31
0.0
 11
5.6257725523
 21
6.067903102
 31
0.0
 11
5.6636365439
 21
6.0693191959
 31
0.0
  0
SPLINE
  5
318
100
AcDbEntity
  8
0
100
AcDbSpline
 62
9
  6
CONTINUOUS
 70
0
 71
3
 72
24
 73
20
 74
18
 42
0.0000001
 43
0.0000001
 44
0.0000000001
 12
-1.2854982256
 22
0.0
 32
0.0
 13
-0.2123478676
 23
1.2678383458
 33
0.0
 40
0.0
 40
0.0
 40
0.0
 40
0.0
 40
0.0738981675
 40
0.1474993751
 40
0.220360844
 40
0.2921521137
 40
0.3625752705
 40
0.4313294141
 40
0.4981394119
 40
0.5628058405
 40
0.6251823182
 40
0.6851746065
 40
0.7427558955
 40
0.7979893252
 40
0.8510269556
 40
0.9021231744
 40
0.951625959
 40
0.975927493
 40
1.0
 40
1.0
 40
1.0
 40
1.0
 10
5.6636365439
 20
0.7298635192
 30
0.0
 10
5.6319712228
 20
0.7298635192
 30
0.0
 10
5.5687523199
 20
0.7317260137
 30
0.0
 10
5.4746422189
 20
0.7400462243
 30
0.0
 10
5.3820879661
 20
0.7538610181
 30
0.0
 10
5.2918834215
 20
0.7730330473
 30
0.0
 10
5.2047704106
 20
0.7974231882
 30
0.0
 10
5.121465033
 20
0.8267995084
 30
0.0
 10
5.0426737389
 20
0.8609469289
 30
0.0
 10
4.9690408645
 20
0.8995691653
 30
0.0
 10
4.901173304
 20
0.9423670903
 30
0.0
 10
4.839621804
 20
0.988981467
 30
0.0
 10
4.7849159616
 20
1.0390561943
 30
0.0
 10
4.7375039899
 20
1.0921726142
 30
0.0
 10
4.6978098906
 20
1.1479243331
 30
0.0
 10
4.6661714216
 20
1.2058413983
 30
0.0
 10
4.6466627652
 20
1.2558627981
 30
0.0
 10
4.6354624856
 20
1.2963067858
 30
0.0
 10
4.6313149238
 20
1.3166369102
 30
0.0
 10
4.6296110086
 20
1.3268102593
 30
0.0
 11
5.6636365439
 21
0.7298635192
 31
0.0
 11
5.5686817558
 21
0.7326601661
 31
0.0
 11
5.4744374743
 21
0.7410187771
 31
0.0
 11
5.3818051105
 21
0.7548772357
 31
0.0
 11
5.2915447767
 21
0.7741142834
 31
0.0
 11
5.2043841092
 21
0.7985783275
 31
0.0
 11
5.1210594635
 21
0.8280506262
 31
0.0
 11
5.0422941233
 21
0.8622866538
 31
0.0
 11
4.9687299353
 21
0.9009993252
 31
0.0
 11
4.9009699185
 21
0.9438734492
 31
0.0
 11
4.8395769731
 21
0.9905467562
 31
0.0
 11
4.7850750612
 21
1.0406326572
 31
0.0
 11
4.7379130585
 21
1.0937089898
 31
0.0
 11
4.6984917571
 21
1.1493367109
 31
0.0
 11
4.6671340973
 21
1.2070523759
 31
0.0
 11
4.6441130884
 21
1.2663780937
 31
0.0
 11
4.6357865699
 21
1.2964875668
 31
0.0
 11
4.6296110086
 21
1.3268102593
 31
0.0
  0
SPLINE
  5
319
100
AcDbEntity
  8
0
100
AcDbSpline
 62
9
  6
CONTINUOUS
 70
0
 71
3
 72
9
 73
5
 74
3
 42
0.0000001
 43
0.0000001
 44
0.0000000001
 12
-0.0061359914
 22
-0.0719413783
 32
0.0
 13
-0.0239991267
 23
-0.0680973878
 33
0.0
 40
0.0
 40
0.0
 40
0.0
 40
0.0
 40
0.4969275508
 40
1.0
 40
1.0
 40
1.0
 40
1.0
 10
6.1326365439
 20
6.1576903371
 30
0.0
 10
6.1316201629
 20
6.1457737861
 30
0.0
 10
6.1280043531
 20
6.1219035267
 30
0.0
 10
6.1213951956
 20
6.0986879386
 30
0.0
 10
6.1173707624
 20
6.0872686321
 30
0.0
 11
6.1326365439
 21
6.1576903371
 31
0.0
 11
6.1272874036
 21
6.1222118696
 31
0.0
 11
6.1173707624
 21
6.0872686321
 31
0.0
  0
SPLINE
  5
31A
100
AcDbEntity
  8
0
100
AcDbSpline
 62
9
  6
CONTINUOUS
 70
0
 71
3
 72
11
 73
7
 74
5
 42
0.0000001
 43
0.0000001
 44
0.0000000001
 12
-0.0510826356
 22
-0.1361413166
 32
0.0
 13
-0.1031769671
 23
-0.1024617352
 33
0.0
 40
0.0
 40
0.0
 40
0.0
 40
0.0
 40
0.2417658782
 40
0.4884841321
 40
0.7410443314
 40
1.0
 40
1.0
 40
1.0
 40
1.0
 10
6.1153332249
 20
6.0816677726
 30
0.0
 10
6.1112165455
 20
6.0706963309
 30
0.0
 10
6.101576562
 20
6.0490032938
 30
0.0
 10
6.0833631342
 20
6.0179648424
 30
0.0
 10
6.0614201548
 20
5.9884007145
 30
0.0
 10
6.0446539802
 20
5.970071062
 30
0.0
 10
6.0357478933
 20
5.961226713
 30
0.0
 11
6.1153332249
 21
6.0816677726
 31
0.0
 11
6.1010947259
 21
6.0495252559
 31
0.0
 11
6.0829749789
 21
6.0185623523
 31
0.0
 11
6.061126653
 21
5.9890437328
 31
0.0
 11
6.0357478933
 21
5.961226713
 31
0.0
  0
SPLINE
  5
31B
100
AcDbEntity
  8
0
100
AcDbSpline
 62
9
  6
CONTINUOUS
 70
0
 71
3
 72
11
 73
7
 74
5
 42
0.0000001
 43
0.0000001
 44
0.0000000001
 12
-0.099635867
 22
0.1008270239
 32
0.0
 13
-0.0497918125
 23
0.1327183866
 33
0.0
 40
0.0
 40
0.0
 40
0.0
 40
0.0
 40
0.2587075845
 40
0.5111924206
 40
0.7580040168
 40
1.0
 40
1.0
 40
1.0
 40
1.0
 10
5.288929247
 20
5.9638290323
 30
0.0
 10
5.2803370622
 20
5.9725239376
 30
0.0
 10
5.2641563794
 20
5.9905177777
 30
0.0
 10
5.2429594638
 20
6.019464299
 30
0.0
 10
5.2253231296
 20
6.049801422
 30
0.0
 10
5.2159518357
 20
6.0709739983
 30
0.0
 10
5.2119353628
 20
6.0816797705
 30
0.0
 11
5.288929247
 21
5.9638290323
 31
0.0
 11
5.2644423677
 21
5.9911280415
 31
0.0
 11
5.243333585
 21
6.0200303758
 31
0.0
 11
5.22578426
 21
6.0502963584
 31
0.0
 11
5.2119353628
 21
6.0816797705
 31
0.0
  0
SPLINE
  5
31C
100
AcDbEntity
  8
0
100
AcDbSpline
 62
9
  6
CONTINUOUS
 70
0
 71
3
 72
9
 73
5
 74
3
 42
0.0000001
 43
0.0000001
 44
0.0000000001
 12
-0.02399937
 22
0.0680977246
 32
0.0
 13
-0.0061360253
 23
0.0719417755
 33
0.0
 40
0.0
 40
0.0
 40
0.0
 40
0.0
 40
0.5030723818
 40
1.0
 40
1.0
 40
1.0
 40
1.0
 10
5.2099024574
 20
6.0872682557
 30
0.0
 10
5.205877984
 20
6.0986876172
 30
0.0
 10
5.1992687649
 20
6.1219033275
 30
0.0
 10
5.1956529307
 20
6.1457737187
 30
0.0
 10
5.1946365439
 20
6.1576903371
 30
0.0
 11
5.2099024574
 21
6.0872682557
 31
0.0
 11
5.1999857241
 21
6.1222116704
 31
0.0
 11
5.1946365439
 21
6.1576903371
 31
0.0
  0
SPLINE
  5
31D
100
AcDbEntity
  8
0
100
AcDbSpline
 62
9
  6
CONTINUOUS
 70
0
 71
3
 72
39
 73
35
 74
33
 42
0.0000001
 43
0.0000001
 44
0.0000000001
 12
0.1072560818
 22
1.2575230112
 32
0.0
 13
0.1072560818
 23
-1.2575230112
 33
0.0
 40
0.0
 40
0.0
 40
0.0
 40
0.0
 40
0.0269321374
 40
0.0541739573
 40
0.0818318848
 40
0.1100245976
 40
0.1388614044
 40
0.1684182628
 40
0.1987324537
 40
0.2298169603
 40
0.2616556429
 40
0.2942111272
 40
0.3274212641
 40
0.3612058001
 40
0.3954693565
 40
0.4301022289
 40
0.4649875306
 40
0.5000000238
 40
0.5350125167
 40
0.5698978182
 40
0.6045306903
 40
0.6387942461
 40
0.6725787816
 40
0.705788917
 40
0.738344401
 40
0.7701830826
 40
0.8012675879
 40
0.8315817766
 40
0.861138634
 40
0.8899754443
 40
0.9181681566
 40
0.9458260706
 40
0.9730678714
 40
1.0
 40
1.0
 40
1.0
 40
1.0
 10
5.1946365439
 20
6.2046383006
 30
0.0
 10
5.1955994224
 20
6.2159275614
 30
0.0
 10
5.1989461102
 20
6.2385386878
 30
0.0
 10
5.2080595985
 20
6.271817265
 30
0.0
 10
5.22123006
 20
6.3042840898
 30
0.0
 10
5.2383190047
 20
6.3356293915
 30
0.0
 10
5.2591679959
 20
6.3655833299
 30
0.0
 10
5.2835883709
 20
6.3938870002
 30
0.0
 10
5.3113540034
 20
6.4203025852
 30
0.0
 10
5.3422299415
 20
6.4445830834
 30
0.0
 10
5.3759274681
 20
6.4665373079
 30
0.0
 10
5.4121608417
 20
6.4859570641
 30
0.0
 10
5.4506015617
 20
6.5026907501
 30
0.0
 10
5.490917246
 20
6.5165815826
 30
0.0
 10
5.5327507791
 20
6.5275127396
 30
0.0
 10
5.5757345639
 20
6.5353930757
 30
0.0
 10
5.6194917748
 20
6.5401424731
 30
0.0
 10
5.6636365737
 20
6.541737095
 30
0.0
 10
5.7077813726
 20
6.540142469
 30
0.0
 10
5.7515385822
 20
6.535393064
 30
0.0
 10
5.7945223668
 20
6.5275127289
 30
0.0
 10
5.8363558972
 20
6.516581564
 30
0.0
 10
5.8766715808
 20
6.5026907329
 30
0.0
 10
5.9151122959
 20
6.4859570379
 30
0.0
 10
5.9513456672
 20
6.46653728
 30
0.0
 10
5.9850431896
 20
6.4445830509
 30
0.0
 10
6.0159191231
 20
6.4203025501
 30
0.0
 10
6.0436847552
 20
6.3938869672
 30
0.0
 10
6.0681051222
 20
6.3655832897
 30
0.0
 10
6.0889541099
 20
6.3356293476
 30
0.0
 10
6.1060430396
 20
6.3042840432
 30
0.0
 10
6.1192135025
 20
6.2718172345
 30
0.0
 10
6.1283269844
 20
6.2385386731
 30
0.0
 10
6.1316736657
 20
6.2159275577
 30
0.0
 10
6.1326365439
 20
6.2046383006
 30
0.0
 11
5.1946365439
 21
6.2046383006
 31
0.0
 11
5.1995909673
 21
6.2382660361
 31
0.0
 11
5.2086504162
 21
6.2714325916
 31
0.0
 11
5.2217381457
 21
6.3037929556
 31
0.0
 11
5.2387325822
 21
6.3350539039
 31
0.0
 11
5.2594859386
 21
6.3649514919
 31
0.0
 11
5.2838172802
 21
6.3932274154
 31
0.0
 11
5.3115063183
 21
6.419629754
 31
0.0
 11
5.3423146219
 21
6.4439186739
 31
0.0
 11
5.3759624834
 21
6.4658848847
 31
0.0
 11
5.4121582154
 21
6.4853293017
 31
0.0
 11
5.4505773625
 21
6.5020853231
 31
0.0
 11
5.4908819388
 21
6.5160005119
 31
0.0
 11
5.5327155414
 21
6.5269532677
 31
0.0
 11
5.5757064744
 21
6.5348477372
 31
0.0
 11
5.6194764827
 21
6.539610265
 31
0.0
 11
5.6636365739
 21
6.5412049092
 31
0.0
 11
5.7077966644
 21
6.5396102604
 31
0.0
 11
5.7515666719
 21
6.5348477269
 31
0.0
 11
5.7945576042
 21
6.5269532554
 31
0.0
 11
5.8363912046
 21
6.5160004948
 31
0.0
 11
5.8766957797
 21
6.502085304
 31
0.0
 11
5.9151149223
 21
6.4853292769
 31
0.0
 11
5.9513106518
 21
6.4658848561
 31
0.0
 11
5.9849585094
 21
6.4439186415
 31
0.0
 11
6.0157668092
 21
6.4196297194
 31
0.0
 11
6.043455844
 21
6.3932273814
 31
0.0
 11
6.0677871789
 21
6.3649514539
 31
0.0
 11
6.0885405316
 21
6.3350538579
 31
0.0
 11
6.1055349596
 21
6.3037929057
 31
0.0
 11
6.1186226845
 21
6.2714325583
 31
0.0
 11
6.1276821258
 21
6.2382660257
 31
0.0
 11
6.1326365439
 21
6.2046383006
 31
0.0
  0
SPLINE
  5
31E
100
AcDbEntity
  8
0
100
AcDbSpline
 62
9
  6
CONTINUOUS
 70
0
 71
3
 72
11
 73
7
 74
5
 42
0.0000001
 43
0.0000001
 44
0.0000000001
 12
0.0
 22
0.147032319
 32
0.0
 13
-0.0773482422
 23
0.1250430016
 33
0.0
 40
0.0
 40
0.0
 40
0.0
 40
0.0
 40
0.2448656822
 40
0.4921275825
 40
0.7432839167
 40
1.0
 40
1.0
 40
1.0
 40
1.0
 10
6.0885629508
 20
6.1811643188
 30
0.0
 10
6.0885629508
 20
6.1931653752
 30
0.0
 10
6.08680045
 20
6.2173191247
 30
0.0
 10
6.0789776538
 20
6.2530186671
 30
0.0
 10
6.0660302515
 20
6.287811577
 30
0.0
 10
6.0542604717
 20
6.3098390363
 30
0.0
 10
6.0476416257
 20
6.3205392195
 30
0.0
 11
6.0885629508
 21
6.1811643188
 31
0.0
 11
6.085963089
 21
6.2170734946
 31
0.0
 11
6.0782064538
 21
6.2525918885
 31
0.0
 11
6.0653767739
 21
6.2872196773
 31
0.0
 11
6.0476416257
 21
6.3205392195
 31
0.0
  0
SPLINE
  5
31F
100
AcDbEntity
  8
0
100
AcDbSpline
 62
9
  6
CONTINUOUS
 70
0
 71
3
 72
19
 73
15
 74
13
 42
0.0000001
 43
0.0000001
 44
0.0000000001
 12
-0.2379733224
 22
0.3688329499
 32
0.0
 13
-0.4389408241
 23
-0.0000011257
 33
0.0
 40
0.0
 40
0.0
 40
0.0
 40
0.0
 40
0.1118203841
 40
0.1693369955
 40
0.2279412003
 40
0.2876366594
 40
0.3484061283
 40
0.4729604304
 40
0.601181722
 40
0.6664795229
 40
0.7324097108
 40
0.7988563018
 40
0.8656983785
 40
1.0
 40
1.0
 40
1.0
 40
1.0
 10
6.0445909625
 20
6.3253674546
 30
0.0
 10
6.035720873
 20
6.3391151353
 30
0.0
 10
6.0205677529
 20
6.358878949
 30
0.0
 10
5.9974818118
 20
6.3829720367
 30
0.0
 10
5.9783830002
 20
6.4002401638
 30
0.0
 10
5.9577717289
 20
6.4164470179
 30
0.0
 10
5.9281689244
 20
6.4367074025
 30
0.0
 10
5.8878675347
 20
6.4588909244
 30
0.0
 10
5.8446066577
 20
6.4763442757
 30
0.0
 10
5.8083064433
 20
6.4875056013
 30
0.0
 10
5.7802163172
 20
6.4944576625
 30
0.0
 10
5.7515646211
 20
6.499899857
 30
0.0
 10
5.7127475784
 20
6.5051084586
 30
0.0
 10
5.6832853914
 20
6.5066765275
 30
0.0
 10
5.6636352366
 20
6.5066764771
 30
0.0
 11
6.0445909625
 21
6.3253674546
 31
0.0
 11
6.0148374218
 21
6.3644036137
 31
0.0
 11
5.9973825946
 21
6.3826439305
 31
0.0
 11
5.9783136214
 21
6.399909127
 31
0.0
 11
5.9577262621
 21
6.4161185688
 31
0.0
 11
5.9357215367
 21
6.431195208
 31
0.0
 11
5.8878801319
 21
6.4576569554
 31
0.0
 11
5.8357168658
 21
6.4787900477
 31
0.0
 11
5.8083237556
 21
6.4872233353
 31
0.0
 11
5.7802333085
 21
6.4941816835
 31
0.0
 11
5.7515803831
 21
6.4996289305
 31
0.0
 11
5.7225019992
 21
6.5035361726
 31
0.0
 11
5.6636352366
 21
6.5066764771
 31
0.0
  0
SPLINE
  5
320
100
AcDbEntity
  8
0
100
AcDbSpline
 62
9
  6
CONTINUOUS
 70
0
 71
3
 72
14
 73
10
 74
8
 42
0.0000001
 43
0.0000001
 44
0.0000000001
 12
-0.3401815165
 22
-0.0072173788
 32
0.0
 13
-0.2520826258
 23
-0.228538628
 33
0.0
 40
0.0
 40
0.0
 40
0.0
 40
0.0
 40
0.2613443749
 40
0.3904258903
 40
0.5176587042
 40
0.6425696451
 40
0.764774945
 40
0.8839742416
 40
1.0
 40
1.0
 40
1.0
 40
1.0
 10
5.6519043465
 20
6.5065519872
 30
0.0
 10
5.6222695045
 20
6.5059232467
 30
0.0
 10
5.5779554509
 20
6.501435823
 30
0.0
 10
5.5206754315
 20
6.4883329708
 30
0.0
 10
5.479430053
 20
6.4751680364
 30
0.0
 10
5.4402152387
 20
6.4587497232
 30
0.0
 10
5.4034446727
 20
6.4392772414
 30
0.0
 10
5.3695394411
 20
6.4169428902
 30
0.0
 10
5.3487953914
 20
6.400076811
 30
0.0
 10
5.3390460321
 20
6.3912380218
 30
0.0
 11
5.6519043465
 21
6.5065519872
 31
0.0
 11
5.5634419056
 21
6.4974983085
 31
0.0
 11
5.5206308152
 21
6.4876867244
 31
0.0
 11
5.479399505
 21
6.4744891635
 31
0.0
 11
5.4402080565
 21
6.4580439026
 31
0.0
 11
5.4034844924
 21
6.4385403735
 31
0.0
 11
5.3696413092
 21
6.416187908
 31
0.0
 11
5.3390460321
 21
6.3912380218
 31
0.0
  0
SPLINE
  5
321
100
AcDbEntity
  8
0
100
AcDbSpline
 62
9
  6
CONTINUOUS
 70
0
 71
3
 72
14
 73
10
 74
8
 42
0.0000001
 43
0.0000001
 44
0.0000000001
 12
-0.1622812158
 22
-0.1559457811
 32
0.0
 13
-0.0037185679
 23
-0.2250343349
 33
0.0
 40
0.0
 40
0.0
 40
0.0
 40
0.0
 40
0.2632800576
 40
0.3908573161
 40
0.5159637619
 40
0.6389879042
 40
0.7603846305
 40
0.8805913854
 40
1.0
 40
1.0
 40
1.0
 40
1.0
 10
5.3313726175
 20
6.3840764578
 30
0.0
 10
5.3171308149
 20
6.370390653
 30
0.0
 10
5.2976064292
 20
6.3482406128
 30
0.0
 10
5.2762794251
 20
6.3158855197
 30
0.0
 10
5.2630831116
 20
6.2909249667
 30
0.0
 10
5.2526126045
 20
6.2652051492
 30
0.0
 10
5.2449567146
 20
6.2388902335
 30
0.0
 10
5.2401656218
 20
6.2121845594
 30
0.0
 10
5.2388919599
 20
6.194212302
 30
0.0
 10
5.2387439502
 20
6.1852552893
 30
0.0
 11
5.3313726175
 21
6.3840764578
 31
0.0
 11
5.2923561334
 21
6.3394795329
 31
0.0
 11
5.2765773247
 21
6.3154904506
 31
0.0
 11
5.263438211
 21
6.2905869295
 31
0.0
 11
5.2530208979
 21
6.2649329034
 31
0.0
 11
5.2454029448
 21
6.2386942435
 31
0.0
 11
5.2406347949
 21
6.2120633955
 31
0.0
 11
5.2387439502
 21
6.1852552893
 31
0.0
  0
SPLINE
  5
322
100
AcDbEntity
  8
0
100
AcDbSpline
 62
9
  6
CONTINUOUS
 70
0
 71
3
 72
14
 73
10
 74
8
 42
0.0000001
 43
0.0000001
 44
0.0000000001
 12
0.0
 22
-0.2033624908
 32
0.0
 13
0.1357766297
 23
-0.1513968608
 33
0.0
 40
0.0
 40
0.0
 40
0.0
 40
0.0
 40
0.1203659072
 40
0.2413767013
 40
0.363363586
 40
0.4866676624
 40
0.6116818256
 40
0.7387648618
 40
1.0
 40
1.0
 40
1.0
 40
1.0
 10
5.238710137
 20
6.1811643188
 30
0.0
 10
5.238710137
 20
6.1730050153
 30
0.0
 10
5.2395214456
 20
6.1566315704
 30
0.0
 10
5.2431390981
 20
6.1322301306
 30
0.0
 10
5.249139227
 20
6.1080951598
 30
0.0
 10
5.2575026057
 20
6.0843886582
 30
0.0
 10
5.2681667519
 20
6.0612422675
 30
0.0
 10
5.2855147729
 20
6.0310385496
 30
0.0
 10
5.3016030204
 20
6.0099990032
 30
0.0
 10
5.3134262292
 20
5.9968156099
 30
0.0
 11
5.238710137
 21
6.1811643188
 31
0.0
 11
5.2399151147
 21
6.156716085
 31
0.0
 11
5.2435165222
 21
6.1323719783
 31
0.0
 11
5.2494940716
 21
6.1082953554
 31
0.0
 11
5.2578204632
 21
6.0846427002
 31
0.0
 11
5.2684419794
 21
6.0615446036
 31
0.0
 11
5.2812986809
 21
6.0391255588
 31
0.0
 11
5.3134262292
 21
5.9968156099
 31
0.0
  0
SPLINE
  5
323
100
AcDbEntity
  8
0
100
AcDbSpline
 62
9
  6
CONTINUOUS
 70
0
 71
3
 72
14
 73
10
 74
8
 42
0.0000001
 43
0.0000001
 44
0.0000000001
 12
0.1347763557
 22
0.1510868717
 32
0.0
 13
0.0
 23
0.2024645867
 33
0.0
 40
0.0
 40
0.0
 40
0.0
 40
0.0
 40
0.2611593488
 40
0.3882262342
 40
0.5132391568
 40
0.6365549535
 40
0.758563383
 40
0.879602181
 40
1.0
 40
1.0
 40
1.0
 40
1.0
 10
6.014446335
 20
5.9974858403
 30
0.0
 10
6.0261790367
 20
6.0106384233
 30
0.0
 10
6.0421406723
 20
6.0316183942
 30
0.0
 10
6.0593479514
 20
6.0617179755
 30
0.0
 10
6.0699254608
 20
6.0847796392
 30
0.0
 10
6.0782201385
 20
6.1083946637
 30
0.0
 10
6.0841706634
 20
6.1324327503
 30
0.0
 10
6.0877583938
 20
6.1567337783
 30
0.0
 10
6.0885629508
 20
6.1730388873
 30
0.0
 10
6.0885629508
 20
6.1811643188
 30
0.0
 11
6.014446335
 21
5.9974858403
 31
0.0
 11
6.0463208117
 21
6.0396739702
 31
0.0
 11
6.0590741499
 21
6.0620169211
 31
0.0
 11
6.0696095665
 21
6.0850307433
 31
0.0
 11
6.0778678636
 21
6.1085924856
 31
0.0
 11
6.0837962221
 21
6.1325729454
 31
0.0
 11
6.0873679295
 21
6.1568173341
 31
0.0
 11
6.0885629508
 21
6.1811643188
 31
0.0
  0
SPLINE
  5
324
100
AcDbEntity
  8
0
100
AcDbSpline
 62
9
  6
CONTINUOUS
 70
0
 71
3
 72
36
 73
32
 74
30
 42
0.0000001
 43
0.0000001
 44
0.0000000001
 12
0.4195819915
 22
1.0622450067
 32
0.0
 13
0.4195819915
 23
-1.0622450067
 33
0.0
 40
0.0
 40
0.0
 40
0.0
 40
0.0
 40
0.0271701937
 40
0.0548509394
 40
0.0830813023
 40
0.1118969472
 40
0.1413274062
 40
0.1713884677
 40
0.2020802072
 40
0.2333879196
 40
0.2652825213
 40
0.2977182009
 40
0.3306399735
 40
0.3639798786
 40
0.3976618791
 40
0.431606312
 40
0.4657293601
 40
0.4999449404
 40
0.5341635197
 40
0.5682938559
 40
0.6022479852
 40
0.6359422524
 40
0.7022010554
 40
0.7665327735
 40
0.7978593565
 40
0.8285713185
 40
0.888055284
 40
0.9168902667
 40
0.9451365717
 40
0.9728268012
 40
1.0
 40
1.0
 40
1.0
 40
1.0
 10
5.1946365439
 20
6.3027309276
 30
0.0
 10
5.1984365852
 20
6.3123513951
 30
0.0
 10
5.2070816228
 20
6.3314023431
 30
0.0
 10
5.222845056
 20
6.3588736806
 30
0.0
 10
5.2414221788
 20
6.3852971236
 30
0.0
 10
5.2626879222
 20
6.4104823522
 30
0.0
 10
5.2864875201
 20
6.4342809843
 30
0.0
 10
5.3126778921
 20
6.4565361742
 30
0.0
 10
5.3410884771
 20
6.4771161307
 30
0.0
 10
5.37154194
 20
6.49589426
 30
0.0
 10
5.403848529
 20
6.5127503374
 30
0.0
 10
5.4378008564
 20
6.527587494
 30
0.0
 10
5.4731888331
 20
6.5402989681
 30
0.0
 10
5.5097823667
 20
6.5508165104
 30
0.0
 10
5.5473505386
 20
6.5590684854
 30
0.0
 10
5.5856553824
 20
6.5649986433
 30
0.0
 10
5.6244544146
 20
6.5685801843
 30
0.0
 10
5.6635042779
 20
6.5697772789
 30
0.0
 10
5.7025572071
 20
6.5685931699
 30
0.0
 10
5.7413656207
 20
6.5650331703
 30
0.0
 10
5.779684136
 20
6.5591096658
 30
0.0
 10
5.8295083906
 20
6.5481929456
 30
0.0
 10
5.8892334138
 20
6.5290149597
 30
0.0
 10
5.9450905797
 20
6.5024472392
 30
0.0
 10
5.9860811996
 20
6.4771831875
 30
0.0
 10
6.023583902
 20
6.4500404386
 30
0.0
 10
6.0571664372
 20
6.4192629256
 30
0.0
 10
6.0858305694
 20
6.3853263379
 30
0.0
 10
6.104416985
 20
6.3588862496
 30
0.0
 10
6.120187881
 20
6.3314074079
 30
0.0
 10
6.1288360823
 20
6.3123524591
 30
0.0
 10
6.1326365439
 20
6.3027309276
 30
0.0
 11
5.1946365439
 21
6.3027309276
 31
0.0
 11
5.207433519
 21
6.3310007138
 31
0.0
 11
5.2231453835
 21
6.3584344491
 31
0.0
 11
5.2416662222
 21
6.3848264042
 31
0.0
 11
5.2628731039
 21
6.4099933804
 31
0.0
 11
5.2866219067
 21
6.4337802384
 31
0.0
 11
5.3127653756
 21
6.4560350136
 31
0.0
 11
5.3411373883
 21
6.4766205444
 31
0.0
 11
5.3715603679
 21
6.4954086529
 31
0.0
 11
5.4038446948
 21
6.5122804411
 31
0.0
 11
5.4377830076
 21
6.5271306788
 31
0.0
 11
5.4731630802
 21
6.5398597814
 31
0.0
 11
5.509755701
 21
6.5503906873
 31
0.0
 11
5.5473263046
 21
6.5586536812
 31
0.0
 11
5.5856366838
 21
6.5645943943
 31
0.0
 11
5.6244437096
 21
6.5681792075
 31
0.0
 11
5.6635031845
 21
6.5693800616
 31
0.0
 11
5.7025665317
 21
6.5681937857
 31
0.0
 11
5.741383546
 21
6.5646266587
 31
0.0
 11
5.7797068495
 21
6.5586970359
 31
0.0
 11
5.8172948211
 21
6.5504478063
 31
0.0
 11
5.8893096444
 21
6.5271983075
 31
0.0
 11
5.9555850463
 21
6.4954811572
 31
0.0
 11
5.9860312306
 21
6.4766896082
 31
0.0
 11
6.0144278055
 21
6.4560986041
 31
0.0
 11
6.0643621698
 21
6.41003321
 31
0.0
 11
6.085587093
 21
6.3848525554
 31
0.0
 11
6.104118229
 21
6.3584455829
 31
0.0
 11
6.1198369783
 21
6.3310033085
 31
0.0
 11
6.1326365439
 21
6.3027309276
 31
0.0
  0
SPLINE
  5
325
100
AcDbEntity
  8
0
100
AcDbSpline
 62
7
  6
CONTINUOUS
 70
0
 71
3
 72
15
 73
11
 74
9
 42
0.0000001
 43
0.0000001
 44
0.0000000001
 12
-0.0979811143
 22
-0.2122318517
 32
0.0
 13
0.1103796752
 23
-0.2060557811
 33
0.0
 40
0.0
 40
0.0
 40
0.0
 40
0.0
 40
0.1266926942
 40
0.2515914698
 40
0.37530227
 40
0.4984946575
 40
0.6218719132
 40
0.7461516282
 40
0.872007647
 40
1.0
 40
1.0
 40
1.0
 40
1.0
 10
5.2879783477
 20
6.304716462
 30
0.0
 10
5.2838405173
 20
6.2957537203
 30
0.0
 10
5.2765849144
 20
6.2774904889
 30
0.0
 10
5.2689229413
 20
6.2492041509
 30
0.0
 10
5.264658416
 20
6.220480703
 30
0.0
 10
5.2638169275
 20
6.1915728857
 30
0.0
 10
5.2664368779
 20
6.1627267243
 30
0.0
 10
5.2724899063
 20
6.1341904072
 30
0.0
 10
5.2819183821
 20
6.106210863
 30
0.0
 10
5.2903316721
 20
6.088257037
 30
0.0
 10
5.2950409236
 20
6.0794658489
 30
0.0
 11
5.2879783477
 21
6.304716462
 31
0.0
 11
5.2770705733
 21
6.2771829937
 31
0.0
 11
5.2694600042
 21
6.2489963208
 31
0.0
 11
5.2652225678
 21
6.2203901125
 31
0.0
 11
5.2643920585
 21
6.191604923
 31
0.0
 11
5.2669923396
 21
6.1628820021
 31
0.0
 11
5.273003358
 21
6.1344593357
 31
0.0
 11
5.2823773025
 21
6.1065728782
 31
0.0
 11
5.2950409236
 21
6.0794658489
 31
0.0
  0
SPLINE
  5
326
100
AcDbEntity
  8
0
100
AcDbSpline
 62
7
  6
CONTINUOUS
 70
0
 71
3
 72
15
 73
11
 74
9
 42
0.0000001
 43
0.0000001
 44
0.0000000001
 12
-0.1246494621
 22
0.14531501
 32
0.0
 13
-0.0047277978
 23
0.1913938046
 33
0.0
 40
0.0
 40
0.0
 40
0.0
 40
0.0
 40
0.13122176
 40
0.2601764824
 40
0.3870517702
 40
0.5121001497
 40
0.6355966859
 40
0.7578445737
 40
0.879183875
 40
1.0
 40
1.0
 40
1.0
 40
1.0
 10
5.3228270082
 20
6.0092725381
 30
0.0
 10
5.3173747676
 20
6.0156287019
 30
0.0
 10
5.3070305417
 20
6.028641278
 30
0.0
 10
5.2932211654
 20
6.0491522358
 30
0.0
 10
5.281335761
 20
6.0703873152
 30
0.0
 10
5.2714140686
 20
6.0922261229
 30
0.0
 10
5.2634981952
 20
6.1145572996
 30
0.0
 10
5.2576298252
 20
6.1372688718
 30
0.0
 10
5.2538495155
 20
6.1602457903
 30
0.0
 10
5.2527518465
 20
6.1756866197
 30
0.0
 10
5.2525614484
 20
6.183394439
 30
0.0
 11
5.3228270082
 21
6.0092725381
 31
0.0
 11
5.307210441
 21
6.0289517795
 31
0.0
 11
5.293437734
 21
6.049441842
 31
0.0
 11
5.2815839921
 21
6.0706437216
 31
0.0
 11
5.2716926447
 21
6.0924456132
 31
0.0
 11
5.2638043179
 21
6.1147345792
 31
0.0
 11
5.2579596373
 21
6.1373976816
 31
0.0
 11
5.2541992288
 21
6.1603219827
 31
0.0
 11
5.2525614484
 21
6.183394439
 31
0.0
  0
SPLINE
  5
327
100
AcDbEntity
  8
0
100
AcDbSpline
 62
9
  6
CONTINUOUS
 70
0
 71
3
 72
11
 73
7
 74
5
 42
0.0000001
 43
0.0000001
 44
0.0000000001
 12
-0.0000000582
 22
0.1237385495
 32
0.0
 13
-0.0589692063
 23
0.1087835527
 33
0.0
 40
0.0
 40
0.0
 40
0.0
 40
0.0
 40
0.2459000649
 40
0.493717279
 40
0.7446113114
 40
1.0
 40
1.0
 40
1.0
 40
1.0
 10
6.0673485512
 20
6.1868135774
 30
0.0
 10
6.0673485465
 20
6.1969560165
 30
0.0
 10
6.06602608
 20
6.2173429983
 30
0.0
 10
6.0601475541
 20
6.2475679363
 30
0.0
 10
6.0504072716
 20
6.277188515
 30
0.0
 10
6.0415054093
 20
6.2961420161
 30
0.0
 10
6.0364853865
 20
6.3054027124
 30
0.0
 11
6.0673485512
 21
6.1868135774
 31
0.0
 11
6.0653923777
 21
6.2171779484
 31
0.0
 11
6.0595534547
 21
6.2472814557
 31
0.0
 11
6.0498851431
 21
6.276782848
 31
0.0
 11
6.0364853865
 21
6.3054027124
 31
0.0
  0
SPLINE
  5
328
100
AcDbEntity
  8
0
100
AcDbSpline
 62
9
  6
CONTINUOUS
 70
0
 71
3
 72
20
 73
16
 74
14
 42
0.0000001
 43
0.0000001
 44
0.0000000001
 12
-0.2230598107
 22
0.3785568059
 32
0.0
 13
-0.4392936274
 23
-0.0090577832
 33
0.0
 40
0.0
 40
0.0
 40
0.0
 40
0.0
 40
0.1111230335
 40
0.168357833
 40
0.226734864
 40
0.2862636911
 40
0.3469347248
 40
0.471487679
 40
0.5353122082
 40
0.6000178497
 40
0.7315621017
 40
0.7982370005
 40
0.8653335043
 40
0.9326608686
 40
1.0
 40
1.0
 40
1.0
 40
1.0
 10
6.031609754
 20
6.3140243386
 30
0.0
 10
6.023347393
 20
6.3280464655
 30
0.0
 10
6.0089477212
 20
6.3482438842
 30
0.0
 10
5.9865999629
 20
6.3728339934
 30
0.0
 10
5.9679333132
 20
6.3904667329
 30
0.0
 10
5.9476380196
 20
6.4070006964
 30
0.0
 10
5.9182963588
 20
6.4276347705
 30
0.0
 10
5.8863569759
 20
6.4455114586
 30
0.0
 10
5.8524289239
 20
6.4604835575
 30
0.0
 10
5.8166823074
 20
6.4736997717
 30
0.0
 10
5.7793989785
 20
6.4837529433
 30
0.0
 10
5.7411339498
 20
6.4906064005
 30
0.0
 10
5.7118751281
 20
6.4941340055
 30
0.0
 10
5.6823699873
 20
6.4960149239
 30
0.0
 10
5.6626346205
 20
6.4961659671
 30
0.0
 10
5.65277407
 20
6.4959626527
 30
0.0
 11
6.031609754
 21
6.3140243386
 31
0.0
 11
6.0033827196
 21
6.3538641979
 31
0.0
 11
5.9864853718
 21
6.3724897971
 31
0.0
 11
5.9678517471
 21
6.3901169379
 31
0.0
 11
5.9475840828
 21
6.406650788
 31
0.0
 11
5.9257885098
 21
6.4220002292
 31
0.0
 11
5.8780900787
 21
6.4488311549
 31
0.0
 11
5.8524396445
 21
6.460167052
 31
0.0
 11
5.825776215
 21
6.4700348235
 31
0.0
 11
5.7699889002
 21
6.4851504024
 31
0.0
 11
5.7411525424
 21
6.4903200241
 31
0.0
 11
5.7118838723
 21
6.4938546882
 31
0.0
 11
5.6823611618
 21
6.495738769
 31
0.0
 11
5.65277407
 21
6.4959626527
 31
0.0
  0
SPLINE
  5
329
100
AcDbEntity
  8
0
100
AcDbSpline
 62
9
  6
CONTINUOUS
 70
0
 71
3
 72
15
 73
11
 74
9
 42
0.0000001
 43
0.0000001
 44
0.0000000001
 12
0.1204180484
 22
0.1368140011
 32
0.0
 13
0.0061497103
 23
0.1821558628
 33
0.0
 40
0.0
 40
0.0
 40
0.0
 40
0.0
 40
0.1316726631
 40
0.260909958
 40
0.3879156053
 40
0.5129673793
 40
0.6363865508
 40
0.758510049
 40
0.8796204358
 40
1.0
 40
1.0
 40
1.0
 40
1.0
 10
5.9983992482
 20
6.0139665148
 30
0.0
 10
6.0036845033
 20
6.0199714027
 30
0.0
 10
6.0137170099
 20
6.0322675785
 30
0.0
 10
6.0271413505
 20
6.0516672335
 30
0.0
 10
6.0387353367
 20
6.0717530108
 30
0.0
 10
6.0484463643
 20
6.0924249402
 30
0.0
 10
6.0562193907
 20
6.1135867057
 30
0.0
 10
6.062005016
 20
6.1351292624
 30
0.0
 10
6.0657894131
 20
6.1569227382
 30
0.0
 10
6.0669677743
 20
6.1715713784
 30
0.0
 10
6.0672145407
 20
6.1788806595
 30
0.0
 11
5.9983992482
 21
6.0139665148
 31
0.0
 11
6.0135551082
 21
6.0325738603
 31
0.0
 11
6.0269448533
 21
6.0519527317
 31
0.0
 11
6.0385039744
 21
6.0720080751
 31
0.0
 11
6.0481809085
 21
6.0926436578
 31
0.0
 11
6.0559242989
 21
6.1137631978
 31
0.0
 11
6.0616916238
 21
6.1352612156
 31
0.0
 11
6.0654612449
 21
6.15701049
 31
0.0
 11
6.0672145407
 21
6.1788806595
 31
0.0
  0
SPLINE
  5
32A
100
AcDbEntity
  8
0
100
AcDbSpline
 62
9
  6
CONTINUOUS
 70
0
 71
3
 72
48
 73
44
 74
42
 42
0.0000001
 43
0.0000001
 44
0.0000000001
 12
0.0
 22
-2.0681207061
 32
0.0
 13
0.0
 23
2.0681207061
 33
0.0
 40
0.0
 40
0.0
 40
0.0
 40
0.0
 40
0.0120783582
 40
0.0242076637
 40
0.0364233444
 40
0.0487597284
 40
0.0739163047
 40
0.0999513437
 40
0.1133710184
 40
0.1270795627
 40
0.1410912093
 40
0.1554172447
 40
0.1700658201
 40
0.1850419552
 40
0.2159740354
 40
0.2481953302
 40
0.2816339045
 40
0.3161785099
 40
0.3516895995
 40
0.3879993032
 40
0.4249250939
 40
0.4622727871
 40
0.499837433
 40
0.5374049491
 40
0.5747636099
 40
0.6117058411
 40
0.648036207
 40
0.6835733207
 40
0.700995046
 40
0.7181584208
 40
0.7838328311
 40
0.8147974667
 40
0.8444404774
 40
0.8587786488
 40
0.8728018855
 40
0.8999420241
 40
0.9260111066
 40
0.9387093407
 40
0.9512163116
 40
0.9635643936
 40
0.9757874619
 40
0.987920574
 40
1.0
 40
1.0
 40
1.0
 40
1.0
 10
6.4559515168
 20
2.0777477549
 30
0.0
 10
6.4559515168
 20
2.0694212539
 30
0.0
 10
6.4553107716
 20
2.0527261642
 30
0.0
 10
6.452440874
 20
2.0277587174
 30
0.0
 10
6.4476690782
 20
2.0029007656
 30
0.0
 10
6.4387251634
 20
1.9697929614
 30
0.0
 10
6.4226812222
 20
1.9288732378
 30
0.0
 10
6.400858942
 20
1.8898904925
 30
0.0
 10
6.3800222831
 20
1.8597184503
 30
0.0
 10
6.3625148249
 20
1.8373842339
 30
0.0
 10
6.3433317601
 20
1.815634296
 30
0.0
 10
6.3225155796
 20
1.7945227003
 30
0.0
 10
6.3001177329
 20
1.7740977112
 30
0.0
 10
6.267874608
 20
1.7475575131
 30
0.0
 10
6.2238150513
 20
1.7164288578
 30
0.0
 10
6.1661665193
 20
1.6829473472
 30
0.0
 10
6.1037102496
 20
1.6532623773
 30
0.0
 10
6.0370527053
 20
1.6276415038
 30
0.0
 10
5.9668256063
 20
1.6063410206
 30
0.0
 10
5.8937052409
 20
1.5895489228
 30
0.0
 10
5.8183858406
 20
1.5774354721
 30
0.0
 10
5.7415839429
 20
1.5701100565
 30
0.0
 10
5.6640311352
 20
1.567643111
 30
0.0
 10
5.5864691549
 20
1.5700604496
 30
0.0
 10
5.5096419288
 20
1.5773394777
 30
0.0
 10
5.434281906
 20
1.5894108373
 30
0.0
 10
5.3611090312
 20
1.6061633168
 30
0.0
 10
5.3021417407
 20
1.6240090258
 30
0.0
 10
5.2566988407
 20
1.640530647
 30
0.0
 10
5.1926683788
 20
1.6665460624
 30
0.0
 10
5.1226431162
 20
1.7029167208
 30
0.0
 10
5.0514303876
 20
1.7531645627
 30
0.0
 10
5.0122249052
 20
1.78696954
 30
0.0
 10
4.9841223606
 20
1.8154407815
 30
0.0
 10
4.9587828409
 20
1.8441308014
 30
0.0
 10
4.9311429225
 20
1.8814820275
 30
0.0
 10
4.9088675894
 20
1.9212452271
 30
0.0
 10
4.894847456
 20
1.953720129
 30
0.0
 10
4.8862853096
 20
1.9781759191
 30
0.0
 10
4.8796132617
 20
2.0028740606
 30
0.0
 10
4.8748361989
 20
2.0277462801
 30
0.0
 10
4.8719631379
 20
2.0527221082
 30
0.0
 10
4.871321571
 20
2.0694205179
 30
0.0
 10
4.871321571
 20
2.0777477549
 30
0.0
 11
6.4559515168
 21
2.0777477549
 31
0.0
 11
6.4549967905
 21
2.0527865038
 31
0.0
 11
6.4521376977
 21
2.0278651037
 31
0.0
 11
6.4473818679
 21
2.0030532794
 31
0.0
 11
6.4407370801
 21
1.9784206453
 31
0.0
 11
6.4218498215
 21
1.9299431955
 31
0.0
 11
6.3956671655
 21
1.882894262
 31
0.0
 11
6.3799123044
 21
1.8600460344
 31
0.0
 11
6.3624358365
 21
1.8377223254
 31
0.0
 11
6.3432811089
 21
1.8159781781
 31
0.0
 11
6.3224921351
 21
1.7948681046
 31
0.0
 11
6.3001192824
 21
1.7744415575
 31
0.0
 11
6.2762164401
 21
1.7547451847
 31
0.0
 11
6.2240436981
 21
1.7177272284
 31
0.0
 11
6.1664745937
 21
1.6841659678
 31
0.0
 11
6.1040578238
 21
1.6543907776
 31
0.0
 11
6.0373996816
 21
1.6286864866
 31
0.0
 11
5.9671395824
 21
1.6073058603
 31
0.0
 11
5.893962542
 21
1.5904518729
 31
0.0
 11
5.8185701601
 21
1.5782902001
 31
0.0
 11
5.7416815758
 21
1.5709354897
 31
0.0
 11
5.6640328452
 21
1.5684587001
 31
0.0
 11
5.5863766065
 21
1.5708857887
 31
0.0
 11
5.5094607971
 21
1.578193929
 31
0.0
 11
5.4340271033
 21
1.5903129063
 31
0.0
 11
5.3607973827
 21
1.6071284846
 31
0.0
 11
5.2904728203
 21
1.6284821014
 31
0.0
 11
5.2566139587
 21
1.6408009899
 31
0.0
 11
5.2237327623
 21
1.6541721542
 31
0.0
 11
5.1035796665
 21
1.7175047238
 31
0.0
 11
5.0513305581
 21
1.7545313828
 31
0.0
 11
5.0049904282
 21
1.7946678393
 31
0.0
 11
4.9841722667
 21
1.8157843888
 31
0.0
 11
4.9649885388
 21
1.8375349257
 31
0.0
 11
4.9317149666
 21
1.8827382809
 31
0.0
 11
4.9054800072
 21
1.9298386768
 31
0.0
 11
4.8950858134
 21
1.9539556027
 31
0.0
 11
4.8865515104
 21
1.9783730509
 31
0.0
 11
4.8798997703
 21
2.0030288671
 31
0.0
 11
4.8751391522
 21
2.0278553301
 31
0.0
 11
4.8722772283
 21
2.0527843295
 31
0.0
 11
4.871321571
 21
2.0777477549
 31
0.0
  0
SPLINE
  5
32B
100
AcDbEntity
  8
0
100
AcDbSpline
 62
7
  6
CONTINUOUS
 70
0
 71
3
 72
9
 73
5
 74
3
 42
0.0000001
 43
0.0000001
 44
0.0000000001
 12
-0.0583242414
 22
-0.0417655692
 32
0.0
 13
-0.0492240821
 23
-0.05218304
 33
0.0
 40
0.0
 40
0.0
 40
0.0
 40
0.0
 40
0.254360367
 40
1.0
 40
1.0
 40
1.0
 40
1.0
 10
5.4136426423
 20
6.4323234677
 30
0.0
 10
5.4086975171
 20
6.4287822992
 30
0.0
 10
5.3895734499
 20
6.4144258375
 30
0.0
 10
5.3717624039
 20
6.3982947342
 30
0.0
 10
5.3595279284
 20
6.38532482
 30
0.0
 11
5.4136426423
 21
6.4323234677
 31
0.0
 11
5.399053659
 21
6.4213640516
 31
0.0
 11
5.3595279284
 21
6.38532482
 31
0.0
  0
SPLINE
  5
32C
100
AcDbEntity
  8
0
100
AcDbSpline
 62
7
  6
CONTINUOUS
 70
0
 71
3
 72
9
 73
5
 74
3
 42
0.0000001
 43
0.0000001
 44
0.0000000001
 12
-0.0553789137
 22
-0.0624040603
 32
0.0
 13
-0.037017988
 23
-0.0747713808
 33
0.0
 40
0.0
 40
0.0
 40
0.0
 40
0.0
 40
0.5069521683
 40
1.0
 40
1.0
 40
1.0
 40
1.0
 10
5.35261416
 20
6.3777690367
 30
0.0
 10
5.3432560066
 20
6.3672237455
 30
0.0
 10
5.3260913765
 20
6.3452315324
 30
0.0
 10
5.3119708627
 20
6.3211588068
 30
0.0
 10
5.3058869831
 20
6.3088701844
 30
0.0
 11
5.35261416
 21
6.3777690367
 31
0.0
 11
5.3266350531
 21
6.3443910525
 31
0.0
 11
5.3058869831
 21
6.3088701844
 31
0.0
  0
SPLINE
  5
32D
100
AcDbEntity
  8
0
100
AcDbSpline
 62
7
  6
CONTINUOUS
 70
0
 71
3
 72
10
 73
6
 74
4
 42
0.0000001
 43
0.0000001
 44
0.0000000001
 12
0.029601488
 22
-0.0633128161
 32
0.0
 13
0.043867389
 23
-0.054409677
 33
0.0
 40
0.0
 40
0.0
 40
0.0
 40
0.0
 40
0.2455143463
 40
0.4939800657
 40
1.0
 40
1.0
 40
1.0
 40
1.0
 10
5.3027531358
 20
6.0856374243
 30
0.0
 10
5.3051756658
 20
6.0804560227
 30
0.0
 10
5.3103813735
 20
6.0701817346
 30
0.0
 10
5.3221862235
 20
6.0500855502
 30
0.0
 10
5.3324651406
 20
6.0357606115
 30
0.0
 10
5.3398643984
 20
6.0265831511
 30
0.0
 11
5.3027531358
 21
6.0856374243
 31
0.0
 11
5.3105048208
 21
6.0703288795
 31
0.0
 11
5.319294664
 21
6.0553522175
 31
0.0
 11
5.3398643984
 21
6.0265831511
 31
0.0
  0
SPLINE
  5
32E
100
AcDbEntity
  8
0
100
AcDbSpline
 62
7
  6
CONTINUOUS
 70
0
 71
3
 72
9
 73
5
 74
3
 42
0.0000001
 43
0.0000001
 44
0.0000000001
 12
0.0071065261
 22
0.0274050615
 32
0.0
 13
0.0103473359
 23
0.0263528508
 33
0.0
 40
0.0
 40
0.0
 40
0.0
 40
0.0
 40
0.2485451517
 40
1.0
 40
1.0
 40
1.0
 40
1.0
 10
5.3018285974
 20
6.2218010403
 30
0.0
 10
5.3024173616
 20
6.2240715054
 30
0.0
 10
5.304930354
 20
6.2331687504
 30
0.0
 10
5.308007273
 20
6.2421085
 30
0.0
 10
5.3105991249
 20
6.2487094925
 30
0.0
 11
5.3018285974
 21
6.2218010403
 31
0.0
 11
5.3037013822
 21
6.2285839284
 31
0.0
 11
5.3105991249
 21
6.2487094925
 31
0.0
  0
SPLINE
  5
32F
100
AcDbEntity
  8
0
100
AcDbSpline
 62
7
  6
CONTINUOUS
 70
0
 71
3
 72
12
 73
8
 74
6
 42
0.0000001
 43
0.0000001
 44
0.0000000001
 12
-0.0379910758
 22
0.127908555
 32
0.0
 13
-0.0914320494
 23
0.0971807626
 33
0.0
 40
0.0
 40
0.0
 40
0.0
 40
0.0
 40
0.2417916567
 40
0.3644476287
 40
0.4884461591
 40
0.7408941225
 40
1.0
 40
1.0
 40
1.0
 40
1.0
 10
6.0634066805
 20
5.8401394921
 30
0.0
 10
6.0603447054
 20
5.8504485659
 30
0.0
 10
6.0547251325
 20
5.8657115652
 30
0.0
 10
6.0453909041
 20
5.8853382951
 30
0.0
 10
6.034672457
 20
5.9047922328
 30
0.0
 10
6.0188613925
 20
5.9283020984
 30
0.0
 10
6.0041182498
 20
5.9456978134
 30
0.0
 10
5.9962213893
 20
5.9540911823
 30
0.0
 11
6.0634066805
 21
5.8401394921
 31
0.0
 11
6.0522960944
 21
5.8704285846
 31
0.0
 11
6.045272285
 21
5.8852109036
 31
0.0
 11
6.0372920045
 21
5.8997044095
 31
0.0
 11
6.0185358471
 21
5.9276838652
 31
0.0
 11
5.9962213893
 21
5.9540911823
 31
0.0
  0
SPLINE
  5
330
100
AcDbEntity
  8
0
100
AcDbSpline
 62
7
  6
CONTINUOUS
 70
0
 71
3
 72
9
 73
5
 74
3
 42
0.0000001
 43
0.0000001
 44
0.0000000001
 12
-0.0337880431
 22
0.0324192762
 32
0.0
 13
-0.0376642332
 23
0.0278216976
 33
0.0
 40
0.0
 40
0.0
 40
0.0
 40
0.0
 40
0.2468318018
 40
1.0
 40
1.0
 40
1.0
 40
1.0
 10
5.9840404147
 20
5.9663884193
 30
0.0
 10
5.9812604268
 20
5.9690557888
 30
0.0
 10
5.9698170946
 20
5.979672829
 30
0.0
 10
5.9576748172
 20
5.9895325804
 30
0.0
 10
5.9482189829
 20
5.9965173863
 30
0.0
 11
5.9840404147
 21
5.9663884193
 31
0.0
 11
5.9755686863
 21
5.9742508966
 31
0.0
 11
5.9482189829
 21
5.9965173863
 31
0.0
  0
SPLINE
  5
331
100
AcDbEntity
  8
0
100
AcDbSpline
 62
7
  6
CONTINUOUS
 70
0
 71
3
 72
23
 73
19
 74
17
 42
0.0000001
 43
0.0000001
 44
0.0000000001
 12
-0.4870409289
 22
0.3597658651
 32
0.0
 13
-0.4870402179
 23
-0.3597668276
 33
0.0
 40
0.0
 40
0.0
 40
0.0
 40
0.0
 40
0.0587999719
 40
0.1189669223
 40
0.180384613
 40
0.2429033758
 40
0.3063413417
 40
0.3704890067
 40
0.4351222793
 40
0.5000000676
 40
0.5648778523
 40
0.6295111181
 40
0.6936587713
 40
0.7570967198
 40
0.8196154643
 40
0.88103313
 40
0.941200056
 40
1.0
 40
1.0
 40
1.0
 40
1.0
 10
5.9482189829
 20
5.9965173863
 30
0.0
 10
5.9386729853
 20
6.0035687939
 30
0.0
 10
5.9186882454
 20
6.0169485467
 30
0.0
 10
5.8867410597
 20
6.0344976133
 30
0.0
 10
5.8527587716
 20
6.0496339619
 30
0.0
 10
5.817047572
 20
6.0622023197
 30
0.0
 10
5.7799371457
 20
6.0720995427
 30
0.0
 10
5.7417651487
 20
6.0792358245
 30
0.0
 10
5.7028795506
 20
6.0835382945
 30
0.0
 10
5.6636361541
 20
6.0849836623
 30
0.0
 10
5.6243927607
 20
6.0835382401
 30
0.0
 10
5.5855071743
 20
6.0792357068
 30
0.0
 10
5.5473351932
 20
6.0720993784
 30
0.0
 10
5.510224794
 20
6.0622020908
 30
0.0
 10
5.4745136225
 20
6.0496336906
 30
0.0
 10
5.4405313733
 20
6.0344972873
 30
0.0
 10
5.4085842307
 20
6.0169481752
 30
0.0
 10
5.388599522
 20
6.0035683945
 30
0.0
 10
5.3790535428
 20
5.9965169714
 30
0.0
 11
5.9482189829
 21
5.9965173863
 31
0.0
 11
5.918652824
 21
6.0163536668
 31
0.0
 11
5.8867399625
 21
6.0339272271
 31
0.0
 11
5.8527792493
 21
6.0490826222
 31
0.0
 11
5.8170792907
 21
6.0616747559
 31
0.0
 11
5.7799692212
 21
6.0715914674
 31
0.0
 11
5.7417910194
 21
6.0787414089
 31
0.0
 11
5.7028936037
 21
6.0830560816
 31
0.0
 11
5.6636361537
 21
6.0845012579
 31
0.0
 11
5.6243787078
 21
6.0830560255
 31
0.0
 11
5.5854813029
 21
6.0787412936
 31
0.0
 11
5.5473031182
 21
6.0715912995
 31
0.0
 11
5.510193075
 21
6.0616745301
 31
0.0
 11
5.4744931454
 21
6.0490823478
 31
0.0
 11
5.4405324714
 21
6.0339269019
 31
0.0
 11
5.4086196525
 21
6.016353295
 31
0.0
 11
5.3790535428
 21
5.9965169714
 31
0.0
  0
SPLINE
  5
332
100
AcDbEntity
  8
0
100
AcDbSpline
 62
7
  6
CONTINUOUS
 70
0
 71
3
 72
9
 73
5
 74
3
 42
0.0000001
 43
0.0000001
 44
0.0000000001
 12
-0.0375427591
 22
-0.0277320821
 32
0.0
 13
-0.0336932003
 23
-0.0323000835
 33
0.0
 40
0.0
 40
0.0
 40
0.0
 40
0.0
 40
0.2532772391
 40
1.0
 40
1.0
 40
1.0
 40
1.0
 10
5.3790535428
 20
5.9965169714
 30
0.0
 10
5.3758839673
 20
5.9941756696
 30
0.0
 10
5.3635127985
 20
5.9847400444
 30
0.0
 10
5.351727459
 20
5.9745320154
 30
0.0
 10
5.3433409659
 20
5.9664922795
 30
0.0
 11
5.3790535428
 21
5.9965169714
 31
0.0
 11
5.3696548769
 21
5.9893464622
 31
0.0
 11
5.3433409659
 21
5.9664922795
 31
0.0
  0
SPLINE
  5
333
100
AcDbEntity
  8
0
100
AcDbSpline
 62
7
  6
CONTINUOUS
 70
0
 71
3
 72
12
 73
8
 74
6
 42
0.0000001
 43
0.0000001
 44
0.0000000001
 12
-0.0916334693
 22
-0.0972834094
 32
0.0
 13
-0.038040047
 23
-0.1281159992
 33
0.0
 40
0.0
 40
0.0
 40
0.0
 40
0.0
 40
0.2591221884
 40
0.5115746684
 40
0.6355713661
 40
0.7582230348
 40
1.0
 40
1.0
 40
1.0
 40
1.0
 10
5.3311819443
 20
5.9542295434
 30
0.0
 10
5.3232671892
 20
5.9458267801
 30
0.0
 10
5.3084910378
 20
5.9284099856
 30
0.0
 10
5.2926456849
 20
5.9048674924
 30
0.0
 10
5.2819056142
 20
5.8853850638
 30
0.0
 10
5.2725540261
 20
5.8657292093
 30
0.0
 10
5.2669255789
 20
5.8504425612
 30
0.0
 10
5.2638598431
 20
5.8401173953
 30
0.0
 11
5.3311819443
 21
5.9542295434
 31
0.0
 11
5.3088171964
 21
5.9277896861
 31
0.0
 11
5.2900208223
 21
5.8997717905
 31
0.0
 11
5.28202456
 21
5.8852572419
 31
0.0
 11
5.2749876564
 21
5.8704528834
 31
0.0
 11
5.2638598431
 21
5.8401173953
 31
0.0
  0
ENDSEC
  0
SECTION
  2
OBJECTS
  0
DICTIONARY
  5
C
100
AcDbDictionary
280
0
281
1
  3
ACAD_GROUP
350
D
  3
ACAD_MLINESTYLE
350
17
  3
ACAD_LAYOUT
350
1A
  3
ACAD_PLOTSETTINGS
350
19
  3
ACAD_PLOTSTYLENAME
350
E
  0
DICTIONARY
  5
D
102
{ACAD_REACTORS
330
C
102
}
100
AcDbDictionary
280
0
281
1
  0
ACDBDICTIONARYWDFLT
  5
E
102
{ACAD_REACTORS
330
C
102
}
100
AcDbDictionary
281
1
  3
Normal
350
F
100
AcDbDictionaryWithDefault
340
F
  0
DICTIONARY
  5
17
102
{ACAD_REACTORS
330
C
102
}
100
AcDbDictionary
280
0
281
1
  3
Standard
350
18
  0
DICTIONARY
  5
19
102
{ACAD_REACTORS
330
C
102
}
100
AcDbDictionary
281
1
  0
DICTIONARY
  5
1A
102
{ACAD_REACTORS
330
C
102
}
100
AcDbDictionary
281
1
  3
Model
350
334
  3
Layout1
350
335
  0
ACDBPLACEHOLDER
  5
F
102
{ACAD_REACTORS
330
E
102
}
  0
MLINESTYLE
  5
18
102
{ACAD_REACTORS
330
17
102
}
100
AcDbMlineStyle
  2
STANDARD
 70
0
  3

 62
256
 51
90.0
 52
90.0
 71
2
 49
0.5
 62
256
  6
BYLAYER
 49
-0.5
 62
256
  6
BYLAYER
  0
LAYOUT
  5
334
102
{ACAD_REACTORS
330
1A
102
}
100
AcDbPlotSettings
  1

  2
none_device
  4
ISO_A4_(297.00_x_210.00_MM)
  6

 40
0.0
 41
0.0
 42
0.0
 43
0.0
 44
297.0
 45
210.0
 46
0.0
 47
0.0
 48
0.0
 49
0.0
140
0.0
141
0.0
142
1.0
143
1.0
 70
1024
 72
0
 73
0
 74
0
  7

 75
0
147
1.0
148
0.0
149
0.0
100
AcDbLayout
  1
Model
 70
0
 71
0
 10
0.0
 20
0.0
 11
11.6929133858
 21
8.2677165354
 12
0.0
 22
0.0
 32
0.0
 14
0.0
 24
0.0
 34
0.0
 15
0.0
 25
0.0
 35
0.0
146
0.0
 13
0.0
 23
0.0
 33
0.0
 16
1.0
 26
0.0
 36
0.0
 17
0.0
 27
1.0
 37
0.0
 76
0
330
224
345
0
346
0
  0
LAYOUT
  5
335
102
{ACAD_REACTORS
330
1A
102
}
100
AcDbPlotSettings
  1

  2
none_device
  4
ISO_A4_(297.00_x_210.00_MM)
  6

 40
0.0
 41
0.0
 42
0.0
 43
0.0
 44
297.0
 45
210.0
 46
0.0
 47
0.0
 48
0.0
 49
0.0
140
0.0
141
0.0
142
1.0
143
1.0
 70
0
 72
0
 73
0
 74
0
  7

 75
0
147
1.0
148
0.0
149
0.0
100
AcDbLayout
  1
Layout1
 70
0
 71
1
 10
0.0
 20
0.0
 11
11.6929133858
 21
8.2677165354
 12
0.0
 22
0.0
 32
0.0
 14
0.0
 24
0.0
 34
0.0
 15
0.0
 25
0.0
 35
0.0
146
0.0
 13
0.0
 23
0.0
 33
0.0
 16
1.0
 26
0.0
 36
0.0
 17
0.0
 27
1.0
 37
0.0
 76
0
330
225
345
0
346
0
  0
ENDSEC
  0
EOF
