999
DXF file: 283-1_TOP.dxf
999
Pro/ENGINEER 2018400 by Parametric Technology Corporation
  0
SECTION
  2
HEADER
  9
$ACADVER
  1
AC1027
  9
$DWGCODEPAGE
  3
ANSI_1252
  9
$EXTMAX
 10
11.0
 20
8.5
 30
0.0
  9
$EXTMIN
 10
0.0
 20
0.0
 30
0.0
  9
$LIMMIN
 10
0.0
 20
0.0
  9
$LIMMAX
 10
11.0
 20
8.5
  9
$VIEWCTR
 10
5.5
 20
4.25
  9
$VIEWSIZE
 40
8.5
  9
$CLAYER
  8
0
  9
$LTSCALE
 40
0.605
  9
$CELTYPE
  6
BYLAYER
  9
$DIMSCALE
 40
1.0
  9
$DIMASZ
 40
0.1
  9
$DIMEXO
 40
0.0625
  9
$DIMDLI
 40
0.418
  9
$DIMEXE
 40
0.125
  9
$DIMCEN
 40
0.099
  9
$DIMLFAC
 40
1.0
  9
$DIMBLK
  1
_FILLED
  9
$DIMALT
 70
1
  9
$DIMALTD
 70
2
  9
$DIMALTTD
 70
2
  9
$DIMALTF
 40
25.4
  9
$DIMTXT
 40
0.08
  9
$DIMTOL
 70
1
  9
$DIMLIM
 70
0
  9
$DIMTFAC
 40
1.0
  9
$DIMTP
 40
0.001
  9
$DIMTM
 40
0.001
  9
$DIMGAP
 40
0.09
  9
$DIMDSEP
 70
46
  9
$AUNITS
 70
0
  9
$PDMODE
 70
3
  9
$PDSIZE
 40
0.3125
  9
$HANDSEED
  5
267
  9
$TILEMODE
 70
1
  9
$MEASUREMENT
 70
0
  9
$INSUNITS
 70
1
  0
ENDSEC
  0
SECTION
  2
CLASSES
  0
CLASS
  1
ACDBDICTIONARYWDFLT
  2
AcDbDictionaryWithDefault
  3
AutoCAD 2000
 90
0
 91
1
280
0
281
0
  0
CLASS
  1
ACDBPLACEHOLDER
  2
AcDbPlaceHolder
  3
AutoCAD 2000
 90
0
 91
1
280
0
281
0
  0
CLASS
  1
LAYOUT
  2
AcDbLayout
  3
AutoCAD 2000
 90
0
 91
0
280
0
281
0
  0
ENDSEC
  0
SECTION
  2
TABLES
  0
TABLE
  2
VPORT
  5
8
100
AcDbSymbolTable
 70
2
  0
VPORT
  5
1F4
100
AcDbSymbolTableRecord
100
AcDbViewportTableRecord
  2
*ACTIVE
 70
0
 10
0.0
 20
0.0
 11
1.0
 21
1.0
 12
5.5
 22
4.25
 13
0.0
 23
0.0
 14
1.0
 24
1.0
 15
0.0
 25
0.0
 16
0.0
 26
0.0
 36
1.0
 17
0.0
 27
0.0
 37
0.0
 40
8.5
 41
1.2941176471
 42
50.0
 43
0.0
 44
0.0
 50
0.0
 51
0.0
 71
0
 72
100
 73
1
 74
1
 75
0
 76
0
 77
0
 78
0
  0
ENDTAB
  0
TABLE
  2
LTYPE
  5
5
100
AcDbSymbolTable
 70
6
  0
LTYPE
  5
14
100
AcDbSymbolTableRecord
100
AcDbLinetypeTableRecord
  2
BYBLOCK
 70
0
  3

 72
65
 73
0
 40
0.0
  0
LTYPE
  5
15
100
AcDbSymbolTableRecord
100
AcDbLinetypeTableRecord
  2
BYLAYER
 70
0
  3

 72
65
 73
0
 40
0.0
  0
LTYPE
  5
16
100
AcDbSymbolTableRecord
100
AcDbLinetypeTableRecord
  2
CONTINUOUS
 70
64
  3
Solid line
 72
65
 73
0
 40
0.0
  0
LTYPE
  5
1F5
100
AcDbSymbolTableRecord
100
AcDbLinetypeTableRecord
  2
CENTER
 70
64
  3
____ _ ____ _ ____ _ ____ _ ____ _ ____ _ ____
 72
65
 73
4
 40
0.6
 49
0.375
 74
0
 49
-0.075
 74
0
 49
0.075
 74
0
 49
-0.075
 74
0
  0
LTYPE
  5
1F6
100
AcDbSymbolTableRecord
100
AcDbLinetypeTableRecord
  2
HIDDEN
 70
64
  3
- - - - - - - - - - - - - - - - - - - -
 72
65
 73
2
 40
0.2
 49
0.1
 74
0
 49
-0.1
 74
0
  0
LTYPE
  5
1F7
100
AcDbSymbolTableRecord
100
AcDbLinetypeTableRecord
  2
PHANTOM
 70
64
  3
_____ _ _ _____ _ _ _____ _ _ _____
 72
65
 73
6
 40
0.8
 49
0.45
 74
0
 49
-0.05
 74
0
 49
0.1
 74
0
 49
-0.05
 74
0
 49
0.1
 74
0
 49
-0.05
 74
0
  0
LTYPE
  5
1F8
100
AcDbSymbolTableRecord
100
AcDbLinetypeTableRecord
  2
DOT
 70
64
  3
. . . . . . . . . . . . . . . . . . . .
 72
65
 73
2
 40
0.2
 49
0.1
 74
0
 49
-0.1
 74
0
  0
LTYPE
  5
1F9
100
AcDbSymbolTableRecord
100
AcDbLinetypeTableRecord
  2
DASHED
 70
64
  3
- - - - - - - - - - - - - - - - - - - -
 72
65
 73
2
 40
0.2
 49
0.1
 74
0
 49
-0.1
 74
0
  0
ENDTAB
  0
TABLE
  2
LAYER
  5
2
100
AcDbSymbolTable
 70
36
  0
LAYER
  5
10
100
AcDbSymbolTableRecord
100
AcDbLayerTableRecord
  2
0
 70
0
 62
7
  6
CONTINUOUS
370
-3
390
F
  0
LAYER
  5
1FA
100
AcDbSymbolTableRecord
100
AcDbLayerTableRecord
  2
DEFAULT_1
 70
0
 62
7
  6
CENTER
370
-3
390
F
  0
LAYER
  5
1FB
100
AcDbSymbolTableRecord
100
AcDbLayerTableRecord
  2
DEFAULT_2
 70
0
 62
8
  6
HIDDEN
370
-3
390
F
  0
LAYER
  5
1FC
100
AcDbSymbolTableRecord
100
AcDbLayerTableRecord
  2
DEFAULT_3
 70
0
 62
7
  6
PHANTOM
370
-3
390
F
  0
LAYER
  5
1FD
100
AcDbSymbolTableRecord
100
AcDbLayerTableRecord
  2
ALL_ASSEMBLY_MEMBERS
 70
0
 62
7
  6
CONTINUOUS
370
-3
390
F
  0
LAYER
  5
1FE
100
AcDbSymbolTableRecord
100
AcDbLayerTableRecord
  2
ALL_FEATURES
 70
0
 62
7
  6
CONTINUOUS
370
-3
390
F
  0
LAYER
  5
1FF
100
AcDbSymbolTableRecord
100
AcDbLayerTableRecord
  2
AXES_FEATURES
 70
0
 62
7
  6
CONTINUOUS
370
-3
390
F
  0
LAYER
  5
200
100
AcDbSymbolTableRecord
100
AcDbLayerTableRecord
  2
CHAMFER_FEATURES
 70
0
 62
7
  6
CONTINUOUS
370
-3
390
F
  0
LAYER
  5
201
100
AcDbSymbolTableRecord
100
AcDbLayerTableRecord
  2
COSMETIC_SKETCHES
 70
0
 62
7
  6
CONTINUOUS
370
-3
390
F
  0
LAYER
  5
202
100
AcDbSymbolTableRecord
100
AcDbLayerTableRecord
  2
CURVE
 70
0
 62
7
  6
CONTINUOUS
370
-3
390
F
  0
LAYER
  5
203
100
AcDbSymbolTableRecord
100
AcDbLayerTableRecord
  2
CUT_FEATURES
 70
0
 62
7
  6
CONTINUOUS
370
-3
390
F
  0
LAYER
  5
204
100
AcDbSymbolTableRecord
100
AcDbLayerTableRecord
  2
DATUM_CURVES
 70
0
 62
7
  6
CONTINUOUS
370
-3
390
F
  0
LAYER
  5
205
100
AcDbSymbolTableRecord
100
AcDbLayerTableRecord
  2
DATUM_PLANES
 70
0
 62
7
  6
CONTINUOUS
370
-3
390
F
  0
LAYER
  5
206
100
AcDbSymbolTableRecord
100
AcDbLayerTableRecord
  2
DATUM_POINTS
 70
0
 62
7
  6
CONTINUOUS
370
-3
390
F
  0
LAYER
  5
207
100
AcDbSymbolTableRecord
100
AcDbLayerTableRecord
  2
DEFAULT_COORDINATE_SYSTEM
 70
0
 62
7
  6
CONTINUOUS
370
-3
390
F
  0
LAYER
  5
208
100
AcDbSymbolTableRecord
100
AcDbLayerTableRecord
  2
DEFAULT_DATUM_AXES
 70
0
 62
7
  6
CONTINUOUS
370
-3
390
F
  0
LAYER
  5
209
100
AcDbSymbolTableRecord
100
AcDbLayerTableRecord
  2
DEFAULT_DATUM_CURVES
 70
0
 62
7
  6
CONTINUOUS
370
-3
390
F
  0
LAYER
  5
20A
100
AcDbSymbolTableRecord
100
AcDbLayerTableRecord
  2
DEFAULT_DATUM_PLANES
 70
0
 62
7
  6
CONTINUOUS
370
-3
390
F
  0
LAYER
  5
20B
100
AcDbSymbolTableRecord
100
AcDbLayerTableRecord
  2
DEFAULT_SURFACES
 70
0
 62
7
  6
CONTINUOUS
370
-3
390
F
  0
LAYER
  5
20C
100
AcDbSymbolTableRecord
100
AcDbLayerTableRecord
  2
DIMENSIONS
 70
0
 62
7
  6
CONTINUOUS
370
-3
390
F
  0
LAYER
  5
20D
100
AcDbSymbolTableRecord
100
AcDbLayerTableRecord
  2
NOTES
 70
0
 62
7
  6
CONTINUOUS
370
-3
390
F
  0
LAYER
  5
20E
100
AcDbSymbolTableRecord
100
AcDbLayerTableRecord
  2
PART_REFERENCE_DIMENSIONS
 70
0
 62
7
  6
CONTINUOUS
370
-3
390
F
  0
LAYER
  5
20F
100
AcDbSymbolTableRecord
100
AcDbLayerTableRecord
  2
PLATING_AREA
 70
0
 62
7
  6
CONTINUOUS
370
-3
390
F
  0
LAYER
  5
210
100
AcDbSymbolTableRecord
100
AcDbLayerTableRecord
  2
PLATTED_SURFACE_AREA
 70
0
 62
7
  6
CONTINUOUS
370
-3
390
F
  0
LAYER
  5
211
100
AcDbSymbolTableRecord
100
AcDbLayerTableRecord
  2
POINTS
 70
0
 62
7
  6
CONTINUOUS
370
-3
390
F
  0
LAYER
  5
212
100
AcDbSymbolTableRecord
100
AcDbLayerTableRecord
  2
PROTRUSION_FEATURES
 70
0
 62
7
  6
CONTINUOUS
370
-3
390
F
  0
LAYER
  5
213
100
AcDbSymbolTableRecord
100
AcDbLayerTableRecord
  2
QUILT
 70
0
 62
7
  6
CONTINUOUS
370
-3
390
F
  0
LAYER
  5
214
100
AcDbSymbolTableRecord
100
AcDbLayerTableRecord
  2
QUILTS
 70
0
 62
7
  6
CONTINUOUS
370
-3
390
F
  0
LAYER
  5
215
100
AcDbSymbolTableRecord
100
AcDbLayerTableRecord
  2
REFERENCE_DIMENSIONS
 70
0
 62
7
  6
CONTINUOUS
370
-3
390
F
  0
LAYER
  5
216
100
AcDbSymbolTableRecord
100
AcDbLayerTableRecord
  2
ROUND_FEATURES
 70
0
 62
7
  6
CONTINUOUS
370
-3
390
F
  0
LAYER
  5
217
100
AcDbSymbolTableRecord
100
AcDbLayerTableRecord
  2
SHELL_FEATURES
 70
0
 62
7
  6
CONTINUOUS
370
-3
390
F
  0
LAYER
  5
218
100
AcDbSymbolTableRecord
100
AcDbLayerTableRecord
  2
SIZE_REF
 70
0
 62
7
  6
CONTINUOUS
370
-3
390
F
  0
LAYER
  5
219
100
AcDbSymbolTableRecord
100
AcDbLayerTableRecord
  2
WETTED_SURFACE_AREA
 70
0
 62
7
  6
CONTINUOUS
370
-3
390
F
  0
ENDTAB
  0
TABLE
  2
STYLE
  5
3
100
AcDbSymbolTable
 70
1
  0
STYLE
  5
11
100
AcDbSymbolTableRecord
100
AcDbTextStyleTableRecord
  2
STANDARD
 70
0
 40
0.0
 41
0.8
 50
0.0
 71
0
 42
0.2
  3
txt
  4

  0
STYLE
  5
21A
100
AcDbSymbolTableRecord
100
AcDbTextStyleTableRecord
  2
TEXTSTYLE_1
 70
0
 40
0.0
 41
0.8
 50
0.0
 71
0
 42
0.2
  3
gdt
  4

  0
ENDTAB
  0
TABLE
  2
VIEW
  5
6
100
AcDbSymbolTable
 70
0
  0
ENDTAB
  0
TABLE
  2
UCS
  5
7
100
AcDbSymbolTable
 70
0
  0
ENDTAB
  0
TABLE
  2
APPID
  5
9
100
AcDbSymbolTable
 70
1
  0
APPID
  5
21B
100
AcDbSymbolTableRecord
100
AcDbRegAppTableRecord
  2
ACAD
 70
0
  0
ENDTAB
  0
TABLE
  2
BLOCK_RECORD
  5
1
100
AcDbSymbolTable
 70
0
  0
BLOCK_RECORD
  5
21C
100
AcDbSymbolTableRecord
100
AcDbBlockTableRecord
  2
*Model_Space
  0
BLOCK_RECORD
  5
21D
100
AcDbSymbolTableRecord
100
AcDbBlockTableRecord
  2
*Paper_Space
  0
BLOCK_RECORD
  5
21E
100
AcDbSymbolTableRecord
100
AcDbBlockTableRecord
  2
_FILLED
  0
ENDTAB
  0
TABLE
  2
DIMSTYLE
  5
A
100
AcDbSymbolTable
 70
1
100
AcDbDimStyleTable
 71
0
  0
DIMSTYLE
105
21F
100
AcDbSymbolTableRecord
100
AcDbDimStyleTableRecord
  2
STANDARD
 70
0
  3

  4

 40
1.0
 41
0.1
 42
0.0625
 43
0.38
 44
0.125
 45
0.0
 46
0.0
 47
0.001
 48
0.001
140
0.08
141
0.09
142
0.0
143
25.4
144
1.0
145
0.0
146
1.0
147
0.09
 71
1.0
 72
0.0
 73
1
 74
1
 75
0
 76
0
 77
0
 78
4
 79
1
170
1
171
2
172
0
173
0
174
0
175
0
176
0
177
0
178
0
270
2
179
3
271
3
272
3
273
2
274
2
275
0
280
0
281
0
282
0
283
1
284
4
285
0
286
0
287
3
288
0
340
11
278
46
341
21E
342
21E
343
21E
344
21E
  0
ENDTAB
  0
ENDSEC
  0
SECTION
  2
BLOCKS
  0
BLOCK
  5
20
100
AcDbEntity
  8
0
100
AcDbBlockBegin
  2
*Model_Space
 70
0
 10
0.0
 20
0.0
 30
0.0
  3
*Model_Space
  1

  0
ENDBLK
  5
21
100
AcDbEntity
  8
0
100
AcDbBlockEnd
  0
BLOCK
  5
1C
100
AcDbEntity
  8
0
100
AcDbBlockBegin
  2
*Paper_Space
 70
0
 10
0.0
 20
0.0
 30
0.0
  3
*Paper_Space
  1

  0
ENDBLK
  5
1D
100
AcDbEntity
  8
0
100
AcDbBlockEnd
  0
BLOCK
  5
220
100
AcDbEntity
  8
0
100
AcDbBlockBegin
  2
_FILLED
 70
64
 10
0.0
 20
0.0
  3
_FILLED
  1

  0
SOLID
  5
221
100
AcDbEntity
  8
0
  6
BYBLOCK
 62
0
100
AcDbTrace
 10
0.0
 20
0.0
 11
-1.0
 21
0.2
 12
-1.0
 22
-0.2
 13
-1.0
 23
-0.2
  0
ENDBLK
  5
222
100
AcDbEntity
  8
0
  6
BYBLOCK
 62
0
100
AcDbBlockEnd
  0
ENDSEC
  0
SECTION
  2
ENTITIES
  0
MTEXT
  5
223
100
AcDbEntity
  8
0
100
AcDbMText
 62
2
  6
CONTINUOUS
  7
STANDARD
 71
3
 72
1
 10
5.4308229814
 20
2.7581232335
 30
0.0
 11
1.0
 21
0.0
 31
0.0
 73
2
 44
0.9
  1
SCALE  .750
 40
0.08
 41
0.704
  0
LINE
  5
224
100
AcDbEntity
  8
0
100
AcDbLine
 62
7
  6
CONTINUOUS
 10
0.0
 20
0.0
 11
0.0
 21
8.5
  0
LINE
  5
225
100
AcDbEntity
  8
0
100
AcDbLine
 62
7
  6
CONTINUOUS
 10
0.0
 20
0.0
 11
11.0
 21
0.0
  0
LINE
  5
226
100
AcDbEntity
  8
0
100
AcDbLine
 62
7
  6
CONTINUOUS
 10
0.0
 20
8.5
 11
11.0
 21
8.5
  0
LINE
  5
227
100
AcDbEntity
  8
0
100
AcDbLine
 62
7
  6
CONTINUOUS
 10
11.0
 20
0.0
 11
11.0
 21
8.5
  0
LINE
  5
228
100
AcDbEntity
  8
ALL_ASSEMBLY_MEMBERS
100
AcDbLine
 62
7
  6
CONTINUOUS
 10
4.4506027339
 20
3.648658953
 11
5.6731548205
 21
3.6486589478
  0
LINE
  5
229
100
AcDbEntity
  8
ALL_ASSEMBLY_MEMBERS
100
AcDbLine
 62
7
  6
CONTINUOUS
 10
4.4056288822
 20
4.2786889202
 11
4.4056288728
 21
3.6711289839
  0
LINE
  5
22A
100
AcDbEntity
  8
ALL_ASSEMBLY_MEMBERS
100
AcDbLine
 62
7
  6
CONTINUOUS
 10
4.5462538822
 20
5.2615048186
 11
4.5462538822
 21
4.792754828
  0
LINE
  5
22B
100
AcDbEntity
  8
ALL_ASSEMBLY_MEMBERS
100
AcDbLine
 62
7
  6
CONTINUOUS
 10
4.5449173893
 20
5.0261263771
 11
4.5449171982
 21
4.5573094166
  0
LINE
  5
22C
100
AcDbEntity
  8
ALL_ASSEMBLY_MEMBERS
100
AcDbLine
 62
7
  6
CONTINUOUS
 10
4.5449590402
 20
5.0334244412
 11
4.5462538822
 21
5.2615048186
  0
LINE
  5
22D
100
AcDbEntity
  8
ALL_ASSEMBLY_MEMBERS
100
AcDbLine
 62
7
  6
CONTINUOUS
 10
4.5462538822
 20
4.792754828
 11
4.544960755
 21
4.5649871259
  0
LINE
  5
22E
100
AcDbEntity
  8
ALL_ASSEMBLY_MEMBERS
100
AcDbLine
 62
7
  6
CONTINUOUS
 10
4.5449066112
 20
5.0243057764
 11
4.5449171982
 21
5.0260594535
  0
LWPOLYLINE
  5
22F
100
AcDbEntity
  8
ALL_ASSEMBLY_MEMBERS
100
AcDbPolyline
 62
7
  6
CONTINUOUS
 90
16
 70
0
 10
4.544917374
 20
5.0261263772
 10
4.5440806613
 20
4.9743174981
 10
4.5420238571
 20
4.9201942959
 10
4.5387591504
 20
4.8666783673
 10
4.534287955
 20
4.8138439343
 10
4.528611889
 20
4.7617002986
 10
4.5217231656
 20
4.7102024274
 10
4.5136213769
 20
4.6593898419
 10
4.5043105216
 20
4.6093014812
 10
4.4937786551
 20
4.5599004472
 10
4.4820268551
 20
4.5112288117
 10
4.4690590822
 20
4.4633215296
 10
4.454857592
 20
4.4161409953
 10
4.4394157672
 20
4.3697035364
 10
4.4227467892
 20
4.3240728727
 10
4.4066038193
 20
4.2834905304
  0
LINE
  5
230
100
AcDbEntity
  8
ALL_ASSEMBLY_MEMBERS
100
AcDbLine
 62
7
  6
CONTINUOUS
 10
4.5931294673
 20
4.7693173186
 11
4.5917916316
 21
4.5337742278
  0
LINE
  5
231
100
AcDbEntity
  8
ALL_ASSEMBLY_MEMBERS
100
AcDbLine
 62
7
  6
CONTINUOUS
 10
4.4056288822
 20
4.2786889202
 11
4.4074052774
 21
4.2831730301
  0
LINE
  5
232
100
AcDbEntity
  8
ALL_ASSEMBLY_MEMBERS
100
AcDbLine
 62
7
  6
CONTINUOUS
 10
4.4056288822
 20
4.2786889202
 11
4.4074546657
 21
4.2831216448
  0
LINE
  5
233
100
AcDbEntity
  8
ALL_FEATURES
100
AcDbLine
 62
7
  6
CONTINUOUS
 10
4.8743788822
 20
5.5024668286
 11
4.8743788822
 21
5.2849423186
  0
LINE
  5
234
100
AcDbEntity
  8
ALL_ASSEMBLY_MEMBERS
100
AcDbLine
 62
7
  6
CONTINUOUS
 10
4.8804538825
 20
5.5597668283
 11
4.8804538825
 21
5.5493172811
  0
LINE
  5
235
100
AcDbEntity
  8
ALL_ASSEMBLY_MEMBERS
100
AcDbLine
 62
7
  6
CONTINUOUS
 10
4.8815038822
 20
5.5535053048
 11
4.8815038822
 21
5.5587165242
  0
LINE
  5
236
100
AcDbEntity
  8
ALL_ASSEMBLY_MEMBERS
100
AcDbLine
 62
7
  6
CONTINUOUS
 10
5.53065107
 20
4.541346763
 11
4.5918351885
 21
4.541346763
  0
LINE
  5
237
100
AcDbEntity
  8
ALL_ASSEMBLY_MEMBERS
100
AcDbLine
 62
7
  6
CONTINUOUS
 10
5.5306288822
 20
4.7693173186
 11
4.5931294673
 21
4.7693173186
  0
LINE
  5
238
100
AcDbEntity
  8
ALL_FEATURES
100
AcDbLine
 62
7
  6
CONTINUOUS
 10
5.2493788822
 20
5.5024668286
 11
5.2493788822
 21
5.2849423186
  0
LINE
  5
239
100
AcDbEntity
  8
ALL_ASSEMBLY_MEMBERS
100
AcDbLine
 62
7
  6
CONTINUOUS
 10
4.8804538825
 20
5.5597668283
 11
4.8815038822
 21
5.5587168286
  0
LINE
  5
23A
100
AcDbEntity
  8
ALL_ASSEMBLY_MEMBERS
100
AcDbLine
 62
7
  6
CONTINUOUS
 10
5.7162877939
 20
4.2831456507
 11
5.7181288829
 21
4.2786978125
  0
LWPOLYLINE
  5
23B
100
AcDbEntity
  8
ALL_ASSEMBLY_MEMBERS
100
AcDbPolyline
 62
7
  6
CONTINUOUS
 90
16
 70
0
 10
5.717145256
 20
4.2835191261
 10
5.7007175341
 20
4.3246295285
 10
5.6838630341
 20
4.3705848374
 10
5.6682533773
 20
4.4173583199
 10
5.6539020388
 20
4.4648849209
 10
5.6408021845
 20
4.5131479844
 10
5.6289356012
 20
4.5621859823
 10
5.6183063163
 20
4.6119632634
 10
5.6089153918
 20
4.6624368662
 10
5.6007505837
 20
4.7136445394
 10
5.5938159659
 20
4.7655465438
 10
5.5881110803
 20
4.8181025226
 10
5.5836279631
 20
4.8713585457
 10
5.5803682738
 20
4.9253051692
 10
5.5783333977
 20
4.9798665879
 10
5.5775269257
 20
5.0334253183
  0
LINE
  5
23C
100
AcDbEntity
  8
ALL_ASSEMBLY_MEMBERS
100
AcDbLine
 62
7
  6
CONTINUOUS
 10
5.7163378266
 20
4.283197755
 11
5.7181288829
 21
4.2786978125
  0
LINE
  5
23D
100
AcDbEntity
  8
ALL_ASSEMBLY_MEMBERS
100
AcDbLine
 62
7
  6
CONTINUOUS
 10
5.5306288822
 20
4.5520179857
 11
5.5306288822
 21
4.7693173186
  0
LINE
  5
23E
100
AcDbEntity
  8
ALL_ASSEMBLY_MEMBERS
100
AcDbLine
 62
7
  6
CONTINUOUS
 10
5.5775038822
 20
4.5754587644
 11
5.5775038822
 21
5.2615048186
  0
LINE
  5
23F
100
AcDbEntity
  8
ALL_ASSEMBLY_MEMBERS
100
AcDbLine
 62
7
  6
CONTINUOUS
 10
5.5306288822
 20
5.2849423186
 11
4.5931294487
 21
5.2849423186
  0
LINE
  5
240
100
AcDbEntity
  8
ALL_ASSEMBLY_MEMBERS
100
AcDbLine
 62
7
  6
CONTINUOUS
 10
5.7181288908
 20
4.2786978146
 11
5.7181288822
 21
3.6711200901
  0
LINE
  5
241
100
AcDbEntity
  8
ALL_ASSEMBLY_MEMBERS
100
AcDbLine
 62
7
  6
CONTINUOUS
 10
4.8804538825
 20
5.5597668283
 11
4.8794375693
 21
5.5597668283
  0
ARC
  5
242
100
AcDbEntity
  8
ALL_ASSEMBLY_MEMBERS
100
AcDbCircle
 62
7
  6
CONTINUOUS
 10
8.096863938
 20
4.5520181216
 40
2.5662350558
100
AcDbArc
 50
180.000003035
 51
180.2382578228
  0
ARC
  5
243
100
AcDbEntity
  8
ALL_ASSEMBLY_MEMBERS
100
AcDbCircle
 62
7
  6
CONTINUOUS
 10
8.1086424127
 20
4.5754590246
 40
2.5311385305
100
AcDbArc
 50
180.0000058899
 51
180.2382551222
  0
ARC
  5
244
100
AcDbEntity
  8
ALL_ASSEMBLY_MEMBERS
100
AcDbCircle
 62
7
  6
CONTINUOUS
 10
8.0657645971
 20
5.043928864
 40
2.4882598822
100
AcDbArc
 50
180.2984845327
 51
181.4902470239
  0
ARC
  5
245
100
AcDbEntity
  8
ALL_ASSEMBLY_MEMBERS
100
AcDbCircle
 62
7
  6
CONTINUOUS
 10
2.0762886202
 20
5.0398890442
 40
2.4686671755
100
AcDbArc
 50
358.4494068667
 51
359.6383224861
  0
ARC
  5
246
100
AcDbEntity
  8
ALL_ASSEMBLY_MEMBERS
100
AcDbCircle
 62
7
  6
CONTINUOUS
 10
7.9961040822
 20
5.0422473625
 40
2.418579202
100
AcDbArc
 50
181.4933436012
 51
182.5837511271
  0
ARC
  5
247
100
AcDbEntity
  8
ALL_ASSEMBLY_MEMBERS
100
AcDbCircle
 62
7
  6
CONTINUOUS
 10
2.1378404781
 20
5.038176276
 40
2.4070915103
100
AcDbArc
 50
357.5471427417
 51
358.4505153495
  0
ARC
  5
248
100
AcDbEntity
  8
ALL_ASSEMBLY_MEMBERS
100
AcDbCircle
 62
7
  6
CONTINUOUS
 10
7.9520779423
 20
5.0404163201
 40
2.3745152815
100
AcDbArc
 50
182.5875033407
 51
182.7833959754
  0
ARC
  5
249
100
AcDbEntity
  8
ALL_ASSEMBLY_MEMBERS
100
AcDbCircle
 62
7
  6
CONTINUOUS
 10
2.1741891741
 20
5.0366358642
 40
2.3707101923
100
AcDbArc
 50
357.1677717826
 51
357.5467408779
  0
ARC
  5
24A
100
AcDbEntity
  8
ALL_ASSEMBLY_MEMBERS
100
AcDbCircle
 62
7
  6
CONTINUOUS
 10
5.0618788822
 20
5.5024668286
 40
0.375
100
AcDbArc
 50
324.5435769038
 51
215.4564230962
  0
ARC
  5
24B
100
AcDbEntity
  8
ALL_ASSEMBLY_MEMBERS
100
AcDbCircle
 62
7
  6
CONTINUOUS
 10
5.0618788822
 20
5.5024668286
 40
0.19125
100
AcDbArc
 50
348.6466566153
 51
191.3533433847
  0
ARC
  5
24C
100
AcDbEntity
  8
ALL_FEATURES
100
AcDbCircle
 62
7
  6
CONTINUOUS
 10
5.0618788822
 20
5.5024668286
 40
0.1875
100
AcDbArc
 50
0.0
 51
180.0
  0
LINE
  5
24D
100
AcDbEntity
  8
ALL_ASSEMBLY_MEMBERS
100
AcDbLine
 62
7
  6
CONTINUOUS
 10
4.8770077818
 20
5.5513068421
 11
4.8787185555
 21
5.5422805268
  0
LINE
  5
24E
100
AcDbEntity
  8
ALL_ASSEMBLY_MEMBERS
100
AcDbLine
 62
7
  6
CONTINUOUS
 10
4.8781125706
 20
5.5552526501
 11
4.8793437806
 21
5.5451783188
  0
SPLINE
  5
24F
100
AcDbEntity
  8
ALL_FEATURES
100
AcDbSpline
 62
7
  6
CONTINUOUS
 70
0
 71
3
 72
23
 73
19
 74
0
 42
0.0000001
 43
0.0000001
 44
0.0000000001
 40
0.0
 40
0.0
 40
0.0
 40
0.0
 40
0.0666432035
 40
0.1332478463
 40
0.1995592853
 40
0.2654006009
 40
0.3306734803
 40
0.3952930836
 40
0.4591769718
 40
0.5222536227
 40
0.5844875534
 40
0.6458765175
 40
0.7064448763
 40
0.7662535894
 40
0.8253867141
 40
0.8839600766
 40
0.9421128986
 40
1.0
 40
1.0
 40
1.0
 40
1.0
 10
5.0618788822
 20
5.4387644607
 30
0.0
 10
5.0559591362
 20
5.4387644607
 30
0.0
 10
5.0441174618
 20
5.4382744874
 30
0.0
 10
5.0265065728
 20
5.4360946916
 30
0.0
 10
5.0092041116
 20
5.4324802767
 30
0.0
 10
4.9923798388
 20
5.4274591973
 30
0.0
 10
4.9761805083
 20
5.4210860429
 30
0.0
 10
4.9607507456
 20
5.4134076911
 30
0.0
 10
4.9462234576
 20
5.4045011775
 30
0.0
 10
4.9327316525
 20
5.3944411658
 30
0.0
 10
4.9204016288
 20
5.3833138369
 30
0.0
 10
4.909336998
 20
5.3712264083
 30
0.0
 10
4.8996468713
 20
5.3582781117
 30
0.0
 10
4.8914128632
 20
5.3445908384
 30
0.0
 10
4.8847107425
 20
5.3302859267
 30
0.0
 10
4.8796096154
 20
5.315489392
 30
0.0
 10
4.8761448547
 20
5.3003413604
 30
0.0
 10
4.8749530529
 20
5.2900783686
 30
0.0
 10
4.8746407828
 20
5.2849458957
 30
0.0
  0
SPLINE
  5
250
100
AcDbEntity
  8
ALL_FEATURES
100
AcDbSpline
 62
7
  6
CONTINUOUS
 70
0
 71
3
 72
23
 73
19
 74
0
 42
0.0000001
 43
0.0000001
 44
0.0000000001
 40
0.0
 40
0.0
 40
0.0
 40
0.0
 40
0.0578871014
 40
0.1160399234
 40
0.1746132859
 40
0.2337464106
 40
0.2935551237
 40
0.3541234825
 40
0.4155124466
 40
0.4777463773
 40
0.5408230282
 40
0.6047069164
 40
0.6693265197
 40
0.7345993991
 40
0.8004407147
 40
0.8667521537
 40
0.9333567965
 40
1.0
 40
1.0
 40
1.0
 40
1.0
 10
5.2491169815
 20
5.2849458957
 30
0.0
 10
5.2488047115
 20
5.2900783686
 30
0.0
 10
5.2476129097
 20
5.3003413604
 30
0.0
 10
5.2441481489
 20
5.315489392
 30
0.0
 10
5.2390470219
 20
5.3302859267
 30
0.0
 10
5.2323449011
 20
5.3445908384
 30
0.0
 10
5.2241108931
 20
5.3582781117
 30
0.0
 10
5.2144207664
 20
5.3712264083
 30
0.0
 10
5.2033561355
 20
5.3833138369
 30
0.0
 10
5.1910261119
 20
5.3944411658
 30
0.0
 10
5.1775343067
 20
5.4045011775
 30
0.0
 10
5.1630070187
 20
5.4134076911
 30
0.0
 10
5.1475772561
 20
5.4210860429
 30
0.0
 10
5.1313779256
 20
5.4274591973
 30
0.0
 10
5.1145536527
 20
5.4324802767
 30
0.0
 10
5.0972511916
 20
5.4360946916
 30
0.0
 10
5.0796403026
 20
5.4382744874
 30
0.0
 10
5.0677986281
 20
5.4387644607
 30
0.0
 10
5.0618788822
 20
5.4387644607
 30
0.0
  0
SPLINE
  5
251
100
AcDbEntity
  8
ALL_ASSEMBLY_MEMBERS
100
AcDbSpline
 62
7
  6
CONTINUOUS
 70
0
 71
3
 72
23
 73
19
 74
0
 42
0.0000001
 43
0.0000001
 44
0.0000000001
 40
0.0
 40
0.0
 40
0.0
 40
0.0
 40
0.0406280159
 40
0.0823528111
 40
0.1260896793
 40
0.1726597202
 40
0.1972239835
 40
0.2227161662
 40
0.2766582398
 40
0.3347126447
 40
0.3968600058
 40
0.4629576445
 40
0.5326736519
 40
0.6055804586
 40
0.6812081878
 40
0.8385077168
 40
0.9190661196
 40
1.0
 40
1.0
 40
1.0
 40
1.0
 10
5.7181288822
 20
3.6711200901
 30
0.0
 10
5.7181288822
 20
3.6703808653
 30
0.0
 10
5.7179889124
 20
3.6688789616
 30
0.0
 10
5.7173612463
 20
3.6666601659
 30
0.0
 10
5.7163128612
 20
3.6644862353
 30
0.0
 10
5.7151134711
 20
3.6627645398
 30
0.0
 10
5.7139655349
 20
3.661431649
 30
0.0
 10
5.7126387944
 20
3.6600806796
 30
0.0
 10
5.7107219486
 20
3.6584638491
 30
0.0
 10
5.7080936588
 20
3.6566854999
 30
0.0
 10
5.7051196223
 20
3.6550500778
 30
0.0
 10
5.7018284426
 20
3.6535779273
 30
0.0
 10
5.6982565655
 20
3.6522794633
 30
0.0
 10
5.694441483
 20
3.6511678674
 30
0.0
 10
5.6890132856
 20
3.6499318188
 30
0.0
 10
5.6833540757
 20
3.6491275009
 30
0.0
 10
5.6775663452
 20
3.6487261665
 30
0.0
 10
5.6746274086
 20
3.6486589478
 30
0.0
 10
5.6731548205
 20
3.6486589478
 30
0.0
  0
SPLINE
  5
252
100
AcDbEntity
  8
ALL_ASSEMBLY_MEMBERS
100
AcDbSpline
 62
7
  6
CONTINUOUS
 70
0
 71
3
 72
23
 73
19
 74
0
 42
0.0000001
 43
0.0000001
 44
0.0000000001
 40
0.0
 40
0.0
 40
0.0
 40
0.0
 40
0.0809412817
 40
0.1615062985
 40
0.3188130481
 40
0.3944408462
 40
0.4673453267
 40
0.5370570229
 40
0.6031490877
 40
0.6652904807
 40
0.7233394853
 40
0.777277479
 40
0.8027683354
 40
0.8273317889
 40
0.8739017676
 40
0.9176404568
 40
0.9593683328
 40
1.0
 40
1.0
 40
1.0
 40
1.0
 10
4.4506027339
 20
3.648658953
 30
0.0
 10
4.4491298825
 20
3.648658953
 30
0.0
 10
4.4461904332
 20
3.6487262458
 30
0.0
 10
4.4404018329
 20
3.6491279822
 30
0.0
 10
4.4347419525
 20
3.6499330486
 30
0.0
 10
4.4293133906
 20
3.651170105
 30
0.0
 10
4.4254983008
 20
3.6522824972
 30
0.0
 10
4.4219265988
 20
3.6535817693
 30
0.0
 10
4.4186357446
 20
3.6550547157
 30
0.0
 10
4.4156621322
 20
3.6566908855
 30
0.0
 10
4.4130343075
 20
3.6584699152
 30
0.0
 10
4.4111178654
 20
3.6600872562
 30
0.0
 10
4.4097914171
 20
3.661438585
 30
0.0
 10
4.4086437137
 20
3.6627718259
 30
0.0
 10
4.4074445697
 20
3.6644939317
 30
0.0
 10
4.4063963941
 20
3.6666682862
 30
0.0
 10
4.405768827
 20
3.6688874727
 30
0.0
 10
4.4056288728
 20
3.670389628
 30
0.0
 10
4.4056288728
 20
3.6711289839
 30
0.0
  0
SPLINE
  5
253
100
AcDbEntity
  8
ALL_ASSEMBLY_MEMBERS
100
AcDbSpline
 62
7
  6
CONTINUOUS
 70
0
 71
3
 72
22
 73
18
 74
0
 42
0.0000001
 43
0.0000001
 44
0.0000000001
 40
0.0
 40
0.0
 40
0.0
 40
0.0
 40
0.0406298078
 40
0.0824783692
 40
0.1264853833
 40
0.1734243675
 40
0.2238533979
 40
0.2781253128
 40
0.3363705111
 40
0.3985471833
 40
0.4645056105
 40
0.533955186
 40
0.6065313804
 40
0.6818231977
 40
0.8386415076
 40
0.9191079715
 40
1.0
 40
1.0
 40
1.0
 40
1.0
 10
5.5775038822
 20
5.2615048186
 30
0.0
 10
5.5775038822
 20
5.2622732892
 30
0.0
 10
5.5773467295
 20
5.2638372288
 30
0.0
 10
5.5766545789
 20
5.2661407363
 30
0.0
 10
5.575514366
 20
5.2683921281
 30
0.0
 10
5.5739407515
 20
5.2705657457
 30
0.0
 10
5.5719551519
 20
5.2726458713
 30
0.0
 10
5.5695755705
 20
5.2746140402
 30
0.0
 10
5.5668258217
 20
5.2764547949
 30
0.0
 10
5.5637316268
 20
5.2781522898
 30
0.0
 10
5.5603211187
 20
5.2796884811
 30
0.0
 10
5.5566279762
 20
5.2810515242
 30
0.0
 10
5.5526867758
 20
5.2822278322
 30
0.0
 10
5.5470748528
 20
5.2835490344
 30
0.0
 10
5.5412145858
 20
5.2844238609
 30
0.0
 10
5.5352114652
 20
5.284866933
 30
0.0
 10
5.5321588709
 20
5.2849423186
 30
0.0
 10
5.5306288822
 20
5.2849423186
 30
0.0
  0
SPLINE
  5
254
100
AcDbEntity
  8
ALL_ASSEMBLY_MEMBERS
100
AcDbSpline
 62
7
  6
CONTINUOUS
 70
0
 71
3
 72
9
 73
5
 74
0
 42
0.0000001
 43
0.0000001
 44
0.0000000001
 40
0.0
 40
0.0
 40
0.0
 40
0.0
 40
0.4921893777
 40
1.0
 40
1.0
 40
1.0
 40
1.0
 10
4.4056288822
 20
4.2786889202
 30
0.0
 10
4.4056288822
 20
4.2794966833
 30
0.0
 10
4.4057964564
 20
4.2811419035
 30
0.0
 10
4.4062862072
 20
4.2827202157
 30
0.0
 10
4.4066044027
 20
4.2834904801
 30
0.0
  0
LINE
  5
255
100
AcDbEntity
  8
ALL_ASSEMBLY_MEMBERS
100
AcDbLine
 62
7
  6
CONTINUOUS
 10
4.5449171982
 20
5.0260594535
 11
4.5449590402
 21
5.0334244412
  0
SPLINE
  5
256
100
AcDbEntity
  8
ALL_ASSEMBLY_MEMBERS
100
AcDbSpline
 62
7
  6
CONTINUOUS
 70
0
 71
3
 72
9
 73
5
 74
0
 42
0.0000001
 43
0.0000001
 44
0.0000000001
 40
0.0
 40
0.0
 40
0.0
 40
0.0
 40
0.5078776288
 40
1.0
 40
1.0
 40
1.0
 40
1.0
 10
5.7171446868
 20
4.2835190768
 30
0.0
 10
5.7174656577
 20
4.2827459291
 30
0.0
 10
5.7179597828
 20
4.2811613658
 30
0.0
 10
5.7181288908
 20
4.2795089713
 30
0.0
 10
5.7181288908
 20
4.2786978146
 30
0.0
  0
SPLINE
  5
257
100
AcDbEntity
  8
ALL_ASSEMBLY_MEMBERS
100
AcDbSpline
 62
7
  6
CONTINUOUS
 70
0
 71
3
 72
22
 73
18
 74
0
 42
0.0000001
 43
0.0000001
 44
0.0000000001
 40
0.0
 40
0.0
 40
0.0
 40
0.0
 40
0.0808256859
 40
0.1612385195
 40
0.3179891591
 40
0.3932665931
 40
0.4658407653
 40
0.5352997972
 40
0.6012779244
 40
0.6634828712
 40
0.7217625808
 40
0.7760722336
 40
0.8265383641
 40
0.8735089786
 40
0.9175364505
 40
0.9593884927
 40
1.0
 40
1.0
 40
1.0
 40
1.0
 10
5.53065107
 20
4.5413469091
 30
0.0
 10
5.5321811607
 20
4.5413516811
 30
0.0
 10
5.5352339566
 20
4.5414366145
 30
0.0
 10
5.5412374821
 20
4.5418985235
 30
0.0
 10
5.5470976825
 20
4.5427918396
 30
0.0
 10
5.5527090791
 20
4.5441306335
 30
0.0
 10
5.5566502263
 20
4.5453194043
 30
0.0
 10
5.5603433109
 20
4.546694159
 30
0.0
 10
5.563753756
 20
4.5482411986
 30
0.0
 10
5.5668478757
 20
4.5499485638
 30
0.0
 10
5.5695975395
 20
4.5517981155
 30
0.0
 10
5.5719770231
 20
4.5537739135
 30
0.0
 10
5.5739625202
 20
4.5558604074
 30
0.0
 10
5.5755360494
 20
4.55803906
 30
0.0
 10
5.5766762368
 20
4.5602941018
 30
0.0
 10
5.5773684575
 20
4.5625998864
 30
0.0
 10
5.5775257569
 20
4.5641649197
 30
0.0
 10
5.5775257661
 20
4.5649337296
 30
0.0
  0
LINE
  5
258
100
AcDbEntity
  8
ALL_ASSEMBLY_MEMBERS
100
AcDbLine
 62
7
  6
CONTINUOUS
 10
4.544960755
 20
4.5649871259
 11
4.5449171982
 21
4.5573094166
  0
SPLINE
  5
259
100
AcDbEntity
  8
ALL_ASSEMBLY_MEMBERS
100
AcDbSpline
 62
7
  6
CONTINUOUS
 70
0
 71
3
 72
22
 73
18
 74
0
 42
0.0000001
 43
0.0000001
 44
0.0000000001
 40
0.0
 40
0.0
 40
0.0
 40
0.0
 40
0.0808027091
 40
0.1611971715
 40
0.3179252535
 40
0.3931983091
 40
0.4657724494
 40
0.5352354438
 40
0.6012210432
 40
0.6634363315
 40
0.7217283772
 40
0.7760512462
 40
0.8265300633
 40
0.8735111217
 40
0.9175447927
 40
0.9593967054
 40
1.0
 40
1.0
 40
1.0
 40
1.0
 10
4.5918351885
 20
4.541346763
 30
0.0
 10
4.5903050573
 20
4.5413532777
 30
0.0
 10
4.5872521818
 20
4.5414416956
 30
0.0
 10
4.5812484995
 20
4.5419104682
 30
0.0
 10
4.5753883165
 20
4.5428105016
 30
0.0
 10
4.5697771034
 20
4.5441556668
 30
0.0
 10
4.5658359745
 20
4.5453489412
 30
0.0
 10
4.5621429126
 20
4.5467279171
 30
0.0
 10
4.5587324953
 20
4.5482788552
 30
0.0
 10
4.5556384117
 20
4.5499897546
 30
0.0
 10
4.5528887916
 20
4.5518424416
 30
0.0
 10
4.5505093601
 20
4.5538209409
 30
0.0
 10
4.5485239203
 20
4.5559096702
 30
0.0
 10
4.5469504459
 20
4.5580900683
 30
0.0
 10
4.5458102963
 20
4.5603463484
 30
0.0
 10
4.545118083
 20
4.5626528658
 30
0.0
 10
4.5449607544
 20
4.5642182292
 30
0.0
 10
4.544960755
 20
4.5649871259
 30
0.0
  0
SPLINE
  5
25A
100
AcDbEntity
  8
ALL_ASSEMBLY_MEMBERS
100
AcDbSpline
 62
7
  6
CONTINUOUS
 70
0
 71
3
 72
22
 73
18
 74
0
 42
0.0000001
 43
0.0000001
 44
0.0000000001
 40
0.0
 40
0.0
 40
0.0
 40
0.0
 40
0.0808920285
 40
0.1613584925
 40
0.3181768025
 40
0.3934686198
 40
0.4660448142
 40
0.5354943897
 40
0.6014528168
 40
0.663629489
 40
0.7218746872
 40
0.7761466021
 40
0.8265756325
 40
0.8735146166
 40
0.9175216308
 40
0.9593701921
 40
1.0
 40
1.0
 40
1.0
 40
1.0
 10
5.5306288822
 20
4.7693173186
 30
0.0
 10
5.5321588709
 20
4.7693173186
 30
0.0
 10
5.5352114652
 20
4.7693927042
 30
0.0
 10
5.5412145858
 20
4.7698357763
 30
0.0
 10
5.5470748528
 20
4.7707106028
 30
0.0
 10
5.5526867758
 20
4.772031805
 30
0.0
 10
5.5566279763
 20
4.773208113
 30
0.0
 10
5.5603211188
 20
4.7745711561
 30
0.0
 10
5.5637316268
 20
4.7761073474
 30
0.0
 10
5.5668258218
 20
4.7778048423
 30
0.0
 10
5.5695755705
 20
4.779645597
 30
0.0
 10
5.5719551519
 20
4.7816137659
 30
0.0
 10
5.5739407515
 20
4.7836938915
 30
0.0
 10
5.575514366
 20
4.7858675091
 30
0.0
 10
5.5766545789
 20
4.788118901
 30
0.0
 10
5.5773467295
 20
4.7904224084
 30
0.0
 10
5.5775038822
 20
4.7919863481
 30
0.0
 10
5.5775038822
 20
4.7927548187
 30
0.0
  0
SPLINE
  5
25B
100
AcDbEntity
  8
ALL_ASSEMBLY_MEMBERS
100
AcDbSpline
 62
7
  6
CONTINUOUS
 70
0
 71
3
 72
22
 73
18
 74
0
 42
0.0000001
 43
0.0000001
 44
0.0000000001
 40
0.0
 40
0.0
 40
0.0
 40
0.0
 40
0.0808890913
 40
0.1613526946
 40
0.3181658438
 40
0.3934554999
 40
0.4660298832
 40
0.5354780727
 40
0.6014356313
 40
0.6636120401
 40
0.7218576444
 40
0.776130692
 40
0.8265616271
 40
0.873503269
 40
0.9175136189
 40
0.9593660421
 40
1.0
 40
1.0
 40
1.0
 40
1.0
 10
5.5306288822
 20
4.5520179857
 30
0.0
 10
5.532158871
 20
4.5520179857
 30
0.0
 10
5.5352114669
 20
4.5520933819
 30
0.0
 10
5.5412145951
 20
4.5525365166
 30
0.0
 10
5.5470748698
 20
4.5534114684
 30
0.0
 10
5.552686788
 20
4.5547328552
 30
0.0
 10
5.5566279901
 20
4.5559093286
 30
0.0
 10
5.560321133
 20
4.5572725637
 30
0.0
 10
5.5637316412
 20
4.5588089716
 30
0.0
 10
5.5668258366
 20
4.5605067055
 30
0.0
 10
5.5695755861
 20
4.5623477199
 30
0.0
 10
5.5719551677
 20
4.5643161679
 30
0.0
 10
5.5739407665
 20
4.5663965881
 30
0.0
 10
5.5755143786
 20
4.5685705121
 30
0.0
 10
5.5766545864
 20
4.5708222172
 30
0.0
 10
5.5773467315
 20
4.5731260399
 30
0.0
 10
5.5775038822
 20
4.5746901874
 30
0.0
 10
5.5775038822
 20
4.5754587644
 30
0.0
  0
SPLINE
  5
25C
100
AcDbEntity
  8
ALL_ASSEMBLY_MEMBERS
100
AcDbSpline
 62
7
  6
CONTINUOUS
 70
0
 71
3
 72
17
 73
13
 74
0
 42
0.0000001
 43
0.0000001
 44
0.0000000001
 40
0.0
 40
0.0
 40
0.0
 40
0.0
 40
0.1180651634
 40
0.1779790764
 40
0.2384484966
 40
0.2994549137
 40
0.360980725
 40
0.4855082771
 40
0.6118601604
 40
0.739851454
 40
0.8693030747
 40
1.0
 40
1.0
 40
1.0
 40
1.0
 10
4.5917916316
 20
4.5337742278
 30
0.0
 10
4.5915880527
 20
4.4983853064
 30
0.0
 10
4.5901525084
 20
4.4450365134
 30
0.0
 10
4.5860950103
 20
4.3736749883
 30
0.0
 10
4.581941727
 20
4.3194593105
 30
0.0
 10
4.5767015699
 20
4.2648529065
 30
0.0
 10
4.5682438533
 20
4.1912787315
 30
0.0
 10
4.5549741146
 20
4.0985591692
 30
0.0
 10
4.5349427074
 20
3.9867529895
 30
0.0
 10
4.5108535672
 20
3.8742409247
 30
0.0
 10
4.4828444732
 20
3.7613007205
 30
0.0
 10
4.4617509333
 20
3.6862150794
 30
0.0
 10
4.4506027339
 20
3.648658953
 30
0.0
  0
SPLINE
  5
25D
100
AcDbEntity
  8
ALL_ASSEMBLY_MEMBERS
100
AcDbSpline
 62
7
  6
CONTINUOUS
 70
0
 71
3
 72
17
 73
13
 74
0
 42
0.0000001
 43
0.0000001
 44
0.0000000001
 40
0.0
 40
0.0
 40
0.0
 40
0.0
 40
0.1180093139
 40
0.1779053873
 40
0.2383628795
 40
0.2993625958
 40
0.3608862541
 40
0.485420675
 40
0.6117899543
 40
0.7398044802
 40
0.8692808364
 40
1.0
 40
1.0
 40
1.0
 40
1.0
 10
4.5449171982
 20
4.5573094166
 30
0.0
 10
4.5447164449
 20
4.5219108567
 30
0.0
 10
4.5432999117
 20
4.4685444284
 30
0.0
 10
4.5392971966
 20
4.397152265
 30
0.0
 10
4.5351998197
 20
4.3429027722
 30
0.0
 10
4.5300302407
 20
4.2882549343
 30
0.0
 10
4.5216861864
 20
4.2146129398
 30
0.0
 10
4.508594842
 20
4.1217914879
 30
0.0
 10
4.4888333137
 20
4.0098375168
 30
0.0
 10
4.4650687351
 20
3.8971494203
 30
0.0
 10
4.437437086
 20
3.784005893
 30
0.0
 10
4.416627343
 20
3.7087666014
 30
0.0
 10
4.4056288814
 20
3.6711289816
 30
0.0
  0
SPLINE
  5
25E
100
AcDbEntity
  8
ALL_ASSEMBLY_MEMBERS
100
AcDbSpline
 62
7
  6
CONTINUOUS
 70
0
 71
3
 72
22
 73
18
 74
0
 42
0.0000001
 43
0.0000001
 44
0.0000000001
 40
0.0
 40
0.0
 40
0.0
 40
0.0
 40
0.0808966254
 40
0.1613827392
 40
0.3182774787
 40
0.3936202866
 40
0.4662521067
 40
0.535758379
 40
0.6017705412
 40
0.663993354
 40
0.7222718991
 40
0.7765584934
 40
0.8269770979
 40
0.8738740513
 40
0.9178015053
 40
0.9595298473
 40
1.0
 40
1.0
 40
1.0
 40
1.0
 10
4.5917916316
 20
4.5337742203
 30
0.0
 10
4.5902615168
 20
4.5337807444
 30
0.0
 10
4.5872087125
 20
4.5338688388
 30
0.0
 10
4.5812052827
 20
4.5343356344
 30
0.0
 10
4.5753453391
 20
4.5352316897
 30
0.0
 10
4.5697339666
 20
4.5365709664
 30
0.0
 10
4.5657929194
 20
4.5377589316
 30
0.0
 10
4.5620999348
 20
4.5391317441
 30
0.0
 10
4.5586895929
 20
4.5406757206
 30
0.0
 10
4.5555955671
 20
4.5423789156
 30
0.0
 10
4.5528459864
 20
4.5442232329
 30
0.0
 10
4.5504665568
 20
4.5461927734
 30
0.0
 10
4.5484810548
 20
4.5482720513
 30
0.0
 10
4.5469074414
 20
4.5504426215
 30
0.0
 10
4.5457670722
 20
4.5526888532
 30
0.0
 10
4.5450746302
 20
4.5549852498
 30
0.0
 10
4.5449172013
 20
4.5565439392
 30
0.0
 10
4.5449171828
 20
4.5573094167
 30
0.0
  0
SPLINE
  5
25F
100
AcDbEntity
  8
ALL_ASSEMBLY_MEMBERS
100
AcDbSpline
 62
7
  6
CONTINUOUS
 70
0
 71
3
 72
15
 73
11
 74
0
 42
0.0000001
 43
0.0000001
 44
0.0000000001
 40
0.0
 40
0.0
 40
0.0
 40
0.0
 40
0.265930932
 40
0.3948697946
 40
0.458329331
 40
0.5211161603
 40
0.6446785547
 40
0.7656252377
 40
0.8840388216
 40
1.0
 40
1.0
 40
1.0
 40
1.0
 10
5.5803639908
 20
4.925109101
 30
0.0
 10
5.5832022521
 20
4.866732506
 30
0.0
 10
5.5906331477
 20
4.7801499716
 30
0.0
 10
5.6053789754
 20
4.6804819251
 30
0.0
 10
5.61532897
 20
4.6252832122
 30
0.0
 10
5.6262098299
 20
4.5714665971
 30
0.0
 10
5.641714951
 20
4.5057101942
 30
0.0
 10
5.6634342538
 20
4.4289346731
 30
0.0
 10
5.6880780417
 20
4.3548062018
 30
0.0
 10
5.7065759384
 20
4.3067082645
 30
0.0
 10
5.7162877939
 20
4.2831456507
 30
0.0
  0
SPLINE
  5
260
100
AcDbEntity
  8
ALL_ASSEMBLY_MEMBERS
100
AcDbSpline
 62
7
  6
CONTINUOUS
 70
0
 71
3
 72
15
 73
11
 74
0
 42
0.0000001
 43
0.0000001
 44
0.0000000001
 40
0.0
 40
0.0
 40
0.0
 40
0.0
 40
0.1160097789
 40
0.2344601531
 40
0.3554303283
 40
0.4790016016
 40
0.5417869897
 40
0.6052411644
 40
0.7341577113
 40
1.0
 40
1.0
 40
1.0
 40
1.0
 10
4.4074546657
 20
4.2831216448
 30
0.0
 10
4.4170440805
 20
4.3065024782
 30
0.0
 10
4.4353113573
 20
4.3542205754
 30
0.0
 10
4.4596584807
 20
4.4277445346
 30
0.0
 10
4.4811280508
 20
4.5038729676
 30
0.0
 10
4.4964672009
 20
4.5690615137
 30
0.0
 10
4.5072401577
 20
4.6224052154
 30
0.0
 10
4.5170976594
 20
4.6771103251
 30
0.0
 10
4.5317263601
 20
4.7758694672
 30
0.0
 10
4.5391419861
 20
4.8616564418
 30
0.0
 10
4.5420035485
 20
4.9194953302
 30
0.0
  0
SPLINE
  5
261
100
AcDbEntity
  8
ALL_ASSEMBLY_MEMBERS
100
AcDbSpline
 62
7
  6
CONTINUOUS
 70
0
 71
3
 72
17
 73
13
 74
0
 42
0.0000001
 43
0.0000001
 44
0.0000000001
 40
0.0
 40
0.0
 40
0.0
 40
0.0
 40
0.1307674765
 40
0.2602767743
 40
0.3883087063
 40
0.5146806718
 40
0.6392042298
 40
0.7007180324
 40
0.7617052976
 40
0.8221481426
 40
0.8820277848
 40
1.0
 40
1.0
 40
1.0
 40
1.0
 10
5.6731548205
 20
3.6486589502
 30
0.0
 10
5.6618538379
 20
3.6865450406
 30
0.0
 10
5.6404762534
 20
3.7622913472
 30
0.0
 10
5.6121067377
 20
3.8762309668
 30
0.0
 10
5.5877300774
 20
3.989735218
 30
0.0
 10
5.5674876908
 20
4.1025185419
 30
0.0
 10
5.5541070468
 20
4.1960415106
 30
0.0
 10
5.5456021545
 20
4.2702437673
 30
0.0
 10
5.5403476521
 20
4.3253075008
 30
0.0
 10
5.5362006953
 20
4.3799706807
 30
0.0
 10
5.5321794328
 20
4.451906324
 30
0.0
 10
5.5308015999
 20
4.5056798873
 30
0.0
 10
5.53065107
 20
4.541346763
 30
0.0
  0
SPLINE
  5
262
100
AcDbEntity
  8
ALL_ASSEMBLY_MEMBERS
100
AcDbSpline
 62
7
  6
CONTINUOUS
 70
0
 71
3
 72
17
 73
13
 74
0
 42
0.0000001
 43
0.0000001
 44
0.0000000001
 40
0.0
 40
0.0
 40
0.0
 40
0.0
 40
0.1307905254
 40
0.2603253563
 40
0.3883812036
 40
0.5147710294
 40
0.6393015824
 40
0.7008131268
 40
0.7617934564
 40
0.8222239951
 40
0.8820852611
 40
1.0
 40
1.0
 40
1.0
 40
1.0
 10
5.7181288822
 20
3.6711200901
 30
0.0
 10
5.7069782701
 20
3.7090910505
 30
0.0
 10
5.6858856336
 20
3.7849975808
 30
0.0
 10
5.6578948878
 20
3.8991498796
 30
0.0
 10
5.6338436299
 20
4.0128389181
 30
0.0
 10
5.6138714688
 20
4.1257781134
 30
0.0
 10
5.6006690576
 20
4.2194092091
 30
0.0
 10
5.5922774099
 20
4.293683904
 30
0.0
 10
5.5870930376
 20
4.34879224
 30
0.0
 10
5.5830014034
 20
4.403492184
 30
0.0
 10
5.5790339715
 20
4.4754619238
 30
0.0
 10
5.5776742057
 20
4.5292556104
 30
0.0
 10
5.5775257661
 20
4.5649337296
 30
0.0
  0
ELLIPSE
  5
263
100
AcDbEntity
  8
ALL_ASSEMBLY_MEMBERS
100
AcDbEllipse
 62
7
  6
CONTINUOUS
 10
4.5931294487
 20
5.2615048186
 30
0.0
 11
0.0468755665
 21
0.0
 31
0.0
 40
0.499993957
 41
1.5707963268
 42
3.1415926536
  0
ELLIPSE
  5
264
100
AcDbEntity
  8
ALL_ASSEMBLY_MEMBERS
100
AcDbEllipse
 62
7
  6
CONTINUOUS
 10
4.5931294487
 20
4.7927548187
 30
0.0
 11
0.0468755665
 21
-0.0000000124
 31
0.0
 40
0.4999939587
 41
-3.1415925212
 42
-1.5707957973
  0
ENDSEC
  0
SECTION
  2
OBJECTS
  0
DICTIONARY
  5
C
100
AcDbDictionary
280
0
281
1
  3
ACAD_GROUP
350
D
  3
ACAD_MLINESTYLE
350
17
  3
ACAD_LAYOUT
350
1A
  3
ACAD_PLOTSETTINGS
350
19
  3
ACAD_PLOTSTYLENAME
350
E
  0
DICTIONARY
  5
D
102
{ACAD_REACTORS
330
C
102
}
100
AcDbDictionary
280
0
281
1
  0
ACDBDICTIONARYWDFLT
  5
E
102
{ACAD_REACTORS
330
C
102
}
100
AcDbDictionary
281
1
  3
Normal
350
F
100
AcDbDictionaryWithDefault
340
F
  0
DICTIONARY
  5
17
102
{ACAD_REACTORS
330
C
102
}
100
AcDbDictionary
280
0
281
1
  3
Standard
350
18
  0
DICTIONARY
  5
19
102
{ACAD_REACTORS
330
C
102
}
100
AcDbDictionary
281
1
  0
DICTIONARY
  5
1A
102
{ACAD_REACTORS
330
C
102
}
100
AcDbDictionary
281
1
  3
Model
350
265
  3
Layout1
350
266
  0
ACDBPLACEHOLDER
  5
F
102
{ACAD_REACTORS
330
E
102
}
  0
MLINESTYLE
  5
18
102
{ACAD_REACTORS
330
17
102
}
100
AcDbMlineStyle
  2
STANDARD
 70
0
  3

 62
256
 51
90.0
 52
90.0
 71
2
 49
0.5
 62
256
  6
BYLAYER
 49
-0.5
 62
256
  6
BYLAYER
  0
LAYOUT
  5
265
102
{ACAD_REACTORS
330
1A
102
}
100
AcDbPlotSettings
  1

  2
none_device
  4
ANSI_A_(11.00_x_8.50_Inches)
  6

 40
0.0
 41
0.0
 42
0.0
 43
0.0
 44
279.4
 45
215.9
 46
0.0
 47
0.0
 48
0.0
 49
0.0
140
0.0
141
0.0
142
1.0
143
1.0
 70
1024
 72
0
 73
0
 74
0
  7

 75
0
147
1.0
148
0.0
149
0.0
100
AcDbLayout
  1
Model
 70
0
 71
0
 10
0.0
 20
0.0
 11
11.0
 21
8.5
 12
0.0
 22
0.0
 32
0.0
 14
0.0
 24
0.0
 34
0.0
 15
0.0
 25
0.0
 35
0.0
146
0.0
 13
0.0
 23
0.0
 33
0.0
 16
1.0
 26
0.0
 36
0.0
 17
0.0
 27
1.0
 37
0.0
 76
0
330
21C
345
0
346
0
  0
LAYOUT
  5
266
102
{ACAD_REACTORS
330
1A
102
}
100
AcDbPlotSettings
  1

  2
none_device
  4
ANSI_A_(11.00_x_8.50_Inches)
  6

 40
0.0
 41
0.0
 42
0.0
 43
0.0
 44
279.4
 45
215.9
 46
0.0
 47
0.0
 48
0.0
 49
0.0
140
0.0
141
0.0
142
1.0
143
1.0
 70
0
 72
0
 73
0
 74
0
  7

 75
0
147
1.0
148
0.0
149
0.0
100
AcDbLayout
  1
Layout1
 70
0
 71
1
 10
0.0
 20
0.0
 11
11.0
 21
8.5
 12
0.0
 22
0.0
 32
0.0
 14
0.0
 24
0.0
 34
0.0
 15
0.0
 25
0.0
 35
0.0
146
0.0
 13
0.0
 23
0.0
 33
0.0
 16
1.0
 26
0.0
 36
0.0
 17
0.0
 27
1.0
 37
0.0
 76
0
330
21D
345
0
346
0
  0
ENDSEC
  0
EOF
