999
DXF file: 283-2_RIGHT.dxf
999
Pro/ENGINEER 2018400 by Parametric Technology Corporation
  0
SECTION
  2
HEADER
  9
$ACADVER
  1
AC1027
  9
$DWGCODEPAGE
  3
ANSI_1252
  9
$EXTMAX
 10
11.0
 20
8.5
 30
0.0
  9
$EXTMIN
 10
0.0
 20
0.0
 30
0.0
  9
$LIMMIN
 10
0.0
 20
0.0
  9
$LIMMAX
 10
11.0
 20
8.5
  9
$VIEWCTR
 10
5.5
 20
4.25
  9
$VIEWSIZE
 40
8.5
  9
$CLAYER
  8
0
  9
$LTSCALE
 40
0.605
  9
$CELTYPE
  6
BYLAYER
  9
$DIMSCALE
 40
1.0
  9
$DIMASZ
 40
0.1
  9
$DIMEXO
 40
0.0625
  9
$DIMDLI
 40
0.418
  9
$DIMEXE
 40
0.125
  9
$DIMCEN
 40
0.099
  9
$DIMLFAC
 40
1.0
  9
$DIMBLK
  1
_FILLED
  9
$DIMALT
 70
1
  9
$DIMALTD
 70
2
  9
$DIMALTTD
 70
2
  9
$DIMALTF
 40
25.4
  9
$DIMTXT
 40
0.08
  9
$DIMTOL
 70
1
  9
$DIMLIM
 70
0
  9
$DIMTFAC
 40
1.0
  9
$DIMTP
 40
0.001
  9
$DIMTM
 40
0.001
  9
$DIMGAP
 40
0.09
  9
$DIMDSEP
 70
46
  9
$AUNITS
 70
0
  9
$PDMODE
 70
3
  9
$PDSIZE
 40
0.3125
  9
$HANDSEED
  5
37B
  9
$TILEMODE
 70
1
  9
$MEASUREMENT
 70
0
  9
$INSUNITS
 70
1
  0
ENDSEC
  0
SECTION
  2
CLASSES
  0
CLASS
  1
ACDBDICTIONARYWDFLT
  2
AcDbDictionaryWithDefault
  3
AutoCAD 2000
 90
0
 91
1
280
0
281
0
  0
CLASS
  1
ACDBPLACEHOLDER
  2
AcDbPlaceHolder
  3
AutoCAD 2000
 90
0
 91
1
280
0
281
0
  0
CLASS
  1
LAYOUT
  2
AcDbLayout
  3
AutoCAD 2000
 90
0
 91
0
280
0
281
0
  0
ENDSEC
  0
SECTION
  2
TABLES
  0
TABLE
  2
VPORT
  5
8
100
AcDbSymbolTable
 70
2
  0
VPORT
  5
1F4
100
AcDbSymbolTableRecord
100
AcDbViewportTableRecord
  2
*ACTIVE
 70
0
 10
0.0
 20
0.0
 11
1.0
 21
1.0
 12
5.5
 22
4.25
 13
0.0
 23
0.0
 14
1.0
 24
1.0
 15
0.0
 25
0.0
 16
0.0
 26
0.0
 36
1.0
 17
0.0
 27
0.0
 37
0.0
 40
8.5
 41
1.2941176471
 42
50.0
 43
0.0
 44
0.0
 50
0.0
 51
0.0
 71
0
 72
100
 73
1
 74
1
 75
0
 76
0
 77
0
 78
0
  0
ENDTAB
  0
TABLE
  2
LTYPE
  5
5
100
AcDbSymbolTable
 70
6
  0
LTYPE
  5
14
100
AcDbSymbolTableRecord
100
AcDbLinetypeTableRecord
  2
BYBLOCK
 70
0
  3

 72
65
 73
0
 40
0.0
  0
LTYPE
  5
15
100
AcDbSymbolTableRecord
100
AcDbLinetypeTableRecord
  2
BYLAYER
 70
0
  3

 72
65
 73
0
 40
0.0
  0
LTYPE
  5
16
100
AcDbSymbolTableRecord
100
AcDbLinetypeTableRecord
  2
CONTINUOUS
 70
64
  3
Solid line
 72
65
 73
0
 40
0.0
  0
LTYPE
  5
1F5
100
AcDbSymbolTableRecord
100
AcDbLinetypeTableRecord
  2
CENTER
 70
64
  3
____ _ ____ _ ____ _ ____ _ ____ _ ____ _ ____
 72
65
 73
4
 40
0.6
 49
0.375
 74
0
 49
-0.075
 74
0
 49
0.075
 74
0
 49
-0.075
 74
0
  0
LTYPE
  5
1F6
100
AcDbSymbolTableRecord
100
AcDbLinetypeTableRecord
  2
HIDDEN
 70
64
  3
- - - - - - - - - - - - - - - - - - - -
 72
65
 73
2
 40
0.2
 49
0.1
 74
0
 49
-0.1
 74
0
  0
LTYPE
  5
1F7
100
AcDbSymbolTableRecord
100
AcDbLinetypeTableRecord
  2
PHANTOM
 70
64
  3
_____ _ _ _____ _ _ _____ _ _ _____
 72
65
 73
6
 40
0.8
 49
0.45
 74
0
 49
-0.05
 74
0
 49
0.1
 74
0
 49
-0.05
 74
0
 49
0.1
 74
0
 49
-0.05
 74
0
  0
LTYPE
  5
1F8
100
AcDbSymbolTableRecord
100
AcDbLinetypeTableRecord
  2
DOT
 70
64
  3
. . . . . . . . . . . . . . . . . . . .
 72
65
 73
2
 40
0.2
 49
0.1
 74
0
 49
-0.1
 74
0
  0
LTYPE
  5
1F9
100
AcDbSymbolTableRecord
100
AcDbLinetypeTableRecord
  2
DASHED
 70
64
  3
- - - - - - - - - - - - - - - - - - - -
 72
65
 73
2
 40
0.2
 49
0.1
 74
0
 49
-0.1
 74
0
  0
ENDTAB
  0
TABLE
  2
LAYER
  5
2
100
AcDbSymbolTable
 70
36
  0
LAYER
  5
10
100
AcDbSymbolTableRecord
100
AcDbLayerTableRecord
  2
0
 70
0
 62
7
  6
CONTINUOUS
370
-3
390
F
  0
LAYER
  5
1FA
100
AcDbSymbolTableRecord
100
AcDbLayerTableRecord
  2
DEFAULT_1
 70
0
 62
7
  6
CENTER
370
-3
390
F
  0
LAYER
  5
1FB
100
AcDbSymbolTableRecord
100
AcDbLayerTableRecord
  2
DEFAULT_2
 70
0
 62
8
  6
HIDDEN
370
-3
390
F
  0
LAYER
  5
1FC
100
AcDbSymbolTableRecord
100
AcDbLayerTableRecord
  2
DEFAULT_3
 70
0
 62
7
  6
PHANTOM
370
-3
390
F
  0
LAYER
  5
1FD
100
AcDbSymbolTableRecord
100
AcDbLayerTableRecord
  2
ALL_ASSEMBLY_MEMBERS
 70
0
 62
7
  6
CONTINUOUS
370
-3
390
F
  0
LAYER
  5
1FE
100
AcDbSymbolTableRecord
100
AcDbLayerTableRecord
  2
ALL_FEATURES
 70
0
 62
7
  6
CONTINUOUS
370
-3
390
F
  0
LAYER
  5
1FF
100
AcDbSymbolTableRecord
100
AcDbLayerTableRecord
  2
AXES_FEATURES
 70
0
 62
7
  6
CONTINUOUS
370
-3
390
F
  0
LAYER
  5
200
100
AcDbSymbolTableRecord
100
AcDbLayerTableRecord
  2
CHAMFER_FEATURES
 70
0
 62
7
  6
CONTINUOUS
370
-3
390
F
  0
LAYER
  5
201
100
AcDbSymbolTableRecord
100
AcDbLayerTableRecord
  2
COSMETIC_SKETCHES
 70
0
 62
7
  6
CONTINUOUS
370
-3
390
F
  0
LAYER
  5
202
100
AcDbSymbolTableRecord
100
AcDbLayerTableRecord
  2
CURVE
 70
0
 62
7
  6
CONTINUOUS
370
-3
390
F
  0
LAYER
  5
203
100
AcDbSymbolTableRecord
100
AcDbLayerTableRecord
  2
CUT_FEATURES
 70
0
 62
7
  6
CONTINUOUS
370
-3
390
F
  0
LAYER
  5
204
100
AcDbSymbolTableRecord
100
AcDbLayerTableRecord
  2
DATUM_CURVES
 70
0
 62
7
  6
CONTINUOUS
370
-3
390
F
  0
LAYER
  5
205
100
AcDbSymbolTableRecord
100
AcDbLayerTableRecord
  2
DATUM_PLANES
 70
0
 62
7
  6
CONTINUOUS
370
-3
390
F
  0
LAYER
  5
206
100
AcDbSymbolTableRecord
100
AcDbLayerTableRecord
  2
DEFAULT_COORDINATE_SYSTEM
 70
0
 62
7
  6
CONTINUOUS
370
-3
390
F
  0
LAYER
  5
207
100
AcDbSymbolTableRecord
100
AcDbLayerTableRecord
  2
DEFAULT_DATUM_AXES
 70
0
 62
7
  6
CONTINUOUS
370
-3
390
F
  0
LAYER
  5
208
100
AcDbSymbolTableRecord
100
AcDbLayerTableRecord
  2
DEFAULT_DATUM_CURVES
 70
0
 62
7
  6
CONTINUOUS
370
-3
390
F
  0
LAYER
  5
209
100
AcDbSymbolTableRecord
100
AcDbLayerTableRecord
  2
DEFAULT_DATUM_PLANES
 70
0
 62
7
  6
CONTINUOUS
370
-3
390
F
  0
LAYER
  5
20A
100
AcDbSymbolTableRecord
100
AcDbLayerTableRecord
  2
DEFAULT_SURFACES
 70
0
 62
7
  6
CONTINUOUS
370
-3
390
F
  0
LAYER
  5
20B
100
AcDbSymbolTableRecord
100
AcDbLayerTableRecord
  2
DIMENSIONS
 70
0
 62
7
  6
CONTINUOUS
370
-3
390
F
  0
LAYER
  5
20C
100
AcDbSymbolTableRecord
100
AcDbLayerTableRecord
  2
PART_REFERENCE_DIMENSIONS
 70
0
 62
7
  6
CONTINUOUS
370
-3
390
F
  0
LAYER
  5
20D
100
AcDbSymbolTableRecord
100
AcDbLayerTableRecord
  2
PLATING_AREA
 70
0
 62
7
  6
CONTINUOUS
370
-3
390
F
  0
LAYER
  5
20E
100
AcDbSymbolTableRecord
100
AcDbLayerTableRecord
  2
PLATTED_SURFACE_AREA
 70
0
 62
7
  6
CONTINUOUS
370
-3
390
F
  0
LAYER
  5
20F
100
AcDbSymbolTableRecord
100
AcDbLayerTableRecord
  2
PROTRUSION_FEATURES
 70
0
 62
7
  6
CONTINUOUS
370
-3
390
F
  0
LAYER
  5
210
100
AcDbSymbolTableRecord
100
AcDbLayerTableRecord
  2
QUILT
 70
0
 62
7
  6
CONTINUOUS
370
-3
390
F
  0
LAYER
  5
211
100
AcDbSymbolTableRecord
100
AcDbLayerTableRecord
  2
QUILTS
 70
0
 62
7
  6
CONTINUOUS
370
-3
390
F
  0
LAYER
  5
212
100
AcDbSymbolTableRecord
100
AcDbLayerTableRecord
  2
REFERENCE_DIMENSIONS
 70
0
 62
7
  6
CONTINUOUS
370
-3
390
F
  0
ENDTAB
  0
TABLE
  2
STYLE
  5
3
100
AcDbSymbolTable
 70
1
  0
STYLE
  5
11
100
AcDbSymbolTableRecord
100
AcDbTextStyleTableRecord
  2
STANDARD
 70
0
 40
0.0
 41
0.8
 50
0.0
 71
0
 42
0.2
  3
txt
  4

  0
STYLE
  5
213
100
AcDbSymbolTableRecord
100
AcDbTextStyleTableRecord
  2
TEXTSTYLE_1
 70
0
 40
0.0
 41
0.8
 50
0.0
 71
0
 42
0.2
  3
gdt
  4

  0
ENDTAB
  0
TABLE
  2
VIEW
  5
6
100
AcDbSymbolTable
 70
0
  0
ENDTAB
  0
TABLE
  2
UCS
  5
7
100
AcDbSymbolTable
 70
0
  0
ENDTAB
  0
TABLE
  2
APPID
  5
9
100
AcDbSymbolTable
 70
1
  0
APPID
  5
214
100
AcDbSymbolTableRecord
100
AcDbRegAppTableRecord
  2
ACAD
 70
0
  0
ENDTAB
  0
TABLE
  2
BLOCK_RECORD
  5
1
100
AcDbSymbolTable
 70
0
  0
BLOCK_RECORD
  5
215
100
AcDbSymbolTableRecord
100
AcDbBlockTableRecord
  2
*Model_Space
  0
BLOCK_RECORD
  5
216
100
AcDbSymbolTableRecord
100
AcDbBlockTableRecord
  2
*Paper_Space
  0
BLOCK_RECORD
  5
217
100
AcDbSymbolTableRecord
100
AcDbBlockTableRecord
  2
_FILLED
  0
ENDTAB
  0
TABLE
  2
DIMSTYLE
  5
A
100
AcDbSymbolTable
 70
1
100
AcDbDimStyleTable
 71
0
  0
DIMSTYLE
105
218
100
AcDbSymbolTableRecord
100
AcDbDimStyleTableRecord
  2
STANDARD
 70
0
  3

  4

 40
1.0
 41
0.1
 42
0.0625
 43
0.38
 44
0.125
 45
0.0
 46
0.0
 47
0.001
 48
0.001
140
0.08
141
0.09
142
0.0
143
25.4
144
1.0
145
0.0
146
1.0
147
0.09
 71
1.0
 72
0.0
 73
1
 74
1
 75
0
 76
0
 77
0
 78
4
 79
1
170
1
171
2
172
0
173
0
174
0
175
0
176
0
177
0
178
0
270
2
179
3
271
3
272
3
273
2
274
2
275
0
280
0
281
0
282
0
283
1
284
4
285
0
286
0
287
3
288
0
340
11
278
46
341
217
342
217
343
217
344
217
  0
ENDTAB
  0
ENDSEC
  0
SECTION
  2
BLOCKS
  0
BLOCK
  5
20
100
AcDbEntity
  8
0
100
AcDbBlockBegin
  2
*Model_Space
 70
0
 10
0.0
 20
0.0
 30
0.0
  3
*Model_Space
  1

  0
ENDBLK
  5
21
100
AcDbEntity
  8
0
100
AcDbBlockEnd
  0
BLOCK
  5
1C
100
AcDbEntity
  8
0
100
AcDbBlockBegin
  2
*Paper_Space
 70
0
 10
0.0
 20
0.0
 30
0.0
  3
*Paper_Space
  1

  0
ENDBLK
  5
1D
100
AcDbEntity
  8
0
100
AcDbBlockEnd
  0
BLOCK
  5
219
100
AcDbEntity
  8
0
100
AcDbBlockBegin
  2
_FILLED
 70
64
 10
0.0
 20
0.0
  3
_FILLED
  1

  0
SOLID
  5
21A
100
AcDbEntity
  8
0
  6
BYBLOCK
 62
0
100
AcDbTrace
 10
0.0
 20
0.0
 11
-1.0
 21
0.2
 12
-1.0
 22
-0.2
 13
-1.0
 23
-0.2
  0
ENDBLK
  5
21B
100
AcDbEntity
  8
0
  6
BYBLOCK
 62
0
100
AcDbBlockEnd
  0
ENDSEC
  0
SECTION
  2
ENTITIES
  0
MTEXT
  5
21C
100
AcDbEntity
  8
0
100
AcDbMText
 62
2
  6
CONTINUOUS
  7
STANDARD
 71
3
 72
1
 10
5.8352030354
 20
0.4892845649
 30
0.0
 11
1.0
 21
0.0
 31
0.0
 73
2
 44
0.9
  1
SCALE  .750
 40
0.08
 41
0.704
  0
LINE
  5
21D
100
AcDbEntity
  8
0
100
AcDbLine
 62
7
  6
CONTINUOUS
 10
0.0
 20
0.0
 11
0.0
 21
8.5
  0
LINE
  5
21E
100
AcDbEntity
  8
0
100
AcDbLine
 62
7
  6
CONTINUOUS
 10
0.0
 20
0.0
 11
11.0
 21
0.0
  0
LINE
  5
21F
100
AcDbEntity
  8
0
100
AcDbLine
 62
7
  6
CONTINUOUS
 10
0.0
 20
8.5
 11
11.0
 21
8.5
  0
LINE
  5
220
100
AcDbEntity
  8
0
100
AcDbLine
 62
7
  6
CONTINUOUS
 10
11.0
 20
0.0
 11
11.0
 21
8.5
  0
LINE
  5
221
100
AcDbEntity
  8
0
100
AcDbLine
 62
7
  6
CONTINUOUS
 10
5.6542034001
 20
1.368290776
 11
6.1979534001
 21
1.368290776
  0
LINE
  5
222
100
AcDbEntity
  8
ALL_ASSEMBLY_MEMBERS
100
AcDbLine
 62
7
  6
CONTINUOUS
 10
4.2711906271
 20
7.0215547418
 11
4.2146824695
 21
6.9889297418
  0
LINE
  5
223
100
AcDbEntity
  8
ALL_ASSEMBLY_MEMBERS
100
AcDbLine
 62
7
  6
CONTINUOUS
 10
4.3043160988
 20
7.0406797418
 11
4.3855059804
 21
7.0875547418
  0
LINE
  5
224
100
AcDbEntity
  8
ALL_ASSEMBLY_MEMBERS
100
AcDbLine
 62
7
  6
CONTINUOUS
 10
4.5317220617
 20
7.1718010602
 11
4.4830081327
 21
7.1436760602
  0
LINE
  5
225
100
AcDbEntity
  8
ALL_ASSEMBLY_MEMBERS
100
AcDbLine
 62
7
  6
CONTINUOUS
 10
4.532114681
 20
7.1711210236
 11
4.483400752
 21
7.1429960236
  0
LINE
  5
226
100
AcDbEntity
  8
ALL_ASSEMBLY_MEMBERS
100
AcDbLine
 62
7
  6
CONTINUOUS
 10
4.5322109554
 20
7.1709542714
 11
4.4834970264
 21
7.1428292714
  0
LINE
  5
227
100
AcDbEntity
  8
ALL_ASSEMBLY_MEMBERS
100
AcDbLine
 62
7
  6
CONTINUOUS
 10
4.5329957157
 20
7.1695950267
 11
4.4842817868
 21
7.1414700267
  0
LINE
  5
228
100
AcDbEntity
  8
ALL_ASSEMBLY_MEMBERS
100
AcDbLine
 62
7
  6
CONTINUOUS
 10
4.5331560427
 20
7.1693173322
 11
4.4844421137
 21
7.1411923322
  0
LINE
  5
229
100
AcDbEntity
  8
ALL_ASSEMBLY_MEMBERS
100
AcDbLine
 62
7
  6
CONTINUOUS
 10
4.5343319879
 20
7.1672805354
 11
4.4856180589
 21
7.1391555354
  0
LINE
  5
22A
100
AcDbEntity
  8
ALL_ASSEMBLY_MEMBERS
100
AcDbLine
 62
7
  6
CONTINUOUS
 10
4.5345561721
 20
7.1668922369
 11
4.4858422431
 21
7.1387672369
  0
LINE
  5
22B
100
AcDbEntity
  8
ALL_ASSEMBLY_MEMBERS
100
AcDbLine
 62
7
  6
CONTINUOUS
 10
4.5361218695
 20
7.1641803695
 11
4.4874079405
 21
7.1360553695
  0
LINE
  5
22C
100
AcDbEntity
  8
ALL_ASSEMBLY_MEMBERS
100
AcDbLine
 62
7
  6
CONTINUOUS
 10
4.5364096378
 20
7.1636819401
 11
4.4876957089
 21
7.1355569401
  0
LINE
  5
22D
100
AcDbEntity
  8
ALL_ASSEMBLY_MEMBERS
100
AcDbLine
 62
7
  6
CONTINUOUS
 10
4.5383631798
 20
7.1602983061
 11
4.4896492509
 21
7.1321733061
  0
LINE
  5
22E
100
AcDbEntity
  8
ALL_ASSEMBLY_MEMBERS
100
AcDbLine
 62
7
  6
CONTINUOUS
 10
4.5387141817
 20
7.1596903531
 11
4.4900002527
 21
7.1315653531
  0
LINE
  5
22F
100
AcDbEntity
  8
ALL_ASSEMBLY_MEMBERS
100
AcDbLine
 62
7
  6
CONTINUOUS
 10
4.5410531882
 20
7.1556390749
 11
4.4923392592
 21
7.1275140749
  0
LINE
  5
230
100
AcDbEntity
  8
ALL_ASSEMBLY_MEMBERS
100
AcDbLine
 62
7
  6
CONTINUOUS
 10
4.5414669959
 20
7.1549223389
 11
4.492753067
 21
7.1267973389
  0
LINE
  5
231
100
AcDbEntity
  8
ALL_ASSEMBLY_MEMBERS
100
AcDbLine
 62
7
  6
CONTINUOUS
 10
4.5441886173
 20
7.1502083525
 11
4.4954746883
 21
7.1220833525
  0
LINE
  5
232
100
AcDbEntity
  8
ALL_ASSEMBLY_MEMBERS
100
AcDbLine
 62
7
  6
CONTINUOUS
 10
4.5446647267
 20
7.1493837068
 11
4.4959507977
 21
7.1212587068
  0
LINE
  5
233
100
AcDbEntity
  8
ALL_ASSEMBLY_MEMBERS
100
AcDbLine
 62
7
  6
CONTINUOUS
 10
4.547765647
 20
7.1440127553
 11
4.499051718
 21
7.1158877553
  0
LINE
  5
234
100
AcDbEntity
  8
ALL_ASSEMBLY_MEMBERS
100
AcDbLine
 62
7
  6
CONTINUOUS
 10
4.548303478
 20
7.1430812046
 11
4.4995895491
 21
7.1149562046
  0
LINE
  5
235
100
AcDbEntity
  8
ALL_ASSEMBLY_MEMBERS
100
AcDbLine
 62
7
  6
CONTINUOUS
 10
4.436731933
 20
7.0738287892
 11
4.5016838383
 21
7.1113287892
  0
LINE
  5
236
100
AcDbEntity
  8
ALL_ASSEMBLY_MEMBERS
100
AcDbLine
 62
7
  6
CONTINUOUS
 10
4.5503977673
 20
7.1394537892
 11
4.9563471753
 21
7.3738287892
  0
LINE
  5
237
100
AcDbEntity
  8
ALL_ASSEMBLY_MEMBERS
100
AcDbLine
 62
7
  6
CONTINUOUS
 10
4.5517799192
 20
7.1370598318
 11
4.5030659903
 21
7.1089348318
  0
LINE
  5
238
100
AcDbEntity
  8
ALL_ASSEMBLY_MEMBERS
100
AcDbLine
 62
7
  6
CONTINUOUS
 10
4.5523788167
 20
7.136022511
 11
4.5036648877
 21
7.107897511
  0
LINE
  5
239
100
AcDbEntity
  8
ALL_ASSEMBLY_MEMBERS
100
AcDbLine
 62
7
  6
CONTINUOUS
 10
4.5562265433
 20
7.129358053
 11
4.5075126144
 21
7.101233053
  0
LINE
  5
23A
100
AcDbEntity
  8
ALL_ASSEMBLY_MEMBERS
100
AcDbLine
 62
7
  6
CONTINUOUS
 10
4.5568857775
 20
7.1282162258
 11
4.5081718486
 21
7.1000912258
  0
LINE
  5
23B
100
AcDbEntity
  8
ALL_ASSEMBLY_MEMBERS
100
AcDbLine
 62
7
  6
CONTINUOUS
 10
4.5611001017
 20
7.1209168023
 11
4.5123861727
 21
7.0927918023
  0
LINE
  5
23C
100
AcDbEntity
  8
ALL_ASSEMBLY_MEMBERS
100
AcDbLine
 62
7
  6
CONTINUOUS
 10
4.5618188694
 20
7.11967186
 11
4.5131049405
 21
7.09154686
  0
LINE
  5
23D
100
AcDbEntity
  8
0
100
AcDbLine
 62
7
  6
CONTINUOUS
 10
5.6483271486
 20
1.443290776
 11
6.2311657756
 21
1.443290776
  0
LINE
  5
23E
100
AcDbEntity
  8
ALL_FEATURES
100
AcDbLine
 62
7
  6
CONTINUOUS
 10
5.6331830446
 20
1.593290776
 11
6.212628777
 21
1.593290776
  0
LINE
  5
23F
100
AcDbEntity
  8
ALL_ASSEMBLY_MEMBERS
100
AcDbLine
 62
7
  6
CONTINUOUS
 10
4.5663946567
 20
7.111746364
 11
4.5176807277
 21
7.083621364
  0
LINE
  5
240
100
AcDbEntity
  8
ALL_ASSEMBLY_MEMBERS
100
AcDbLine
 62
7
  6
CONTINUOUS
 10
4.5671720822
 20
7.1103998234
 11
4.5184581533
 21
7.0822748234
  0
LINE
  5
241
100
AcDbEntity
  8
ALL_ASSEMBLY_MEMBERS
100
AcDbLine
 62
7
  6
CONTINUOUS
 10
4.5721037576
 20
7.1018579111
 11
4.5233898287
 21
7.0737329111
  0
LINE
  5
242
100
AcDbEntity
  8
ALL_ASSEMBLY_MEMBERS
100
AcDbLine
 62
7
  6
CONTINUOUS
 10
4.5729388939
 20
7.1004114127
 11
4.5242249649
 21
7.0722864127
  0
LINE
  5
243
100
AcDbEntity
  8
ALL_ASSEMBLY_MEMBERS
100
AcDbLine
 62
7
  6
CONTINUOUS
 10
4.578220449
 20
7.0912634909
 11
4.52950652
 21
7.0631384909
  0
LINE
  5
244
100
AcDbEntity
  8
ALL_ASSEMBLY_MEMBERS
100
AcDbLine
 62
7
  6
CONTINUOUS
 10
4.5791122784
 20
7.0897187971
 11
4.5303983494
 21
7.0615937971
  0
LINE
  5
245
100
AcDbEntity
  8
ALL_ASSEMBLY_MEMBERS
100
AcDbLine
 62
7
  6
CONTINUOUS
 10
4.5847372784
 20
7.0799760113
 11
4.5360233494
 21
7.0518510113
  0
LINE
  5
246
100
AcDbEntity
  8
ALL_ASSEMBLY_MEMBERS
100
AcDbLine
 62
7
  6
CONTINUOUS
 10
4.5856847144
 20
7.0783350039
 11
4.5369707855
 21
7.0502100039
  0
LINE
  5
247
100
AcDbEntity
  8
ALL_ASSEMBLY_MEMBERS
100
AcDbLine
 62
7
  6
CONTINUOUS
 10
4.5916463061
 20
7.0680092242
 11
4.5429323772
 21
7.0398842242
  0
LINE
  5
248
100
AcDbEntity
  8
ALL_ASSEMBLY_MEMBERS
100
AcDbLine
 62
7
  6
CONTINUOUS
 10
4.5926481945
 20
7.0662739026
 11
4.5439342655
 21
7.0381489026
  0
LINE
  5
249
100
AcDbEntity
  8
ALL_ASSEMBLY_MEMBERS
100
AcDbLine
 62
7
  6
CONTINUOUS
 10
4.5989391147
 20
7.0553777093
 11
4.5502251857
 21
7.0272527093
  0
LINE
  5
24A
100
AcDbEntity
  8
ALL_ASSEMBLY_MEMBERS
100
AcDbLine
 62
7
  6
CONTINUOUS
 10
4.5999942347
 20
7.0535501878
 11
4.5512803057
 21
7.0254251878
  0
LINE
  5
24B
100
AcDbEntity
  8
ALL_ASSEMBLY_MEMBERS
100
AcDbLine
 62
7
  6
CONTINUOUS
 10
4.6066068188
 20
7.0420968562
 11
4.5578928898
 21
7.0139718562
  0
LINE
  5
24C
100
AcDbEntity
  8
ALL_ASSEMBLY_MEMBERS
100
AcDbLine
 62
7
  6
CONTINUOUS
 10
4.607713885
 20
7.0401793613
 11
4.558999956
 21
7.0120543613
  0
LINE
  5
24D
100
AcDbEntity
  8
ALL_ASSEMBLY_MEMBERS
100
AcDbLine
 62
7
  6
CONTINUOUS
 10
4.6146400766
 20
7.0281828455
 11
4.5659261476
 21
7.0000578455
  0
LINE
  5
24E
100
AcDbEntity
  8
ALL_ASSEMBLY_MEMBERS
100
AcDbLine
 62
7
  6
CONTINUOUS
 10
4.6157977401
 20
7.0261777134
 11
4.5670838112
 21
6.9980527134
  0
LINE
  5
24F
100
AcDbEntity
  8
ALL_ASSEMBLY_MEMBERS
100
AcDbLine
 62
7
  6
CONTINUOUS
 10
4.6230291007
 20
7.0136526294
 11
4.5743151718
 21
6.9855276294
  0
LINE
  5
250
100
AcDbEntity
  8
ALL_ASSEMBLY_MEMBERS
100
AcDbLine
 62
7
  6
CONTINUOUS
 10
4.6242359513
 20
7.011562303
 11
4.5755220223
 21
6.983437303
  0
LINE
  5
251
100
AcDbEntity
  8
ALL_ASSEMBLY_MEMBERS
100
AcDbLine
 62
7
  6
CONTINUOUS
 10
4.6317636706
 20
6.9985239107
 11
4.5830497416
 21
6.9703989107
  0
LINE
  5
252
100
AcDbEntity
  8
ALL_ASSEMBLY_MEMBERS
100
AcDbLine
 62
7
  6
CONTINUOUS
 10
4.6330182377
 20
6.9963509367
 11
4.5843043087
 21
6.9682259367
  0
LINE
  5
253
100
AcDbEntity
  8
ALL_ASSEMBLY_MEMBERS
100
AcDbLine
 62
7
  6
CONTINUOUS
 10
4.6408331444
 20
6.9828151213
 11
4.5921192154
 21
6.9546901213
  0
LINE
  5
254
100
AcDbEntity
  8
ALL_ASSEMBLY_MEMBERS
100
AcDbLine
 62
7
  6
CONTINUOUS
 10
4.6421338995
 20
6.9805621472
 11
4.5934199706
 21
6.9524371472
  0
LINE
  5
255
100
AcDbEntity
  8
ALL_ASSEMBLY_MEMBERS
100
AcDbLine
 62
7
  6
CONTINUOUS
 10
4.6500876393
 20
6.9667858659
 11
4.6013737103
 21
6.9386608659
  0
LINE
  5
256
100
AcDbEntity
  8
ALL_ASSEMBLY_MEMBERS
100
AcDbLine
 62
7
  6
CONTINUOUS
 10
4.6502264723
 20
6.9665454001
 11
4.6015125433
 21
6.9384204001
  0
LINE
  5
257
100
AcDbEntity
  8
ALL_ASSEMBLY_MEMBERS
100
AcDbLine
 62
7
  6
CONTINUOUS
 10
4.6515718308
 20
6.9642151708
 11
4.6028579018
 21
6.9360901708
  0
LINE
  5
258
100
AcDbEntity
  8
ALL_ASSEMBLY_MEMBERS
100
AcDbLine
 62
7
  6
CONTINUOUS
 10
4.6595158801
 20
6.9504556738
 11
4.6108019511
 21
6.9223306738
  0
LINE
  5
259
100
AcDbEntity
  8
ALL_ASSEMBLY_MEMBERS
100
AcDbLine
 62
7
  6
CONTINUOUS
 10
4.6599322101
 20
6.9497345691
 11
4.6112182811
 21
6.9216095691
  0
LINE
  5
25A
100
AcDbEntity
  8
ALL_ASSEMBLY_MEMBERS
100
AcDbLine
 62
7
  6
CONTINUOUS
 10
4.6613205328
 20
6.9473299236
 11
4.6126066038
 21
6.9192049236
  0
LINE
  5
25B
100
AcDbEntity
  8
ALL_FEATURES
100
AcDbLine
 62
7
  6
CONTINUOUS
 10
6.3010784001
 20
1.668290776
 11
5.5510784001
 21
1.668290776
  0
LINE
  5
25C
100
AcDbEntity
  8
ALL_FEATURES
100
AcDbLine
 62
7
  6
CONTINUOUS
 10
6.3010784001
 20
1.762040776
 11
5.5510784001
 21
1.762040776
  0
LINE
  5
25D
100
AcDbEntity
  8
ALL_ASSEMBLY_MEMBERS
100
AcDbLine
 62
7
  6
CONTINUOUS
 10
5.5510784001
 20
1.762040776
 11
6.3010784001
 21
1.762040776
  0
LINE
  5
25E
100
AcDbEntity
  8
ALL_ASSEMBLY_MEMBERS
100
AcDbLine
 62
7
  6
CONTINUOUS
 10
4.6692452131
 20
6.9336039747
 11
4.6205312841
 21
6.9054789747
  0
LINE
  5
25F
100
AcDbEntity
  8
ALL_ASSEMBLY_MEMBERS
100
AcDbLine
 62
7
  6
CONTINUOUS
 10
4.6699385328
 20
6.9324031098
 11
4.6212246038
 21
6.9042781098
  0
LINE
  5
260
100
AcDbEntity
  8
ALL_ASSEMBLY_MEMBERS
100
AcDbLine
 62
7
  6
CONTINUOUS
 10
4.6713681282
 20
6.9299269778
 11
4.6226541993
 21
6.9018019778
  0
LINE
  5
261
100
AcDbEntity
  8
ALL_ASSEMBLY_MEMBERS
100
AcDbLine
 62
7
  6
CONTINUOUS
 10
4.6792637845
 20
6.9162513
 11
4.6305498556
 21
6.8881263
  0
LINE
  5
262
100
AcDbEntity
  8
ALL_ASSEMBLY_MEMBERS
100
AcDbLine
 62
7
  6
CONTINUOUS
 10
4.6802332492
 20
6.9145721379
 11
4.6315193203
 21
6.8864471379
  0
LINE
  5
263
100
AcDbEntity
  8
ALL_ASSEMBLY_MEMBERS
100
AcDbLine
 62
7
  6
CONTINUOUS
 10
4.6817023757
 20
6.9120275362
 11
4.6329884467
 21
6.8839025362
  0
LINE
  5
264
100
AcDbEntity
  8
ALL_ASSEMBLY_MEMBERS
100
AcDbLine
 62
7
  6
CONTINUOUS
 10
4.6895593883
 20
6.8984187911
 11
4.6408454594
 21
6.8702937911
  0
LINE
  5
265
100
AcDbEntity
  8
ALL_ASSEMBLY_MEMBERS
100
AcDbLine
 62
7
  6
CONTINUOUS
 10
4.6908038169
 20
6.8962633776
 11
4.6420898879
 21
6.8681383776
  0
LINE
  5
266
100
AcDbEntity
  8
ALL_ASSEMBLY_MEMBERS
100
AcDbLine
 62
7
  6
CONTINUOUS
 10
4.6923106844
 20
6.8936534065
 11
4.6435967555
 21
6.8655284065
  0
LINE
  5
267
100
AcDbEntity
  8
ALL_ASSEMBLY_MEMBERS
100
AcDbLine
 62
7
  6
CONTINUOUS
 10
4.7001194809
 20
6.8801281743
 11
4.6514055519
 21
6.8520031743
  0
LINE
  5
268
100
AcDbEntity
  8
ALL_ASSEMBLY_MEMBERS
100
AcDbLine
 62
7
  6
CONTINUOUS
 10
4.7016373571
 20
6.8774991355
 11
4.6529234282
 21
6.8493741355
  0
LINE
  5
269
100
AcDbEntity
  8
ALL_ASSEMBLY_MEMBERS
100
AcDbLine
 62
7
  6
CONTINUOUS
 10
4.7031801299
 20
6.8748269747
 11
4.6544662009
 21
6.8467019747
  0
LINE
  5
26A
100
AcDbEntity
  8
ALL_ASSEMBLY_MEMBERS
100
AcDbLine
 62
7
  6
CONTINUOUS
 10
4.7109311963
 20
6.8614017338
 11
4.6622172673
 21
6.8332767338
  0
LINE
  5
26B
100
AcDbEntity
  8
ALL_ASSEMBLY_MEMBERS
100
AcDbLine
 62
7
  6
CONTINUOUS
 10
4.712720671
 20
6.8583022728
 11
4.664006742
 21
6.8301772728
  0
LINE
  5
26C
100
AcDbEntity
  8
ALL_ASSEMBLY_MEMBERS
100
AcDbLine
 62
7
  6
CONTINUOUS
 10
4.7142974693
 20
6.8555711779
 11
4.6655835404
 21
6.8274461779
  0
LINE
  5
26D
100
AcDbEntity
  8
ALL_ASSEMBLY_MEMBERS
100
AcDbLine
 62
7
  6
CONTINUOUS
 10
4.7219813622
 20
6.842262285
 11
4.6732674333
 21
6.814137285
  0
LINE
  5
26E
100
AcDbEntity
  8
ALL_ASSEMBLY_MEMBERS
100
AcDbLine
 62
7
  6
CONTINUOUS
 10
4.7240402551
 20
6.8386961779
 11
4.6753263262
 21
6.8105711779
  0
LINE
  5
26F
100
AcDbEntity
  8
ALL_ASSEMBLY_MEMBERS
100
AcDbLine
 62
7
  6
CONTINUOUS
 10
4.725649158
 20
6.8359094764
 11
4.676935229
 21
6.8077844764
  0
LINE
  5
270
100
AcDbEntity
  8
ALL_ASSEMBLY_MEMBERS
100
AcDbLine
 62
7
  6
CONTINUOUS
 10
4.7332565157
 20
6.8227331463
 11
4.6845425868
 21
6.7946081463
  0
LINE
  5
271
100
AcDbEntity
  8
ALL_ASSEMBLY_MEMBERS
100
AcDbLine
 62
7
  6
CONTINUOUS
 10
4.7355823184
 20
6.8187047379
 11
4.6868683894
 21
6.7905797379
  0
LINE
  5
272
100
AcDbEntity
  8
ALL_ASSEMBLY_MEMBERS
100
AcDbLine
 62
7
  6
CONTINUOUS
 10
4.7372213656
 20
6.8158658249
 11
4.6885074366
 21
6.7877408249
  0
LINE
  5
273
100
AcDbEntity
  8
ALL_ASSEMBLY_MEMBERS
100
AcDbLine
 62
7
  6
CONTINUOUS
 10
4.7447429198
 20
6.8028381109
 11
4.6960289908
 21
6.7747131109
  0
LINE
  5
274
100
AcDbEntity
  8
ALL_ASSEMBLY_MEMBERS
100
AcDbLine
 62
7
  6
CONTINUOUS
 10
4.7473327986
 20
6.7983523092
 11
4.6986188696
 21
6.7702273092
  0
LINE
  5
275
100
AcDbEntity
  8
ALL_ASSEMBLY_MEMBERS
100
AcDbLine
 62
7
  6
CONTINUOUS
 10
4.7489999931
 20
6.7954646436
 11
4.7002860641
 21
6.7673396436
  0
LINE
  5
276
100
AcDbEntity
  8
ALL_ASSEMBLY_MEMBERS
100
AcDbLine
 62
7
  6
CONTINUOUS
 10
4.7564265799
 20
6.7826014179
 11
4.707712651
 21
6.7544764179
  0
LINE
  5
277
100
AcDbEntity
  8
ALL_ASSEMBLY_MEMBERS
100
AcDbLine
 62
7
  6
CONTINUOUS
 10
4.7592773795
 20
6.7776636882
 11
4.7105634505
 21
6.7495386882
  0
LINE
  5
278
100
AcDbEntity
  8
ALL_ASSEMBLY_MEMBERS
100
AcDbLine
 62
7
  6
CONTINUOUS
 10
4.7609706902
 20
6.774730788
 11
4.7122567612
 21
6.746605788
  0
LINE
  5
279
100
AcDbEntity
  8
ALL_ASSEMBLY_MEMBERS
100
AcDbLine
 62
7
  6
CONTINUOUS
 10
4.7682932615
 20
6.7620477226
 11
4.7195793325
 21
6.7339227226
  0
LINE
  5
27A
100
AcDbEntity
  8
ALL_ASSEMBLY_MEMBERS
100
AcDbLine
 62
7
  6
CONTINUOUS
 10
4.7714015086
 20
6.7566640807
 11
4.7226875796
 21
6.7285390807
  0
LINE
  5
27B
100
AcDbEntity
  8
ALL_ASSEMBLY_MEMBERS
100
AcDbLine
 62
7
  6
CONTINUOUS
 10
4.7731188723
 20
6.7536895193
 11
4.7244049434
 21
6.7255645193
  0
LINE
  5
27C
100
AcDbEntity
  8
ALL_FEATURES
100
AcDbLine
 62
7
  6
CONTINUOUS
 10
5.6196832756
 20
1.4708256225
 11
5.6483234013
 21
1.4542691172
  0
LINE
  5
27D
100
AcDbEntity
  8
ALL_ASSEMBLY_MEMBERS
100
AcDbLine
 62
7
  6
CONTINUOUS
 10
4.7803285066
 20
6.7412020664
 11
4.7316145777
 21
6.7130770664
  0
LINE
  5
27E
100
AcDbEntity
  8
ALL_ASSEMBLY_MEMBERS
100
AcDbLine
 62
7
  6
CONTINUOUS
 10
4.7836904143
 20
6.7353790715
 11
4.7349764854
 21
6.7072540715
  0
LINE
  5
27F
100
AcDbEntity
  8
ALL_ASSEMBLY_MEMBERS
100
AcDbLine
 62
7
  6
CONTINUOUS
 10
4.7854297389
 20
6.732366473
 11
4.7367158099
 21
6.704241473
  0
LINE
  5
280
100
AcDbEntity
  8
ALL_ASSEMBLY_MEMBERS
100
AcDbLine
 62
7
  6
CONTINUOUS
 10
4.7925176524
 20
6.7200898467
 11
4.7438037234
 21
6.6919648467
  0
LINE
  5
281
100
AcDbEntity
  8
ALL_ASSEMBLY_MEMBERS
100
AcDbLine
 62
7
  6
CONTINUOUS
 10
4.7961291247
 20
6.7138345932
 11
4.7474151957
 21
6.6857095932
  0
LINE
  5
282
100
AcDbEntity
  8
ALL_ASSEMBLY_MEMBERS
100
AcDbLine
 62
7
  6
CONTINUOUS
 10
4.7978882909
 20
6.7107876279
 11
4.749174362
 21
6.6826626279
  0
LINE
  5
283
100
AcDbEntity
  8
ALL_ASSEMBLY_MEMBERS
100
AcDbLine
 62
7
  6
CONTINUOUS
 10
4.8048458481
 20
6.6987367854
 11
4.7561319191
 21
6.6706117854
  0
LINE
  5
284
100
AcDbEntity
  8
ALL_ASSEMBLY_MEMBERS
100
AcDbLine
 62
7
  6
CONTINUOUS
 10
4.808702485
 20
6.6920568943
 11
4.759988556
 21
6.6639318943
  0
LINE
  5
285
100
AcDbEntity
  8
ALL_ASSEMBLY_MEMBERS
100
AcDbLine
 62
7
  6
CONTINUOUS
 10
4.8104793496
 20
6.6889792745
 11
4.7617654207
 21
6.6608542745
  0
LINE
  5
286
100
AcDbEntity
  8
ALL_ASSEMBLY_MEMBERS
100
AcDbLine
 62
7
  6
CONTINUOUS
 10
4.8172980738
 20
6.6771688978
 11
4.7685841448
 21
6.6490438978
  0
LINE
  5
287
100
AcDbEntity
  8
ALL_ASSEMBLY_MEMBERS
100
AcDbLine
 62
7
  6
CONTINUOUS
 10
4.8213951766
 20
6.6700725076
 11
4.7726812476
 21
6.6419475076
  0
LINE
  5
288
100
AcDbEntity
  8
ALL_ASSEMBLY_MEMBERS
100
AcDbLine
 62
7
  6
CONTINUOUS
 10
4.8231875748
 20
6.6669679829
 11
4.7744736458
 21
6.6388429829
  0
LINE
  5
289
100
AcDbEntity
  8
ALL_ASSEMBLY_MEMBERS
100
AcDbLine
 62
7
  6
CONTINUOUS
 10
4.8298591583
 20
6.6554124613
 11
4.7811452293
 21
6.6272874613
  0
LINE
  5
28A
100
AcDbEntity
  8
ALL_ASSEMBLY_MEMBERS
100
AcDbLine
 62
7
  6
CONTINUOUS
 10
4.8341917353
 20
6.6479082178
 11
4.7854778063
 21
6.6197832178
  0
LINE
  5
28B
100
AcDbEntity
  8
ALL_ASSEMBLY_MEMBERS
100
AcDbLine
 62
7
  6
CONTINUOUS
 10
4.8359974833
 20
6.6447805705
 11
4.7872835543
 21
6.6166555705
  0
LINE
  5
28C
100
AcDbEntity
  8
ALL_ASSEMBLY_MEMBERS
100
AcDbLine
 62
7
  6
CONTINUOUS
 10
4.8425137979
 20
6.6334939825
 11
4.7937998689
 21
6.6053689825
  0
LINE
  5
28D
100
AcDbEntity
  8
ALL_ASSEMBLY_MEMBERS
100
AcDbLine
 62
7
  6
CONTINUOUS
 10
4.8470765705
 20
6.6255910285
 11
4.7983626415
 21
6.5974660285
  0
LINE
  5
28E
100
AcDbEntity
  8
ALL_ASSEMBLY_MEMBERS
100
AcDbLine
 62
7
  6
CONTINUOUS
 10
4.8488934682
 20
6.6224440693
 11
4.8001795393
 21
6.5943190693
  0
LINE
  5
28F
100
AcDbEntity
  8
ALL_ASSEMBLY_MEMBERS
100
AcDbLine
 62
7
  6
CONTINUOUS
 10
4.8552465748
 20
6.6114401659
 11
4.8065326459
 21
6.5833151659
  0
LINE
  5
290
100
AcDbEntity
  8
ALL_ASSEMBLY_MEMBERS
100
AcDbLine
 62
7
  6
CONTINUOUS
 10
4.860033984
 20
6.60314813
 11
4.8113200551
 21
6.57502313
  0
LINE
  5
291
100
AcDbEntity
  8
ALL_ASSEMBLY_MEMBERS
100
AcDbLine
 62
7
  6
CONTINUOUS
 10
4.861859818
 20
6.5999856928
 11
4.813145889
 21
6.5718606928
  0
LINE
  5
292
100
AcDbEntity
  8
ALL_ASSEMBLY_MEMBERS
100
AcDbLine
 62
7
  6
CONTINUOUS
 10
4.8680419762
 20
6.5892778806
 11
4.8193280473
 21
6.5611528806
  0
LINE
  5
293
100
AcDbEntity
  8
ALL_ASSEMBLY_MEMBERS
100
AcDbLine
 62
7
  6
CONTINUOUS
 10
4.8730481893
 20
6.5806068652
 11
4.8243342603
 21
6.5524818652
  0
LINE
  5
294
100
AcDbEntity
  8
ALL_ASSEMBLY_MEMBERS
100
AcDbLine
 62
7
  6
CONTINUOUS
 10
4.8748807349
 20
6.5774328031
 11
4.8261668059
 21
6.5493078031
  0
LINE
  5
295
100
AcDbEntity
  8
ALL_FEATURES
100
AcDbLine
 62
7
  6
CONTINUOUS
 10
5.6196832754
 20
1.5243980846
 11
5.6483234002
 21
1.5078415799
  0
LINE
  5
296
100
AcDbEntity
  8
ALL_FEATURES
100
AcDbLine
 62
7
  6
CONTINUOUS
 10
5.6196832762
 20
1.5779705976
 11
5.6483234012
 21
1.5614140926
  0
LINE
  5
297
100
AcDbEntity
  8
ALL_ASSEMBLY_MEMBERS
100
AcDbLine
 62
7
  6
CONTINUOUS
 10
4.8808844128
 20
6.5670341279
 11
4.8321704839
 21
6.5389091279
  0
LINE
  5
298
100
AcDbEntity
  8
ALL_ASSEMBLY_MEMBERS
100
AcDbLine
 62
7
  6
CONTINUOUS
 10
4.8861033304
 20
6.5579946974
 11
4.8373894015
 21
6.5298696974
  0
LINE
  5
299
100
AcDbEntity
  8
ALL_ASSEMBLY_MEMBERS
100
AcDbLine
 62
7
  6
CONTINUOUS
 10
4.887940355
 20
6.5548128775
 11
4.8392264261
 21
6.5266878775
  0
LINE
  5
29A
100
AcDbEntity
  8
ALL_ASSEMBLY_MEMBERS
100
AcDbLine
 62
7
  6
CONTINUOUS
 10
4.8937582381
 20
6.5447360084
 11
4.8450443091
 21
6.5166110084
  0
LINE
  5
29B
100
AcDbEntity
  8
ALL_ASSEMBLY_MEMBERS
100
AcDbLine
 62
7
  6
CONTINUOUS
 10
4.8991835018
 20
6.535339176
 11
4.8504695729
 21
6.507214176
  0
LINE
  5
29C
100
AcDbEntity
  8
ALL_ASSEMBLY_MEMBERS
100
AcDbLine
 62
7
  6
CONTINUOUS
 10
4.9010227673
 20
6.5321534748
 11
4.8523088383
 21
6.5040284748
  0
LINE
  5
29D
100
AcDbEntity
  8
ALL_ASSEMBLY_MEMBERS
100
AcDbLine
 62
7
  6
CONTINUOUS
 10
4.9066477673
 20
6.522410689
 11
4.8579338383
 21
6.494285689
  0
LINE
  5
29E
100
AcDbEntity
  8
ALL_ASSEMBLY_MEMBERS
100
AcDbLine
 62
7
  6
CONTINUOUS
 10
4.9122727673
 20
6.5126679032
 11
4.8635588383
 21
6.4845429032
  0
LINE
  5
29F
100
AcDbEntity
  8
ALL_ASSEMBLY_MEMBERS
100
AcDbLine
 62
7
  6
CONTINUOUS
 10
4.9141120328
 20
6.509482202
 11
4.8653981038
 21
6.481357202
  0
LINE
  5
2A0
100
AcDbEntity
  8
ALL_ASSEMBLY_MEMBERS
100
AcDbLine
 62
7
  6
CONTINUOUS
 10
4.9195372965
 20
6.5000853695
 11
4.8708233675
 21
6.4719603695
  0
LINE
  5
2A1
100
AcDbEntity
  8
ALL_ASSEMBLY_MEMBERS
100
AcDbLine
 62
7
  6
CONTINUOUS
 10
4.9253551796
 20
6.4900085005
 11
4.8766412506
 21
6.4618835005
  0
LINE
  5
2A2
100
AcDbEntity
  8
ALL_ASSEMBLY_MEMBERS
100
AcDbLine
 62
7
  6
CONTINUOUS
 10
4.9271922042
 20
6.4868266805
 11
4.8784782752
 21
6.4587016805
  0
LINE
  5
2A3
100
AcDbEntity
  8
ALL_ASSEMBLY_MEMBERS
100
AcDbLine
 62
7
  6
CONTINUOUS
 10
4.9324111218
 20
6.4777872501
 11
4.8836971928
 21
6.4496622501
  0
LINE
  5
2A4
100
AcDbEntity
  8
ALL_ASSEMBLY_MEMBERS
100
AcDbLine
 62
7
  6
CONTINUOUS
 10
4.9384147997
 20
6.4673885748
 11
4.8897008708
 21
6.4392635748
  0
LINE
  5
2A5
100
AcDbEntity
  8
ALL_ASSEMBLY_MEMBERS
100
AcDbLine
 62
7
  6
CONTINUOUS
 10
4.9402473453
 20
6.4642145127
 11
4.8915334164
 21
6.4360895127
  0
LINE
  5
2A6
100
AcDbEntity
  8
ALL_ASSEMBLY_MEMBERS
100
AcDbLine
 62
7
  6
CONTINUOUS
 10
4.9452535584
 20
6.4555434974
 11
4.8965396294
 21
6.4274184974
  0
LINE
  5
2A7
100
AcDbEntity
  8
ALL_ASSEMBLY_MEMBERS
100
AcDbLine
 62
7
  6
CONTINUOUS
 10
4.9514357166
 20
6.4448356852
 11
4.9027217877
 21
6.4167106852
  0
LINE
  5
2A8
100
AcDbEntity
  8
ALL_ASSEMBLY_MEMBERS
100
AcDbLine
 62
7
  6
CONTINUOUS
 10
4.9532615506
 20
6.441673248
 11
4.9045476216
 21
6.413548248
  0
LINE
  5
2A9
100
AcDbEntity
  8
ALL_ASSEMBLY_MEMBERS
100
AcDbLine
 62
7
  6
CONTINUOUS
 10
4.9580489598
 20
6.4333812121
 11
4.9093350308
 21
6.4052562121
  0
LINE
  5
2AA
100
AcDbEntity
  8
ALL_ASSEMBLY_MEMBERS
100
AcDbLine
 62
7
  6
CONTINUOUS
 10
4.9644020663
 20
6.4223773087
 11
4.9156881374
 21
6.3942523087
  0
LINE
  5
2AB
100
AcDbEntity
  8
ALL_ASSEMBLY_MEMBERS
100
AcDbLine
 62
7
  6
CONTINUOUS
 10
4.9662189641
 20
6.4192303494
 11
4.9175050352
 21
6.3911053494
  0
LINE
  5
2AC
100
AcDbEntity
  8
ALL_ASSEMBLY_MEMBERS
100
AcDbLine
 62
7
  6
CONTINUOUS
 10
4.9707817367
 20
6.4113273954
 11
4.9220678078
 21
6.3832023954
  0
LINE
  5
2AD
100
AcDbEntity
  8
ALL_ASSEMBLY_MEMBERS
100
AcDbLine
 62
7
  6
CONTINUOUS
 10
4.9772980513
 20
6.4000408075
 11
4.9285841224
 21
6.3719158075
  0
LINE
  5
2AE
100
AcDbEntity
  8
ALL_ASSEMBLY_MEMBERS
100
AcDbLine
 62
7
  6
CONTINUOUS
 10
4.9791037993
 20
6.3969131602
 11
4.9303898704
 21
6.3687881602
  0
LINE
  5
2AF
100
AcDbEntity
  8
ALL_ASSEMBLY_MEMBERS
100
AcDbLine
 62
7
  6
CONTINUOUS
 10
4.9834363763
 20
6.3894089167
 11
4.9347224474
 21
6.3612839167
  0
LINE
  5
2B0
100
AcDbEntity
  8
ALL_FEATURES
100
AcDbLine
 62
7
  6
CONTINUOUS
 10
6.2324735251
 20
1.4515566558
 11
6.2038333998
 21
1.468113161
  0
LINE
  5
2B1
100
AcDbEntity
  8
ALL_FEATURES
100
AcDbLine
 62
7
  6
CONTINUOUS
 10
6.2324735242
 20
1.5051291334
 11
6.2038333994
 21
1.5216856384
  0
LINE
  5
2B2
100
AcDbEntity
  8
ALL_FEATURES
100
AcDbLine
 62
7
  6
CONTINUOUS
 10
6.232473524
 20
1.5587016624
 11
6.2038333986
 21
1.5752581679
  0
LINE
  5
2B3
100
AcDbEntity
  8
ALL_ASSEMBLY_MEMBERS
100
AcDbLine
 62
7
  6
CONTINUOUS
 10
4.9901079598
 20
6.3778533951
 11
4.9413940309
 21
6.3497283951
  0
LINE
  5
2B4
100
AcDbEntity
  8
ALL_ASSEMBLY_MEMBERS
100
AcDbLine
 62
7
  6
CONTINUOUS
 10
4.991900358
 20
6.3747488704
 11
4.9431864291
 21
6.3466238704
  0
LINE
  5
2B5
100
AcDbEntity
  8
ALL_ASSEMBLY_MEMBERS
100
AcDbLine
 62
7
  6
CONTINUOUS
 10
4.9959974608
 20
6.3676524801
 11
4.9472835319
 21
6.3395274801
  0
LINE
  5
2B6
100
AcDbEntity
  8
ALL_ASSEMBLY_MEMBERS
100
AcDbLine
 62
7
  6
CONTINUOUS
 10
5.002816185
 20
6.3558421035
 11
4.954102256
 21
6.3277171035
  0
LINE
  5
2B7
100
AcDbEntity
  8
ALL_ASSEMBLY_MEMBERS
100
AcDbLine
 62
7
  6
CONTINUOUS
 10
5.0045930496
 20
6.3527644837
 11
4.9558791206
 21
6.3246394837
  0
LINE
  5
2B8
100
AcDbEntity
  8
ALL_ASSEMBLY_MEMBERS
100
AcDbLine
 62
7
  6
CONTINUOUS
 10
5.0084496865
 20
6.3460845926
 11
4.9597357575
 21
6.3179595926
  0
LINE
  5
2B9
100
AcDbEntity
  8
ALL_ASSEMBLY_MEMBERS
100
AcDbLine
 62
7
  6
CONTINUOUS
 10
5.0154072437
 20
6.3340337501
 11
4.9666933147
 21
6.3059087501
  0
LINE
  5
2BA
100
AcDbEntity
  8
ALL_ASSEMBLY_MEMBERS
100
AcDbLine
 62
7
  6
CONTINUOUS
 10
5.0171664099
 20
6.3309867848
 11
4.9684524809
 21
6.3028617848
  0
LINE
  5
2BB
100
AcDbEntity
  8
ALL_ASSEMBLY_MEMBERS
100
AcDbLine
 62
7
  6
CONTINUOUS
 10
5.0207778822
 20
6.3247315313
 11
4.9720639532
 21
6.2966065313
  0
LINE
  5
2BC
100
AcDbEntity
  8
ALL_ASSEMBLY_MEMBERS
100
AcDbLine
 62
7
  6
CONTINUOUS
 10
5.0278657957
 20
6.312454905
 11
4.9791518667
 21
6.284329905
  0
LINE
  5
2BD
100
AcDbEntity
  8
ALL_ASSEMBLY_MEMBERS
100
AcDbLine
 62
7
  6
CONTINUOUS
 10
5.0296051203
 20
6.3094423065
 11
4.9808911913
 21
6.2813173065
  0
LINE
  5
2BE
100
AcDbEntity
  8
ALL_ASSEMBLY_MEMBERS
100
AcDbLine
 62
7
  6
CONTINUOUS
 10
5.032967028
 20
6.3036193116
 11
4.984253099
 21
6.2754943116
  0
LINE
  5
2BF
100
AcDbEntity
  8
ALL_ASSEMBLY_MEMBERS
100
AcDbLine
 62
7
  6
CONTINUOUS
 10
5.0401766622
 20
6.2911318587
 11
4.9914627333
 21
6.2630068587
  0
LINE
  5
2C0
100
AcDbEntity
  8
ALL_ASSEMBLY_MEMBERS
100
AcDbLine
 62
7
  6
CONTINUOUS
 10
5.041894026
 20
6.2881572973
 11
4.9931800971
 21
6.2600322973
  0
LINE
  5
2C1
100
AcDbEntity
  8
ALL_ASSEMBLY_MEMBERS
100
AcDbLine
 62
7
  6
CONTINUOUS
 10
5.0450022731
 20
6.2827736554
 11
4.9962883442
 21
6.2546486554
  0
LINE
  5
2C2
100
AcDbEntity
  8
ALL_ASSEMBLY_MEMBERS
100
AcDbLine
 62
7
  6
CONTINUOUS
 10
5.0523248444
 20
6.2700905899
 11
5.0036109154
 21
6.2419655899
  0
LINE
  5
2C3
100
AcDbEntity
  8
ALL_ASSEMBLY_MEMBERS
100
AcDbLine
 62
7
  6
CONTINUOUS
 10
5.0540181551
 20
6.2671576898
 11
5.0053042261
 21
6.2390326898
  0
LINE
  5
2C4
100
AcDbEntity
  8
ALL_ASSEMBLY_MEMBERS
100
AcDbLine
 62
7
  6
CONTINUOUS
 10
5.0568689547
 20
6.2622199601
 11
5.0081550257
 21
6.2340949601
  0
LINE
  5
2C5
100
AcDbEntity
  8
ALL_ASSEMBLY_MEMBERS
100
AcDbLine
 62
7
  6
CONTINUOUS
 10
5.0642955415
 20
6.2493567344
 11
5.0155816125
 21
6.2212317344
  0
LINE
  5
2C6
100
AcDbEntity
  8
ALL_ASSEMBLY_MEMBERS
100
AcDbLine
 62
7
  6
CONTINUOUS
 10
5.065962736
 20
6.2464690688
 11
5.017248807
 21
6.2183440688
  0
LINE
  5
2C7
100
AcDbEntity
  8
ALL_ASSEMBLY_MEMBERS
100
AcDbLine
 62
7
  6
CONTINUOUS
 10
5.0685526148
 20
6.2419832671
 11
5.0198386859
 21
6.2138582671
  0
LINE
  5
2C8
100
AcDbEntity
  8
ALL_ASSEMBLY_MEMBERS
100
AcDbLine
 62
7
  6
CONTINUOUS
 10
5.076074169
 20
6.228955553
 11
5.0273602401
 21
6.200830553
  0
LINE
  5
2C9
100
AcDbEntity
  8
ALL_ASSEMBLY_MEMBERS
100
AcDbLine
 62
7
  6
CONTINUOUS
 10
5.0777132162
 20
6.2261166401
 11
5.0289992872
 21
6.1979916401
  0
LINE
  5
2CA
100
AcDbEntity
  8
ALL_ASSEMBLY_MEMBERS
100
AcDbLine
 62
7
  6
CONTINUOUS
 10
5.0800390189
 20
6.2220882317
 11
5.0313250899
 21
6.1939632317
  0
LINE
  5
2CB
100
AcDbEntity
  8
ALL_ASSEMBLY_MEMBERS
100
AcDbLine
 62
7
  6
CONTINUOUS
 10
5.0876463766
 20
6.2089119016
 11
5.0389324476
 21
6.1807869016
  0
LINE
  5
2CC
100
AcDbEntity
  8
ALL_ASSEMBLY_MEMBERS
100
AcDbLine
 62
7
  6
CONTINUOUS
 10
5.0892552795
 20
6.2061252001
 11
5.0405413505
 21
6.1780002001
  0
LINE
  5
2CD
100
AcDbEntity
  8
ALL_ASSEMBLY_MEMBERS
100
AcDbLine
 62
7
  6
CONTINUOUS
 10
5.0913141724
 20
6.202559093
 11
5.0426002434
 21
6.174434093
  0
LINE
  5
2CE
100
AcDbEntity
  8
ALL_ASSEMBLY_MEMBERS
100
AcDbLine
 62
7
  6
CONTINUOUS
 10
5.0989980653
 20
6.1892502001
 11
5.0502841363
 21
6.1611252001
  0
LINE
  5
2CF
100
AcDbEntity
  8
ALL_ASSEMBLY_MEMBERS
100
AcDbLine
 62
7
  6
CONTINUOUS
 10
5.1005748636
 20
6.1865191052
 11
5.0518609347
 21
6.1583941052
  0
LINE
  5
2D0
100
AcDbEntity
  8
ALL_ASSEMBLY_MEMBERS
100
AcDbLine
 62
7
  6
CONTINUOUS
 10
5.1023643383
 20
6.1834196441
 11
5.0536504093
 21
6.1552946441
  0
LINE
  5
2D1
100
AcDbEntity
  8
ALL_ASSEMBLY_MEMBERS
100
AcDbLine
 62
7
  6
CONTINUOUS
 10
5.1101154047
 20
6.1699944033
 11
5.0614014757
 21
6.1418694033
  0
LINE
  5
2D2
100
AcDbEntity
  8
ALL_ASSEMBLY_MEMBERS
100
AcDbLine
 62
7
  6
CONTINUOUS
 10
5.1116581775
 20
6.1673222425
 11
5.0629442485
 21
6.1391972425
  0
LINE
  5
2D3
100
AcDbEntity
  8
ALL_ASSEMBLY_MEMBERS
100
AcDbLine
 62
7
  6
CONTINUOUS
 10
5.1131760537
 20
6.1646932037
 11
5.0644621248
 21
6.1365682037
  0
LINE
  5
2D4
100
AcDbEntity
  8
ALL_ASSEMBLY_MEMBERS
100
AcDbLine
 62
7
  6
CONTINUOUS
 10
5.1209848502
 20
6.1511679715
 11
5.0722709212
 21
6.1230429715
  0
LINE
  5
2D5
100
AcDbEntity
  8
ALL_ASSEMBLY_MEMBERS
100
AcDbLine
 62
7
  6
CONTINUOUS
 10
5.1224917177
 20
6.1485580003
 11
5.0737777888
 21
6.1204330003
  0
LINE
  5
2D6
100
AcDbEntity
  8
ALL_ASSEMBLY_MEMBERS
100
AcDbLine
 62
7
  6
CONTINUOUS
 10
5.1237361463
 20
6.1464025869
 11
5.0750222173
 21
6.1182775869
  0
LINE
  5
2D7
100
AcDbEntity
  8
ALL_ASSEMBLY_MEMBERS
100
AcDbLine
 62
7
  6
CONTINUOUS
 10
5.1315931589
 20
6.1327938418
 11
5.08287923
 21
6.1046688418
  0
LINE
  5
2D8
100
AcDbEntity
  8
ALL_ASSEMBLY_MEMBERS
100
AcDbLine
 62
7
  6
CONTINUOUS
 10
5.1330622854
 20
6.1302492401
 11
5.0843483564
 21
6.1021242401
  0
LINE
  5
2D9
100
AcDbEntity
  8
ALL_ASSEMBLY_MEMBERS
100
AcDbLine
 62
7
  6
CONTINUOUS
 10
5.1340317501
 20
6.128570078
 11
5.0853178211
 21
6.100445078
  0
LINE
  5
2DA
100
AcDbEntity
  8
ALL_ASSEMBLY_MEMBERS
100
AcDbLine
 62
7
  6
CONTINUOUS
 10
5.1419274064
 20
6.1148944002
 11
5.0932134774
 21
6.0867694002
  0
LINE
  5
2DB
100
AcDbEntity
  8
ALL_ASSEMBLY_MEMBERS
100
AcDbLine
 62
7
  6
CONTINUOUS
 10
5.1433570018
 20
6.1124182682
 11
5.0946430728
 21
6.0842932682
  0
LINE
  5
2DC
100
AcDbEntity
  8
ALL_ASSEMBLY_MEMBERS
100
AcDbLine
 62
7
  6
CONTINUOUS
 10
5.1440503215
 20
6.1112174033
 11
5.0953363925
 21
6.0830924033
  0
LINE
  5
2DD
100
AcDbEntity
  8
ALL_ASSEMBLY_MEMBERS
100
AcDbLine
 62
7
  6
CONTINUOUS
 10
5.1519750018
 20
6.0974914544
 11
5.1032610728
 21
6.0693664544
  0
LINE
  5
2DE
100
AcDbEntity
  8
ALL_ASSEMBLY_MEMBERS
100
AcDbLine
 62
7
  6
CONTINUOUS
 10
5.1533633245
 20
6.0950868089
 11
5.1046493955
 21
6.0669618089
  0
LINE
  5
2DF
100
AcDbEntity
  8
ALL_ASSEMBLY_MEMBERS
100
AcDbLine
 62
7
  6
CONTINUOUS
 10
5.1537796545
 20
6.0943657042
 11
5.1050657255
 21
6.0662407042
  0
LINE
  5
2E0
100
AcDbEntity
  8
ALL_ASSEMBLY_MEMBERS
100
AcDbLine
 62
7
  6
CONTINUOUS
 10
5.1617237038
 20
6.0806062072
 11
5.1130097748
 21
6.0524812072
  0
LINE
  5
2E1
100
AcDbEntity
  8
ALL_ASSEMBLY_MEMBERS
100
AcDbLine
 62
7
  6
CONTINUOUS
 10
5.1630690623
 20
6.0782759779
 11
5.1143551333
 21
6.0501509779
  0
LINE
  5
2E2
100
AcDbEntity
  8
ALL_ASSEMBLY_MEMBERS
100
AcDbLine
 62
7
  6
CONTINUOUS
 10
5.1632078953
 20
6.078035512
 11
5.1144939664
 21
6.049910512
  0
LINE
  5
2E3
100
AcDbEntity
  8
ALL_ASSEMBLY_MEMBERS
100
AcDbLine
 62
7
  6
CONTINUOUS
 10
5.171161635
 20
6.0642592307
 11
5.1224477061
 21
6.0361342307
  0
LINE
  5
2E4
100
AcDbEntity
  8
ALL_ASSEMBLY_MEMBERS
100
AcDbLine
 62
7
  6
CONTINUOUS
 10
5.1724623902
 20
6.0620062567
 11
5.1237484613
 21
6.0338812567
  0
LINE
  5
2E5
100
AcDbEntity
  8
ALL_ASSEMBLY_MEMBERS
100
AcDbLine
 62
7
  6
CONTINUOUS
 10
5.1802772969
 20
6.0484704413
 11
5.1315633679
 21
6.0203454413
  0
LINE
  5
2E6
100
AcDbEntity
  8
ALL_ASSEMBLY_MEMBERS
100
AcDbLine
 62
7
  6
CONTINUOUS
 10
5.181531864
 20
6.0462974673
 11
5.132817935
 21
6.0181724673
  0
LINE
  5
2E7
100
AcDbEntity
  8
ALL_ASSEMBLY_MEMBERS
100
AcDbLine
 62
7
  6
CONTINUOUS
 10
5.1890595833
 20
6.033259075
 11
5.1403456544
 21
6.005134075
  0
LINE
  5
2E8
100
AcDbEntity
  8
ALL_ASSEMBLY_MEMBERS
100
AcDbLine
 62
7
  6
CONTINUOUS
 10
5.1902664338
 20
6.0311687486
 11
5.1415525049
 21
6.0030437486
  0
LINE
  5
2E9
100
AcDbEntity
  8
ALL_ASSEMBLY_MEMBERS
100
AcDbLine
 62
7
  6
CONTINUOUS
 10
5.1974977945
 20
6.0186436646
 11
5.1487838655
 21
5.9905186646
  0
LINE
  5
2EA
100
AcDbEntity
  8
0
100
AcDbLine
 62
7
  6
CONTINUOUS
 10
5.6193284001
 20
1.4712357932
 11
5.6196832756
 21
1.4708256225
  0
LINE
  5
2EB
100
AcDbEntity
  8
ALL_FEATURES
100
AcDbLine
 62
7
  6
CONTINUOUS
 10
5.6196832754
 20
1.5243980846
 11
5.6193284001
 21
1.5248082551
  0
LINE
  5
2EC
100
AcDbEntity
  8
ALL_FEATURES
100
AcDbLine
 62
7
  6
CONTINUOUS
 10
5.6193284001
 20
1.5783807689
 11
5.6196832762
 21
1.5779705976
  0
LINE
  5
2ED
100
AcDbEntity
  8
ALL_ASSEMBLY_MEMBERS
100
AcDbLine
 62
7
  6
CONTINUOUS
 10
5.198655458
 20
6.0166385324
 11
5.1499415291
 21
5.9885135324
  0
LINE
  5
2EE
100
AcDbEntity
  8
ALL_ASSEMBLY_MEMBERS
100
AcDbLine
 62
7
  6
CONTINUOUS
 10
5.2055816496
 20
6.0046420167
 11
5.1568677207
 21
5.9765170167
  0
LINE
  5
2EF
100
AcDbEntity
  8
ALL_ASSEMBLY_MEMBERS
100
AcDbLine
 62
7
  6
CONTINUOUS
 10
5.2066887158
 20
6.0027245218
 11
5.1579747869
 21
5.9745995218
  0
LINE
  5
2F0
100
AcDbEntity
  8
ALL_ASSEMBLY_MEMBERS
100
AcDbLine
 62
7
  6
CONTINUOUS
 10
5.2133012999
 20
5.9912711902
 11
5.1645873709
 21
5.9631461902
  0
LINE
  5
2F1
100
AcDbEntity
  8
ALL_ASSEMBLY_MEMBERS
100
AcDbLine
 62
7
  6
CONTINUOUS
 10
5.2143564199
 20
5.9894436687
 11
5.165642491
 21
5.9613186687
  0
LINE
  5
2F2
100
AcDbEntity
  8
ALL_ASSEMBLY_MEMBERS
100
AcDbLine
 62
7
  6
CONTINUOUS
 10
5.2206473401
 20
5.9785474753
 11
5.1719334111
 21
5.9504224753
  0
LINE
  5
2F3
100
AcDbEntity
  8
ALL_ASSEMBLY_MEMBERS
100
AcDbLine
 62
7
  6
CONTINUOUS
 10
5.2216492285
 20
5.9768121538
 11
5.1729352995
 21
5.9486871538
  0
LINE
  5
2F4
100
AcDbEntity
  8
ALL_ASSEMBLY_MEMBERS
100
AcDbLine
 62
7
  6
CONTINUOUS
 10
5.2276108202
 20
5.9664863741
 11
5.1788968912
 21
5.9383613741
  0
LINE
  5
2F5
100
AcDbEntity
  8
ALL_ASSEMBLY_MEMBERS
100
AcDbLine
 62
7
  6
CONTINUOUS
 10
5.2285582562
 20
5.9648453667
 11
5.1798443273
 21
5.9367203667
  0
LINE
  5
2F6
100
AcDbEntity
  8
ALL_ASSEMBLY_MEMBERS
100
AcDbLine
 62
7
  6
CONTINUOUS
 10
5.2341832562
 20
5.9551025809
 11
5.1854693273
 21
5.9269775809
  0
LINE
  5
2F7
100
AcDbEntity
  8
ALL_ASSEMBLY_MEMBERS
100
AcDbLine
 62
7
  6
CONTINUOUS
 10
5.2350750856
 20
5.953557887
 11
5.1863611567
 21
5.925432887
  0
LINE
  5
2F8
100
AcDbEntity
  8
ALL_ASSEMBLY_MEMBERS
100
AcDbLine
 62
7
  6
CONTINUOUS
 10
5.2403566407
 20
5.9444099653
 11
5.1916427117
 21
5.9162849653
  0
LINE
  5
2F9
100
AcDbEntity
  8
ALL_ASSEMBLY_MEMBERS
100
AcDbLine
 62
7
  6
CONTINUOUS
 10
5.241191777
 20
5.9429634669
 11
5.192477848
 21
5.9148384669
  0
LINE
  5
2FA
100
AcDbEntity
  8
ALL_ASSEMBLY_MEMBERS
100
AcDbLine
 62
7
  6
CONTINUOUS
 10
5.2461234524
 20
5.9344215545
 11
5.1974095234
 21
5.9062965545
  0
LINE
  5
2FB
100
AcDbEntity
  8
ALL_ASSEMBLY_MEMBERS
100
AcDbLine
 62
7
  6
CONTINUOUS
 10
5.2469008779
 20
5.9330750139
 11
5.198186949
 21
5.9049500139
  0
LINE
  5
2FC
100
AcDbEntity
  8
ALL_ASSEMBLY_MEMBERS
100
AcDbLine
 62
7
  6
CONTINUOUS
 10
5.2514766652
 20
5.925149518
 11
5.2027627362
 21
5.897024518
  0
LINE
  5
2FD
100
AcDbEntity
  8
ALL_ASSEMBLY_MEMBERS
100
AcDbLine
 62
7
  6
CONTINUOUS
 10
5.2521954329
 20
5.9239045757
 11
5.2034815039
 21
5.8957795757
  0
LINE
  5
2FE
100
AcDbEntity
  8
ALL_ASSEMBLY_MEMBERS
100
AcDbLine
 62
7
  6
CONTINUOUS
 10
5.2564097571
 20
5.9166051521
 11
5.2076958281
 21
5.8884801521
  0
LINE
  5
2FF
100
AcDbEntity
  8
ALL_ASSEMBLY_MEMBERS
100
AcDbLine
 62
7
  6
CONTINUOUS
 10
5.2570689913
 20
5.915463325
 11
5.2083550623
 21
5.887338325
  0
LINE
  5
300
100
AcDbEntity
  8
ALL_ASSEMBLY_MEMBERS
100
AcDbLine
 62
7
  6
CONTINUOUS
 10
5.2609167179
 20
5.908798867
 11
5.2122027889
 21
5.880673867
  0
LINE
  5
301
100
AcDbEntity
  8
ALL_ASSEMBLY_MEMBERS
100
AcDbLine
 62
7
  6
CONTINUOUS
 10
5.2615156154
 20
5.9077615462
 11
5.2128016864
 21
5.8796365462
  0
LINE
  5
302
100
AcDbEntity
  8
ALL_ASSEMBLY_MEMBERS
100
AcDbLine
 62
7
  6
CONTINUOUS
 10
5.149231933
 20
5.8397425888
 11
5.2141838383
 21
5.8772425888
  0
LINE
  5
303
100
AcDbEntity
  8
ALL_ASSEMBLY_MEMBERS
100
AcDbLine
 62
7
  6
CONTINUOUS
 10
5.2628977673
 20
5.9053675888
 11
5.3012193914
 21
5.9274925888
  0
LINE
  5
304
100
AcDbEntity
  8
ALL_ASSEMBLY_MEMBERS
100
AcDbLine
 62
7
  6
CONTINUOUS
 10
5.6337731465
 20
6.1194925888
 11
5.6688471753
 21
6.1397425888
  0
LINE
  5
305
100
AcDbEntity
  8
ALL_ASSEMBLY_MEMBERS
100
AcDbLine
 62
7
  6
CONTINUOUS
 10
5.2649920565
 20
5.9017401734
 11
5.2162781276
 21
5.8736151734
  0
LINE
  5
306
100
AcDbEntity
  8
ALL_ASSEMBLY_MEMBERS
100
AcDbLine
 62
7
  6
CONTINUOUS
 10
5.2655298876
 20
5.9008086226
 11
5.2168159587
 21
5.8726836226
  0
LINE
  5
307
100
AcDbEntity
  8
ALL_ASSEMBLY_MEMBERS
100
AcDbLine
 62
7
  6
CONTINUOUS
 10
5.2686308079
 20
5.8954376712
 11
5.2199168789
 21
5.8673126712
  0
LINE
  5
308
100
AcDbEntity
  8
ALL_ASSEMBLY_MEMBERS
100
AcDbLine
 62
7
  6
CONTINUOUS
 10
5.2691069173
 20
5.8946130255
 11
5.2203929884
 21
5.8664880255
  0
LINE
  5
309
100
AcDbEntity
  8
ALL_ASSEMBLY_MEMBERS
100
AcDbLine
 62
7
  6
CONTINUOUS
 10
5.2718285387
 20
5.889899039
 11
5.2231146097
 21
5.861774039
  0
LINE
  5
30A
100
AcDbEntity
  8
ALL_ASSEMBLY_MEMBERS
100
AcDbLine
 62
7
  6
CONTINUOUS
 10
5.2722423464
 20
5.889182303
 11
5.2235284174
 21
5.861057303
  0
LINE
  5
30B
100
AcDbEntity
  8
ALL_ASSEMBLY_MEMBERS
100
AcDbLine
 62
7
  6
CONTINUOUS
 10
5.2745813529
 20
5.8851310249
 11
5.2258674239
 21
5.8570060249
  0
LINE
  5
30C
100
AcDbEntity
  8
ALL_ASSEMBLY_MEMBERS
100
AcDbLine
 62
7
  6
CONTINUOUS
 10
5.2749323548
 20
5.8845230719
 11
5.2262184258
 21
5.8563980719
  0
LINE
  5
30D
100
AcDbEntity
  8
ALL_ASSEMBLY_MEMBERS
100
AcDbLine
 62
7
  6
CONTINUOUS
 10
5.2768858968
 20
5.8811394379
 11
5.2281719678
 21
5.8530144379
  0
LINE
  5
30E
100
AcDbEntity
  8
ALL_ASSEMBLY_MEMBERS
100
AcDbLine
 62
7
  6
CONTINUOUS
 10
5.2771736651
 20
5.8806410085
 11
5.2284597361
 21
5.8525160085
  0
LINE
  5
30F
100
AcDbEntity
  8
ALL_ASSEMBLY_MEMBERS
100
AcDbLine
 62
7
  6
CONTINUOUS
 10
5.2787393625
 20
5.8779291411
 11
5.2300254335
 21
5.8498041411
  0
LINE
  5
310
100
AcDbEntity
  8
ALL_ASSEMBLY_MEMBERS
100
AcDbLine
 62
7
  6
CONTINUOUS
 10
5.2789635467
 20
5.8775408426
 11
5.2302496177
 21
5.8494158426
  0
LINE
  5
311
100
AcDbEntity
  8
ALL_ASSEMBLY_MEMBERS
100
AcDbLine
 62
7
  6
CONTINUOUS
 10
5.2801394919
 20
5.8755040457
 11
5.2314255629
 21
5.8473790457
  0
LINE
  5
312
100
AcDbEntity
  8
ALL_ASSEMBLY_MEMBERS
100
AcDbLine
 62
7
  6
CONTINUOUS
 10
5.2802998189
 20
5.8752263513
 11
5.2315858899
 21
5.8471013513
  0
LINE
  5
313
100
AcDbEntity
  8
ALL_ASSEMBLY_MEMBERS
100
AcDbLine
 62
7
  6
CONTINUOUS
 10
5.2810845792
 20
5.8738671065
 11
5.2323706502
 21
5.8457421065
  0
LINE
  5
314
100
AcDbEntity
  8
ALL_ASSEMBLY_MEMBERS
100
AcDbLine
 62
7
  6
CONTINUOUS
 10
5.2811808536
 20
5.8737003544
 11
5.2324669246
 21
5.8455753544
  0
LINE
  5
315
100
AcDbEntity
  8
ALL_ASSEMBLY_MEMBERS
100
AcDbLine
 62
7
  6
CONTINUOUS
 10
5.2815734729
 20
5.8730203178
 11
5.232859544
 21
5.8448953178
  0
LINE
  5
316
100
AcDbEntity
  8
ALL_ASSEMBLY_MEMBERS
100
AcDbLine
 62
7
  6
CONTINUOUS
 10
5.0211906271
 20
5.7225166362
 11
4.9646824695
 21
5.6898916362
  0
LINE
  5
317
100
AcDbEntity
  8
ALL_ASSEMBLY_MEMBERS
100
AcDbLine
 62
7
  6
CONTINUOUS
 10
5.0543160988
 20
5.7416416362
 11
5.1355059804
 21
5.7885166362
  0
LINE
  5
318
100
AcDbEntity
  8
ALL_FEATURES
100
AcDbLine
 62
7
  6
CONTINUOUS
 10
6.2324735242
 20
1.5051291334
 11
6.2328284001
 21
1.5047189624
  0
LINE
  5
319
100
AcDbEntity
  8
ALL_FEATURES
100
AcDbLine
 62
7
  6
CONTINUOUS
 10
6.2328284001
 20
1.5582914912
 11
6.232473524
 21
1.5587016624
  0
LINE
  5
31A
100
AcDbEntity
  8
ALL_FEATURES
100
AcDbLine
 62
7
  6
CONTINUOUS
 10
5.5376165057
 20
5.527040776
 11
5.8623760321
 21
5.714540776
  0
LINE
  5
31B
100
AcDbEntity
  8
ALL_ASSEMBLY_MEMBERS
100
AcDbLine
 62
7
  6
CONTINUOUS
 10
5.1355059804
 20
5.7885166362
 11
5.149231933
 21
5.8397425888
  0
LINE
  5
31C
100
AcDbEntity
  8
ALL_ASSEMBLY_MEMBERS
100
AcDbLine
 62
7
  6
CONTINUOUS
 10
6.3010784001
 20
4.574540776
 11
5.5510784001
 21
4.574540776
  0
LINE
  5
31D
100
AcDbEntity
  8
ALL_FEATURES
100
AcDbLine
 62
7
  6
CONTINUOUS
 10
5.5510784001
 20
1.668290776
 11
5.5510784001
 21
1.762040776
  0
LINE
  5
31E
100
AcDbEntity
  8
ALL_ASSEMBLY_MEMBERS
100
AcDbLine
 62
7
  6
CONTINUOUS
 10
5.5510784001
 20
1.762040776
 11
5.5510784001
 21
4.668290776
  0
LINE
  5
31F
100
AcDbEntity
  8
ALL_FEATURES
100
AcDbLine
 62
7
  6
CONTINUOUS
 10
5.6193284001
 20
1.5850777496
 11
5.6193284001
 21
1.5783807689
  0
LINE
  5
320
100
AcDbEntity
  8
ALL_FEATURES
100
AcDbLine
 62
7
  6
CONTINUOUS
 10
5.6193284001
 20
1.4712357932
 11
5.6193284001
 21
1.4779327128
  0
LINE
  5
321
100
AcDbEntity
  8
ALL_FEATURES
100
AcDbLine
 62
7
  6
CONTINUOUS
 10
5.6193284001
 20
1.5248082551
 11
5.6193284001
 21
1.5315052253
  0
LINE
  5
322
100
AcDbEntity
  8
ALL_FEATURES
100
AcDbLine
 62
7
  6
CONTINUOUS
 10
5.6483234012
 20
1.5616404971
 11
5.6483234012
 21
1.5484719018
  0
LINE
  5
323
100
AcDbEntity
  8
ALL_FEATURES
100
AcDbLine
 62
7
  6
CONTINUOUS
 10
5.6483234002
 20
1.508067984
 11
5.6483234002
 21
1.4948993882
  0
LINE
  5
324
100
AcDbEntity
  8
ALL_FEATURES
100
AcDbLine
 62
7
  6
CONTINUOUS
 10
5.6483234013
 20
1.4544955214
 11
5.6483234013
 21
1.443290776
  0
LINE
  5
325
100
AcDbEntity
  8
0
100
AcDbLine
 62
7
  6
CONTINUOUS
 10
5.6542034001
 20
1.443290776
 11
5.6542034001
 21
1.368290776
  0
LINE
  5
326
100
AcDbEntity
  8
ALL_FEATURES
100
AcDbLine
 62
7
  6
CONTINUOUS
 10
5.6542034001
 20
1.593290776
 11
5.6542034001
 21
1.668290776
  0
LINE
  5
327
100
AcDbEntity
  8
ALL_ASSEMBLY_MEMBERS
100
AcDbLine
 62
7
  6
CONTINUOUS
 10
6.3010784001
 20
4.668290776
 11
5.5510784001
 21
4.668290776
  0
LINE
  5
328
100
AcDbEntity
  8
ALL_FEATURES
100
AcDbLine
 62
7
  6
CONTINUOUS
 10
5.7385784001
 20
4.777040776
 11
6.1135784001
 21
4.777040776
  0
LINE
  5
329
100
AcDbEntity
  8
ALL_ASSEMBLY_MEMBERS
100
AcDbLine
 62
7
  6
CONTINUOUS
 10
4.9646824695
 20
5.6898916362
 11
4.2146824695
 21
6.9889297418
  0
LINE
  5
32A
100
AcDbEntity
  8
0
100
AcDbLine
 62
7
  6
CONTINUOUS
 10
5.7385784001
 20
4.668290776
 11
5.7385784001
 21
4.777040776
  0
LINE
  5
32B
100
AcDbEntity
  8
ALL_ASSEMBLY_MEMBERS
100
AcDbLine
 62
7
  6
CONTINUOUS
 10
5.0211906271
 20
5.7225166362
 11
4.2711906271
 21
7.0215547418
  0
LINE
  5
32C
100
AcDbEntity
  8
ALL_ASSEMBLY_MEMBERS
100
AcDbLine
 62
7
  6
CONTINUOUS
 10
4.3043160988
 20
7.0406797418
 11
5.0543160988
 21
5.7416416362
  0
LINE
  5
32D
100
AcDbEntity
  8
ALL_ASSEMBLY_MEMBERS
100
AcDbLine
 62
7
  6
CONTINUOUS
 10
4.3855059804
 20
7.0875547418
 11
5.1355059804
 21
5.7885166362
  0
LINE
  5
32E
100
AcDbEntity
  8
ALL_ASSEMBLY_MEMBERS
100
AcDbLine
 62
7
  6
CONTINUOUS
 10
4.436731933
 20
7.0738287892
 11
5.149231933
 21
5.8397425888
  0
LINE
  5
32F
100
AcDbEntity
  8
0
100
AcDbLine
 62
7
  6
CONTINUOUS
 10
6.1135784001
 20
4.668290776
 11
6.1135784001
 21
4.777040776
  0
LINE
  5
330
100
AcDbEntity
  8
ALL_ASSEMBLY_MEMBERS
100
AcDbLine
 62
7
  6
CONTINUOUS
 10
5.232859544
 20
5.8448953178
 11
5.2324669246
 21
5.8455753544
  0
LINE
  5
331
100
AcDbEntity
  8
ALL_ASSEMBLY_MEMBERS
100
AcDbLine
 62
7
  6
CONTINUOUS
 10
5.2314255629
 20
5.8473790457
 11
5.2302496177
 21
5.8494158426
  0
LINE
  5
332
100
AcDbEntity
  8
ALL_ASSEMBLY_MEMBERS
100
AcDbLine
 62
7
  6
CONTINUOUS
 10
5.2323706502
 20
5.8457421065
 11
5.2315858899
 21
5.8471013513
  0
LINE
  5
333
100
AcDbEntity
  8
ALL_ASSEMBLY_MEMBERS
100
AcDbLine
 62
7
  6
CONTINUOUS
 10
5.2300254335
 20
5.8498041411
 11
4.4858422431
 21
7.1387672369
  0
LINE
  5
334
100
AcDbEntity
  8
ALL_ASSEMBLY_MEMBERS
100
AcDbLine
 62
7
  6
CONTINUOUS
 10
4.4856180589
 20
7.1391555354
 11
4.4844421137
 21
7.1411923322
  0
LINE
  5
335
100
AcDbEntity
  8
ALL_ASSEMBLY_MEMBERS
100
AcDbLine
 62
7
  6
CONTINUOUS
 10
4.4843078868
 20
7.1414248201
 11
4.4830081327
 21
7.1436760602
  0
LINE
  5
336
100
AcDbEntity
  8
ALL_ASSEMBLY_MEMBERS
100
AcDbLine
 62
7
  6
CONTINUOUS
 10
5.2815734729
 20
5.8730203178
 11
5.281165434
 21
5.873727062
  0
LINE
  5
337
100
AcDbEntity
  8
ALL_ASSEMBLY_MEMBERS
100
AcDbLine
 62
7
  6
CONTINUOUS
 10
5.2810845792
 20
5.8738671065
 11
5.2802737231
 21
5.8752715504
  0
LINE
  5
338
100
AcDbEntity
  8
ALL_ASSEMBLY_MEMBERS
100
AcDbLine
 62
7
  6
CONTINUOUS
 10
5.2801394919
 20
5.8755040457
 11
5.2789635467
 21
5.8775408426
  0
LINE
  5
339
100
AcDbEntity
  8
ALL_ASSEMBLY_MEMBERS
100
AcDbLine
 62
7
  6
CONTINUOUS
 10
5.2787393625
 20
5.8779291411
 11
4.5345561721
 21
7.1668922369
  0
LINE
  5
33A
100
AcDbEntity
  8
ALL_ASSEMBLY_MEMBERS
100
AcDbLine
 62
7
  6
CONTINUOUS
 10
4.5343319879
 20
7.1672805354
 11
4.5331560427
 21
7.1693173322
  0
LINE
  5
33B
100
AcDbEntity
  8
ALL_ASSEMBLY_MEMBERS
100
AcDbLine
 62
7
  6
CONTINUOUS
 10
4.5329957157
 20
7.1695950267
 11
4.5322109554
 21
7.1709542714
  0
LINE
  5
33C
100
AcDbEntity
  8
ALL_ASSEMBLY_MEMBERS
100
AcDbLine
 62
7
  6
CONTINUOUS
 10
4.532114681
 20
7.1711210236
 11
4.5317220617
 21
7.1718010602
  0
LINE
  5
33D
100
AcDbEntity
  8
0
100
AcDbLine
 62
7
  6
CONTINUOUS
 10
5.5376165057
 20
5.527040776
 11
5.3045178058
 21
5.9307795675
  0
LINE
  5
33E
100
AcDbEntity
  8
0
100
AcDbLine
 62
7
  6
CONTINUOUS
 10
6.1979534001
 20
1.443290776
 11
6.1979534001
 21
1.368290776
  0
LINE
  5
33F
100
AcDbEntity
  8
ALL_FEATURES
100
AcDbLine
 62
7
  6
CONTINUOUS
 10
6.1979534001
 20
1.593290776
 11
6.1979534001
 21
1.668290776
  0
LINE
  5
340
100
AcDbEntity
  8
ALL_FEATURES
100
AcDbLine
 62
7
  6
CONTINUOUS
 10
6.2038333998
 20
1.4678867571
 11
6.2038333998
 21
1.4810553533
  0
LINE
  5
341
100
AcDbEntity
  8
ALL_FEATURES
100
AcDbLine
 62
7
  6
CONTINUOUS
 10
6.2038333994
 20
1.5214592338
 11
6.2038333994
 21
1.5346278295
  0
LINE
  5
342
100
AcDbEntity
  8
ALL_FEATURES
100
AcDbLine
 62
7
  6
CONTINUOUS
 10
6.2038333986
 20
1.5750317632
 11
6.2038333986
 21
1.5882003587
  0
LINE
  5
343
100
AcDbEntity
  8
ALL_FEATURES
100
AcDbLine
 62
7
  6
CONTINUOUS
 10
6.2328284001
 20
1.4511464858
 11
6.2328284001
 21
1.4444495375
  0
LINE
  5
344
100
AcDbEntity
  8
ALL_FEATURES
100
AcDbLine
 62
7
  6
CONTINUOUS
 10
6.2328284001
 20
1.4980220283
 11
6.2328284001
 21
1.5047189624
  0
LINE
  5
345
100
AcDbEntity
  8
ALL_FEATURES
100
AcDbLine
 62
7
  6
CONTINUOUS
 10
6.2328284001
 20
1.5515945053
 11
6.2328284001
 21
1.5582914912
  0
LINE
  5
346
100
AcDbEntity
  8
ALL_FEATURES
100
AcDbLine
 62
7
  6
CONTINUOUS
 10
6.3010784001
 20
1.668290776
 11
6.3010784001
 21
1.762040776
  0
LINE
  5
347
100
AcDbEntity
  8
ALL_ASSEMBLY_MEMBERS
100
AcDbLine
 62
7
  6
CONTINUOUS
 10
6.3010784001
 20
1.762040776
 11
6.3010784001
 21
4.668290776
  0
LINE
  5
348
100
AcDbEntity
  8
0
100
AcDbLine
 62
7
  6
CONTINUOUS
 10
5.8623760321
 20
5.714540776
 11
5.6292772438
 21
6.1182797206
  0
LINE
  5
349
100
AcDbEntity
  8
ALL_ASSEMBLY_MEMBERS
100
AcDbLine
 62
7
  6
CONTINUOUS
 10
5.6688471753
 20
6.1397425888
 11
4.9563471753
 21
7.3738287892
  0
LINE
  5
34A
100
AcDbEntity
  8
ALL_ASSEMBLY_MEMBERS
100
AcDbLine
 62
7
  6
CONTINUOUS
 10
5.0587990806
 20
7.3463768839
 11
5.6962990806
 21
6.2421944941
  0
LINE
  5
34B
100
AcDbEntity
  8
ALL_FEATURES
100
AcDbLine
 62
7
  6
CONTINUOUS
 10
5.6196832761
 20
1.5319153966
 11
5.6193284001
 21
1.5315052253
  0
LINE
  5
34C
100
AcDbEntity
  8
ALL_FEATURES
100
AcDbLine
 62
7
  6
CONTINUOUS
 10
5.6196832754
 20
1.4783428833
 11
5.6193284001
 21
1.4779327128
  0
LINE
  5
34D
100
AcDbEntity
  8
ALL_ASSEMBLY_MEMBERS
100
AcDbLine
 62
7
  6
CONTINUOUS
 10
4.3855059804
 20
7.0875547418
 11
4.436731933
 21
7.0738287892
  0
LINE
  5
34E
100
AcDbEntity
  8
ALL_FEATURES
100
AcDbLine
 62
7
  6
CONTINUOUS
 10
6.2324735242
 20
1.5511843342
 11
6.2328284001
 21
1.5515945053
  0
LINE
  5
34F
100
AcDbEntity
  8
ALL_FEATURES
100
AcDbLine
 62
7
  6
CONTINUOUS
 10
6.2324735251
 20
1.4976118583
 11
6.2328284001
 21
1.4980220283
  0
LINE
  5
350
100
AcDbEntity
  8
ALL_FEATURES
100
AcDbLine
 62
7
  6
CONTINUOUS
 10
5.6331818651
 20
1.593290776
 11
5.6196832757
 21
1.5854879205
  0
LINE
  5
351
100
AcDbEntity
  8
ALL_FEATURES
100
AcDbLine
 62
7
  6
CONTINUOUS
 10
5.6487151738
 20
1.5486984098
 11
5.6196832761
 21
1.5319153966
  0
LINE
  5
352
100
AcDbEntity
  8
ALL_FEATURES
100
AcDbLine
 62
7
  6
CONTINUOUS
 10
5.648715172
 20
1.4951258957
 11
5.6196832754
 21
1.4783428833
  0
LINE
  5
353
100
AcDbEntity
  8
ALL_FEATURES
100
AcDbLine
 62
7
  6
CONTINUOUS
 10
6.2034416261
 20
1.5879738506
 11
6.2126382364
 21
1.593290776
  0
LINE
  5
354
100
AcDbEntity
  8
ALL_FEATURES
100
AcDbLine
 62
7
  6
CONTINUOUS
 10
6.2034416271
 20
1.5344013215
 11
6.2324735242
 21
1.5511843342
  0
LINE
  5
355
100
AcDbEntity
  8
ALL_FEATURES
100
AcDbLine
 62
7
  6
CONTINUOUS
 10
6.2034416285
 20
1.4808288459
 11
6.2324735251
 21
1.4976118583
  0
ARC
  5
356
100
AcDbEntity
  8
ALL_FEATURES
100
AcDbCircle
 62
7
  6
CONTINUOUS
 10
4.2385784001
 20
4.777040776
 40
1.875
100
AcDbArc
 50
0.0
 51
30.0
  0
ARC
  5
357
100
AcDbEntity
  8
ALL_FEATURES
100
AcDbCircle
 62
7
  6
CONTINUOUS
 10
4.2385784001
 20
4.777040776
 40
1.5
100
AcDbArc
 50
0.0
 51
30.0
  0
ARC
  5
358
100
AcDbEntity
  8
ALL_ASSEMBLY_MEMBERS
100
AcDbCircle
 62
7
  6
CONTINUOUS
 10
4.3252976054
 20
7.0787735971
 40
0.07875
100
AcDbArc
 50
226.6011647511
 51
271.7929562267
  0
ARC
  5
359
100
AcDbEntity
  8
ALL_ASSEMBLY_MEMBERS
100
AcDbCircle
 62
7
  6
CONTINUOUS
 10
5.0977970985
 20
5.7407652262
 40
0.07875
100
AcDbArc
 50
148.2070437733
 51
193.3988352489
  0
ARC
  5
35A
100
AcDbEntity
  8
ALL_ASSEMBLY_MEMBERS
100
AcDbCircle
 62
7
  6
CONTINUOUS
 10
5.0212990806
 20
7.4113287892
 40
0.075
100
AcDbArc
 50
210.0
 51
300.0
  0
ARC
  5
35B
100
AcDbEntity
  8
ALL_ASSEMBLY_MEMBERS
100
AcDbCircle
 62
7
  6
CONTINUOUS
 10
5.7337990806
 20
6.1772425888
 40
0.075
100
AcDbArc
 50
120.0
 51
210.0
  0
LINE
  5
35C
100
AcDbEntity
  8
ALL_FEATURES
100
AcDbLine
 62
7
  6
CONTINUOUS
 10
5.6193284688
 20
1.5850777492
 11
5.6196834794
 21
1.5854879211
  0
LINE
  5
35D
100
AcDbEntity
  8
0
100
AcDbLine
 62
7
  6
CONTINUOUS
 10
6.2328280403
 20
1.4444495364
 11
6.2324724541
 21
1.4440393647
  0
LINE
  5
35E
100
AcDbEntity
  8
0
100
AcDbLine
 62
7
  6
CONTINUOUS
 10
6.2328282488
 20
1.451146486
 11
6.2324732073
 21
1.4515566551
  0
SPLINE
  5
35F
100
AcDbEntity
  8
ALL_FEATURES
100
AcDbSpline
 62
7
  6
CONTINUOUS
 70
0
 71
3
 72
29
 73
25
 74
0
 42
0.0000001
 43
0.0000001
 44
0.0000000001
 40
0.0
 40
0.0
 40
0.0
 40
0.0
 40
0.0020609179
 40
0.0045555713
 40
0.0074962103
 40
0.0108899883
 40
0.0190522082
 40
0.029062488
 40
0.0409280454
 40
0.0546463781
 40
0.0702087271
 40
0.0876046668
 40
0.1068228111
 40
0.1278511549
 40
0.1752764302
 40
0.2297244085
 40
0.2910264184
 40
0.3589900207
 40
0.4333819167
 40
0.513963274
 40
0.6004788
 40
0.6926576518
 40
0.7902186418
 40
1.0
 40
1.0
 40
1.0
 40
1.0
 10
5.6196834794
 20
1.5854879211
 30
0.0
 10
5.6197617904
 20
1.585533157
 30
0.0
 10
5.6199417037
 20
1.5856213061
 30
0.0
 10
5.6202480445
 20
1.5857416501
 30
0.0
 10
5.6206163901
 20
1.5858623398
 30
0.0
 10
5.621228983
 20
1.5860343174
 30
0.0
 10
5.6221524369
 20
1.5862436701
 30
0.0
 10
5.6234486986
 20
1.586483711
 30
0.0
 10
5.6249921303
 20
1.5867245816
 30
0.0
 10
5.6267815584
 20
1.5869661917
 30
0.0
 10
5.628815534
 20
1.5872082747
 30
0.0
 10
5.6310923149
 20
1.5874507058
 30
0.0
 10
5.6336101442
 20
1.5876934062
 30
0.0
 10
5.6374425568
 20
1.5880309278
 30
0.0
 10
5.6428197798
 20
1.5884471785
 30
0.0
 10
5.6499639908
 20
1.5889303192
 30
0.0
 10
5.6580112296
 20
1.589414312
 30
0.0
 10
5.6669350164
 20
1.5898989365
 30
0.0
 10
5.6767059212
 20
1.5903841108
 30
0.0
 10
5.6872918243
 20
1.5908696099
 30
0.0
 10
5.6986590016
 20
1.5913553829
 30
0.0
 10
5.7107719001
 20
1.591841498
 30
0.0
 10
5.7282910996
 20
1.5925060308
 30
0.0
 10
5.7417696198
 20
1.5929793103
 30
0.0
 10
5.7509699742
 20
1.593290776
 30
0.0
  0
SPLINE
  5
360
100
AcDbEntity
  8
0
100
AcDbSpline
 62
7
  6
CONTINUOUS
 70
0
 71
3
 72
40
 73
36
 74
0
 42
0.0000001
 43
0.0000001
 44
0.0000000001
 40
0.0
 40
0.0
 40
0.0
 40
0.0
 40
0.0003666206
 40
0.0007953466
 40
0.0013267376
 40
0.0019824815
 40
0.0027740342
 40
0.0037078015
 40
0.0047876053
 40
0.0060158556
 40
0.008923285
 40
0.0124379129
 40
0.0165616794
 40
0.0212937709
 40
0.0266323497
 40
0.0325749835
 40
0.0391188688
 40
0.046260804
 40
0.0623180745
 40
0.0807000933
 40
0.1013578646
 40
0.124234331
 40
0.1492610043
 40
0.1763681217
 40
0.2054790665
 40
0.2365070386
 40
0.3039569045
 40
0.3779381577
 40
0.4575985378
 40
0.5420157236
 40
0.630213014
 40
0.7211715765
 40
0.8138380539
 40
0.9071406595
 40
1.0
 40
1.0
 40
1.0
 40
1.0
 10
5.6483234928
 20
1.454495522
 30
0.0
 10
5.6483235295
 20
1.4545346891
 30
0.0
 10
5.6483441831
 20
1.4546201629
 30
0.0
 10
5.6484272903
 20
1.4547374984
 30
0.0
 10
5.648557973
 20
1.4548517487
 30
0.0
 10
5.6487369874
 20
1.4549651876
 30
0.0
 10
5.6489649942
 20
1.4550786471
 30
0.0
 10
5.6492425026
 20
1.4551922784
 30
0.0
 10
5.6495697238
 20
1.4553061187
 30
0.0
 10
5.6501032112
 20
1.4554673048
 30
0.0
 10
5.6508968721
 20
1.4556643177
 30
0.0
 10
5.6520007224
 20
1.4558906338
 30
0.0
 10
5.6533028138
 20
1.4561176452
 30
0.0
 10
5.6548021552
 20
1.4563452594
 30
0.0
 10
5.6564977104
 20
1.4565732551
 30
0.0
 10
5.6583883326
 20
1.4568015364
 30
0.0
 10
5.6604728471
 20
1.4570300423
 30
0.0
 10
5.6636345354
 20
1.4573474274
 30
0.0
 10
5.6680596224
 20
1.457739162
 30
0.0
 10
5.6739282749
 20
1.4581941126
 30
0.0
 10
5.6805273238
 20
1.4586497954
 30
0.0
 10
5.6878377083
 20
1.4591060463
 30
0.0
 10
5.6958382821
 20
1.4595627994
 30
0.0
 10
5.7045058801
 20
1.4600198638
 30
0.0
 10
5.7138154276
 20
1.4604771575
 30
0.0
 10
5.7274316776
 20
1.4611048103
 30
0.0
 10
5.7458396878
 20
1.4618815048
 30
0.0
 10
5.7694420616
 20
1.4627912556
 30
0.0
 10
5.7948583097
 20
1.4637020085
 30
0.0
 10
5.8217941803
 20
1.4646135739
 30
0.0
 10
5.849937708
 20
1.4655256737
 30
0.0
 10
5.8789629664
 20
1.4664381057
 30
0.0
 10
5.908533897
 20
1.4673507482
 30
0.0
 10
5.9383079864
 20
1.4682634606
 30
0.0
 10
5.9581867989
 20
1.4688757129
 30
0.0
 10
5.9681024603
 20
1.4691836404
 30
0.0
  0
LINE
  5
361
100
AcDbEntity
  8
0
100
AcDbLine
 62
7
  6
CONTINUOUS
 10
5.9681024603
 20
1.4691836404
 11
5.9824822617
 21
1.469632215
  0
LINE
  5
362
100
AcDbEntity
  8
0
100
AcDbLine
 62
7
  6
CONTINUOUS
 10
5.9824822617
 20
1.469632215
 11
6.0046084052
 21
1.470332634
  0
SPLINE
  5
363
100
AcDbEntity
  8
0
100
AcDbSpline
 62
7
  6
CONTINUOUS
 70
0
 71
3
 72
30
 73
26
 74
0
 42
0.0000001
 43
0.0000001
 44
0.0000000001
 40
0.0
 40
0.0
 40
0.0
 40
0.0
 40
0.2003820895
 40
0.2955938481
 40
0.386726005
 40
0.4732454195
 40
0.5546354543
 40
0.630422331
 40
0.7001526356
 40
0.7634227058
 40
0.8198546788
 40
0.8691247538
 40
0.890982065
 40
0.9109429235
 40
0.9289822579
 40
0.9450762004
 40
0.9592017078
 40
0.9713397844
 40
0.9814820552
 40
0.9858041017
 40
0.9896272002
 40
0.9929529471
 40
0.9957846767
 40
0.9981290309
 40
1.0
 40
1.0
 40
1.0
 40
1.0
 10
6.0046084052
 20
1.470332634
 30
0.0
 10
6.0179112317
 20
1.4707583622
 30
0.0
 10
6.0375344926
 20
1.4713998112
 30
0.0
 10
6.0632060369
 20
1.4722863552
 30
0.0
 10
6.0813181992
 20
1.4729397364
 30
0.0
 10
6.0985116937
 20
1.4735927478
 30
0.0
 10
6.1146851711
 20
1.4742454666
 30
0.0
 10
6.1297425543
 20
1.4748975843
 30
0.0
 10
6.1435951972
 20
1.4755491362
 30
0.0
 10
6.1561607782
 20
1.4761995934
 30
0.0
 10
6.1673654037
 20
1.4768489244
 30
0.0
 10
6.1758197413
 20
1.4774082204
 30
0.0
 10
6.1818529419
 20
1.4778619647
 30
0.0
 10
6.1858153784
 20
1.478188309
 30
0.0
 10
6.1893936244
 20
1.4785142364
 30
0.0
 10
6.1925825492
 20
1.478839647
 30
0.0
 10
6.1953773358
 20
1.4791642466
 30
0.0
 10
6.1977738375
 20
1.4794879856
 30
0.0
 10
6.1995186534
 20
1.4797691584
 30
0.0
 10
6.2007115081
 20
1.4799988445
 30
0.0
 10
6.2014559561
 20
1.480161532
 30
0.0
 10
6.2020988378
 20
1.480323832
 30
0.0
 10
6.2026401688
 20
1.4804856259
 30
0.0
 10
6.2030799042
 20
1.4806467597
 30
0.0
 10
6.2033338773
 20
1.4807666181
 30
0.0
 10
6.2034414469
 20
1.4808288463
 30
0.0
  0
SPLINE
  5
364
100
AcDbEntity
  8
ALL_FEATURES
100
AcDbSpline
 62
7
  6
CONTINUOUS
 70
0
 71
3
 72
65
 73
61
 74
0
 42
0.0000001
 43
0.0000001
 44
0.0000000001
 40
0.0
 40
0.0
 40
0.0
 40
0.0
 40
0.0001884272
 40
0.0004029868
 40
0.0006620489
 40
0.0009762799
 40
0.0013516783
 40
0.0017917535
 40
0.0022986492
 40
0.0028736643
 40
0.0042309469
 40
0.0058676165
 40
0.0077852879
 40
0.0099845341
 40
0.01246536
 40
0.015227434
 40
0.0182699106
 40
0.0215910912
 40
0.0290618496
 40
0.03762387
 40
0.0472602049
 40
0.0579486813
 40
0.0696637135
 40
0.0823794959
 40
0.110695246
 40
0.1426321915
 40
0.1778957512
 40
0.2161588141
 40
0.2570650755
 40
0.3002360671
 40
0.3452689275
 40
0.3917462613
 40
0.4392351636
 40
0.4872944531
 40
0.5354770054
 40
0.5833350142
 40
0.6304231226
 40
0.6763037674
 40
0.7205504585
 40
0.7627512448
 40
0.802515338
 40
0.8394713639
 40
0.873278454
 40
0.9036214844
 40
0.9174057274
 40
0.9302204935
 40
0.9420379036
 40
0.9528311699
 40
0.9625740399
 40
0.9712452628
 40
0.9788271289
 40
0.9853025857
 40
0.9906583338
 40
0.992914524
 40
0.9948891604
 40
0.9965825413
 40
0.9979958828
 40
0.9991322625
 40
0.999598921
 40
1.0
 40
1.0
 40
1.0
 40
1.0
 10
5.6483239271
 20
1.5616404968
 30
0.0
 10
5.6483239125
 20
1.5616754366
 30
0.0
 10
5.6483397965
 20
1.5617506484
 30
0.0
 10
5.6484057952
 20
1.5618561031
 30
0.0
 10
5.6485107298
 20
1.5619589953
 30
0.0
 10
5.6486546395
 20
1.5620610156
 30
0.0
 10
5.6488379947
 20
1.5621629156
 30
0.0
 10
5.6490611921
 20
1.5622648881
 30
0.0
 10
5.6493244247
 20
1.5623669936
 30
0.0
 10
5.6497531786
 20
1.5625113826
 30
0.0
 10
5.650391417
 20
1.5626879884
 30
0.0
 10
5.6512794409
 20
1.5628909645
 30
0.0
 10
5.6523268778
 20
1.5630945401
 30
0.0
 10
5.6535332361
 20
1.563298623
 30
0.0
 10
5.65489807
 20
1.5635030339
 30
0.0
 10
5.6564207749
 20
1.5637076806
 30
0.0
 10
5.6581005445
 20
1.5639125008
 30
0.0
 10
5.6606500488
 20
1.5641970791
 30
0.0
 10
5.6642217464
 20
1.5645483876
 30
0.0
 10
5.6689641141
 20
1.564956284
 30
0.0
 10
5.6743050379
 20
1.5653647838
 30
0.0
 10
5.6802320991
 20
1.5657738313
 30
0.0
 10
5.6867313793
 20
1.5661833396
 30
0.0
 10
5.6964957125
 20
1.5667502421
 30
0.0
 10
5.7100082203
 20
1.5674497193
 30
0.0
 10
5.7277010301
 20
1.5682642187
 30
0.0
 10
5.7472400609
 20
1.5690800532
 30
0.0
 10
5.7684435367
 20
1.5698969573
 30
0.0
 10
5.791114261
 20
1.5707146247
 30
0.0
 10
5.8150410519
 20
1.5715327767
 30
0.0
 10
5.840001442
 20
1.5723513495
 30
0.0
 10
5.8657629049
 20
1.5731701544
 30
0.0
 10
5.8920858253
 20
1.5739891486
 30
0.0
 10
5.9187250904
 20
1.5748082236
 30
0.0
 10
5.9454328299
 20
1.5756273257
 30
0.0
 10
5.9719604013
 20
1.5764463684
 30
0.0
 10
5.9980609305
 20
1.5772652925
 30
0.0
 10
6.0234914874
 20
1.5780840062
 30
0.0
 10
6.0480153203
 20
1.5789023948
 30
0.0
 10
6.0714043248
 20
1.5797203758
 30
0.0
 10
6.0934405831
 20
1.5805376923
 30
0.0
 10
6.1139193027
 20
1.5813541975
 30
0.0
 10
6.1326496301
 20
1.5821694941
 30
0.0
 10
6.1470841288
 20
1.5828679476
 30
0.0
 10
6.1576277372
 20
1.5834328504
 30
0.0
 10
6.1647394808
 20
1.5838426835
 30
0.0
 10
6.1712956406
 20
1.584252189
 30
0.0
 10
6.1772810057
 20
1.5846612691
 30
0.0
 10
6.1826815242
 20
1.5850698731
 30
0.0
 10
6.1874847177
 20
1.585477814
 30
0.0
 10
6.191679726
 20
1.585884556
 30
0.0
 10
6.1952567414
 20
1.5862899004
 30
0.0
 10
6.1978454638
 20
1.5866426299
 30
0.0
 10
6.1995995737
 20
1.5869316109
 30
0.0
 10
6.2006791488
 20
1.5871353527
 30
0.0
 10
6.2015994929
 20
1.587338368
 30
0.0
 10
6.2023600818
 20
1.5875405783
 30
0.0
 10
6.2028915041
 20
1.5877175087
 30
0.0
 10
6.2032335549
 20
1.587863253
 30
0.0
 10
6.20337702
 20
1.5879366091
 30
0.0
 10
6.2034413953
 20
1.587973851
 30
0.0
  0
LINE
  5
365
100
AcDbEntity
  8
ALL_FEATURES
100
AcDbLine
 62
7
  6
CONTINUOUS
 10
5.6487154059
 20
1.5486984106
 11
5.6490765125
 21
1.5488733435
  0
SPLINE
  5
366
100
AcDbEntity
  8
ALL_FEATURES
100
AcDbSpline
 62
7
  6
CONTINUOUS
 70
0
 71
3
 72
29
 73
25
 74
0
 42
0.0000001
 43
0.0000001
 44
0.0000000001
 40
0.0
 40
0.0
 40
0.0
 40
0.0
 40
0.002287084
 40
0.0050539465
 40
0.0083073556
 40
0.0120510317
 40
0.0210160277
 40
0.0319526711
 40
0.0448488927
 40
0.0596883706
 40
0.0764530744
 40
0.0951215447
 40
0.1156635023
 40
0.1380465431
 40
0.1882034766
 40
0.2452867656
 40
0.3089411957
 40
0.3787757487
 40
0.4543526162
 40
0.5352063745
 40
0.62082916
 40
0.7106925869
 40
0.8042324699
 40
1.0
 40
1.0
 40
1.0
 40
1.0
 10
5.6490765125
 20
1.5488733435
 30
0.0
 10
5.6492265515
 20
1.5489359246
 30
0.0
 10
5.6495650526
 20
1.5490574857
 30
0.0
 10
5.6501318806
 20
1.549223603
 30
0.0
 10
5.6508057785
 20
1.5493902665
 30
0.0
 10
5.6519154372
 20
1.5496274598
 30
0.0
 10
5.6535716625
 20
1.5499163808
 30
0.0
 10
5.6558794318
 20
1.5502479299
 30
0.0
 10
5.6586082362
 20
1.5505807264
 30
0.0
 10
5.6617537743
 20
1.550914552
 30
0.0
 10
5.6653115685
 20
1.551248985
 30
0.0
 10
5.6692762458
 20
1.5515838109
 30
0.0
 10
5.673641529
 20
1.551919011
 30
0.0
 10
5.6802415102
 20
1.5523841514
 30
0.0
 10
5.6894374595
 20
1.5529579948
 30
0.0
 10
5.7015664926
 20
1.5536250113
 30
0.0
 10
5.7150960443
 20
1.5542932322
 30
0.0
 10
5.7299415288
 20
1.5549623228
 30
0.0
 10
5.7460106589
 20
1.5556321144
 30
0.0
 10
5.7632029121
 20
1.5563023227
 30
0.0
 10
5.7814113697
 20
1.5569729518
 30
0.0
 10
5.8005221353
 20
1.5576438084
 30
0.0
 10
5.8274585018
 20
1.5585524244
 30
0.0
 10
5.848012059
 20
1.559212387
 30
0.0
 10
5.8619204065
 20
1.5596512042
 30
0.0
  0
LINE
  5
367
100
AcDbEntity
  8
ALL_FEATURES
100
AcDbLine
 62
7
  6
CONTINUOUS
 10
5.8619204065
 20
1.5596512042
 11
5.8668226251
 21
1.5598055485
  0
LINE
  5
368
100
AcDbEntity
  8
ALL_FEATURES
100
AcDbLine
 62
7
  6
CONTINUOUS
 10
5.8668226251
 20
1.5598055485
 11
5.8760540391
 21
1.5600945898
  0
LINE
  5
369
100
AcDbEntity
  8
ALL_FEATURES
100
AcDbLine
 62
7
  6
CONTINUOUS
 10
5.8760540391
 20
1.5600945898
 11
5.8781385699
 21
1.5601595979
  0
SPLINE
  5
36A
100
AcDbEntity
  8
ALL_FEATURES
100
AcDbSpline
 62
7
  6
CONTINUOUS
 70
0
 71
3
 72
40
 73
36
 74
0
 42
0.0000001
 43
0.0000001
 44
0.0000000001
 40
0.0
 40
0.0
 40
0.0
 40
0.0
 40
0.0921067706
 40
0.1848641736
 40
0.2771713396
 40
0.3679342854
 40
0.4560753702
 40
0.5405499118
 40
0.6203573465
 40
0.6945493745
 40
0.7622490177
 40
0.7934106391
 40
0.8226560863
 40
0.8498961925
 40
0.8750538773
 40
0.8980550543
 40
0.9188292357
 40
0.9373196241
 40
0.9534733483
 40
0.9606581758
 40
0.9672421384
 40
0.9732217547
 40
0.978593783
 40
0.9833553478
 40
0.9875041606
 40
0.9910393054
 40
0.9939635147
 40
0.9951986681
 40
0.9962842967
 40
0.9972227325
 40
0.9980177055
 40
0.9986755136
 40
0.9992075028
 40
0.999635342
 40
1.0
 40
1.0
 40
1.0
 40
1.0
 10
5.8781385699
 20
1.5601595979
 30
0.0
 10
5.8881554658
 20
1.5604717733
 30
0.0
 10
5.9082602016
 20
1.561092361
 30
0.0
 10
5.938403917
 20
1.5620163695
 30
0.0
 10
5.9684013493
 20
1.5629403371
 30
0.0
 10
5.9978962649
 20
1.5638641028
 30
0.0
 10
6.026538529
 20
1.5647875375
 30
0.0
 10
6.0539881455
 20
1.5657104577
 30
0.0
 10
6.0799191557
 20
1.5666325468
 30
0.0
 10
6.1040237655
 20
1.5675536209
 30
0.0
 10
6.1228366259
 20
1.5683398897
 30
0.0
 10
6.136760919
 20
1.5689752488
 30
0.0
 10
6.146286218
 20
1.5694382637
 30
0.0
 10
6.1551574412
 20
1.5699010719
 30
0.0
 10
6.1633482793
 20
1.5703635176
 30
0.0
 10
6.1708344015
 20
1.5708254744
 30
0.0
 10
6.1775936142
 20
1.5712868935
 30
0.0
 10
6.1836059086
 20
1.5717475083
 30
0.0
 10
6.1881399762
 20
1.5721441176
 30
0.0
 10
6.1913798562
 20
1.5724655002
 30
0.0
 10
6.1935161419
 20
1.5726968657
 30
0.0
 10
6.1954539512
 20
1.5729280012
 30
0.0
 10
6.1971919662
 20
1.5731588446
 30
0.0
 10
6.19872888
 20
1.5733892989
 30
0.0
 10
6.2000635373
 20
1.5736191388
 30
0.0
 10
6.2011949603
 20
1.5738483189
 30
0.0
 10
6.2020085139
 20
1.5740477903
 30
0.0
 10
6.2025554904
 20
1.5742109971
 30
0.0
 10
6.2028909917
 20
1.5743262548
 30
0.0
 10
6.2031755374
 20
1.5744412946
 30
0.0
 10
6.2034093278
 20
1.5745561498
 30
0.0
 10
6.2035928795
 20
1.5746709639
 30
0.0
 10
6.2037268672
 20
1.5747865776
 30
0.0
 10
6.2038121585
 20
1.5749053357
 30
0.0
 10
6.2038333881
 20
1.5749920862
 30
0.0
 10
6.2038333961
 20
1.5750317631
 30
0.0
  0
SPLINE
  5
36B
100
AcDbEntity
  8
ALL_FEATURES
100
AcDbSpline
 62
7
  6
CONTINUOUS
 70
0
 71
3
 72
40
 73
36
 74
0
 42
0.0000001
 43
0.0000001
 44
0.0000000001
 40
0.0
 40
0.0
 40
0.0
 40
0.0
 40
0.0919598903
 40
0.1846534138
 40
0.2769053335
 40
0.3676512431
 40
0.4558062671
 40
0.5403154528
 40
0.6201721997
 40
0.6944258995
 40
0.7621928117
 40
0.7933865439
 40
0.8226638535
 40
0.8499369698
 40
0.8751225467
 40
0.8981494666
 40
0.9189489245
 40
0.9374573949
 40
0.9536250422
 40
0.9608164307
 40
0.9674051928
 40
0.9733867184
 40
0.9787581711
 40
0.9835171597
 40
0.9876617731
 40
0.9911909206
 40
0.9941050544
 40
0.995332816
 40
0.9964092355
 40
0.9973363441
 40
0.9981173881
 40
0.9987578978
 40
0.9992680706
 40
0.9996682914
 40
1.0
 40
1.0
 40
1.0
 40
1.0
 10
5.980363213
 20
1.593290776
 30
0.0
 10
5.9692803072
 20
1.5929777787
 30
0.0
 10
5.9470259046
 20
1.5923554655
 30
0.0
 10
5.9136531239
 20
1.5914291139
 30
0.0
 10
5.8804267647
 20
1.5905027848
 30
0.0
 10
5.8477478061
 20
1.5895767013
 30
0.0
 10
5.8160027386
 20
1.5886509332
 30
0.0
 10
5.7855711053
 20
1.5877257013
 30
0.0
 10
5.7568162963
 20
1.5868012579
 30
0.0
 10
5.7300811294
 20
1.5858778579
 30
0.0
 10
5.7092120214
 20
1.5850896579
 30
0.0
 10
5.6937638725
 20
1.5844526837
 30
0.0
 10
5.6831950008
 20
1.5839884634
 30
0.0
 10
5.6733512449
 20
1.5835245466
 30
0.0
 10
5.6642619641
 20
1.5830608934
 30
0.0
 10
5.6559542668
 20
1.5825977245
 30
0.0
 10
5.6484529296
 20
1.5821352317
 30
0.0
 10
5.6417803008
 20
1.581673413
 30
0.0
 10
5.6367480189
 20
1.5812757458
 30
0.0
 10
5.6331516732
 20
1.5809535822
 30
0.0
 10
5.6307803507
 20
1.5807216571
 30
0.0
 10
5.6286295749
 20
1.5804899335
 30
0.0
 10
5.6267007783
 20
1.5802585035
 30
0.0
 10
5.6249951771
 20
1.580027467
 30
0.0
 10
5.6235138675
 20
1.5797970582
 30
0.0
 10
5.6222579897
 20
1.5795674018
 30
0.0
 10
5.6213545609
 20
1.579367488
 30
0.0
 10
5.6207469638
 20
1.5792037659
 30
0.0
 10
5.6203747681
 20
1.5790882743
 30
0.0
 10
5.6200592382
 20
1.5789730454
 30
0.0
 10
5.6198001524
 20
1.5788580751
 30
0.0
 10
5.619596856
 20
1.5787433099
 30
0.0
 10
5.6194485479
 20
1.5786279252
 30
0.0
 10
5.6193532985
 20
1.5785094192
 30
0.0
 10
5.619328802
 20
1.5784207627
 30
0.0
 10
5.6193287548
 20
1.5783807697
 30
0.0
  0
LINE
  5
36C
100
AcDbEntity
  8
ALL_FEATURES
100
AcDbLine
 62
7
  6
CONTINUOUS
 10
5.6487151739
 20
1.4951258958
 11
5.6498678239
 21
1.4955724235
  0
SPLINE
  5
36D
100
AcDbEntity
  8
ALL_FEATURES
100
AcDbSpline
 62
7
  6
CONTINUOUS
 70
0
 71
3
 72
23
 73
19
 74
0
 42
0.0000001
 43
0.0000001
 44
0.0000000001
 40
0.0
 40
0.0
 40
0.0
 40
0.0
 40
0.007285476
 40
0.0162671913
 40
0.0269523522
 40
0.0393422117
 40
0.0534318634
 40
0.0692098531
 40
0.1057780579
 40
0.1489361756
 40
0.1985400524
 40
0.2544088712
 40
0.3163551131
 40
0.3841561641
 40
0.4575670378
 40
0.6201723845
 40
0.8018480659
 40
1.0
 40
1.0
 40
1.0
 40
1.0
 10
5.6498678239
 20
1.4955724235
 30
0.0
 10
5.6501978045
 20
1.4956686004
 30
0.0
 10
5.6509431776
 20
1.4958536554
 30
0.0
 10
5.6521899009
 20
1.496104633
 30
0.0
 10
5.6536813179
 20
1.4963566747
 30
0.0
 10
5.6554164377
 20
1.4966094717
 30
0.0
 10
5.6573939668
 20
1.4968627728
 30
0.0
 10
5.6605080375
 20
1.497218768
 30
0.0
 10
5.6649927666
 20
1.4976554925
 30
0.0
 10
5.6710735151
 20
1.4981595425
 30
0.0
 10
5.6780674274
 20
1.4986648644
 30
0.0
 10
5.6859496456
 20
1.4991713926
 30
0.0
 10
5.6946919085
 20
1.4996785247
 30
0.0
 10
5.7042629889
 20
1.5001862298
 30
0.0
 10
5.7185791925
 20
1.5008878637
 30
0.0
 10
5.738265994
 20
1.5017529486
 30
0.0
 10
5.7638368072
 20
1.5027618839
 30
0.0
 10
5.7817444233
 20
1.5034106976
 30
0.0
 10
5.7910869859
 20
1.5037388463
 30
0.0
  0
SPLINE
  5
36E
100
AcDbEntity
  8
ALL_FEATURES
100
AcDbSpline
 62
7
  6
CONTINUOUS
 70
0
 71
3
 72
42
 73
38
 74
0
 42
0.0000001
 43
0.0000001
 44
0.0000000001
 40
0.0
 40
0.0
 40
0.0
 40
0.0
 40
0.0788328704
 40
0.1618365469
 40
0.2476135298
 40
0.3347202058
 40
0.4216906884
 40
0.5070608438
 40
0.5893933368
 40
0.6673029639
 40
0.7394794771
 40
0.773033831
 40
0.8047091761
 40
0.8343701485
 40
0.8618953687
 40
0.8871668091
 40
0.9100798311
 40
0.9305403303
 40
0.9484604043
 40
0.9564459518
 40
0.9637710504
 40
0.970427781
 40
0.9764091403
 40
0.9817108063
 40
0.9863294172
 40
0.9902624082
 40
0.9935086987
 40
0.9948749981
 40
0.9960713216
 40
0.9970996111
 40
0.9979630264
 40
0.9986670545
 40
0.9992220612
 40
0.9994502215
 40
0.9996509735
 40
0.9998311232
 40
1.0
 40
1.0
 40
1.0
 40
1.0
 10
5.7910869859
 20
1.5037388463
 30
0.0
 10
5.801946519
 20
1.5041202771
 30
0.0
 10
5.824241139
 20
1.5048746325
 30
0.0
 10
5.8583542592
 20
1.5059719323
 30
0.0
 10
5.8936083781
 20
1.5070698639
 30
0.0
 10
5.9294095254
 20
1.5081680837
 30
0.0
 10
5.9651545713
 20
1.5092662685
 30
0.0
 10
6.0002412469
 20
1.5103641133
 30
0.0
 10
6.0340783838
 20
1.5114612304
 30
0.0
 10
6.0660959607
 20
1.5125572551
 30
0.0
 10
6.0913916023
 20
1.5134902208
 30
0.0
 10
6.1103165034
 20
1.5142444266
 30
0.0
 10
6.1233845019
 20
1.5147959726
 30
0.0
 10
6.1356206778
 20
1.5153472751
 30
0.0
 10
6.1469732132
 20
1.5158981018
 30
0.0
 10
6.1573944624
 20
1.5164484543
 30
0.0
 10
6.1668404864
 20
1.5169980789
 30
0.0
 10
6.1752713674
 20
1.5175466711
 30
0.0
 10
6.1816450834
 20
1.5180190004
 30
0.0
 10
6.1862095909
 20
1.518401637
 30
0.0
 10
6.1892250125
 20
1.5186772567
 30
0.0
 10
6.1919629504
 20
1.5189525933
 30
0.0
 10
6.1944204693
 20
1.5192276262
 30
0.0
 10
6.196595153
 20
1.5195021936
 30
0.0
 10
6.1984850989
 20
1.5197759982
 30
0.0
 10
6.2000884141
 20
1.5200488952
 30
0.0
 10
6.2012425976
 20
1.5202864167
 30
0.0
 10
6.2020194068
 20
1.5204810234
 30
0.0
 10
6.2024951206
 20
1.5206182385
 30
0.0
 10
6.2028983519
 20
1.5207551029
 30
0.0
 10
6.2032295257
 20
1.5208916031
 30
0.0
 10
6.203488935
 20
1.5210276975
 30
0.0
 10
6.2036565963
 20
1.5211482117
 30
0.0
 10
6.2037500551
 20
1.5212470912
 30
0.0
 10
6.2037974395
 20
1.5213169635
 30
0.0
 10
6.2038264678
 20
1.5213876493
 30
0.0
 10
6.2038331357
 20
1.5214359552
 30
0.0
 10
6.203833163
 20
1.521459233
 30
0.0
  0
SPLINE
  5
36F
100
AcDbEntity
  8
ALL_FEATURES
100
AcDbSpline
 62
7
  6
CONTINUOUS
 70
0
 71
3
 72
42
 73
38
 74
0
 42
0.0000001
 43
0.0000001
 44
0.0000000001
 40
0.0
 40
0.0
 40
0.0
 40
0.0
 40
0.0001704415
 40
0.0003513494
 40
0.0005515799
 40
0.0007777337
 40
0.0013241595
 40
0.0020138022
 40
0.002857429
 40
0.0038606133
 40
0.0050263958
 40
0.0063565482
 40
0.0095135211
 40
0.01333589
 40
0.0178243911
 40
0.022978115
 40
0.0287935268
 40
0.0352651125
 40
0.0423870029
 40
0.0501531259
 40
0.0675919538
 40
0.0875153234
 40
0.1098457231
 40
0.1345011166
 40
0.161383163
 40
0.1903889703
 40
0.2214076928
 40
0.2543161988
 40
0.3252913918
 40
0.4022118782
 40
0.4838834463
 40
0.5690379714
 40
0.6563517489
 40
0.7444675198
 40
0.832016354
 40
0.9176375791
 40
1.0
 40
1.0
 40
1.0
 40
1.0
 10
5.6483239038
 20
1.5080679835
 30
0.0
 10
5.6483238905
 20
1.5080903291
 30
0.0
 10
5.6483299199
 20
1.5081365806
 30
0.0
 10
5.6483565026
 20
1.5082044464
 30
0.0
 10
5.6484000737
 20
1.5082716064
 30
0.0
 10
5.648485958
 20
1.5083664491
 30
0.0
 10
5.6486404645
 20
1.5084823194
 30
0.0
 10
5.6488800946
 20
1.5086132191
 30
0.0
 10
5.6491860869
 20
1.5087444307
 30
0.0
 10
5.6495586953
 20
1.5088759542
 30
0.0
 10
5.6499982333
 20
1.5090078049
 30
0.0
 10
5.6507155178
 20
1.5091947294
 30
0.0
 10
5.6517812088
 20
1.5094229969
 30
0.0
 10
5.6532618116
 20
1.509685267
 30
0.0
 10
5.6550075195
 20
1.509948388
 30
0.0
 10
5.6570169288
 20
1.5102121777
 30
0.0
 10
5.6592882333
 20
1.5104763993
 30
0.0
 10
5.6618190771
 20
1.5107409745
 30
0.0
 10
5.6646068969
 20
1.5110058201
 30
0.0
 10
5.6688291369
 20
1.5113735759
 30
0.0
 10
5.674728371
 20
1.5118273983
 30
0.0
 10
5.6825366303
 20
1.5123545814
 30
0.0
 10
5.6912928631
 20
1.5128827338
 30
0.0
 10
5.7009628545
 20
1.5134114951
 30
0.0
 10
5.7115091809
 20
1.5139408332
 30
0.0
 10
5.7228907153
 20
1.5144705448
 30
0.0
 10
5.735063128
 20
1.5150005179
 30
0.0
 10
5.7527345606
 20
1.5157259135
 30
0.0
 10
5.7764218471
 20
1.5166232992
 30
0.0
 10
5.8065007038
 20
1.5176767654
 30
0.0
 10
5.8384395616
 20
1.5187313263
 30
0.0
 10
5.8717417036
 20
1.5197866526
 30
0.0
 10
5.9058891057
 20
1.520842394
 30
0.0
 10
5.9403505544
 20
1.5218982928
 30
0.0
 10
5.9745900021
 20
1.5229540811
 30
0.0
 10
6.0080748079
 20
1.5240094966
 30
0.0
 10
6.0300864147
 20
1.5247302891
 30
0.0
 10
6.0408783596
 20
1.5250940969
 30
0.0
  0
SPLINE
  5
370
100
AcDbEntity
  8
ALL_FEATURES
100
AcDbSpline
 62
7
  6
CONTINUOUS
 70
0
 71
3
 72
29
 73
25
 74
0
 42
0.0000001
 43
0.0000001
 44
0.0000000001
 40
0.0
 40
0.0
 40
0.0
 40
0.0
 40
0.2046746827
 40
0.3009078872
 40
0.3924647022
 40
0.4789253524
 40
0.5598871175
 40
0.6349720224
 40
0.7038395288
 40
0.7661622386
 40
0.8216625477
 40
0.8700816156
 40
0.8915652071
 40
0.9112017932
 40
0.9289700513
 40
0.9448492558
 40
0.9588221573
 40
0.9708800046
 40
0.9810178673
 40
0.9892359431
 40
0.9926285047
 40
0.9955474593
 40
0.9980001104
 40
1.0
 40
1.0
 40
1.0
 40
1.0
 10
6.0408783596
 20
1.5250940969
 30
0.0
 10
6.0519909522
 20
1.5254687141
 30
0.0
 10
6.0683279
 20
1.5260354997
 30
0.0
 10
6.0896338504
 20
1.526824755
 30
0.0
 10
6.1045211888
 20
1.52740432
 30
0.0
 10
6.1185782605
 20
1.5279835856
 30
0.0
 10
6.1317397095
 20
1.5285625039
 30
0.0
 10
6.1439444452
 20
1.5291410431
 30
0.0
 10
6.1551354251
 20
1.5297188922
 30
0.0
 10
6.1652609766
 20
1.5302960128
 30
0.0
 10
6.1742737328
 20
1.5308719879
 30
0.0
 10
6.181068283
 20
1.5313681966
 30
0.0
 10
6.1859158432
 20
1.5317706483
 30
0.0
 10
6.1891018643
 20
1.5320600709
 30
0.0
 10
6.1919820886
 20
1.5323491503
 30
0.0
 10
6.1945529802
 20
1.5326377904
 30
0.0
 10
6.1968115235
 20
1.5329259173
 30
0.0
 10
6.1987554814
 20
1.5332130789
 30
0.0
 10
6.2003829516
 20
1.533499106
 30
0.0
 10
6.2015384075
 20
1.5337487338
 30
0.0
 10
6.2023006773
 20
1.5339542203
 30
0.0
 10
6.202754798
 20
1.5340980067
 30
0.0
 10
6.2031289713
 20
1.5342413195
 30
0.0
 10
6.2033472601
 20
1.5343469162
 30
0.0
 10
6.2034412994
 20
1.5344013223
 30
0.0
  0
SPLINE
  5
371
100
AcDbEntity
  8
0
100
AcDbSpline
 62
7
  6
CONTINUOUS
 70
0
 71
3
 72
34
 73
30
 74
0
 42
0.0000001
 43
0.0000001
 44
0.0000000001
 40
0.0
 40
0.0
 40
0.0
 40
0.0
 40
0.2205132869
 40
0.3223251701
 40
0.4179968781
 40
0.5072340354
 40
0.5897504732
 40
0.6652824267
 40
0.7335754572
 40
0.7943994541
 40
0.8475674564
 40
0.8712242858
 40
0.892903621
 40
0.9125916486
 40
0.9302754124
 40
0.9459428548
 40
0.9595833941
 40
0.9711918044
 40
0.9807726653
 40
0.9848071835
 40
0.98834173
 40
0.9913818671
 40
0.9939368727
 40
0.9960231036
 40
0.9976716912
 40
0.9983515614
 40
0.9989516124
 40
0.9994919993
 40
1.0
 40
1.0
 40
1.0
 40
1.0
 10
6.1115845536
 20
1.443290776
 30
0.0
 10
6.1205324812
 20
1.4436030665
 30
0.0
 10
6.1336110832
 20
1.4440780532
 30
0.0
 10
6.1505695357
 20
1.4447485511
 30
0.0
 10
6.1622008271
 20
1.4452377487
 30
0.0
 10
6.1730479555
 20
1.4457265613
 30
0.0
 10
6.1830764859
 20
1.4462150733
 30
0.0
 10
6.1922535667
 20
1.4467031021
 30
0.0
 10
6.2005485664
 20
1.4471904408
 30
0.0
 10
6.2079338371
 20
1.4476770423
 30
0.0
 10
6.2135071226
 20
1.4480959712
 30
0.0
 10
6.2174922328
 20
1.4484354111
 30
0.0
 10
6.2201210675
 20
1.4486798203
 30
0.0
 10
6.2225062637
 20
1.4489239817
 30
0.0
 10
6.2246459963
 20
1.4491678269
 30
0.0
 10
6.2265384626
 20
1.4494112447
 30
0.0
 10
6.2281820815
 20
1.4496540012
 30
0.0
 10
6.2295755485
 20
1.4498960205
 30
0.0
 10
6.2305782156
 20
1.4501066885
 30
0.0
 10
6.2312529455
 20
1.4502792128
 30
0.0
 10
6.2316662973
 20
1.4504008786
 30
0.0
 10
6.2320167234
 20
1.4505222387
 30
0.0
 10
6.2323045507
 20
1.4506432912
 30
0.0
 10
6.2325300015
 20
1.4507640042
 30
0.0
 10
6.2326755381
 20
1.4508708856
 30
0.0
 10
6.2327565019
 20
1.4509584906
 30
0.0
 10
6.2327975335
 20
1.4510204583
 30
0.0
 10
6.2328225835
 20
1.4510831121
 30
0.0
 10
6.2328282658
 20
1.45112586
 30
0.0
 10
6.2328282488
 20
1.451146486
 30
0.0
  0
SPLINE
  5
372
100
AcDbEntity
  8
ALL_FEATURES
100
AcDbSpline
 62
7
  6
CONTINUOUS
 70
0
 71
3
 72
67
 73
63
 74
0
 42
0.0000001
 43
0.0000001
 44
0.0000000001
 40
0.0
 40
0.0
 40
0.0
 40
0.0
 40
0.0001715237
 40
0.0003717622
 40
0.0006195564
 40
0.0009250235
 40
0.0012935203
 40
0.0017280449
 40
0.0022303846
 40
0.0028016648
 40
0.0041536446
 40
0.0057876824
 40
0.0077054369
 40
0.0099071628
 40
0.0123921404
 40
0.0151593475
 40
0.0182075852
 40
0.0215355386
 40
0.0290247347
 40
0.0376109833
 40
0.0472737616
 40
0.0579920582
 40
0.0697421365
 40
0.0824954958
 40
0.0962230572
 40
0.1108942665
 40
0.1429252626
 40
0.1782922122
 40
0.2166636851
 40
0.2576831137
 40
0.3009667533
 40
0.3461106447
 40
0.3926946065
 40
0.4402835012
 40
0.4884341312
 40
0.5366973177
 40
0.5846226297
 40
0.6317623375
 40
0.6776769043
 40
0.7219389318
 40
0.7641347809
 40
0.8038717727
 40
0.8407780302
 40
0.8745092628
 40
0.904752859
 40
0.9184766921
 40
0.9312264225
 40
0.9429727069
 40
0.9536869863
 40
0.9633457719
 40
0.971927892
 40
0.9794126971
 40
0.9857843327
 40
0.9885492663
 40
0.991031946
 40
0.993231347
 40
0.995146752
 40
0.9967784423
 40
0.9981280903
 40
0.9991991754
 40
0.999632583
 40
1.0
 40
1.0
 40
1.0
 40
1.0
 10
5.6193284001
 20
1.5248082551
 30
0.0
 10
5.6193284001
 20
1.5248433733
 30
0.0
 10
5.6193466965
 20
1.524919961
 30
0.0
 10
5.6194206378
 20
1.5250252698
 30
0.0
 10
5.6195370245
 20
1.5251278378
 30
0.0
 10
5.6196964818
 20
1.525229687
 30
0.0
 10
5.6198995889
 20
1.5253315627
 30
0.0
 10
5.6201467924
 20
1.5254336021
 30
0.0
 10
5.6204382763
 20
1.5255358378
 30
0.0
 10
5.6209134476
 20
1.5256805912
 30
0.0
 10
5.6216203646
 20
1.5258575466
 30
0.0
 10
5.6226037266
 20
1.5260608739
 30
0.0
 10
5.6237640784
 20
1.5262647711
 30
0.0
 10
5.6251008328
 20
1.5264691551
 30
0.0
 10
5.6266132308
 20
1.5266738668
 30
0.0
 10
5.6283003143
 20
1.5268788207
 30
0.0
 10
5.6301611103
 20
1.5270839686
 30
0.0
 10
5.6329856215
 20
1.5273690383
 30
0.0
 10
5.6369428366
 20
1.527720886
 30
0.0
 10
5.6421967518
 20
1.5281293344
 30
0.0
 10
5.6481135074
 20
1.5285385426
 30
0.0
 10
5.6546793722
 20
1.5289482922
 30
0.0
 10
5.6618791034
 20
1.529358371
 30
0.0
 10
5.669695852
 20
1.5297687868
 30
0.0
 10
5.6781114271
 20
1.5301794583
 30
0.0
 10
5.69047108
 20
1.5307438584
 30
0.0
 10
5.7072596249
 20
1.5314425403
 30
0.0
 10
5.7288996869
 20
1.5322597436
 30
0.0
 10
5.7523812231
 20
1.5330779914
 30
0.0
 10
5.7774845247
 20
1.5338969547
 30
0.0
 10
5.8039751024
 20
1.5347164462
 30
0.0
 10
5.8316054814
 20
1.5355363148
 30
0.0
 10
5.8601176939
 20
1.5363564199
 30
0.0
 10
5.8892457547
 20
1.537176709
 30
0.0
 10
5.9187177551
 20
1.5379970788
 30
0.0
 10
5.94825866
 20
1.5388174778
 30
0.0
 10
5.9775925083
 20
1.5396378199
 30
0.0
 10
6.006445309
 20
1.5404580331
 30
0.0
 10
6.0345477781
 20
1.5412780425
 30
0.0
 10
6.0616375977
 20
1.5420977194
 30
0.0
 10
6.0874620186
 20
1.5429169893
 30
0.0
 10
6.1117796275
 20
1.5437356202
 30
0.0
 10
6.1343631633
 20
1.5445533482
 30
0.0
 10
6.1550016622
 20
1.5453699528
 30
0.0
 10
6.1708945452
 20
1.5460695367
 30
0.0
 10
6.1824931519
 20
1.546635587
 30
0.0
 10
6.1903076136
 20
1.5470460227
 30
0.0
 10
6.197504998
 20
1.547456106
 30
0.0
 10
6.2040684427
 20
1.5478658645
 30
0.0
 10
6.2099826989
 20
1.5482751062
 30
0.0
 10
6.2152340694
 20
1.5486834701
 30
0.0
 10
6.2198101921
 20
1.549090864
 30
0.0
 10
6.2231951911
 20
1.5494435338
 30
0.0
 10
6.2255568191
 20
1.5497305751
 30
0.0
 10
6.2270677859
 20
1.5499353089
 30
0.0
 10
6.228403111
 20
1.5501396745
 30
0.0
 10
6.2295619606
 20
1.5503436166
 30
0.0
 10
6.2305439809
 20
1.5505468088
 30
0.0
 10
6.231348854
 20
1.5507490978
 30
0.0
 10
6.2319065921
 20
1.5509263287
 30
0.0
 10
6.2322609451
 20
1.5510728804
 30
0.0
 10
6.2324076436
 20
1.5511467238
 30
0.0
 10
6.2324727922
 20
1.5511843346
 30
0.0
  0
SPLINE
  5
373
100
AcDbEntity
  8
ALL_FEATURES
100
AcDbSpline
 62
7
  6
CONTINUOUS
 70
0
 71
3
 72
67
 73
63
 74
0
 42
0.0000001
 43
0.0000001
 44
0.0000000001
 40
0.0
 40
0.0
 40
0.0
 40
0.0
 40
0.0001715241
 40
0.0003717641
 40
0.0006195616
 40
0.0009250335
 40
0.0012935368
 40
0.0017280692
 40
0.0022304182
 40
0.0028017089
 40
0.0041537132
 40
0.0057877799
 40
0.0077055709
 40
0.0099073613
 40
0.0123924282
 40
0.0151597421
 40
0.0182080967
 40
0.0215361699
 40
0.0290256305
 40
0.0376123535
 40
0.0472756783
 40
0.0579944164
 40
0.0697450972
 40
0.0824990904
 40
0.0962269411
 40
0.1108982037
 40
0.1429290685
 40
0.1782952948
 40
0.2166660786
 40
0.2576850638
 40
0.3009684172
 40
0.3461123465
 40
0.3926968309
 40
0.4402869604
 40
0.4884392675
 40
0.5367034945
 40
0.5846290342
 40
0.6317682727
 40
0.6776825636
 40
0.7219445349
 40
0.7641402165
 40
0.803877024
 40
0.8407828389
 40
0.8745138329
 40
0.9047569175
 40
0.9184805227
 40
0.9312297712
 40
0.9429756186
 40
0.9536895303
 40
0.9633476644
 40
0.9719291453
 40
0.9794135736
 40
0.9857848687
 40
0.9885496468
 40
0.9910321946
 40
0.993231498
 40
0.9951468456
 40
0.9967784967
 40
0.9981281174
 40
0.9991991849
 40
0.9996325869
 40
1.0
 40
1.0
 40
1.0
 40
1.0
 10
6.2328284001
 20
1.5582914912
 30
0.0
 10
6.2328284001
 20
1.558256373
 30
0.0
 10
6.232810103
 20
1.5581797848
 30
0.0
 10
6.23273616
 20
1.558074476
 30
0.0
 10
6.2326197709
 20
1.5579719078
 30
0.0
 10
6.2324603103
 20
1.5578700582
 30
0.0
 10
6.232257199
 20
1.5577681821
 30
0.0
 10
6.2320099906
 20
1.5576661421
 30
0.0
 10
6.231718501
 20
1.5575639055
 30
0.0
 10
6.2312433205
 20
1.5574191508
 30
0.0
 10
6.2305363906
 20
1.5572421931
 30
0.0
 10
6.2295530106
 20
1.5570388621
 30
0.0
 10
6.2283926328
 20
1.5568349593
 30
0.0
 10
6.2270558396
 20
1.5566305712
 30
0.0
 10
6.2255433884
 20
1.5564258548
 30
0.0
 10
6.2238562409
 20
1.5562208961
 30
0.0
 10
6.2219953747
 20
1.5560157432
 30
0.0
 10
6.2191707611
 20
1.5557306663
 30
0.0
 10
6.2152133706
 20
1.5553788047
 30
0.0
 10
6.209959192
 20
1.5549703491
 30
0.0
 10
6.2040421369
 20
1.554561131
 30
0.0
 10
6.1974759473
 20
1.5541513596
 30
0.0
 10
6.1902758724
 20
1.5537412708
 30
0.0
 10
6.1824588112
 20
1.5533308518
 30
0.0
 10
6.1740430362
 20
1.5529201729
 30
0.0
 10
6.1616833398
 20
1.5523557754
 30
0.0
 10
6.1448949582
 20
1.5516571171
 30
0.0
 10
6.1232552119
 20
1.5508399268
 30
0.0
 10
6.0997740551
 20
1.5500216971
 30
0.0
 10
6.0746710437
 20
1.5492027461
 30
0.0
 10
6.0481806074
 20
1.5483832589
 30
0.0
 10
6.0205501722
 20
1.5475633899
 30
0.0
 10
5.9920375921
 20
1.5467432747
 30
0.0
 10
5.9629088283
 20
1.5459229656
 30
0.0
 10
5.9334360188
 20
1.5451025742
 30
0.0
 10
5.9038945111
 20
1.5442821564
 30
0.0
 10
5.8745604992
 20
1.5434618099
 30
0.0
 10
5.8457078044
 20
1.5426415953
 30
0.0
 10
5.8176054992
 20
1.5418215883
 30
0.0
 10
5.7905157819
 20
1.5410019091
 30
0.0
 10
5.7646914447
 20
1.5401826342
 30
0.0
 10
5.7403739983
 20
1.5393640065
 30
0.0
 10
5.7177906402
 20
1.5385462673
 30
0.0
 10
5.6971523852
 20
1.5377296696
 30
0.0
 10
5.6812597031
 20
1.5370300756
 30
0.0
 10
5.6696613465
 20
1.5364640321
 30
0.0
 10
5.6618471199
 20
1.5360535931
 30
0.0
 10
5.6546499991
 20
1.5356435145
 30
0.0
 10
5.6480868518
 20
1.5352337775
 30
0.0
 10
5.6421729353
 20
1.5348245443
 30
0.0
 10
5.6369219067
 20
1.5344161875
 30
0.0
 10
5.6323460609
 20
1.5340088149
 30
0.0
 10
5.6289612402
 20
1.5336561582
 30
0.0
 10
5.6265997405
 20
1.5333691267
 30
0.0
 10
5.6250888523
 20
1.5331643998
 30
0.0
 10
5.6237535857
 20
1.5329600399
 30
0.0
 10
5.6225947754
 20
1.5327561047
 30
0.0
 10
5.62161278
 20
1.5325529168
 30
0.0
 10
5.6208079241
 20
1.5323506305
 30
0.0
 10
5.6202501963
 20
1.532173401
 30
0.0
 10
5.619895849
 20
1.5320268501
 30
0.0
 10
5.6197491525
 20
1.5319530069
 30
0.0
 10
5.6196840048
 20
1.5319153962
 30
0.0
  0
SPLINE
  5
374
100
AcDbEntity
  8
ALL_FEATURES
100
AcDbSpline
 62
7
  6
CONTINUOUS
 70
0
 71
3
 72
67
 73
63
 74
0
 42
0.0000001
 43
0.0000001
 44
0.0000000001
 40
0.0
 40
0.0
 40
0.0
 40
0.0
 40
0.000171524
 40
0.0003717633
 40
0.0006195595
 40
0.0009250295
 40
0.0012935303
 40
0.0017280599
 40
0.0022304057
 40
0.0028016929
 40
0.0041536896
 40
0.0057877483
 40
0.0077055304
 40
0.0099073049
 40
0.0123923505
 40
0.0151596407
 40
0.0182079721
 40
0.0215360257
 40
0.0290254597
 40
0.0376121272
 40
0.0472753723
 40
0.0579940217
 40
0.0697445646
 40
0.0824984308
 40
0.0962262769
 40
0.1108976866
 40
0.1429291451
 40
0.1782963974
 40
0.2166681597
 40
0.2576879577
 40
0.3009717343
 40
0.3461158357
 40
0.3927001074
 40
0.440289633
 40
0.4884409371
 40
0.5367038425
 40
0.5846284127
 40
0.6317676226
 40
0.6776820066
 40
0.721943837
 40
0.7641394244
 40
0.8038761742
 40
0.8407819737
 40
0.8745129644
 40
0.9047560729
 40
0.9184796197
 40
0.9312288427
 40
0.942974663
 40
0.9536885894
 40
0.963346908
 40
0.9719286095
 40
0.9794131773
 40
0.985784619
 40
0.9885494697
 40
0.9910320815
 40
0.993231434
 40
0.9951468117
 40
0.9967784812
 40
0.9981281123
 40
0.9991991843
 40
0.9996325869
 40
1.0
 40
1.0
 40
1.0
 40
1.0
 10
6.2328284001
 20
1.5047189624
 30
0.0
 10
6.2328284001
 20
1.5046838442
 30
0.0
 10
6.2328101032
 20
1.5046072562
 30
0.0
 10
6.2327361609
 20
1.5045019474
 30
0.0
 10
6.2326197728
 20
1.5043993793
 30
0.0
 10
6.2324603135
 20
1.5042975298
 30
0.0
 10
6.2322572037
 20
1.5041956539
 30
0.0
 10
6.2320099971
 20
1.5040936141
 30
0.0
 10
6.2317185095
 20
1.5039913778
 30
0.0
 10
6.231243332
 20
1.5038466235
 30
0.0
 10
6.230536406
 20
1.5036696665
 30
0.0
 10
6.2295530309
 20
1.5034663365
 30
0.0
 10
6.2283926596
 20
1.5032624352
 30
0.0
 10
6.2270558758
 20
1.5030580481
 30
0.0
 10
6.2255434371
 20
1.5028533326
 30
0.0
 10
6.2238563034
 20
1.5026483747
 30
0.0
 10
6.2219954509
 20
1.5024432227
 30
0.0
 10
6.2191708515
 20
1.5021581465
 30
0.0
 10
6.2152134818
 20
1.5018062869
 30
0.0
 10
6.2099593363
 20
1.5013978319
 30
0.0
 10
6.2040423271
 20
1.500988615
 30
0.0
 10
6.1974762
 20
1.5005788473
 30
0.0
 10
6.1902761975
 20
1.5001687607
 30
0.0
 10
6.1824591915
 20
1.4997583423
 30
0.0
 10
6.1740434134
 20
1.4993476632
 30
0.0
 10
6.1616835664
 20
1.4987832597
 30
0.0
 10
6.1448948233
 20
1.4980845835
 30
0.0
 10
6.1232545452
 20
1.4972673774
 30
0.0
 10
6.099772812
 20
1.4964491275
 30
0.0
 10
6.0746693472
 20
1.495630168
 30
0.0
 10
6.0481786227
 20
1.4948106727
 30
0.0
 10
6.0205481089
 20
1.4939908055
 30
0.0
 10
5.9920356607
 20
1.4931706954
 30
0.0
 10
5.9629072691
 20
1.4923503981
 30
0.0
 10
5.9334350589
 20
1.4915300241
 30
0.0
 10
5.9038942253
 20
1.4907096259
 30
0.0
 10
5.8745606881
 20
1.4898892927
 30
0.0
 10
5.8457081785
 20
1.4890690841
 30
0.0
 10
5.8176058889
 20
1.4882490787
 30
0.0
 10
5.7905162006
 20
1.4874294014
 30
0.0
 10
5.7646919231
 20
1.4866101298
 30
0.0
 10
5.7403745109
 20
1.4857915042
 30
0.0
 10
5.7177911682
 20
1.4849737696
 30
0.0
 10
5.6971529122
 20
1.484157172
 30
0.0
 10
5.6812602375
 20
1.4834575828
 30
0.0
 10
5.669661893
 20
1.4828915426
 30
0.0
 10
5.6618476889
 20
1.4824811093
 30
0.0
 10
5.6546505757
 20
1.482071034
 30
0.0
 10
5.6480873932
 20
1.4816612936
 30
0.0
 10
5.6421733906
 20
1.4812520606
 30
0.0
 10
5.6369222502
 20
1.4808437034
 30
0.0
 10
5.6323463009
 20
1.4804363227
 30
0.0
 10
5.6289614069
 20
1.4800836606
 30
0.0
 10
5.6265998494
 20
1.4797966249
 30
0.0
 10
5.6250889232
 20
1.4795918948
 30
0.0
 10
5.6237536274
 20
1.4793875324
 30
0.0
 10
5.6225947972
 20
1.4791835944
 30
0.0
 10
5.6216127899
 20
1.4789804049
 30
0.0
 10
5.6208079271
 20
1.4787781177
 30
0.0
 10
5.6202501961
 20
1.4786008878
 30
0.0
 10
5.6198958477
 20
1.4784543368
 30
0.0
 10
5.6197491511
 20
1.4783804936
 30
0.0
 10
5.6196840034
 20
1.4783428829
 30
0.0
  0
SPLINE
  5
375
100
AcDbEntity
  8
ALL_FEATURES
100
AcDbSpline
 62
7
  6
CONTINUOUS
 70
0
 71
3
 72
67
 73
63
 74
0
 42
0.0000001
 43
0.0000001
 44
0.0000000001
 40
0.0
 40
0.0
 40
0.0
 40
0.0
 40
0.0001715239
 40
0.0003717634
 40
0.0006195598
 40
0.0009250303
 40
0.0012935317
 40
0.0017280621
 40
0.0022304087
 40
0.0028016969
 40
0.004153696
 40
0.0057877575
 40
0.0077055429
 40
0.0099073234
 40
0.0123923768
 40
0.0151596758
 40
0.018208016
 40
0.0215360774
 40
0.0290255236
 40
0.0376122161
 40
0.0472754977
 40
0.0579941901
 40
0.0697447999
 40
0.0824987289
 40
0.0962265844
 40
0.1108979412
 40
0.1429292324
 40
0.1782963117
 40
0.2166679477
 40
0.2576876381
 40
0.300971366
 40
0.3461154647
 40
0.3926997943
 40
0.4402894683
 40
0.4884409907
 40
0.5367040592
 40
0.5846286894
 40
0.6317678707
 40
0.6776822437
 40
0.7219441022
 40
0.7641397076
 40
0.8038764718
 40
0.8407822726
 40
0.8745132645
 40
0.9047563635
 40
0.918479923
 40
0.9312291429
 40
0.9429749561
 40
0.9536888592
 40
0.9633471043
 40
0.9719287238
 40
0.9794132405
 40
0.9857846511
 40
0.9885494912
 40
0.9910320953
 40
0.9932314428
 40
0.9951468176
 40
0.9967784849
 40
0.9981281144
 40
0.9991991852
 40
0.9996325874
 40
1.0
 40
1.0
 40
1.0
 40
1.0
 10
5.6193284001
 20
1.4712357932
 30
0.0
 10
5.6193284001
 20
1.4712709114
 30
0.0
 10
5.6193466969
 20
1.4713474994
 30
0.0
 10
5.6194206394
 20
1.4714528082
 30
0.0
 10
5.6195370278
 20
1.4715553763
 30
0.0
 10
5.6196964874
 20
1.4716572257
 30
0.0
 10
5.6198995976
 20
1.4717591017
 30
0.0
 10
5.6201468047
 20
1.4718611415
 30
0.0
 10
5.6204382929
 20
1.4719633778
 30
0.0
 10
5.6209134713
 20
1.4721081322
 30
0.0
 10
5.6216203986
 20
1.4722850893
 30
0.0
 10
5.6226037754
 20
1.4724884195
 30
0.0
 10
5.6237641491
 20
1.4726923212
 30
0.0
 10
5.6251009364
 20
1.4728967086
 30
0.0
 10
5.6266133798
 20
1.4731014243
 30
0.0
 10
5.6283005186
 20
1.4733063824
 30
0.0
 10
5.6301613764
 20
1.4735115347
 30
0.0
 10
5.6329859817
 20
1.4737966111
 30
0.0
 10
5.6369433606
 20
1.4741484714
 30
0.0
 10
5.6421975212
 20
1.4745569266
 30
0.0
 10
5.6481145518
 20
1.474966144
 30
0.0
 10
5.6546807088
 20
1.4753759132
 30
0.0
 10
5.6618807466
 20
1.4757860007
 30
0.0
 10
5.6696977812
 20
1.4761964193
 30
0.0
 10
5.6781135633
 20
1.4766070983
 30
0.0
 10
5.6904733672
 20
1.4771714999
 30
0.0
 10
5.7072620298
 20
1.4778701709
 30
0.0
 10
5.7289022124
 20
1.4786873734
 30
0.0
 10
5.7523838624
 20
1.4795056201
 30
0.0
 10
5.7774872693
 20
1.4803245779
 30
0.0
 10
5.8039779613
 20
1.4811440718
 30
0.0
 10
5.8316084764
 20
1.4819639391
 30
0.0
 10
5.8601209663
 20
1.48278405
 30
0.0
 10
5.8892494447
 20
1.4836043494
 30
0.0
 10
5.9187217633
 20
1.4844247259
 30
0.0
 10
5.9482626872
 20
1.4852451263
 30
0.0
 10
5.9775962642
 20
1.4860654601
 30
0.0
 10
6.006448778
 20
1.4868856685
 30
0.0
 10
6.0345510653
 20
1.4877056734
 30
0.0
 10
6.0616407608
 20
1.4885253507
 30
0.0
 10
6.0874650506
 20
1.4893446225
 30
0.0
 10
6.1117824697
 20
1.490163248
 30
0.0
 10
6.1343658158
 20
1.4909809834
 30
0.0
 10
6.1550040704
 20
1.4917975803
 30
0.0
 10
6.1708967459
 20
1.4924971704
 30
0.0
 10
6.1824950904
 20
1.4930632111
 30
0.0
 10
6.1903092949
 20
1.4934736455
 30
0.0
 10
6.1975064012
 20
1.4938837209
 30
0.0
 10
6.2040695626
 20
1.494293459
 30
0.0
 10
6.2099835286
 20
1.4947026905
 30
0.0
 10
6.2152346267
 20
1.4951110463
 30
0.0
 10
6.2198105424
 20
1.4955184244
 30
0.0
 10
6.2231954175
 20
1.4958710849
 30
0.0
 10
6.225556965
 20
1.4961581194
 30
0.0
 10
6.2270678864
 20
1.4963628489
 30
0.0
 10
6.2284031791
 20
1.4965672107
 30
0.0
 10
6.2295620073
 20
1.4967711482
 30
0.0
 10
6.2305440133
 20
1.4969743374
 30
0.0
 10
6.2313488751
 20
1.4971766243
 30
0.0
 10
6.2319066054
 20
1.497353854
 30
0.0
 10
6.2322609534
 20
1.4975004049
 30
0.0
 10
6.2324076498
 20
1.4975742481
 30
0.0
 10
6.2324727974
 20
1.4976118588
 30
0.0
  0
SPLINE
  5
376
100
AcDbEntity
  8
0
100
AcDbSpline
 62
7
  6
CONTINUOUS
 70
0
 71
3
 72
53
 73
49
 74
0
 42
0.0000001
 43
0.0000001
 44
0.0000000001
 40
0.0
 40
0.0
 40
0.0
 40
0.0
 40
0.0063434821
 40
0.0136696937
 40
0.0219622932
 40
0.0312044838
 40
0.0413775827
 40
0.0524603874
 40
0.0772685359
 40
0.105433696
 40
0.1367269691
 40
0.1708948667
 40
0.2076617778
 40
0.2467286313
 40
0.287780143
 40
0.3744889154
 40
0.4649806114
 40
0.5563246142
 40
0.6013900005
 40
0.6455625672
 40
0.6884830176
 40
0.7298045275
 40
0.769190362
 40
0.8063230446
 40
0.8408998715
 40
0.8726424175
 40
0.9012929111
 40
0.9266204751
 40
0.9379732818
 40
0.9484221139
 40
0.9579449168
 40
0.9665227015
 40
0.9741403949
 40
0.9807835238
 40
0.9837353249
 40
0.9864388886
 40
0.9888935772
 40
0.9910989081
 40
0.9930546111
 40
0.9947607553
 40
0.996217983
 40
0.996853779
 40
0.9974281301
 40
0.9979416506
 40
0.9983952809
 40
0.9987903977
 40
0.9991290987
 40
1.0
 40
1.0
 40
1.0
 40
1.0
 10
5.6574373717
 20
1.443290776
 30
0.0
 10
5.6585863762
 20
1.4434296037
 30
0.0
 10
5.6610656186
 20
1.4437020857
 30
0.0
 10
5.6650545765
 20
1.4440827356
 30
0.0
 10
5.6695744347
 20
1.4444643082
 30
0.0
 10
5.6746152932
 20
1.4448464053
 30
0.0
 10
5.6801665163
 20
1.4452288017
 30
0.0
 10
5.688554131
 20
1.4457591975
 30
0.0
 10
5.7002229162
 20
1.4464133007
 30
0.0
 10
5.715578495
 20
1.4471739722
 30
0.0
 10
5.7326435588
 20
1.447936015
 30
0.0
 10
5.7512793675
 20
1.4486991305
 30
0.0
 10
5.7713345253
 20
1.4494629391
 30
0.0
 10
5.7926464174
 20
1.4502273582
 30
0.0
 10
5.8230661202
 20
1.4512660234
 30
0.0
 10
5.8628653796
 20
1.4525464725
 30
0.0
 10
5.9118376671
 20
1.4540586494
 30
0.0
 10
5.953216148
 20
1.4553246028
 30
0.0
 10
5.9861471663
 20
1.4563497382
 30
0.0
 10
6.0102471693
 20
1.4571150161
 30
0.0
 10
6.0336637595
 20
1.4578801298
 30
0.0
 10
6.056206546
 20
1.4586449241
 30
0.0
 10
6.0776927396
 20
1.4594093974
 30
0.0
 10
6.0979475769
 20
1.4601732937
 30
0.0
 10
6.1168068753
 20
1.4609365552
 30
0.0
 10
6.1341172961
 20
1.4616987473
 30
0.0
 10
6.1497384621
 20
1.4624596871
 30
0.0
 10
6.1616401845
 20
1.463113548
 30
0.0
 10
6.1702225415
 20
1.4636434526
 30
0.0
 10
6.1759248706
 20
1.4640259157
 30
0.0
 10
6.1811196888
 20
1.4644080124
 30
0.0
 10
6.1857964801
 20
1.4647896491
 30
0.0
 10
6.189945984
 20
1.4651706193
 30
0.0
 10
6.193069364
 20
1.4654987735
 30
0.0
 10
6.19529744
 20
1.4657646343
 30
0.0
 10
6.1967647213
 20
1.4659559758
 30
0.0
 10
6.1980945771
 20
1.4661471325
 30
0.0
 10
6.1992864731
 20
1.4663380706
 30
0.0
 10
6.2003399244
 20
1.4665286819
 30
0.0
 10
6.2012544387
 20
1.4667189086
 30
0.0
 10
6.201928003
 20
1.4668834861
 30
0.0
 10
6.2023960159
 20
1.4670172057
 30
0.0
 10
6.2026956296
 20
1.4671127645
 30
0.0
 10
6.2029604018
 20
1.4672083892
 30
0.0
 10
6.2031895559
 20
1.4673034347
 30
0.0
 10
6.2033857455
 20
1.4673998688
 30
0.0
 10
6.2036309521
 20
1.4675446571
 30
0.0
 10
6.2038329103
 20
1.4677278609
 30
0.0
 10
6.2038329908
 20
1.4678867559
 30
0.0
  0
LINE
  5
377
100
AcDbEntity
  8
0
100
AcDbLine
 62
7
  6
CONTINUOUS
 10
6.2324724541
 20
1.4440393647
 11
6.2299999427
 21
1.443290776
  0
SPLINE
  5
378
100
AcDbEntity
  8
ALL_ASSEMBLY_MEMBERS
100
AcDbSpline
 62
7
  6
CONTINUOUS
 70
0
 71
3
 72
25
 73
21
 74
0
 42
0.0000001
 43
0.0000001
 44
0.0000000001
 40
0.0
 40
0.0
 40
0.0
 40
0.0
 40
0.0390828547
 40
0.1485563801
 40
0.224181994
 40
0.2660391608
 40
0.3100963237
 40
0.3559527407
 40
0.4031899082
 40
0.4513602011
 40
0.5000023256
 40
0.5486445229
 40
0.5968147563
 40
0.6440520019
 40
0.6899081025
 40
0.7339648863
 40
0.7758213201
 40
0.8514455938
 40
0.9609172783
 40
1.0
 40
1.0
 40
1.0
 40
1.0
 10
5.3012193914
 20
5.9274925888
 30
0.0
 10
5.3047948125
 20
5.9310783427
 30
0.0
 10
5.3185082135
 20
5.9445880015
 30
0.0
 10
5.3399109544
 20
5.9642501521
 30
0.0
 10
5.3624815484
 20
5.9831124882
 30
0.0
 10
5.3789514883
 20
5.996032183
 30
0.0
 10
5.392627553
 20
6.0062565256
 30
0.0
 10
5.407118408
 20
6.0165467284
 30
0.0
 10
5.4223148749
 20
6.0267534301
 30
0.0
 10
5.4380822593
 20
6.0367459783
 30
0.0
 10
5.4542758886
 20
6.046392787
 30
0.0
 10
5.470727091
 20
6.0555934517
 30
0.0
 10
5.4872646436
 20
6.064252043
 30
0.0
 10
5.5037020946
 20
6.0723092239
 30
0.0
 10
5.5198590732
 20
6.0797134358
 30
0.0
 10
5.5355514689
 20
6.0864450264
 30
0.0
 10
5.5549749603
 20
6.0942483675
 30
0.0
 10
5.5825950468
 20
6.1043637194
 30
0.0
 10
5.6103239367
 20
6.1130678095
 30
0.0
 10
5.6288800988
 20
6.118189064
 30
0.0
 10
5.6337731465
 20
6.1194925888
 30
0.0
  0
ENDSEC
  0
SECTION
  2
OBJECTS
  0
DICTIONARY
  5
C
100
AcDbDictionary
280
0
281
1
  3
ACAD_GROUP
350
D
  3
ACAD_MLINESTYLE
350
17
  3
ACAD_LAYOUT
350
1A
  3
ACAD_PLOTSETTINGS
350
19
  3
ACAD_PLOTSTYLENAME
350
E
  0
DICTIONARY
  5
D
102
{ACAD_REACTORS
330
C
102
}
100
AcDbDictionary
280
0
281
1
  0
ACDBDICTIONARYWDFLT
  5
E
102
{ACAD_REACTORS
330
C
102
}
100
AcDbDictionary
281
1
  3
Normal
350
F
100
AcDbDictionaryWithDefault
340
F
  0
DICTIONARY
  5
17
102
{ACAD_REACTORS
330
C
102
}
100
AcDbDictionary
280
0
281
1
  3
Standard
350
18
  0
DICTIONARY
  5
19
102
{ACAD_REACTORS
330
C
102
}
100
AcDbDictionary
281
1
  0
DICTIONARY
  5
1A
102
{ACAD_REACTORS
330
C
102
}
100
AcDbDictionary
281
1
  3
Model
350
379
  3
Layout1
350
37A
  0
ACDBPLACEHOLDER
  5
F
102
{ACAD_REACTORS
330
E
102
}
  0
MLINESTYLE
  5
18
102
{ACAD_REACTORS
330
17
102
}
100
AcDbMlineStyle
  2
STANDARD
 70
0
  3

 62
256
 51
90.0
 52
90.0
 71
2
 49
0.5
 62
256
  6
BYLAYER
 49
-0.5
 62
256
  6
BYLAYER
  0
LAYOUT
  5
379
102
{ACAD_REACTORS
330
1A
102
}
100
AcDbPlotSettings
  1

  2
none_device
  4
ANSI_A_(11.00_x_8.50_Inches)
  6

 40
0.0
 41
0.0
 42
0.0
 43
0.0
 44
279.4
 45
215.9
 46
0.0
 47
0.0
 48
0.0
 49
0.0
140
0.0
141
0.0
142
1.0
143
1.0
 70
1024
 72
0
 73
0
 74
0
  7

 75
0
147
1.0
148
0.0
149
0.0
100
AcDbLayout
  1
Model
 70
0
 71
0
 10
0.0
 20
0.0
 11
11.0
 21
8.5
 12
0.0
 22
0.0
 32
0.0
 14
0.0
 24
0.0
 34
0.0
 15
0.0
 25
0.0
 35
0.0
146
0.0
 13
0.0
 23
0.0
 33
0.0
 16
1.0
 26
0.0
 36
0.0
 17
0.0
 27
1.0
 37
0.0
 76
0
330
215
345
0
346
0
  0
LAYOUT
  5
37A
102
{ACAD_REACTORS
330
1A
102
}
100
AcDbPlotSettings
  1

  2
none_device
  4
ANSI_A_(11.00_x_8.50_Inches)
  6

 40
0.0
 41
0.0
 42
0.0
 43
0.0
 44
279.4
 45
215.9
 46
0.0
 47
0.0
 48
0.0
 49
0.0
140
0.0
141
0.0
142
1.0
143
1.0
 70
0
 72
0
 73
0
 74
0
  7

 75
0
147
1.0
148
0.0
149
0.0
100
AcDbLayout
  1
Layout1
 70
0
 71
1
 10
0.0
 20
0.0
 11
11.0
 21
8.5
 12
0.0
 22
0.0
 32
0.0
 14
0.0
 24
0.0
 34
0.0
 15
0.0
 25
0.0
 35
0.0
146
0.0
 13
0.0
 23
0.0
 33
0.0
 16
1.0
 26
0.0
 36
0.0
 17
0.0
 27
1.0
 37
0.0
 76
0
330
216
345
0
346
0
  0
ENDSEC
  0
EOF
