999
DXF file: 283-3_RIGHT.dxf
999
Pro/ENGINEER 2018400 by Parametric Technology Corporation
  0
SECTION
  2
HEADER
  9
$ACADVER
  1
AC1027
  9
$DWGCODEPAGE
  3
ANSI_1252
  9
$EXTMAX
 10
11.0
 20
8.5
 30
0.0
  9
$EXTMIN
 10
0.0
 20
0.0
 30
0.0
  9
$LIMMIN
 10
0.0
 20
0.0
  9
$LIMMAX
 10
11.0
 20
8.5
  9
$VIEWCTR
 10
5.5
 20
4.25
  9
$VIEWSIZE
 40
8.5
  9
$CLAYER
  8
0
  9
$LTSCALE
 40
0.605
  9
$CELTYPE
  6
BYLAYER
  9
$DIMSCALE
 40
1.0
  9
$DIMASZ
 40
0.1
  9
$DIMEXO
 40
0.0625
  9
$DIMDLI
 40
0.418
  9
$DIMEXE
 40
0.125
  9
$DIMCEN
 40
0.099
  9
$DIMLFAC
 40
1.0
  9
$DIMBLK
  1
_FILLED
  9
$DIMALT
 70
1
  9
$DIMALTD
 70
2
  9
$DIMALTTD
 70
2
  9
$DIMALTF
 40
25.4
  9
$DIMTXT
 40
0.08
  9
$DIMTOL
 70
1
  9
$DIMLIM
 70
0
  9
$DIMTFAC
 40
1.0
  9
$DIMTP
 40
0.001
  9
$DIMTM
 40
0.001
  9
$DIMGAP
 40
0.09
  9
$DIMDSEP
 70
46
  9
$AUNITS
 70
0
  9
$PDMODE
 70
3
  9
$PDSIZE
 40
0.3125
  9
$HANDSEED
  5
5E6
  9
$TILEMODE
 70
1
  9
$MEASUREMENT
 70
0
  9
$INSUNITS
 70
1
  0
ENDSEC
  0
SECTION
  2
CLASSES
  0
CLASS
  1
ACDBDICTIONARYWDFLT
  2
AcDbDictionaryWithDefault
  3
AutoCAD 2000
 90
0
 91
1
280
0
281
0
  0
CLASS
  1
ACDBPLACEHOLDER
  2
AcDbPlaceHolder
  3
AutoCAD 2000
 90
0
 91
1
280
0
281
0
  0
CLASS
  1
LAYOUT
  2
AcDbLayout
  3
AutoCAD 2000
 90
0
 91
0
280
0
281
0
  0
ENDSEC
  0
SECTION
  2
TABLES
  0
TABLE
  2
VPORT
  5
8
100
AcDbSymbolTable
 70
2
  0
VPORT
  5
1F4
100
AcDbSymbolTableRecord
100
AcDbViewportTableRecord
  2
*ACTIVE
 70
0
 10
0.0
 20
0.0
 11
1.0
 21
1.0
 12
5.5
 22
4.25
 13
0.0
 23
0.0
 14
1.0
 24
1.0
 15
0.0
 25
0.0
 16
0.0
 26
0.0
 36
1.0
 17
0.0
 27
0.0
 37
0.0
 40
8.5
 41
1.2941176471
 42
50.0
 43
0.0
 44
0.0
 50
0.0
 51
0.0
 71
0
 72
100
 73
1
 74
1
 75
0
 76
0
 77
0
 78
0
  0
ENDTAB
  0
TABLE
  2
LTYPE
  5
5
100
AcDbSymbolTable
 70
6
  0
LTYPE
  5
14
100
AcDbSymbolTableRecord
100
AcDbLinetypeTableRecord
  2
BYBLOCK
 70
0
  3

 72
65
 73
0
 40
0.0
  0
LTYPE
  5
15
100
AcDbSymbolTableRecord
100
AcDbLinetypeTableRecord
  2
BYLAYER
 70
0
  3

 72
65
 73
0
 40
0.0
  0
LTYPE
  5
16
100
AcDbSymbolTableRecord
100
AcDbLinetypeTableRecord
  2
CONTINUOUS
 70
64
  3
Solid line
 72
65
 73
0
 40
0.0
  0
LTYPE
  5
1F5
100
AcDbSymbolTableRecord
100
AcDbLinetypeTableRecord
  2
CENTER
 70
64
  3
____ _ ____ _ ____ _ ____ _ ____ _ ____ _ ____
 72
65
 73
4
 40
0.6
 49
0.375
 74
0
 49
-0.075
 74
0
 49
0.075
 74
0
 49
-0.075
 74
0
  0
LTYPE
  5
1F6
100
AcDbSymbolTableRecord
100
AcDbLinetypeTableRecord
  2
HIDDEN
 70
64
  3
- - - - - - - - - - - - - - - - - - - -
 72
65
 73
2
 40
0.2
 49
0.1
 74
0
 49
-0.1
 74
0
  0
LTYPE
  5
1F7
100
AcDbSymbolTableRecord
100
AcDbLinetypeTableRecord
  2
PHANTOM
 70
64
  3
_____ _ _ _____ _ _ _____ _ _ _____
 72
65
 73
6
 40
0.8
 49
0.45
 74
0
 49
-0.05
 74
0
 49
0.1
 74
0
 49
-0.05
 74
0
 49
0.1
 74
0
 49
-0.05
 74
0
  0
LTYPE
  5
1F8
100
AcDbSymbolTableRecord
100
AcDbLinetypeTableRecord
  2
DOT
 70
64
  3
. . . . . . . . . . . . . . . . . . . .
 72
65
 73
2
 40
0.2
 49
0.1
 74
0
 49
-0.1
 74
0
  0
LTYPE
  5
1F9
100
AcDbSymbolTableRecord
100
AcDbLinetypeTableRecord
  2
DASHED
 70
64
  3
- - - - - - - - - - - - - - - - - - - -
 72
65
 73
2
 40
0.2
 49
0.1
 74
0
 49
-0.1
 74
0
  0
ENDTAB
  0
TABLE
  2
LAYER
  5
2
100
AcDbSymbolTable
 70
36
  0
LAYER
  5
10
100
AcDbSymbolTableRecord
100
AcDbLayerTableRecord
  2
0
 70
0
 62
7
  6
CONTINUOUS
370
-3
390
F
  0
LAYER
  5
1FA
100
AcDbSymbolTableRecord
100
AcDbLayerTableRecord
  2
DEFAULT_1
 70
0
 62
7
  6
CENTER
370
-3
390
F
  0
LAYER
  5
1FB
100
AcDbSymbolTableRecord
100
AcDbLayerTableRecord
  2
DEFAULT_2
 70
0
 62
8
  6
HIDDEN
370
-3
390
F
  0
LAYER
  5
1FC
100
AcDbSymbolTableRecord
100
AcDbLayerTableRecord
  2
DEFAULT_3
 70
0
 62
7
  6
PHANTOM
370
-3
390
F
  0
LAYER
  5
1FD
100
AcDbSymbolTableRecord
100
AcDbLayerTableRecord
  2
_  SHELL
 70
0
 62
7
  6
CONTINUOUS
370
-3
390
F
  0
LAYER
  5
1FE
100
AcDbSymbolTableRecord
100
AcDbLayerTableRecord
  2
06___PRT_ALL_SURFS_15
 70
0
 62
7
  6
CONTINUOUS
370
-3
390
F
  0
LAYER
  5
1FF
100
AcDbSymbolTableRecord
100
AcDbLayerTableRecord
  2
11_9
 70
0
 62
7
  6
CONTINUOUS
370
-3
390
F
  0
LAYER
  5
200
100
AcDbSymbolTableRecord
100
AcDbLayerTableRecord
  2
1451A0A-0Z1-01
 70
0
 62
7
  6
CONTINUOUS
370
-3
390
F
  0
LAYER
  5
201
100
AcDbSymbolTableRecord
100
AcDbLayerTableRecord
  2
1451A0A-0Z1-02
 70
0
 62
7
  6
CONTINUOUS
370
-3
390
F
  0
LAYER
  5
202
100
AcDbSymbolTableRecord
100
AcDbLayerTableRecord
  2
1451A0A-0Z1-02_1
 70
0
 62
7
  6
CONTINUOUS
370
-3
390
F
  0
LAYER
  5
203
100
AcDbSymbolTableRecord
100
AcDbLayerTableRecord
  2
1451A0A-0Z1-03
 70
0
 62
7
  6
CONTINUOUS
370
-3
390
F
  0
LAYER
  5
204
100
AcDbSymbolTableRecord
100
AcDbLayerTableRecord
  2
1451A0A-0Z1-04
 70
0
 62
7
  6
CONTINUOUS
370
-3
390
F
  0
LAYER
  5
205
100
AcDbSymbolTableRecord
100
AcDbLayerTableRecord
  2
1451A0A-0Z1-05
 70
0
 62
7
  6
CONTINUOUS
370
-3
390
F
  0
LAYER
  5
206
100
AcDbSymbolTableRecord
100
AcDbLayerTableRecord
  2
1451A0A-0Z1-06
 70
0
 62
7
  6
CONTINUOUS
370
-3
390
F
  0
LAYER
  5
207
100
AcDbSymbolTableRecord
100
AcDbLayerTableRecord
  2
1451A0A-0Z1-07
 70
0
 62
7
  6
CONTINUOUS
370
-3
390
F
  0
LAYER
  5
208
100
AcDbSymbolTableRecord
100
AcDbLayerTableRecord
  2
22_4
 70
0
 62
7
  6
CONTINUOUS
370
-3
390
F
  0
LAYER
  5
209
100
AcDbSymbolTableRecord
100
AcDbLayerTableRecord
  2
22_5
 70
0
 62
7
  6
CONTINUOUS
370
-3
390
F
  0
LAYER
  5
20A
100
AcDbSymbolTableRecord
100
AcDbLayerTableRecord
  2
264X18
 70
0
 62
7
  6
CONTINUOUS
370
-3
390
F
  0
LAYER
  5
20B
100
AcDbSymbolTableRecord
100
AcDbLayerTableRecord
  2
30X15
 70
0
 62
7
  6
CONTINUOUS
370
-3
390
F
  0
LAYER
  5
20C
100
AcDbSymbolTableRecord
100
AcDbLayerTableRecord
  2
315X18
 70
0
 62
7
  6
CONTINUOUS
370
-3
390
F
  0
LAYER
  5
20D
100
AcDbSymbolTableRecord
100
AcDbLayerTableRecord
  2
59X178
 70
0
 62
7
  6
CONTINUOUS
370
-3
390
F
  0
LAYER
  5
20E
100
AcDbSymbolTableRecord
100
AcDbLayerTableRecord
  2
6X15
 70
0
 62
7
  6
CONTINUOUS
370
-3
390
F
  0
LAYER
  5
20F
100
AcDbSymbolTableRecord
100
AcDbLayerTableRecord
  2
925X178
 70
0
 62
7
  6
CONTINUOUS
370
-3
390
F
  0
LAYER
  5
210
100
AcDbSymbolTableRecord
100
AcDbLayerTableRecord
  2
ALL_ASSEMBLY_MEMBERS
 70
0
 62
7
  6
CONTINUOUS
370
-3
390
F
  0
LAYER
  5
211
100
AcDbSymbolTableRecord
100
AcDbLayerTableRecord
  2
ALL_FEATURES
 70
0
 62
7
  6
CONTINUOUS
370
-3
390
F
  0
LAYER
  5
212
100
AcDbSymbolTableRecord
100
AcDbLayerTableRecord
  2
AXES_FEATURES
 70
0
 62
7
  6
CONTINUOUS
370
-3
390
F
  0
LAYER
  5
213
100
AcDbSymbolTableRecord
100
AcDbLayerTableRecord
  2
COLOR14
 70
0
 62
7
  6
CONTINUOUS
370
-3
390
F
  0
LAYER
  5
214
100
AcDbSymbolTableRecord
100
AcDbLayerTableRecord
  2
COLOR33
 70
0
 62
7
  6
CONTINUOUS
370
-3
390
F
  0
LAYER
  5
215
100
AcDbSymbolTableRecord
100
AcDbLayerTableRecord
  2
COLOR9
 70
0
 62
7
  6
CONTINUOUS
370
-3
390
F
  0
LAYER
  5
216
100
AcDbSymbolTableRecord
100
AcDbLayerTableRecord
  2
CONSTR_CURVES
 70
0
 62
7
  6
CONTINUOUS
370
-3
390
F
  0
LAYER
  5
217
100
AcDbSymbolTableRecord
100
AcDbLayerTableRecord
  2
COSMETIC
 70
0
 62
7
  6
CONTINUOUS
370
-3
390
F
  0
LAYER
  5
218
100
AcDbSymbolTableRecord
100
AcDbLayerTableRecord
  2
CURVES
 70
0
 62
7
  6
CONTINUOUS
370
-3
390
F
  0
LAYER
  5
219
100
AcDbSymbolTableRecord
100
AcDbLayerTableRecord
  2
CUT_FEATURES
 70
0
 62
7
  6
CONTINUOUS
370
-3
390
F
  0
LAYER
  5
21A
100
AcDbSymbolTableRecord
100
AcDbLayerTableRecord
  2
DATUM_PLANES
 70
0
 62
7
  6
CONTINUOUS
370
-3
390
F
  0
LAYER
  5
21B
100
AcDbSymbolTableRecord
100
AcDbLayerTableRecord
  2
DEFAULT_COORDINATE_SYSTEM
 70
0
 62
7
  6
CONTINUOUS
370
-3
390
F
  0
LAYER
  5
21C
100
AcDbSymbolTableRecord
100
AcDbLayerTableRecord
  2
DEFAULT_DATUM_AXES
 70
0
 62
7
  6
CONTINUOUS
370
-3
390
F
  0
LAYER
  5
21D
100
AcDbSymbolTableRecord
100
AcDbLayerTableRecord
  2
DEFAULT_DATUM_CURVES
 70
0
 62
7
  6
CONTINUOUS
370
-3
390
F
  0
LAYER
  5
21E
100
AcDbSymbolTableRecord
100
AcDbLayerTableRecord
  2
DEFAULT_DATUM_PLANES
 70
0
 62
7
  6
CONTINUOUS
370
-3
390
F
  0
LAYER
  5
21F
100
AcDbSymbolTableRecord
100
AcDbLayerTableRecord
  2
DEFAULT_SURFACES
 70
0
 62
7
  6
CONTINUOUS
370
-3
390
F
  0
LAYER
  5
220
100
AcDbSymbolTableRecord
100
AcDbLayerTableRecord
  2
DIMENSIONS
 70
0
 62
7
  6
CONTINUOUS
370
-3
390
F
  0
LAYER
  5
221
100
AcDbSymbolTableRecord
100
AcDbLayerTableRecord
  2
DTM_PLANES
 70
0
 62
7
  6
CONTINUOUS
370
-3
390
F
  0
LAYER
  5
222
100
AcDbSymbolTableRecord
100
AcDbLayerTableRecord
  2
EXT_SURFACE
 70
0
 62
7
  6
CONTINUOUS
370
-3
390
F
  0
LAYER
  5
223
100
AcDbSymbolTableRecord
100
AcDbLayerTableRecord
  2
GTOL_DTMS
 70
0
 62
7
  6
CONTINUOUS
370
-3
390
F
  0
LAYER
  5
224
100
AcDbSymbolTableRecord
100
AcDbLayerTableRecord
  2
HIDE
 70
0
 62
7
  6
CONTINUOUS
370
-3
390
F
  0
LAYER
  5
225
100
AcDbSymbolTableRecord
100
AcDbLayerTableRecord
  2
HIDE_10
 70
0
 62
7
  6
CONTINUOUS
370
-3
390
F
  0
LAYER
  5
226
100
AcDbSymbolTableRecord
100
AcDbLayerTableRecord
  2
HIDE_7
 70
0
 62
7
  6
CONTINUOUS
370
-3
390
F
  0
LAYER
  5
227
100
AcDbSymbolTableRecord
100
AcDbLayerTableRecord
  2
HIDE_8
 70
0
 62
7
  6
CONTINUOUS
370
-3
390
F
  0
LAYER
  5
228
100
AcDbSymbolTableRecord
100
AcDbLayerTableRecord
  2
HIDE_9
 70
0
 62
7
  6
CONTINUOUS
370
-3
390
F
  0
LAYER
  5
229
100
AcDbSymbolTableRecord
100
AcDbLayerTableRecord
  2
IMPORT
 70
0
 62
7
  6
CONTINUOUS
370
-3
390
F
  0
LAYER
  5
22A
100
AcDbSymbolTableRecord
100
AcDbLayerTableRecord
  2
INTFCLR_33883
 70
0
 62
7
  6
CONTINUOUS
370
-3
390
F
  0
LAYER
  5
22B
100
AcDbSymbolTableRecord
100
AcDbLayerTableRecord
  2
INTFCLR_33883_1
 70
0
 62
7
  6
CONTINUOUS
370
-3
390
F
  0
LAYER
  5
22C
100
AcDbSymbolTableRecord
100
AcDbLayerTableRecord
  2
INTFCLR_33883_2
 70
0
 62
7
  6
CONTINUOUS
370
-3
390
F
  0
LAYER
  5
22D
100
AcDbSymbolTableRecord
100
AcDbLayerTableRecord
  2
INTFCLR_33883_3
 70
0
 62
7
  6
CONTINUOUS
370
-3
390
F
  0
LAYER
  5
22E
100
AcDbSymbolTableRecord
100
AcDbLayerTableRecord
  2
INTFCLR_33883_4
 70
0
 62
7
  6
CONTINUOUS
370
-3
390
F
  0
LAYER
  5
22F
100
AcDbSymbolTableRecord
100
AcDbLayerTableRecord
  2
INTFCLR_33883_5
 70
0
 62
7
  6
CONTINUOUS
370
-3
390
F
  0
LAYER
  5
230
100
AcDbSymbolTableRecord
100
AcDbLayerTableRecord
  2
INTF_BLANK
 70
0
 62
7
  6
CONTINUOUS
370
-3
390
F
  0
LAYER
  5
231
100
AcDbSymbolTableRecord
100
AcDbLayerTableRecord
  2
LOGO_CURVES
 70
0
 62
7
  6
CONTINUOUS
370
-3
390
F
  0
LAYER
  5
232
100
AcDbSymbolTableRecord
100
AcDbLayerTableRecord
  2
NONE
 70
0
 62
7
  6
CONTINUOUS
370
-3
390
F
  0
LAYER
  5
233
100
AcDbSymbolTableRecord
100
AcDbLayerTableRecord
  2
PROTRUSION_FEATURES
 70
0
 62
7
  6
CONTINUOUS
370
-3
390
F
  0
LAYER
  5
234
100
AcDbSymbolTableRecord
100
AcDbLayerTableRecord
  2
S01012-09A
 70
0
 62
7
  6
CONTINUOUS
370
-3
390
F
  0
LAYER
  5
235
100
AcDbSymbolTableRecord
100
AcDbLayerTableRecord
  2
S01012-10A
 70
0
 62
7
  6
CONTINUOUS
370
-3
390
F
  0
LAYER
  5
236
100
AcDbSymbolTableRecord
100
AcDbLayerTableRecord
  2
S02015-05
 70
0
 62
7
  6
CONTINUOUS
370
-3
390
F
  0
LAYER
  5
237
100
AcDbSymbolTableRecord
100
AcDbLayerTableRecord
  2
S02015-16B
 70
0
 62
7
  6
CONTINUOUS
370
-3
390
F
  0
LAYER
  5
238
100
AcDbSymbolTableRecord
100
AcDbLayerTableRecord
  2
S02015-17
 70
0
 62
7
  6
CONTINUOUS
370
-3
390
F
  0
LAYER
  5
239
100
AcDbSymbolTableRecord
100
AcDbLayerTableRecord
  2
S02015-18
 70
0
 62
7
  6
CONTINUOUS
370
-3
390
F
  0
LAYER
  5
23A
100
AcDbSymbolTableRecord
100
AcDbLayerTableRecord
  2
S02015-20A
 70
0
 62
7
  6
CONTINUOUS
370
-3
390
F
  0
LAYER
  5
23B
100
AcDbSymbolTableRecord
100
AcDbLayerTableRecord
  2
S02015-31A
 70
0
 62
7
  6
CONTINUOUS
370
-3
390
F
  0
LAYER
  5
23C
100
AcDbSymbolTableRecord
100
AcDbLayerTableRecord
  2
S02015-32A
 70
0
 62
7
  6
CONTINUOUS
370
-3
390
F
  0
LAYER
  5
23D
100
AcDbSymbolTableRecord
100
AcDbLayerTableRecord
  2
S02015-32A_1
 70
0
 62
7
  6
CONTINUOUS
370
-3
390
F
  0
LAYER
  5
23E
100
AcDbSymbolTableRecord
100
AcDbLayerTableRecord
  2
S02015-35
 70
0
 62
7
  6
CONTINUOUS
370
-3
390
F
  0
LAYER
  5
23F
100
AcDbSymbolTableRecord
100
AcDbLayerTableRecord
  2
S15025-04A
 70
0
 62
7
  6
CONTINUOUS
370
-3
390
F
  0
LAYER
  5
240
100
AcDbSymbolTableRecord
100
AcDbLayerTableRecord
  2
START_DTMS
 70
0
 62
7
  6
CONTINUOUS
370
-3
390
F
  0
LAYER
  5
241
100
AcDbSymbolTableRecord
100
AcDbLayerTableRecord
  2
SURFACE
 70
0
 62
7
  6
CONTINUOUS
370
-3
390
F
  0
LAYER
  5
242
100
AcDbSymbolTableRecord
100
AcDbLayerTableRecord
  2
SURFS
 70
0
 62
7
  6
CONTINUOUS
370
-3
390
F
  0
LAYER
  5
243
100
AcDbSymbolTableRecord
100
AcDbLayerTableRecord
  2
WETTED_SURFACE
 70
0
 62
7
  6
CONTINUOUS
370
-3
390
F
  0
LAYER
  5
244
100
AcDbSymbolTableRecord
100
AcDbLayerTableRecord
  2
WETTED_SURFACES
 70
0
 62
7
  6
CONTINUOUS
370
-3
390
F
  0
LAYER
  5
245
100
AcDbSymbolTableRecord
100
AcDbLayerTableRecord
  2
___SHELL
 70
0
 62
7
  6
CONTINUOUS
370
-3
390
F
  0
ENDTAB
  0
TABLE
  2
STYLE
  5
3
100
AcDbSymbolTable
 70
1
  0
STYLE
  5
11
100
AcDbSymbolTableRecord
100
AcDbTextStyleTableRecord
  2
STANDARD
 70
0
 40
0.0
 41
0.8
 50
0.0
 71
0
 42
0.2
  3
txt
  4

  0
STYLE
  5
246
100
AcDbSymbolTableRecord
100
AcDbTextStyleTableRecord
  2
TEXTSTYLE_1
 70
0
 40
0.0
 41
0.8
 50
0.0
 71
0
 42
0.2
  3
gdt
  4

  0
ENDTAB
  0
TABLE
  2
VIEW
  5
6
100
AcDbSymbolTable
 70
0
  0
ENDTAB
  0
TABLE
  2
UCS
  5
7
100
AcDbSymbolTable
 70
0
  0
ENDTAB
  0
TABLE
  2
APPID
  5
9
100
AcDbSymbolTable
 70
1
  0
APPID
  5
247
100
AcDbSymbolTableRecord
100
AcDbRegAppTableRecord
  2
ACAD
 70
0
  0
ENDTAB
  0
TABLE
  2
BLOCK_RECORD
  5
1
100
AcDbSymbolTable
 70
0
  0
BLOCK_RECORD
  5
248
100
AcDbSymbolTableRecord
100
AcDbBlockTableRecord
  2
*Model_Space
  0
BLOCK_RECORD
  5
249
100
AcDbSymbolTableRecord
100
AcDbBlockTableRecord
  2
*Paper_Space
  0
BLOCK_RECORD
  5
24A
100
AcDbSymbolTableRecord
100
AcDbBlockTableRecord
  2
_FILLED
  0
ENDTAB
  0
TABLE
  2
DIMSTYLE
  5
A
100
AcDbSymbolTable
 70
1
100
AcDbDimStyleTable
 71
0
  0
DIMSTYLE
105
24B
100
AcDbSymbolTableRecord
100
AcDbDimStyleTableRecord
  2
STANDARD
 70
0
  3

  4

 40
1.0
 41
0.1
 42
0.0625
 43
0.38
 44
0.125
 45
0.0
 46
0.0
 47
0.001
 48
0.001
140
0.08
141
0.09
142
0.0
143
25.4
144
1.0
145
0.0
146
1.0
147
0.09
 71
1.0
 72
0.0
 73
1
 74
1
 75
0
 76
0
 77
0
 78
4
 79
1
170
1
171
2
172
0
173
0
174
0
175
0
176
0
177
0
178
0
270
2
179
3
271
3
272
3
273
2
274
2
275
0
280
0
281
0
282
0
283
1
284
4
285
0
286
0
287
3
288
0
340
11
278
46
341
24A
342
24A
343
24A
344
24A
  0
ENDTAB
  0
ENDSEC
  0
SECTION
  2
BLOCKS
  0
BLOCK
  5
20
100
AcDbEntity
  8
0
100
AcDbBlockBegin
  2
*Model_Space
 70
0
 10
0.0
 20
0.0
 30
0.0
  3
*Model_Space
  1

  0
ENDBLK
  5
21
100
AcDbEntity
  8
0
100
AcDbBlockEnd
  0
BLOCK
  5
1C
100
AcDbEntity
  8
0
100
AcDbBlockBegin
  2
*Paper_Space
 70
0
 10
0.0
 20
0.0
 30
0.0
  3
*Paper_Space
  1

  0
ENDBLK
  5
1D
100
AcDbEntity
  8
0
100
AcDbBlockEnd
  0
BLOCK
  5
24C
100
AcDbEntity
  8
0
100
AcDbBlockBegin
  2
_FILLED
 70
64
 10
0.0
 20
0.0
  3
_FILLED
  1

  0
SOLID
  5
24D
100
AcDbEntity
  8
0
  6
BYBLOCK
 62
0
100
AcDbTrace
 10
0.0
 20
0.0
 11
-1.0
 21
0.2
 12
-1.0
 22
-0.2
 13
-1.0
 23
-0.2
  0
ENDBLK
  5
24E
100
AcDbEntity
  8
0
  6
BYBLOCK
 62
0
100
AcDbBlockEnd
  0
ENDSEC
  0
SECTION
  2
ENTITIES
  0
MTEXT
  5
24F
100
AcDbEntity
  8
0
100
AcDbMText
 62
2
  6
CONTINUOUS
  7
STANDARD
 71
3
 72
1
 10
5.2241990868
 20
0.5353958494
 30
0.0
 11
1.0
 21
0.0
 31
0.0
 73
2
 44
0.9
  1
SCALE  .750
 40
0.08
 41
0.704
  0
LINE
  5
250
100
AcDbEntity
  8
0
100
AcDbLine
 62
7
  6
CONTINUOUS
 10
0.0
 20
0.0
 11
0.0
 21
8.5
  0
LINE
  5
251
100
AcDbEntity
  8
0
100
AcDbLine
 62
7
  6
CONTINUOUS
 10
0.0
 20
0.0
 11
11.0
 21
0.0
  0
LINE
  5
252
100
AcDbEntity
  8
0
100
AcDbLine
 62
7
  6
CONTINUOUS
 10
0.0
 20
8.5
 11
11.0
 21
8.5
  0
LINE
  5
253
100
AcDbEntity
  8
0
100
AcDbLine
 62
7
  6
CONTINUOUS
 10
11.0
 20
0.0
 11
11.0
 21
8.5
  0
LINE
  5
254
100
AcDbEntity
  8
ALL_FEATURES
100
AcDbLine
 62
7
  6
CONTINUOUS
 10
5.8381976493
 20
1.0132219364
 11
5.8092752872
 21
1.0132219364
  0
LINE
  5
255
100
AcDbEntity
  8
ALL_FEATURES
100
AcDbLine
 62
7
  6
CONTINUOUS
 10
5.7948851493
 20
1.0132219364
 11
5.7108851493
 21
1.0132219364
  0
LINE
  5
256
100
AcDbEntity
  8
ALL_FEATURES
100
AcDbLine
 62
7
  6
CONTINUOUS
 10
5.6675726493
 20
1.0132219364
 11
5.6964950113
 21
1.0132219364
  0
LINE
  5
257
100
AcDbEntity
  8
ALL_FEATURES
100
AcDbLine
 62
7
  6
CONTINUOUS
 10
5.8381976493
 20
1.0207219364
 11
5.8271429613
 21
1.0207219364
  0
LINE
  5
258
100
AcDbEntity
  8
ALL_FEATURES
100
AcDbLine
 62
7
  6
CONTINUOUS
 10
5.6675726493
 20
1.0207219364
 11
5.6786273372
 21
1.0207219364
  0
LINE
  5
259
100
AcDbEntity
  8
ALL_FEATURES
100
AcDbLine
 62
7
  6
CONTINUOUS
 10
5.7108851493
 20
1.0207219364
 11
5.7948851493
 21
1.0207219364
  0
LINE
  5
25A
100
AcDbEntity
  8
0
100
AcDbLine
 62
7
  6
CONTINUOUS
 10
5.4686352019
 20
1.0282219364
 11
6.0306398892
 21
1.0282219364
  0
LINE
  5
25B
100
AcDbEntity
  8
0
100
AcDbLine
 62
7
  6
CONTINUOUS
 10
6.050600916
 20
1.0507219364
 11
6.0596351493
 21
1.0507219364
  0
LINE
  5
25C
100
AcDbEntity
  8
0
100
AcDbLine
 62
7
  6
CONTINUOUS
 10
3.4067271243
 20
7.8127855208
 11
3.4006115582
 21
7.8066699547
  0
LINE
  5
25D
100
AcDbEntity
  8
0
100
AcDbLine
 62
7
  6
CONTINUOUS
 10
3.4067267198
 20
7.7715339021
 11
3.4006115582
 21
7.7654187405
  0
LINE
  5
25E
100
AcDbEntity
  8
0
100
AcDbLine
 62
7
  6
CONTINUOUS
 10
3.3755666299
 20
7.6340215686
 11
3.3694511485
 21
7.6279060872
  0
LINE
  5
25F
100
AcDbEntity
  8
0
100
AcDbLine
 62
7
  6
CONTINUOUS
 10
3.4067266597
 20
7.6505914013
 11
3.4006115582
 21
7.6444762999
  0
LINE
  5
260
100
AcDbEntity
  8
0
100
AcDbLine
 62
7
  6
CONTINUOUS
 10
3.3755665285
 20
7.5630978223
 11
3.3694511485
 21
7.5569824423
  0
LINE
  5
261
100
AcDbEntity
  8
0
100
AcDbLine
 62
7
  6
CONTINUOUS
 10
5.4571407539
 20
1.2457219364
 11
6.0363056559
 21
1.2457219364
  0
LINE
  5
262
100
AcDbEntity
  8
0
100
AcDbLine
 62
7
  6
CONTINUOUS
 10
6.1991351493
 20
1.3019719364
 11
5.3066351493
 21
1.3019719364
  0
LINE
  5
263
100
AcDbEntity
  8
0
100
AcDbLine
 62
7
  6
CONTINUOUS
 10
6.2291351493
 20
1.3319719364
 11
5.2766351493
 21
1.3319719364
  0
LINE
  5
264
100
AcDbEntity
  8
0
100
AcDbLine
 62
7
  6
CONTINUOUS
 10
6.2291351493
 20
1.3844719364
 11
5.2766351493
 21
1.3844719364
  0
LINE
  5
265
100
AcDbEntity
  8
0
100
AcDbLine
 62
7
  6
CONTINUOUS
 10
6.2008323789
 20
1.4144238881
 11
5.3049379197
 21
1.4144238881
  0
LINE
  5
266
100
AcDbEntity
  8
0
100
AcDbLine
 62
7
  6
CONTINUOUS
 10
3.4067266763
 20
7.4581997783
 11
3.4006115582
 21
7.4520846603
  0
LINE
  5
267
100
AcDbEntity
  8
0
100
AcDbLine
 62
7
  6
CONTINUOUS
 10
3.3755665285
 20
7.4260838617
 11
3.3694511485
 21
7.4199684817
  0
LINE
  5
268
100
AcDbEntity
  8
0
100
AcDbLine
 62
7
  6
CONTINUOUS
 10
3.2899688698
 20
7.2739281194
 11
3.2803941485
 21
7.2643533981
  0
LINE
  5
269
100
AcDbEntity
  8
0
100
AcDbLine
 62
7
  6
CONTINUOUS
 10
3.2899688698
 20
7.249461051
 11
3.2803941485
 21
7.2398863297
  0
LINE
  5
26A
100
AcDbEntity
  8
0
100
AcDbLine
 62
7
  6
CONTINUOUS
 10
3.3755665285
 20
7.2323168603
 11
3.3694511485
 21
7.2262014803
  0
LINE
  5
26B
100
AcDbEntity
  8
0
100
AcDbLine
 62
7
  6
CONTINUOUS
 10
3.4067269378
 20
7.2074703737
 11
3.4006115776
 21
7.2013550135
  0
LINE
  5
26C
100
AcDbEntity
  8
0
100
AcDbLine
 62
7
  6
CONTINUOUS
 10
3.2093668848
 20
6.9889254807
 11
3.2032516965
 21
6.9828102924
  0
LINE
  5
26D
100
AcDbEntity
  8
0
100
AcDbLine
 62
7
  6
CONTINUOUS
 10
3.2818796527
 20
7.0622378114
 11
3.2234057842
 21
7.0409550637
  0
LINE
  5
26E
100
AcDbEntity
  8
0
100
AcDbLine
 62
7
  6
CONTINUOUS
 10
6.1585546694
 20
1.4633328983
 11
5.3472156291
 21
1.4633328983
  0
LINE
  5
26F
100
AcDbEntity
  8
0
100
AcDbLine
 62
7
  6
CONTINUOUS
 10
3.2093668836
 20
6.9196129443
 11
3.2032515016
 21
6.9134975623
  0
LINE
  5
270
100
AcDbEntity
  8
0
100
AcDbLine
 62
7
  6
CONTINUOUS
 10
3.2899688698
 20
6.93971347
 11
3.2803941485
 21
6.9301387487
  0
LINE
  5
271
100
AcDbEntity
  8
0
100
AcDbLine
 62
7
  6
CONTINUOUS
 10
3.3755665285
 20
6.9950017191
 11
3.3694511485
 21
6.9888863392
  0
LINE
  5
272
100
AcDbEntity
  8
0
100
AcDbLine
 62
7
  6
CONTINUOUS
 10
3.4067266763
 20
6.9154892317
 11
3.4006115582
 21
6.9093741137
  0
LINE
  5
273
100
AcDbEntity
  8
0
100
AcDbLine
 62
7
  6
CONTINUOUS
 10
3.2899688698
 20
6.7879114202
 11
3.2803941485
 21
6.7783366989
  0
LINE
  5
274
100
AcDbEntity
  8
0
100
AcDbLine
 62
7
  6
CONTINUOUS
 10
3.2093668848
 20
6.6876886826
 11
3.2032515016
 21
6.6815732993
  0
LINE
  5
275
100
AcDbEntity
  8
0
100
AcDbLine
 62
7
  6
CONTINUOUS
 10
5.4464857724
 20
1.0726291854
 11
5.4480126628
 21
1.071746621
  0
LINE
  5
276
100
AcDbEntity
  8
0
100
AcDbLine
 62
7
  6
CONTINUOUS
 10
5.4480126628
 20
1.071746621
 11
5.4750332216
 21
1.056126515
  0
LINE
  5
277
100
AcDbEntity
  8
0
100
AcDbLine
 62
7
  6
CONTINUOUS
 10
3.3755665285
 20
6.7303110729
 11
3.3694511485
 21
6.7241956929
  0
LINE
  5
278
100
AcDbEntity
  8
0
100
AcDbLine
 62
7
  6
CONTINUOUS
 10
3.2899688698
 20
6.6246503862
 11
3.2803941485
 21
6.6150756649
  0
LINE
  5
279
100
AcDbEntity
  8
0
100
AcDbLine
 62
7
  6
CONTINUOUS
 10
3.2093668836
 20
6.4290107785
 11
3.2032515016
 21
6.4228953964
  0
LINE
  5
27A
100
AcDbEntity
  8
0
100
AcDbLine
 62
7
  6
CONTINUOUS
 10
3.4067266763
 20
6.6021551515
 11
3.4006115582
 21
6.5960400335
  0
LINE
  5
27B
100
AcDbEntity
  8
0
100
AcDbLine
 62
7
  6
CONTINUOUS
 10
3.3755665285
 20
6.4562831516
 11
3.3694511485
 21
6.4501677716
  0
LINE
  5
27C
100
AcDbEntity
  8
0
100
AcDbLine
 62
7
  6
CONTINUOUS
 10
5.4464857724
 20
1.1258791854
 11
5.4480126628
 21
1.124996621
  0
LINE
  5
27D
100
AcDbEntity
  8
0
100
AcDbLine
 62
7
  6
CONTINUOUS
 10
5.4480126628
 20
1.124996621
 11
5.4750332216
 21
1.109376515
  0
LINE
  5
27E
100
AcDbEntity
  8
0
100
AcDbLine
 62
7
  6
CONTINUOUS
 10
5.4464857724
 20
1.1791291854
 11
5.4480126628
 21
1.178246621
  0
LINE
  5
27F
100
AcDbEntity
  8
0
100
AcDbLine
 62
7
  6
CONTINUOUS
 10
5.4480126628
 20
1.178246621
 11
5.4750332216
 21
1.162626515
  0
LINE
  5
280
100
AcDbEntity
  8
0
100
AcDbLine
 62
7
  6
CONTINUOUS
 10
5.4464857724
 20
1.2323791854
 11
5.4480126628
 21
1.231496621
  0
LINE
  5
281
100
AcDbEntity
  8
0
100
AcDbLine
 62
7
  6
CONTINUOUS
 10
5.4480126628
 20
1.231496621
 11
5.4750332216
 21
1.215876515
  0
LINE
  5
282
100
AcDbEntity
  8
0
100
AcDbLine
 62
7
  6
CONTINUOUS
 10
6.0592845261
 20
1.0531891453
 11
6.0579802907
 21
1.0539430113
  0
LINE
  5
283
100
AcDbEntity
  8
0
100
AcDbLine
 62
7
  6
CONTINUOUS
 10
6.0579802907
 20
1.0539430113
 11
6.0307370769
 21
1.069691816
  0
LWPOLYLINE
  5
284
100
AcDbEntity
  8
0
100
AcDbPolyline
 62
7
  6
CONTINUOUS
 90
12
 70
0
 10
3.3180955392
 20
6.9447294995
 10
3.3182689665
 20
6.9451467709
 10
3.3183687327
 20
6.9453571633
 10
3.31832868
 20
6.9452935452
 10
3.3181500652
 20
6.9450407759
 10
3.3178193353
 20
6.9446500134
 10
3.317260042
 20
6.9441160016
 10
3.3164069568
 20
6.9434938649
 10
3.3153081624
 20
6.9429263999
 10
3.3139595414
 20
6.9424993472
 10
3.312403428
 20
6.9423103235
 10
3.3122078944
 20
6.9423081629
  0
LWPOLYLINE
  5
285
100
AcDbEntity
  8
0
100
AcDbPolyline
 62
7
  6
CONTINUOUS
 90
11
 70
0
 10
3.3161339339
 20
6.7928074742
 10
3.3163165696
 20
6.7932411873
 10
3.3164009463
 20
6.7934141269
 10
3.3163326014
 20
6.7933063997
 10
3.3161205958
 20
6.7930220461
 10
3.3157604935
 20
6.7926230188
 10
3.31517611
 20
6.792103392
 10
3.3143117055
 20
6.7915205138
 10
3.3132142125
 20
6.7910043119
 10
3.3118681317
 20
6.7906326696
 10
3.3104486225
 20
6.7905048095
  0
LWPOLYLINE
  5
286
100
AcDbEntity
  8
0
100
AcDbPolyline
 62
7
  6
CONTINUOUS
 90
10
 70
0
 10
3.3143256193
 20
6.629772833
 10
3.3144904023
 20
6.6301635683
 10
3.3143856929
 20
6.6300066372
 10
3.3141210012
 20
6.6296673325
 10
3.3136207662
 20
6.6291515518
 10
3.31281053
 20
6.6285174137
 10
3.3117266539
 20
6.6279187366
 10
3.3103484475
 20
6.6274537384
 10
3.3087304533
 20
6.6272471169
 10
3.3085471075
 20
6.6272451901
  0
LWPOLYLINE
  5
287
100
AcDbEntity
  8
0
100
AcDbPolyline
 62
7
  6
CONTINUOUS
 90
8
 70
0
 10
3.3085225871
 20
6.0413495623
 10
3.3079394913
 20
6.0406381496
 10
3.3071962699
 20
6.0399261423
 10
3.3062033458
 20
6.0392048585
 10
3.3049474551
 20
6.0385643657
 10
3.3035581338
 20
6.0381307972
 10
3.3021293907
 20
6.0379394062
 10
3.3017158835
 20
6.0379296133
  0
LINE
  5
288
100
AcDbEntity
  8
0
100
AcDbLine
 62
7
  6
CONTINUOUS
 10
3.4067266763
 20
6.2888210713
 11
3.4006115582
 21
6.2827059533
  0
LINE
  5
289
100
AcDbEntity
  8
0
100
AcDbLine
 62
7
  6
CONTINUOUS
 10
3.2899688697
 20
6.1450192734
 11
3.2803941488
 21
6.1354445525
  0
LINE
  5
28A
100
AcDbEntity
  8
0
100
AcDbLine
 62
7
  6
CONTINUOUS
 10
3.3755665285
 20
6.1915925054
 11
3.3694511485
 21
6.1854771253
  0
LINE
  5
28B
100
AcDbEntity
  8
0
100
AcDbLine
 62
7
  6
CONTINUOUS
 10
3.2899688698
 20
6.0353349852
 11
3.2803941477
 21
6.0257602631
  0
LINE
  5
28C
100
AcDbEntity
  8
0
100
AcDbLine
 62
7
  6
CONTINUOUS
 10
6.0592845261
 20
1.1064391453
 11
6.0579802907
 21
1.1071930113
  0
LINE
  5
28D
100
AcDbEntity
  8
0
100
AcDbLine
 62
7
  6
CONTINUOUS
 10
6.0579802907
 20
1.1071930113
 11
6.0307370769
 21
1.122941816
  0
LINE
  5
28E
100
AcDbEntity
  8
0
100
AcDbLine
 62
7
  6
CONTINUOUS
 10
6.0592845261
 20
1.1596891453
 11
6.0579802907
 21
1.1604430113
  0
LINE
  5
28F
100
AcDbEntity
  8
0
100
AcDbLine
 62
7
  6
CONTINUOUS
 10
6.0579802907
 20
1.1604430113
 11
6.0307370769
 21
1.176191816
  0
LINE
  5
290
100
AcDbEntity
  8
0
100
AcDbLine
 62
7
  6
CONTINUOUS
 10
6.0592845261
 20
1.2129391453
 11
6.0579802907
 21
1.2136930113
  0
LINE
  5
291
100
AcDbEntity
  8
0
100
AcDbLine
 62
7
  6
CONTINUOUS
 10
6.0579802907
 20
1.2136930113
 11
6.0307370769
 21
1.229441816
  0
LWPOLYLINE
  5
292
100
AcDbEntity
  8
0
100
AcDbPolyline
 62
7
  6
CONTINUOUS
 90
3
 70
0
 10
3.32477439
 20
7.2836283819
 10
3.3247834496
 20
7.2836850319
 10
3.3247860809
 20
7.2837010072
  0
LWPOLYLINE
  5
293
100
AcDbEntity
  8
0
100
AcDbPolyline
 62
7
  6
CONTINUOUS
 90
23
 70
0
 10
3.3247869153
 20
7.2837059461
 10
3.3247850341
 20
7.283695124
 10
3.3247766115
 20
7.2836490209
 10
3.3247627491
 20
7.2835774376
 10
3.3247409939
 20
7.283472379
 10
3.3246997484
 20
7.2832905202
 10
3.324631497
 20
7.2830242519
 10
3.3245330831
 20
7.2826912618
 10
3.3243950402
 20
7.2822904036
 10
3.3242050414
 20
7.2818208566
 10
3.3239583641
 20
7.2813043342
 10
3.3236597562
 20
7.2807736724
 10
3.323309898
 20
7.2802426556
 10
3.3229080708
 20
7.2797203424
 10
3.3224533167
 20
7.2792137525
 10
3.3219269093
 20
7.2787138716
 10
3.3213055918
 20
7.2782176672
 10
3.3205922694
 20
7.2777494718
 10
3.3197970755
 20
7.2773334708
 10
3.3189100717
 20
7.2769822074
 10
3.3179093433
 20
7.2767109699
 10
3.3168093507
 20
7.276551562
 10
3.316094741
 20
7.2765230496
  0
LWPOLYLINE
  5
294
100
AcDbEntity
  8
0
100
AcDbPolyline
 62
7
  6
CONTINUOUS
 90
18
 70
0
 10
3.3236372494
 20
7.2568036197
 10
3.3236628591
 20
7.2569023869
 10
3.3237166815
 20
7.2571022662
 10
3.3237542492
 20
7.2572338175
 10
3.3237769366
 20
7.2573083033
 10
3.323780168
 20
7.2573180923
 10
3.3237447397
 20
7.2572209161
 10
3.3236687868
 20
7.2570345664
 10
3.3235430699
 20
7.256760878
 10
3.3233264487
 20
7.2563510152
 10
3.3229935969
 20
7.2558172976
 10
3.3225463944
 20
7.2552192598
 10
3.3219565892
 20
7.2545719628
 10
3.3211191826
 20
7.2538439502
 10
3.3199894954
 20
7.2531132551
 10
3.3186715091
 20
7.2525338541
 10
3.3172356762
 20
7.2521712917
 10
3.3158103563
 20
7.2520551268
  0
LINE
  5
295
100
AcDbEntity
  8
0
100
AcDbLine
 62
7
  6
CONTINUOUS
 10
3.3141361577
 20
6.6292541712
 11
3.3143256193
 21
6.629772833
  0
LINE
  5
296
100
AcDbEntity
  8
0
100
AcDbLine
 62
7
  6
CONTINUOUS
 10
3.2825291399
 20
5.8645087909
 11
3.2829113897
 21
5.8649281244
  0
LINE
  5
297
100
AcDbEntity
  8
0
100
AcDbLine
 62
7
  6
CONTINUOUS
 10
3.2827069964
 20
5.8644673379
 11
3.283091708
 21
5.8648857956
  0
LINE
  5
298
100
AcDbEntity
  8
0
100
AcDbLine
 62
7
  6
CONTINUOUS
 10
3.4067266763
 20
5.9968401909
 11
3.4006115582
 21
5.9907250728
  0
LINE
  5
299
100
AcDbEntity
  8
0
100
AcDbLine
 62
7
  6
CONTINUOUS
 10
3.3755665285
 20
5.9542773642
 11
3.3694511485
 21
5.9481619842
  0
LINE
  5
29A
100
AcDbEntity
  8
0
100
AcDbLine
 62
7
  6
CONTINUOUS
 10
3.3755665285
 20
5.7605103628
 11
3.3694511469
 21
5.7543949812
  0
LINE
  5
29B
100
AcDbEntity
  8
0
100
AcDbLine
 62
7
  6
CONTINUOUS
 10
3.4067266763
 20
5.7461105247
 11
3.4006115582
 21
5.7399954066
  0
LINE
  5
29C
100
AcDbEntity
  8
0
100
AcDbLine
 62
7
  6
CONTINUOUS
 10
5.4686351493
 20
1.0282219364
 11
5.461707494
 21
1.0351495917
  0
LINE
  5
29D
100
AcDbEntity
  8
0
100
AcDbLine
 62
7
  6
CONTINUOUS
 10
3.3091903538
 20
7.1391482519
 11
3.309131592
 21
7.1381752196
  0
LWPOLYLINE
  5
29E
100
AcDbEntity
  8
0
100
AcDbPolyline
 62
7
  6
CONTINUOUS
 90
14
 70
0
 10
3.3100626375
 20
6.151480559
 10
3.3100985808
 20
6.1516572372
 10
3.3101729316
 20
6.1519790204
 10
3.3102042382
 20
6.1520954333
 10
3.3101746701
 20
6.1520196318
 10
3.3100347056
 20
6.1517096155
 10
3.3097382727
 20
6.1511870611
 10
3.3092904341
 20
6.1505631887
 10
3.3086953771
 20
6.1499090309
 10
3.3078475769
 20
6.1491915251
 10
3.3066953893
 20
6.1484881672
 10
3.3053560914
 20
6.1479585565
 10
3.3038985922
 20
6.1476635551
 10
3.3029900595
 20
6.1476139625
  0
LINE
  5
29F
100
AcDbEntity
  8
0
100
AcDbLine
 62
7
  6
CONTINUOUS
 10
3.3755665285
 20
5.6234964022
 11
3.3694511485
 21
5.6173810222
  0
LINE
  5
2A0
100
AcDbEntity
  8
0
100
AcDbLine
 62
7
  6
CONTINUOUS
 10
3.4067266764
 20
5.5537188852
 11
3.4006115582
 21
5.5476037671
  0
LINE
  5
2A1
100
AcDbEntity
  8
0
100
AcDbLine
 62
7
  6
CONTINUOUS
 10
3.4067266763
 20
5.4327764445
 11
3.4006115582
 21
5.4266613265
  0
LINE
  5
2A2
100
AcDbEntity
  8
0
100
AcDbLine
 62
7
  6
CONTINUOUS
 10
4.909135071
 20
6.248221911
 11
4.8093516065
 21
6.215800298
  0
LINE
  5
2A3
100
AcDbEntity
  8
0
100
AcDbLine
 62
7
  6
CONTINUOUS
 10
5.4461351493
 20
1.0730344364
 11
5.4464857724
 21
1.0726291854
  0
LINE
  5
2A4
100
AcDbEntity
  8
0
100
AcDbLine
 62
7
  6
CONTINUOUS
 10
5.4461351493
 20
1.2327844364
 11
5.4464857724
 21
1.2323791854
  0
LINE
  5
2A5
100
AcDbEntity
  8
0
100
AcDbLine
 62
7
  6
CONTINUOUS
 10
3.1989277581
 20
6.9723509017
 11
3.1989277581
 21
6.9060890774
  0
LINE
  5
2A6
100
AcDbEntity
  8
0
100
AcDbLine
 62
7
  6
CONTINUOUS
 10
3.1989277581
 20
6.9030524048
 11
3.1989277581
 21
6.7410826343
  0
LINE
  5
2A7
100
AcDbEntity
  8
0
100
AcDbLine
 62
7
  6
CONTINUOUS
 10
3.1989277581
 20
6.7358145797
 11
3.1989277581
 21
6.6764933098
  0
LINE
  5
2A8
100
AcDbEntity
  8
0
100
AcDbLine
 62
7
  6
CONTINUOUS
 10
3.1989277581
 20
6.6711328363
 11
3.1989277581
 21
6.5091536769
  0
LINE
  5
2A9
100
AcDbEntity
  8
0
100
AcDbLine
 62
7
  6
CONTINUOUS
 10
3.1989277581
 20
6.439664417
 11
3.1989277581
 21
6.4178110365
  0
LINE
  5
2AA
100
AcDbEntity
  8
0
100
AcDbLine
 62
7
  6
CONTINUOUS
 10
3.1989277581
 20
6.4124505629
 11
3.1989277581
 21
6.2504801445
  0
LINE
  5
2AB
100
AcDbEntity
  8
0
100
AcDbLine
 62
7
  6
CONTINUOUS
 10
3.1989277581
 20
6.2470300106
 11
3.1989277581
 21
6.1165929711
  0
LINE
  5
2AC
100
AcDbEntity
  8
0
100
AcDbLine
 62
7
  6
CONTINUOUS
 10
3.2032515016
 20
6.4987132139
 11
3.2032515016
 21
6.6815732993
  0
LINE
  5
2AD
100
AcDbEntity
  8
0
100
AcDbLine
 62
7
  6
CONTINUOUS
 10
3.2032515016
 20
6.7018194356
 11
3.2032516965
 21
6.9828102924
  0
LINE
  5
2AE
100
AcDbEntity
  8
0
100
AcDbLine
 62
7
  6
CONTINUOUS
 10
3.2032881828
 20
5.8396391366
 11
3.2032881828
 21
5.8516288133
  0
LINE
  5
2AF
100
AcDbEntity
  8
0
100
AcDbLine
 62
7
  6
CONTINUOUS
 10
3.206942554
 20
6.7269464244
 11
3.206942554
 21
6.6852643517
  0
LINE
  5
2B0
100
AcDbEntity
  8
0
100
AcDbLine
 62
7
  6
CONTINUOUS
 10
3.206942554
 20
6.4950221615
 11
3.206942554
 21
6.4265864488
  0
LINE
  5
2B1
100
AcDbEntity
  8
0
100
AcDbLine
 62
7
  6
CONTINUOUS
 10
3.2093668848
 20
6.1000183921
 11
3.2093668836
 21
6.4290107785
  0
LINE
  5
2B2
100
AcDbEntity
  8
0
100
AcDbLine
 62
7
  6
CONTINUOUS
 10
3.2093668848
 20
6.4925978306
 11
3.2093668848
 21
6.6876886826
  0
LINE
  5
2B3
100
AcDbEntity
  8
0
100
AcDbLine
 62
7
  6
CONTINUOUS
 10
3.2093668836
 20
6.7245220948
 11
3.2093668848
 21
6.9889254807
  0
LINE
  5
2B4
100
AcDbEntity
  8
0
100
AcDbLine
 62
7
  6
CONTINUOUS
 10
3.2136915376
 20
7.0270884456
 11
3.2136915376
 21
6.0618554272
  0
LINE
  5
2B5
100
AcDbEntity
  8
0
100
AcDbLine
 62
7
  6
CONTINUOUS
 10
3.2234057842
 20
6.0479888091
 11
3.2234057842
 21
7.0409550637
  0
LINE
  5
2B6
100
AcDbEntity
  8
0
100
AcDbLine
 62
7
  6
CONTINUOUS
 10
3.2777996496
 20
7.2580814813
 11
3.2777996496
 21
7.2364123112
  0
LINE
  5
2B7
100
AcDbEntity
  8
0
100
AcDbLine
 62
7
  6
CONTINUOUS
 10
3.2777996496
 20
7.2336189122
 11
3.2777996496
 21
7.1641930958
  0
LINE
  5
2B8
100
AcDbEntity
  8
0
100
AcDbLine
 62
7
  6
CONTINUOUS
 10
3.2777996496
 20
6.9238744754
 11
3.2777996496
 21
6.8544423707
  0
LINE
  5
2B9
100
AcDbEntity
  8
0
100
AcDbLine
 62
7
  6
CONTINUOUS
 10
3.2777996496
 20
6.7720625845
 11
3.2777996496
 21
6.702650162
  0
LINE
  5
2BA
100
AcDbEntity
  8
0
100
AcDbLine
 62
7
  6
CONTINUOUS
 10
3.2777996496
 20
6.608800557
 11
3.2777996496
 21
6.5393901214
  0
LINE
  5
2BB
100
AcDbEntity
  8
0
100
AcDbLine
 62
7
  6
CONTINUOUS
 10
3.2777996496
 20
6.1291772308
 11
3.2777996496
 21
6.0597512221
  0
LINE
  5
2BC
100
AcDbEntity
  8
0
100
AcDbLine
 62
7
  6
CONTINUOUS
 10
3.2777996496
 20
5.949373034
 11
3.2777996496
 21
5.9468089714
  0
LINE
  5
2BD
100
AcDbEntity
  8
0
100
AcDbLine
 62
7
  6
CONTINUOUS
 10
3.2777996496
 20
6.0281910611
 11
3.2777996496
 21
5.9500742946
  0
LINE
  5
2BE
100
AcDbEntity
  8
0
100
AcDbLine
 62
7
  6
CONTINUOUS
 10
3.2777996496
 20
5.943062752
 11
3.2777996496
 21
5.8736295251
  0
LINE
  5
2BF
100
AcDbEntity
  8
0
100
AcDbLine
 62
7
  6
CONTINUOUS
 10
3.2803941485
 20
6.5331150136
 11
3.2803941485
 21
6.6150756649
  0
LINE
  5
2C0
100
AcDbEntity
  8
0
100
AcDbLine
 62
7
  6
CONTINUOUS
 10
3.2803941485
 20
6.9301387487
 11
3.2803941485
 21
6.8481780974
  0
LINE
  5
2C1
100
AcDbEntity
  8
0
100
AcDbLine
 62
7
  6
CONTINUOUS
 10
3.2803941485
 20
6.7783366989
 11
3.2803941485
 21
6.6963760476
  0
LINE
  5
2C2
100
AcDbEntity
  8
0
100
AcDbLine
 62
7
  6
CONTINUOUS
 10
3.2803941485
 20
7.2643533981
 11
3.2803941485
 21
7.1579256784
  0
LINE
  5
2C3
100
AcDbEntity
  8
0
100
AcDbLine
 62
7
  6
CONTINUOUS
 10
3.2803941488
 20
6.1354445525
 11
3.2803941488
 21
6.0534839005
  0
LINE
  5
2C4
100
AcDbEntity
  8
0
100
AcDbLine
 62
7
  6
CONTINUOUS
 10
3.2803941481
 20
5.8673658133
 11
3.2803941483
 21
6.0272467408
  0
LINE
  5
2C5
100
AcDbEntity
  8
0
100
AcDbLine
 62
7
  6
CONTINUOUS
 10
3.2818796527
 20
6.8466925931
 11
3.2818796527
 21
6.7798222032
  0
LINE
  5
2C6
100
AcDbEntity
  8
0
100
AcDbLine
 62
7
  6
CONTINUOUS
 10
3.2818796527
 20
6.6948905433
 11
3.2818796527
 21
6.6165611692
  0
LINE
  5
2C7
100
AcDbEntity
  8
0
100
AcDbLine
 62
7
  6
CONTINUOUS
 10
3.2818796527
 20
6.5316295093
 11
3.2818796527
 21
6.1369300564
  0
LINE
  5
2C8
100
AcDbEntity
  8
0
100
AcDbLine
 62
7
  6
CONTINUOUS
 10
3.2818796527
 20
6.0519983966
 11
3.2818796527
 21
6.0272457681
  0
LINE
  5
2C9
100
AcDbEntity
  8
0
100
AcDbLine
 62
7
  6
CONTINUOUS
 10
3.2818796527
 20
7.0622378114
 11
3.2818796527
 21
6.931624253
  0
LINE
  5
2CA
100
AcDbEntity
  8
0
100
AcDbLine
 62
7
  6
CONTINUOUS
 10
3.2899688698
 20
5.8577910916
 11
3.2899688698
 21
6.0353349852
  0
LINE
  5
2CB
100
AcDbEntity
  8
0
100
AcDbLine
 62
7
  6
CONTINUOUS
 10
3.2899688697
 20
6.0439091796
 11
3.2899688697
 21
6.1450192734
  0
LINE
  5
2CC
100
AcDbEntity
  8
0
100
AcDbLine
 62
7
  6
CONTINUOUS
 10
3.2899688698
 20
6.5235402923
 11
3.2899688698
 21
6.6246503862
  0
LINE
  5
2CD
100
AcDbEntity
  8
0
100
AcDbLine
 62
7
  6
CONTINUOUS
 10
3.2899688698
 20
6.6868013263
 11
3.2899688698
 21
6.7879114202
  0
LINE
  5
2CE
100
AcDbEntity
  8
0
100
AcDbLine
 62
7
  6
CONTINUOUS
 10
3.2899688698
 20
6.8386033761
 11
3.2899688698
 21
6.93971347
  0
LINE
  5
2CF
100
AcDbEntity
  8
0
100
AcDbLine
 62
7
  6
CONTINUOUS
 10
3.2899688698
 20
7.1483509571
 11
3.2899688698
 21
7.2739281194
  0
LINE
  5
2D0
100
AcDbEntity
  8
0
100
AcDbLine
 62
7
  6
CONTINUOUS
 10
3.2962326437
 20
5.8551965323
 11
3.2962326437
 21
6.0379295445
  0
LINE
  5
2D1
100
AcDbEntity
  8
0
100
AcDbLine
 62
7
  6
CONTINUOUS
 10
3.2962326437
 20
6.0413146202
 11
3.2962326437
 21
6.1476138328
  0
LINE
  5
2D2
100
AcDbEntity
  8
0
100
AcDbLine
 62
7
  6
CONTINUOUS
 10
3.2962326437
 20
6.5209457329
 11
3.2962326437
 21
6.6272449455
  0
LINE
  5
2D3
100
AcDbEntity
  8
0
100
AcDbLine
 62
7
  6
CONTINUOUS
 10
3.2962326437
 20
6.6842067669
 11
3.2962326437
 21
6.7905059795
  0
LINE
  5
2D4
100
AcDbEntity
  8
0
100
AcDbLine
 62
7
  6
CONTINUOUS
 10
3.2962326437
 20
6.8360088167
 11
3.2962326437
 21
6.9423080293
  0
LINE
  5
2D5
100
AcDbEntity
  8
0
100
AcDbLine
 62
7
  6
CONTINUOUS
 10
3.2962326437
 20
7.1457563977
 11
3.2962326437
 21
7.2765226787
  0
LINE
  5
2D6
100
AcDbEntity
  8
0
100
AcDbLine
 62
7
  6
CONTINUOUS
 10
3.3011575153
 20
7.0870050776
 11
3.3011575153
 21
6.9423080293
  0
LINE
  5
2D7
100
AcDbEntity
  8
0
100
AcDbLine
 62
7
  6
CONTINUOUS
 10
3.3011575153
 20
6.8360085736
 11
3.3011575153
 21
6.7905059795
  0
LINE
  5
2D8
100
AcDbEntity
  8
0
100
AcDbLine
 62
7
  6
CONTINUOUS
 10
3.3011575153
 20
6.6842065475
 11
3.3011575153
 21
6.6272449455
  0
LINE
  5
2D9
100
AcDbEntity
  8
0
100
AcDbLine
 62
7
  6
CONTINUOUS
 10
3.3011575153
 20
6.5209457329
 11
3.3011575153
 21
6.1476138328
  0
LINE
  5
2DA
100
AcDbEntity
  8
0
100
AcDbLine
 62
7
  6
CONTINUOUS
 10
3.3011575153
 20
6.0413146202
 11
3.3011575153
 21
6.0379295445
  0
LINE
  5
2DB
100
AcDbEntity
  8
0
100
AcDbLine
 62
7
  6
CONTINUOUS
 10
3.3447433559
 20
5.6734089443
 11
3.3447433559
 21
7.4155349285
  0
LINE
  5
2DC
100
AcDbEntity
  8
0
100
AcDbLine
 62
7
  6
CONTINUOUS
 10
3.3498217704
 20
7.4243732623
 11
3.3498217704
 21
5.6645706105
  0
LINE
  5
2DD
100
AcDbEntity
  8
0
100
AcDbLine
 62
7
  6
CONTINUOUS
 10
3.3613283952
 20
5.597848016
 11
3.3613247862
 21
7.4910964415
  0
LINE
  5
2DE
100
AcDbEntity
  8
0
100
AcDbLine
 62
7
  6
CONTINUOUS
 10
3.3651271794
 20
7.6174514754
 11
3.3651271794
 21
7.5529411074
  0
LINE
  5
2DF
100
AcDbEntity
  8
0
100
AcDbLine
 62
7
  6
CONTINUOUS
 10
3.3651271794
 20
7.5465403482
 11
3.3651271794
 21
7.4820049447
  0
LINE
  5
2E0
100
AcDbEntity
  8
0
100
AcDbLine
 62
7
  6
CONTINUOUS
 10
3.3651271794
 20
7.4095227012
 11
3.3651271794
 21
7.3449946705
  0
LINE
  5
2E1
100
AcDbEntity
  8
0
100
AcDbLine
 62
7
  6
CONTINUOUS
 10
3.3651271794
 20
7.2157562325
 11
3.3651271794
 21
7.1512271364
  0
LINE
  5
2E2
100
AcDbEntity
  8
0
100
AcDbLine
 62
7
  6
CONTINUOUS
 10
3.3651271794
 20
6.9784361092
 11
3.3651271794
 21
6.9139169774
  0
LINE
  5
2E3
100
AcDbEntity
  8
0
100
AcDbLine
 62
7
  6
CONTINUOUS
 10
3.3651271794
 20
6.7137535726
 11
3.3651271794
 21
6.6492182214
  0
LINE
  5
2E4
100
AcDbEntity
  8
0
100
AcDbLine
 62
7
  6
CONTINUOUS
 10
3.3651271794
 20
6.4397249338
 11
3.3651271794
 21
6.3751910177
  0
LINE
  5
2E5
100
AcDbEntity
  8
0
100
AcDbLine
 62
7
  6
CONTINUOUS
 10
3.3651271794
 20
6.1750235819
 11
3.3651271794
 21
6.1105110771
  0
LINE
  5
2E6
100
AcDbEntity
  8
0
100
AcDbLine
 62
7
  6
CONTINUOUS
 10
3.3651271794
 20
5.9377194509
 11
3.3651271794
 21
5.8731849257
  0
LINE
  5
2E7
100
AcDbEntity
  8
0
100
AcDbLine
 62
7
  6
CONTINUOUS
 10
3.3651271794
 20
5.7439508906
 11
3.3651271794
 21
5.6794194833
  0
LINE
  5
2E8
100
AcDbEntity
  8
0
100
AcDbLine
 62
7
  6
CONTINUOUS
 10
3.3651271794
 20
5.6069400441
 11
3.3651271794
 21
5.5424024086
  0
LINE
  5
2E9
100
AcDbEntity
  8
0
100
AcDbLine
 62
7
  6
CONTINUOUS
 10
3.3651271794
 20
5.5359991289
 11
3.3651271794
 21
5.4714960339
  0
LINE
  5
2EA
100
AcDbEntity
  8
0
100
AcDbLine
 62
7
  6
CONTINUOUS
 10
3.3666268379
 20
7.4755902158
 11
3.3666268379
 21
7.4159411165
  0
LINE
  5
2EB
100
AcDbEntity
  8
0
100
AcDbLine
 62
7
  6
CONTINUOUS
 10
3.3666268379
 20
7.3385762551
 11
3.3666268379
 21
7.2221741152
  0
LINE
  5
2EC
100
AcDbEntity
  8
0
100
AcDbLine
 62
7
  6
CONTINUOUS
 10
3.3666268437
 20
5.6133536688
 11
3.3666268437
 21
5.6730027445
  0
LINE
  5
2ED
100
AcDbEntity
  8
0
100
AcDbLine
 62
7
  6
CONTINUOUS
 10
3.3666268437
 20
5.7503676294
 11
3.3666268437
 21
5.8667697458
  0
LINE
  5
2EE
100
AcDbEntity
  8
0
100
AcDbLine
 62
7
  6
CONTINUOUS
 10
3.3666268437
 20
5.9441346308
 11
3.3666268437
 21
6.104084887
  0
LINE
  5
2EF
100
AcDbEntity
  8
0
100
AcDbLine
 62
7
  6
CONTINUOUS
 10
3.3666268437
 20
6.181449772
 11
3.3666268437
 21
6.3687755333
  0
LINE
  5
2F0
100
AcDbEntity
  8
0
100
AcDbLine
 62
7
  6
CONTINUOUS
 10
3.3666268437
 20
6.4461404182
 11
3.3666268437
 21
6.6428034545
  0
LINE
  5
2F1
100
AcDbEntity
  8
0
100
AcDbLine
 62
7
  6
CONTINUOUS
 10
3.3666268437
 20
6.7201683395
 11
3.3666268437
 21
6.9074941008
  0
LINE
  5
2F2
100
AcDbEntity
  8
0
100
AcDbLine
 62
7
  6
CONTINUOUS
 10
3.3666268437
 20
6.9848589858
 11
3.3666268379
 21
7.1448092538
  0
LINE
  5
2F3
100
AcDbEntity
  8
0
100
AcDbLine
 62
7
  6
CONTINUOUS
 10
3.3694513903
 20
7.553731576
 11
3.3694511485
 21
7.545761611
  0
LINE
  5
2F4
100
AcDbEntity
  8
0
100
AcDbLine
 62
7
  6
CONTINUOUS
 10
3.3694513903
 20
7.209491908
 11
3.3694512023
 21
7.2009767686
  0
LINE
  5
2F5
100
AcDbEntity
  8
0
100
AcDbLine
 62
7
  6
CONTINUOUS
 10
3.3694511469
 20
5.6689753928
 11
3.3694511485
 21
5.7543543326
  0
LINE
  5
2F6
100
AcDbEntity
  8
0
100
AcDbLine
 62
7
  6
CONTINUOUS
 10
3.3694511485
 20
5.8627423925
 11
3.3694511485
 21
5.9481574668
  0
LINE
  5
2F7
100
AcDbEntity
  8
0
100
AcDbLine
 62
7
  6
CONTINUOUS
 10
3.3694511485
 20
6.1000575336
 11
3.3694511485
 21
6.1854771253
  0
LINE
  5
2F8
100
AcDbEntity
  8
0
100
AcDbLine
 62
7
  6
CONTINUOUS
 10
3.3694511485
 20
6.3647481799
 11
3.3694511485
 21
6.4501677716
  0
LINE
  5
2F9
100
AcDbEntity
  8
0
100
AcDbLine
 62
7
  6
CONTINUOUS
 10
3.3694511485
 20
6.9034667474
 11
3.3694511485
 21
6.9888818218
  0
LINE
  5
2FA
100
AcDbEntity
  8
0
100
AcDbLine
 62
7
  6
CONTINUOUS
 10
3.3694511485
 20
7.2094917608
 11
3.3694511485
 21
7.2262014803
  0
LINE
  5
2FB
100
AcDbEntity
  8
0
100
AcDbLine
 62
7
  6
CONTINUOUS
 10
3.3694511485
 20
7.33454889
 11
3.3694511485
 21
7.4199684817
  0
LINE
  5
2FC
100
AcDbEntity
  8
0
100
AcDbLine
 62
7
  6
CONTINUOUS
 10
3.3694511485
 20
7.5537313527
 11
3.3694511485
 21
7.6279060872
  0
LINE
  5
2FD
100
AcDbEntity
  8
0
100
AcDbLine
 62
7
  6
CONTINUOUS
 10
3.3694511485
 20
6.7241956929
 11
3.3694511485
 21
6.6387761012
  0
LINE
  5
2FE
100
AcDbEntity
  8
0
100
AcDbLine
 62
7
  6
CONTINUOUS
 10
3.3694512023
 20
7.2009767686
 11
3.3694511485
 21
7.1407818886
  0
LINE
  5
2FF
100
AcDbEntity
  8
0
100
AcDbLine
 62
7
  6
CONTINUOUS
 10
3.3694511485
 20
7.545761611
 11
3.3694511485
 21
7.4715628506
  0
LINE
  5
300
100
AcDbEntity
  8
0
100
AcDbLine
 62
7
  6
CONTINUOUS
 10
3.3694511485
 20
5.7543543326
 11
3.3694511469
 21
5.7543949812
  0
LINE
  5
301
100
AcDbEntity
  8
0
100
AcDbLine
 62
7
  6
CONTINUOUS
 10
3.3755665285
 20
5.6628600111
 11
3.3755665285
 21
5.7605103628
  0
LINE
  5
302
100
AcDbEntity
  8
0
100
AcDbLine
 62
7
  6
CONTINUOUS
 10
3.3755665285
 20
6.0939421536
 11
3.3755665285
 21
6.1915925054
  0
LINE
  5
303
100
AcDbEntity
  8
0
100
AcDbLine
 62
7
  6
CONTINUOUS
 10
3.3755665285
 20
6.6326607212
 11
3.3755665285
 21
6.7303110729
  0
LINE
  5
304
100
AcDbEntity
  8
0
100
AcDbLine
 62
7
  6
CONTINUOUS
 10
3.3755665285
 20
7.1346665086
 11
3.3755665285
 21
7.2323168603
  0
LINE
  5
305
100
AcDbEntity
  8
0
100
AcDbLine
 62
7
  6
CONTINUOUS
 10
3.3755665285
 20
7.3284335099
 11
3.3755665285
 21
7.4159943022
  0
LINE
  5
306
100
AcDbEntity
  8
0
100
AcDbLine
 62
7
  6
CONTINUOUS
 10
3.3755665285
 20
7.4654474706
 11
3.3755666299
 21
7.6340215686
  0
LINE
  5
307
100
AcDbEntity
  8
0
100
AcDbLine
 62
7
  6
CONTINUOUS
 10
3.3755665285
 20
5.8566270125
 11
3.3755665285
 21
5.9542773642
  0
LINE
  5
308
100
AcDbEntity
  8
0
100
AcDbLine
 62
7
  6
CONTINUOUS
 10
3.3755665285
 20
6.3586327999
 11
3.3755665285
 21
6.4562831516
  0
LINE
  5
309
100
AcDbEntity
  8
0
100
AcDbLine
 62
7
  6
CONTINUOUS
 10
3.3755665285
 20
6.8973513675
 11
3.3755665285
 21
6.9950017191
  0
LINE
  5
30A
100
AcDbEntity
  8
0
100
AcDbLine
 62
7
  6
CONTINUOUS
 10
3.3755665285
 20
5.4549224055
 11
3.3755665285
 21
5.6234964022
  0
LINE
  5
30B
100
AcDbEntity
  8
0
100
AcDbLine
 62
7
  6
CONTINUOUS
 10
3.375566748
 20
7.4159944763
 11
3.3755665285
 21
7.4260838617
  0
LINE
  5
30C
100
AcDbEntity
  8
0
100
AcDbLine
 62
7
  6
CONTINUOUS
 10
3.3813975865
 20
7.4618934526
 11
3.3813975865
 21
7.4296378796
  0
LINE
  5
30D
100
AcDbEntity
  8
0
100
AcDbLine
 62
7
  6
CONTINUOUS
 10
3.3813975865
 20
7.324879492
 11
3.3813975865
 21
7.2355326708
  0
LINE
  5
30E
100
AcDbEntity
  8
0
100
AcDbLine
 62
7
  6
CONTINUOUS
 10
3.3813975865
 20
5.6270504201
 11
3.3813975865
 21
5.6593059932
  0
LINE
  5
30F
100
AcDbEntity
  8
0
100
AcDbLine
 62
7
  6
CONTINUOUS
 10
3.3813975865
 20
5.7640643808
 11
3.3813975865
 21
5.8530729945
  0
LINE
  5
310
100
AcDbEntity
  8
0
100
AcDbLine
 62
7
  6
CONTINUOUS
 10
3.3813975865
 20
5.9578313821
 11
3.3813975865
 21
6.0903881357
  0
LINE
  5
311
100
AcDbEntity
  8
0
100
AcDbLine
 62
7
  6
CONTINUOUS
 10
3.3813975865
 20
6.1951465233
 11
3.3813975865
 21
6.355078782
  0
LINE
  5
312
100
AcDbEntity
  8
0
100
AcDbLine
 62
7
  6
CONTINUOUS
 10
3.3813975865
 20
6.4598371696
 11
3.3813975865
 21
6.6291067032
  0
LINE
  5
313
100
AcDbEntity
  8
0
100
AcDbLine
 62
7
  6
CONTINUOUS
 10
3.3813975865
 20
6.7335987626
 11
3.3813975865
 21
6.8937973495
  0
LINE
  5
314
100
AcDbEntity
  8
0
100
AcDbLine
 62
7
  6
CONTINUOUS
 10
3.3813975872
 20
6.9985557374
 11
3.3813975865
 21
7.1311124907
  0
LINE
  5
315
100
AcDbEntity
  8
0
100
AcDbLine
 62
7
  6
CONTINUOUS
 10
3.3860063167
 20
5.4505979751
 11
3.3860063167
 21
5.6278208326
  0
LINE
  5
316
100
AcDbEntity
  8
0
100
AcDbLine
 62
7
  6
CONTINUOUS
 10
3.3860063167
 20
5.6585355807
 11
3.3860063167
 21
5.7648347933
  0
LINE
  5
317
100
AcDbEntity
  8
0
100
AcDbLine
 62
7
  6
CONTINUOUS
 10
3.3860063167
 20
5.852302582
 11
3.3860063167
 21
5.9586017946
  0
LINE
  5
318
100
AcDbEntity
  8
0
100
AcDbLine
 62
7
  6
CONTINUOUS
 10
3.3860063167
 20
6.0896177232
 11
3.3860063167
 21
6.1959169358
  0
LINE
  5
319
100
AcDbEntity
  8
0
100
AcDbLine
 62
7
  6
CONTINUOUS
 10
3.3860063167
 20
6.3543083695
 11
3.3860063167
 21
6.4606075821
  0
LINE
  5
31A
100
AcDbEntity
  8
0
100
AcDbLine
 62
7
  6
CONTINUOUS
 10
3.3860063167
 20
6.6283362907
 11
3.3860063167
 21
6.7346355033
  0
LINE
  5
31B
100
AcDbEntity
  8
0
100
AcDbLine
 62
7
  6
CONTINUOUS
 10
3.3860063167
 20
6.893026937
 11
3.3860063167
 21
6.9993261496
  0
LINE
  5
31C
100
AcDbEntity
  8
0
100
AcDbLine
 62
7
  6
CONTINUOUS
 10
3.3860063167
 20
7.1303420782
 11
3.3860063167
 21
7.2366412908
  0
LINE
  5
31D
100
AcDbEntity
  8
0
100
AcDbLine
 62
7
  6
CONTINUOUS
 10
3.3860063167
 20
7.3241090795
 11
3.3860063167
 21
7.4304082921
  0
LINE
  5
31E
100
AcDbEntity
  8
0
100
AcDbLine
 62
7
  6
CONTINUOUS
 10
3.3860063167
 20
7.4611230402
 11
3.3860063167
 21
7.5674222528
  0
LINE
  5
31F
100
AcDbEntity
  8
0
100
AcDbLine
 62
7
  6
CONTINUOUS
 10
3.3860063167
 20
7.5674545882
 11
3.3860063167
 21
7.6383458977
  0
LINE
  5
320
100
AcDbEntity
  8
0
100
AcDbLine
 62
7
  6
CONTINUOUS
 10
3.3946319883
 20
7.4611230402
 11
3.3946319883
 21
7.4304082921
  0
LINE
  5
321
100
AcDbEntity
  8
0
100
AcDbLine
 62
7
  6
CONTINUOUS
 10
3.3946319883
 20
7.3241090795
 11
3.3946319883
 21
7.2366412908
  0
LINE
  5
322
100
AcDbEntity
  8
0
100
AcDbLine
 62
7
  6
CONTINUOUS
 10
3.3946319883
 20
7.1292225284
 11
3.3946319897
 21
6.9993261496
  0
LINE
  5
323
100
AcDbEntity
  8
0
100
AcDbLine
 62
7
  6
CONTINUOUS
 10
3.3946319883
 20
6.893026937
 11
3.3946319883
 21
6.7346355033
  0
LINE
  5
324
100
AcDbEntity
  8
0
100
AcDbLine
 62
7
  6
CONTINUOUS
 10
3.3946319883
 20
6.6283362907
 11
3.3946319883
 21
6.4606075821
  0
LINE
  5
325
100
AcDbEntity
  8
0
100
AcDbLine
 62
7
  6
CONTINUOUS
 10
3.3946319883
 20
6.3543083695
 11
3.3946319883
 21
6.1959169358
  0
LINE
  5
326
100
AcDbEntity
  8
0
100
AcDbLine
 62
7
  6
CONTINUOUS
 10
3.3946319883
 20
6.0896177232
 11
3.3946319883
 21
5.9597213439
  0
LINE
  5
327
100
AcDbEntity
  8
0
100
AcDbLine
 62
7
  6
CONTINUOUS
 10
3.3946319883
 20
5.852302582
 11
3.3946319883
 21
5.7648347933
  0
LINE
  5
328
100
AcDbEntity
  8
0
100
AcDbLine
 62
7
  6
CONTINUOUS
 10
3.3946319883
 20
5.6585355807
 11
3.3946319883
 21
5.6278208326
  0
LINE
  5
329
100
AcDbEntity
  8
0
100
AcDbLine
 62
7
  6
CONTINUOUS
 10
3.3962875557
 20
7.796230335
 11
3.3962875557
 21
7.7576789686
  0
LINE
  5
32A
100
AcDbEntity
  8
0
100
AcDbLine
 62
7
  6
CONTINUOUS
 10
3.3962875557
 20
7.7549739266
 11
3.3962875557
 21
7.6727273602
  0
LINE
  5
32B
100
AcDbEntity
  8
0
100
AcDbLine
 62
7
  6
CONTINUOUS
 10
3.3962875557
 20
7.6340159383
 11
3.3962875557
 21
7.5518004673
  0
LINE
  5
32C
100
AcDbEntity
  8
0
100
AcDbLine
 62
7
  6
CONTINUOUS
 10
3.3962875557
 20
7.4416434822
 11
3.3962875557
 21
7.3593896442
  0
LINE
  5
32D
100
AcDbEntity
  8
0
100
AcDbLine
 62
7
  6
CONTINUOUS
 10
3.3962875557
 20
7.1909148367
 11
3.3962875557
 21
7.1086589573
  0
LINE
  5
32E
100
AcDbEntity
  8
0
100
AcDbLine
 62
7
  6
CONTINUOUS
 10
3.3962875557
 20
6.8989252145
 11
3.3962875557
 21
6.8166868187
  0
LINE
  5
32F
100
AcDbEntity
  8
0
100
AcDbLine
 62
7
  6
CONTINUOUS
 10
3.3962875557
 20
6.5855848618
 11
3.3962875557
 21
6.503359011
  0
LINE
  5
330
100
AcDbEntity
  8
0
100
AcDbLine
 62
7
  6
CONTINUOUS
 10
3.3962875557
 20
6.2722568103
 11
3.3962875557
 21
6.1900189021
  0
LINE
  5
331
100
AcDbEntity
  8
0
100
AcDbLine
 62
7
  6
CONTINUOUS
 10
3.3962875557
 20
5.9802846804
 11
3.3962875557
 21
5.8980292711
  0
LINE
  5
332
100
AcDbEntity
  8
0
100
AcDbLine
 62
7
  6
CONTINUOUS
 10
3.3962875557
 20
5.7295543693
 11
3.3962875557
 21
5.6473002498
  0
LINE
  5
333
100
AcDbEntity
  8
0
100
AcDbLine
 62
7
  6
CONTINUOUS
 10
3.3962875557
 20
5.5371476811
 11
3.3962875557
 21
5.4549236589
  0
LINE
  5
334
100
AcDbEntity
  8
0
100
AcDbLine
 62
7
  6
CONTINUOUS
 10
3.3962875557
 20
5.4162135175
 11
3.3962875557
 21
5.3339729413
  0
LINE
  5
335
100
AcDbEntity
  8
0
100
AcDbLine
 62
7
  6
CONTINUOUS
 10
3.3962875557
 20
5.3315994433
 11
3.3962875557
 21
5.2927135378
  0
LINE
  5
336
100
AcDbEntity
  8
0
100
AcDbLine
 62
7
  6
CONTINUOUS
 10
3.4006115582
 20
5.3231204049
 11
3.4006115582
 21
5.282273918
  0
LINE
  5
337
100
AcDbEntity
  8
0
100
AcDbLine
 62
7
  6
CONTINUOUS
 10
3.4006115582
 20
5.3235251323
 11
3.4006115582
 21
5.4266613265
  0
LINE
  5
338
100
AcDbEntity
  8
0
100
AcDbLine
 62
7
  6
CONTINUOUS
 10
3.4006115582
 20
5.4444675729
 11
3.4006115582
 21
5.5476037671
  0
LINE
  5
339
100
AcDbEntity
  8
0
100
AcDbLine
 62
7
  6
CONTINUOUS
 10
3.4006115582
 20
5.6368592125
 11
3.4006115582
 21
5.7399954066
  0
LINE
  5
33A
100
AcDbEntity
  8
0
100
AcDbLine
 62
7
  6
CONTINUOUS
 10
3.4006115582
 20
5.8875888787
 11
3.4006115582
 21
5.9907250728
  0
LINE
  5
33B
100
AcDbEntity
  8
0
100
AcDbLine
 62
7
  6
CONTINUOUS
 10
3.4006115582
 20
6.1795697591
 11
3.4006115582
 21
6.2827059533
  0
LINE
  5
33C
100
AcDbEntity
  8
0
100
AcDbLine
 62
7
  6
CONTINUOUS
 10
3.4006115582
 20
6.4929038393
 11
3.4006115582
 21
6.5960400335
  0
LINE
  5
33D
100
AcDbEntity
  8
0
100
AcDbLine
 62
7
  6
CONTINUOUS
 10
3.4006115582
 20
6.8062379195
 11
3.4006115582
 21
6.9093741137
  0
LINE
  5
33E
100
AcDbEntity
  8
0
100
AcDbLine
 62
7
  6
CONTINUOUS
 10
3.4006115776
 20
7.0982187806
 11
3.4006115776
 21
7.2013550135
  0
LINE
  5
33F
100
AcDbEntity
  8
0
100
AcDbLine
 62
7
  6
CONTINUOUS
 10
3.4006115582
 20
7.3489484661
 11
3.4006115582
 21
7.4520846603
  0
LINE
  5
340
100
AcDbEntity
  8
0
100
AcDbLine
 62
7
  6
CONTINUOUS
 10
3.4006115582
 20
7.5413401057
 11
3.4006115582
 21
7.6444762999
  0
LINE
  5
341
100
AcDbEntity
  8
0
100
AcDbLine
 62
7
  6
CONTINUOUS
 10
3.4006115582
 20
7.6622825463
 11
3.4006115582
 21
7.7654187405
  0
LINE
  5
342
100
AcDbEntity
  8
0
100
AcDbLine
 62
7
  6
CONTINUOUS
 10
3.4006115582
 20
7.7658234679
 11
3.4006115582
 21
7.8066699547
  0
LINE
  5
343
100
AcDbEntity
  8
0
100
AcDbLine
 62
7
  6
CONTINUOUS
 10
3.4067266597
 20
7.5352250043
 11
3.4067266763
 21
7.6428633324
  0
LINE
  5
344
100
AcDbEntity
  8
0
100
AcDbLine
 62
7
  6
CONTINUOUS
 10
3.4067266763
 20
7.3428333481
 11
3.4067266763
 21
7.4413047558
  0
LINE
  5
345
100
AcDbEntity
  8
0
100
AcDbLine
 62
7
  6
CONTINUOUS
 10
3.4067267198
 20
7.6561673848
 11
3.4067266763
 21
7.8127850728
  0
LINE
  5
346
100
AcDbEntity
  8
0
100
AcDbLine
 62
7
  6
CONTINUOUS
 10
3.4067266764
 20
5.4383524548
 11
3.4067266764
 21
5.5537188852
  0
LINE
  5
347
100
AcDbEntity
  8
0
100
AcDbLine
 62
7
  6
CONTINUOUS
 10
3.4067266763
 20
5.6307440945
 11
3.4067266763
 21
5.7461105247
  0
LINE
  5
348
100
AcDbEntity
  8
0
100
AcDbLine
 62
7
  6
CONTINUOUS
 10
3.4067266763
 20
5.8814737607
 11
3.4067266763
 21
5.9968401909
  0
LINE
  5
349
100
AcDbEntity
  8
0
100
AcDbLine
 62
7
  6
CONTINUOUS
 10
3.4067271243
 20
5.276158352
 11
3.4067266763
 21
5.3193755222
  0
LINE
  5
34A
100
AcDbEntity
  8
0
100
AcDbLine
 62
7
  6
CONTINUOUS
 10
3.4067266763
 20
6.1734546411
 11
3.4067266763
 21
6.2888210713
  0
LINE
  5
34B
100
AcDbEntity
  8
0
100
AcDbLine
 62
7
  6
CONTINUOUS
 10
3.4067266763
 20
6.4867887213
 11
3.4067266763
 21
6.6021551515
  0
LINE
  5
34C
100
AcDbEntity
  8
0
100
AcDbLine
 62
7
  6
CONTINUOUS
 10
3.4067269378
 20
7.0921034204
 11
3.4067269378
 21
7.2074703737
  0
LINE
  5
34D
100
AcDbEntity
  8
0
100
AcDbLine
 62
7
  6
CONTINUOUS
 10
3.4067266763
 20
6.8001228015
 11
3.4067266763
 21
6.9154892317
  0
LINE
  5
34E
100
AcDbEntity
  8
0
100
AcDbLine
 62
7
  6
CONTINUOUS
 10
3.4067269252
 20
5.3212410765
 11
3.4067266763
 21
5.4327764445
  0
LINE
  5
34F
100
AcDbEntity
  8
0
100
AcDbLine
 62
7
  6
CONTINUOUS
 10
3.4067271243
 20
7.4413050726
 11
3.4067266763
 21
7.4581997783
  0
LINE
  5
350
100
AcDbEntity
  8
0
100
AcDbLine
 62
7
  6
CONTINUOUS
 10
3.4067271243
 20
5.3193750894
 11
3.4067269252
 21
5.3212410765
  0
LINE
  5
351
100
AcDbEntity
  8
0
100
AcDbLine
 62
7
  6
CONTINUOUS
 10
3.4067271243
 20
7.6428637204
 11
3.4067266597
 21
7.6505914013
  0
LINE
  5
352
100
AcDbEntity
  8
0
100
AcDbLine
 62
7
  6
CONTINUOUS
 10
3.4171666929
 20
5.2718341411
 11
3.4171666929
 21
5.558043544
  0
LINE
  5
353
100
AcDbEntity
  8
0
100
AcDbLine
 62
7
  6
CONTINUOUS
 10
3.4171666929
 20
5.6264194355
 11
3.4171666929
 21
5.7504351836
  0
LINE
  5
354
100
AcDbEntity
  8
0
100
AcDbLine
 62
7
  6
CONTINUOUS
 10
3.4171666929
 20
5.8771491017
 11
3.4171666929
 21
6.0011648498
  0
LINE
  5
355
100
AcDbEntity
  8
0
100
AcDbLine
 62
7
  6
CONTINUOUS
 10
3.4171666929
 20
6.1691299822
 11
3.4171666929
 21
6.2931457302
  0
LINE
  5
356
100
AcDbEntity
  8
0
100
AcDbLine
 62
7
  6
CONTINUOUS
 10
3.4171666929
 20
6.4824640624
 11
3.4171666929
 21
6.6064798104
  0
LINE
  5
357
100
AcDbEntity
  8
0
100
AcDbLine
 62
7
  6
CONTINUOUS
 10
3.4171666929
 20
6.7957981426
 11
3.4171666929
 21
6.9198138906
  0
LINE
  5
358
100
AcDbEntity
  8
0
100
AcDbLine
 62
7
  6
CONTINUOUS
 10
3.4171666929
 20
7.087779023
 11
3.4171666929
 21
7.211794771
  0
LINE
  5
359
100
AcDbEntity
  8
0
100
AcDbLine
 62
7
  6
CONTINUOUS
 10
3.4171666929
 20
7.3385086892
 11
3.4171666929
 21
7.4625244372
  0
LINE
  5
35A
100
AcDbEntity
  8
0
100
AcDbLine
 62
7
  6
CONTINUOUS
 10
3.4171666929
 20
7.5309003288
 11
3.4171666929
 21
7.8171097317
  0
LINE
  5
35B
100
AcDbEntity
  8
0
100
AcDbLine
 62
7
  6
CONTINUOUS
 10
3.3091903543
 20
7.1391515419
 11
3.3091903538
 21
7.1391482519
  0
LINE
  5
35C
100
AcDbEntity
  8
0
100
AcDbLine
 62
7
  6
CONTINUOUS
 10
3.2032515016
 20
6.4228953964
 11
3.2032516965
 21
6.1061335804
  0
LINE
  5
35D
100
AcDbEntity
  8
0
100
AcDbLine
 62
7
  6
CONTINUOUS
 10
3.3694511485
 20
5.6173810222
 11
3.3694512713
 21
5.4610376628
  0
LINE
  5
35E
100
AcDbEntity
  8
DEFAULT_SURFACES
100
AcDbLine
 62
7
  6
CONTINUOUS
 10
3.4557909077
 20
7.9537941698
 11
3.45756323
 21
7.9876120938
  0
LINE
  5
35F
100
AcDbEntity
  8
DEFAULT_SURFACES
100
AcDbLine
 62
7
  6
CONTINUOUS
 10
3.4557909077
 20
5.135149703
 11
3.45756323
 21
5.101331779
  0
LINE
  5
360
100
AcDbEntity
  8
0
100
AcDbLine
 62
7
  6
CONTINUOUS
 10
3.4433565553
 20
7.868712067
 11
3.4433565553
 21
5.2221345155
  0
LINE
  5
361
100
AcDbEntity
  8
0
100
AcDbLine
 62
7
  6
CONTINUOUS
 10
3.4435392773
 20
7.8707437643
 11
3.4435392773
 21
5.2182001085
  0
LINE
  5
362
100
AcDbEntity
  8
DEFAULT_SURFACES
100
AcDbLine
 62
7
  6
CONTINUOUS
 10
3.4557909077
 20
5.135149703
 11
3.4557909077
 21
7.9537941698
  0
LINE
  5
363
100
AcDbEntity
  8
0
100
AcDbLine
 62
7
  6
CONTINUOUS
 10
3.45756323
 20
7.9876120934
 11
3.45756323
 21
5.1013317794
  0
LINE
  5
364
100
AcDbEntity
  8
0
100
AcDbLine
 62
7
  6
CONTINUOUS
 10
3.5174810021
 20
8.0444719364
 11
3.5174810021
 21
5.0444719364
  0
LINE
  5
365
100
AcDbEntity
  8
0
100
AcDbLine
 62
7
  6
CONTINUOUS
 10
4.6596407978
 20
6.1444282523
 11
4.2279454585
 21
5.7092263863
  0
LINE
  5
366
100
AcDbEntity
  8
0
100
AcDbLine
 62
7
  6
CONTINUOUS
 10
6.0592845261
 20
1.1064391453
 11
6.0596351493
 21
1.1060338943
  0
LINE
  5
367
100
AcDbEntity
  8
0
100
AcDbLine
 62
7
  6
CONTINUOUS
 10
6.0596351493
 20
1.2125338943
 11
6.0592845261
 21
1.2129391453
  0
LINE
  5
368
100
AcDbEntity
  8
0
100
AcDbLine
 62
7
  6
CONTINUOUS
 10
3.3160946113
 20
7.2765226787
 11
3.3160974436
 21
7.2765044657
  0
LINE
  5
369
100
AcDbEntity
  8
0
100
AcDbLine
 62
7
  6
CONTINUOUS
 10
4.1505431281
 20
5.0444719364
 11
4.1505431281
 21
8.0444719364
  0
LINE
  5
36A
100
AcDbEntity
  8
0
100
AcDbLine
 62
7
  6
CONTINUOUS
 10
4.2105431281
 20
5.1044719364
 11
4.2105431281
 21
7.9844719364
  0
LINE
  5
36B
100
AcDbEntity
  8
0
100
AcDbLine
 62
7
  6
CONTINUOUS
 10
4.2279454585
 20
5.7092263863
 11
4.2279454585
 21
7.3797174865
  0
LINE
  5
36C
100
AcDbEntity
  8
0
100
AcDbLine
 62
7
  6
CONTINUOUS
 10
6.1585546694
 20
4.1406109745
 11
5.3472156291
 21
4.1406109745
  0
LINE
  5
36D
100
AcDbEntity
  8
0
100
AcDbLine
 62
7
  6
CONTINUOUS
 10
6.2008323789
 20
4.1895199847
 11
5.3049379197
 21
4.1895199847
  0
LINE
  5
36E
100
AcDbEntity
  8
0
100
AcDbLine
 62
7
  6
CONTINUOUS
 10
6.2291351493
 20
4.2194719364
 11
5.2766351493
 21
4.2194719364
  0
LINE
  5
36F
100
AcDbEntity
  8
0
100
AcDbLine
 62
7
  6
CONTINUOUS
 10
6.2291351493
 20
4.2719719364
 11
5.2766351493
 21
4.2719719364
  0
LINE
  5
370
100
AcDbEntity
  8
0
100
AcDbLine
 62
7
  6
CONTINUOUS
 10
3.4067271243
 20
5.276158352
 11
3.4006115582
 21
5.282273918
  0
LINE
  5
371
100
AcDbEntity
  8
0
100
AcDbLine
 62
7
  6
CONTINUOUS
 10
3.4067266763
 20
5.3174100143
 11
3.4006115582
 21
5.3235251323
  0
LINE
  5
372
100
AcDbEntity
  8
0
100
AcDbLine
 62
7
  6
CONTINUOUS
 10
3.3755665285
 20
5.4549224055
 11
3.3694512713
 21
5.4610376628
  0
LINE
  5
373
100
AcDbEntity
  8
0
100
AcDbLine
 62
7
  6
CONTINUOUS
 10
3.4067266764
 20
5.4383524548
 11
3.4006115582
 21
5.4444675729
  0
LINE
  5
374
100
AcDbEntity
  8
0
100
AcDbLine
 62
7
  6
CONTINUOUS
 10
4.6596407979
 20
6.1444282525
 11
4.6596407979
 21
6.9445156203
  0
LINE
  5
375
100
AcDbEntity
  8
0
100
AcDbLine
 62
7
  6
CONTINUOUS
 10
4.6770431281
 20
6.1866957276
 11
4.6770431281
 21
6.9022611705
  0
LINE
  5
376
100
AcDbEntity
  8
0
100
AcDbLine
 62
7
  6
CONTINUOUS
 10
6.1991351493
 20
4.3019719364
 11
5.3066351493
 21
4.3019719364
  0
LINE
  5
377
100
AcDbEntity
  8
0
100
AcDbLine
 62
7
  6
CONTINUOUS
 10
6.15337748
 20
4.3186525188
 11
5.3523928185
 21
4.3186525188
  0
LINE
  5
378
100
AcDbEntity
  8
0
100
AcDbLine
 62
7
  6
CONTINUOUS
 10
6.0454175443
 20
4.4519719364
 11
5.4603527542
 21
4.4519719364
  0
LINE
  5
379
100
AcDbEntity
  8
0
100
AcDbLine
 62
7
  6
CONTINUOUS
 10
6.0341351493
 20
4.4817733309
 11
5.4716351493
 21
4.4817733309
  0
LINE
  5
37A
100
AcDbEntity
  8
0
100
AcDbLine
 62
7
  6
CONTINUOUS
 10
3.3755665285
 20
5.5258460505
 11
3.3694511485
 21
5.5319614305
  0
LINE
  5
37B
100
AcDbEntity
  8
0
100
AcDbLine
 62
7
  6
CONTINUOUS
 10
3.4067266763
 20
5.6307440945
 11
3.4006115582
 21
5.6368592125
  0
LINE
  5
37C
100
AcDbEntity
  8
0
100
AcDbLine
 62
7
  6
CONTINUOUS
 10
3.3755665285
 20
5.6628600111
 11
3.3694511469
 21
5.6689753928
  0
LINE
  5
37D
100
AcDbEntity
  8
0
100
AcDbLine
 62
7
  6
CONTINUOUS
 10
3.2899688698
 20
5.8577910916
 11
3.2803941481
 21
5.8673658133
  0
LINE
  5
37E
100
AcDbEntity
  8
0
100
AcDbLine
 62
7
  6
CONTINUOUS
 10
3.2899688698
 20
5.9342248913
 11
3.2803941477
 21
5.9437996133
  0
LINE
  5
37F
100
AcDbEntity
  8
0
100
AcDbLine
 62
7
  6
CONTINUOUS
 10
4.7220431281
 20
6.1814719364
 11
4.7220431281
 21
6.9074719364
  0
LINE
  5
380
100
AcDbEntity
  8
0
100
AcDbLine
 62
7
  6
CONTINUOUS
 10
4.7370431281
 20
6.1814719364
 11
4.7370431281
 21
6.9074719364
  0
LINE
  5
381
100
AcDbEntity
  8
0
100
AcDbLine
 62
7
  6
CONTINUOUS
 10
4.7909270301
 20
6.8846401749
 11
4.7909270301
 21
6.2043036979
  0
LINE
  5
382
100
AcDbEntity
  8
0
100
AcDbLine
 62
7
  6
CONTINUOUS
 10
4.8093516065
 20
6.8731435748
 11
4.8093516065
 21
6.215800298
  0
LINE
  5
383
100
AcDbEntity
  8
0
100
AcDbLine
 62
7
  6
CONTINUOUS
 10
4.909135071
 20
6.248221911
 11
4.9091351493
 21
6.8407219364
  0
LINE
  5
384
100
AcDbEntity
  8
0
100
AcDbLine
 62
7
  6
CONTINUOUS
 10
4.9426761689
 20
6.8257219364
 11
4.9426761689
 21
6.2632219364
  0
LINE
  5
385
100
AcDbEntity
  8
0
100
AcDbLine
 62
7
  6
CONTINUOUS
 10
3.3755665285
 20
5.8566270125
 11
3.3694511485
 21
5.8627423925
  0
LINE
  5
386
100
AcDbEntity
  8
0
100
AcDbLine
 62
7
  6
CONTINUOUS
 10
3.4067266763
 20
5.8814737607
 11
3.4006115582
 21
5.8875888787
  0
LINE
  5
387
100
AcDbEntity
  8
0
100
AcDbLine
 62
7
  6
CONTINUOUS
 10
3.2093668848
 20
6.1000183921
 11
3.2032516965
 21
6.1061335804
  0
LINE
  5
388
100
AcDbEntity
  8
0
100
AcDbLine
 62
7
  6
CONTINUOUS
 10
3.2899688697
 20
6.0439091796
 11
3.2803941488
 21
6.0534839005
  0
LINE
  5
389
100
AcDbEntity
  8
0
100
AcDbLine
 62
7
  6
CONTINUOUS
 10
3.2093668836
 20
6.2339199289
 11
3.2032515016
 21
6.240035311
  0
LINE
  5
38A
100
AcDbEntity
  8
0
100
AcDbLine
 62
7
  6
CONTINUOUS
 10
3.3755665285
 20
6.0939421536
 11
3.3694511485
 21
6.1000575336
  0
LINE
  5
38B
100
AcDbEntity
  8
0
100
AcDbLine
 62
7
  6
CONTINUOUS
 10
3.4067266763
 20
6.1734546411
 11
3.4006115582
 21
6.1795697591
  0
LINE
  5
38C
100
AcDbEntity
  8
ALL_FEATURES
100
AcDbLine
 62
7
  6
CONTINUOUS
 10
5.6766946479
 20
1.0282217082
 11
5.6786273372
 21
1.0207219364
  0
LINE
  5
38D
100
AcDbEntity
  8
ALL_FEATURES
100
AcDbLine
 62
7
  6
CONTINUOUS
 10
5.6675726493
 20
1.0207219364
 11
5.6658851493
 21
1.0282219364
  0
LINE
  5
38E
100
AcDbEntity
  8
0
100
AcDbLine
 62
7
  6
CONTINUOUS
 10
4.1505431281
 20
5.0444719364
 11
3.5174810021
 21
5.0444719364
  0
LINE
  5
38F
100
AcDbEntity
  8
0
100
AcDbLine
 62
7
  6
CONTINUOUS
 10
3.2093668848
 20
6.4925978306
 11
3.2032515016
 21
6.4987132139
  0
LINE
  5
390
100
AcDbEntity
  8
0
100
AcDbLine
 62
7
  6
CONTINUOUS
 10
3.3755665285
 20
6.3586327999
 11
3.3694511485
 21
6.3647481799
  0
LINE
  5
391
100
AcDbEntity
  8
0
100
AcDbLine
 62
7
  6
CONTINUOUS
 10
3.2899688698
 20
6.5235402923
 11
3.2803941485
 21
6.5331150136
  0
LINE
  5
392
100
AcDbEntity
  8
0
100
AcDbLine
 62
7
  6
CONTINUOUS
 10
3.4067266763
 20
6.4867887213
 11
3.4006115582
 21
6.4929038393
  0
LINE
  5
393
100
AcDbEntity
  8
0
100
AcDbLine
 62
7
  6
CONTINUOUS
 10
3.2093668836
 20
6.7245220948
 11
3.2032515016
 21
6.7306374768
  0
LINE
  5
394
100
AcDbEntity
  8
0
100
AcDbLine
 62
7
  6
CONTINUOUS
 10
5.2766351493
 20
1.3319719364
 11
5.2766351493
 21
1.3844719364
  0
LINE
  5
395
100
AcDbEntity
  8
0
100
AcDbLine
 62
7
  6
CONTINUOUS
 10
5.2766351493
 20
4.2194719364
 11
5.2766351493
 21
4.2719719364
  0
LINE
  5
396
100
AcDbEntity
  8
0
100
AcDbLine
 62
7
  6
CONTINUOUS
 10
5.2841351493
 20
6.2632219364
 11
5.2841351493
 21
6.8257219364
  0
LINE
  5
397
100
AcDbEntity
  8
0
100
AcDbLine
 62
7
  6
CONTINUOUS
 10
5.4461351493
 20
1.0730344364
 11
5.4461351493
 21
1.0794088943
  0
LINE
  5
398
100
AcDbEntity
  8
0
100
AcDbLine
 62
7
  6
CONTINUOUS
 10
5.4461351493
 20
1.1262844364
 11
5.4461351493
 21
1.1326588943
  0
LINE
  5
399
100
AcDbEntity
  8
0
100
AcDbLine
 62
7
  6
CONTINUOUS
 10
5.4461351493
 20
1.1795344364
 11
5.4461351493
 21
1.1859088943
  0
LINE
  5
39A
100
AcDbEntity
  8
0
100
AcDbLine
 62
7
  6
CONTINUOUS
 10
5.4461351493
 20
1.2327844364
 11
5.4461351493
 21
1.2391588943
  0
LINE
  5
39B
100
AcDbEntity
  8
0
100
AcDbLine
 62
7
  6
CONTINUOUS
 10
5.4716351493
 20
4.4817733309
 11
5.4716351493
 21
6.0757219364
  0
LINE
  5
39C
100
AcDbEntity
  8
0
100
AcDbLine
 62
7
  6
CONTINUOUS
 10
5.4751301493
 20
1.2160441653
 11
5.4751301493
 21
1.2026491653
  0
LINE
  5
39D
100
AcDbEntity
  8
0
100
AcDbLine
 62
7
  6
CONTINUOUS
 10
5.4751301493
 20
1.1627941653
 11
5.4751301493
 21
1.1493991653
  0
LINE
  5
39E
100
AcDbEntity
  8
0
100
AcDbLine
 62
7
  6
CONTINUOUS
 10
5.4751301493
 20
1.1095441653
 11
5.4751301493
 21
1.0961491653
  0
LINE
  5
39F
100
AcDbEntity
  8
0
100
AcDbLine
 62
7
  6
CONTINUOUS
 10
5.4751301493
 20
1.0562941653
 11
5.4751301493
 21
1.0433466459
  0
LINE
  5
3A0
100
AcDbEntity
  8
0
100
AcDbLine
 62
7
  6
CONTINUOUS
 10
5.4791351493
 20
1.2457219364
 11
5.4791351493
 21
1.3019719364
  0
LINE
  5
3A1
100
AcDbEntity
  8
0
100
AcDbLine
 62
7
  6
CONTINUOUS
 10
5.3523928185
 20
4.3186525188
 11
5.4603527542
 21
4.4519719364
  0
LINE
  5
3A2
100
AcDbEntity
  8
0
100
AcDbLine
 62
7
  6
CONTINUOUS
 10
3.4433565553
 20
5.2718341411
 11
3.4171666929
 21
5.2718341411
  0
LINE
  5
3A3
100
AcDbEntity
  8
0
100
AcDbLine
 62
7
  6
CONTINUOUS
 10
3.2899688698
 20
6.6868013263
 11
3.2803941485
 21
6.6963760476
  0
LINE
  5
3A4
100
AcDbEntity
  8
0
100
AcDbLine
 62
7
  6
CONTINUOUS
 10
3.3755665285
 20
6.6326607212
 11
3.3694511485
 21
6.6387761012
  0
LINE
  5
3A5
100
AcDbEntity
  8
0
100
AcDbLine
 62
7
  6
CONTINUOUS
 10
3.2899688698
 20
6.8386033761
 11
3.2803941485
 21
6.8481780974
  0
LINE
  5
3A6
100
AcDbEntity
  8
0
100
AcDbLine
 62
7
  6
CONTINUOUS
 10
3.4067266763
 20
6.8001228015
 11
3.4006115582
 21
6.8062379195
  0
LINE
  5
3A7
100
AcDbEntity
  8
0
100
AcDbLine
 62
7
  6
CONTINUOUS
 10
3.3755665285
 20
6.8973513675
 11
3.3694511485
 21
6.9034667474
  0
LINE
  5
3A8
100
AcDbEntity
  8
0
100
AcDbLine
 62
7
  6
CONTINUOUS
 10
5.6144781408
 20
1.2457219364
 11
5.6144781408
 21
1.2421296641
  0
LINE
  5
3A9
100
AcDbEntity
  8
0
100
AcDbLine
 62
7
  6
CONTINUOUS
 10
5.6144781408
 20
1.0823796641
 11
5.6144781408
 21
1.088754122
  0
LINE
  5
3AA
100
AcDbEntity
  8
0
100
AcDbLine
 62
7
  6
CONTINUOUS
 10
5.6144781408
 20
1.1356296641
 11
5.6144781408
 21
1.142004122
  0
LINE
  5
3AB
100
AcDbEntity
  8
0
100
AcDbLine
 62
7
  6
CONTINUOUS
 10
5.6144781408
 20
1.1888796641
 11
5.6144781408
 21
1.195254122
  0
LINE
  5
3AC
100
AcDbEntity
  8
ALL_FEATURES
100
AcDbLine
 62
7
  6
CONTINUOUS
 10
5.6675726493
 20
1.0132219364
 11
5.6675726493
 21
1.0207219364
  0
LINE
  5
3AD
100
AcDbEntity
  8
ALL_FEATURES
100
AcDbLine
 62
7
  6
CONTINUOUS
 10
5.6786273372
 20
1.0132219364
 11
5.6786273372
 21
1.0207219364
  0
LINE
  5
3AE
100
AcDbEntity
  8
ALL_FEATURES
100
AcDbLine
 62
7
  6
CONTINUOUS
 10
5.6964950113
 20
1.0132219364
 11
5.6964950113
 21
1.0282219364
  0
LINE
  5
3AF
100
AcDbEntity
  8
0
100
AcDbLine
 62
7
  6
CONTINUOUS
 10
5.7058875161
 20
1.0547707174
 11
5.7058875161
 21
1.0681657174
  0
LINE
  5
3B0
100
AcDbEntity
  8
0
100
AcDbLine
 62
7
  6
CONTINUOUS
 10
5.7058875161
 20
1.1080207174
 11
5.7058875161
 21
1.1214157174
  0
LINE
  5
3B1
100
AcDbEntity
  8
0
100
AcDbLine
 62
7
  6
CONTINUOUS
 10
5.7058875161
 20
1.1612707174
 11
5.7058875161
 21
1.1746657174
  0
LINE
  5
3B2
100
AcDbEntity
  8
0
100
AcDbLine
 62
7
  6
CONTINUOUS
 10
5.7058875161
 20
1.2145207174
 11
5.7058875161
 21
1.2279157174
  0
LINE
  5
3B3
100
AcDbEntity
  8
ALL_FEATURES
100
AcDbLine
 62
7
  6
CONTINUOUS
 10
5.7108851493
 20
1.0132219364
 11
5.7108851493
 21
1.0282219364
  0
LINE
  5
3B4
100
AcDbEntity
  8
0
100
AcDbLine
 62
7
  6
CONTINUOUS
 10
3.4433565553
 20
5.3130853554
 11
3.4171666929
 21
5.3130853554
  0
LINE
  5
3B5
100
AcDbEntity
  8
0
100
AcDbLine
 62
7
  6
CONTINUOUS
 10
3.4433565553
 20
5.434027796
 11
3.4171666929
 21
5.434027796
  0
LINE
  5
3B6
100
AcDbEntity
  8
0
100
AcDbLine
 62
7
  6
CONTINUOUS
 10
3.3969562179
 20
5.4505979751
 11
3.3860063167
 21
5.4505979751
  0
LINE
  5
3B7
100
AcDbEntity
  8
0
100
AcDbLine
 62
7
  6
CONTINUOUS
 10
3.3962875557
 20
5.52152162
 11
3.3860063167
 21
5.52152162
  0
LINE
  5
3B8
100
AcDbEntity
  8
0
100
AcDbLine
 62
7
  6
CONTINUOUS
 10
3.4336435036
 20
5.558043544
 11
3.4171666929
 21
5.558043544
  0
LINE
  5
3B9
100
AcDbEntity
  8
0
100
AcDbLine
 62
7
  6
CONTINUOUS
 10
3.2818796527
 20
6.0267060614
 11
3.2234057842
 21
6.0479888091
  0
LINE
  5
3BA
100
AcDbEntity
  8
0
100
AcDbLine
 62
7
  6
CONTINUOUS
 10
3.2899688698
 20
7.1483509571
 11
3.2803941485
 21
7.1579256784
  0
LINE
  5
3BB
100
AcDbEntity
  8
0
100
AcDbLine
 62
7
  6
CONTINUOUS
 10
3.4067269378
 20
7.0921034204
 11
3.4006115776
 21
7.0982187806
  0
LINE
  5
3BC
100
AcDbEntity
  8
0
100
AcDbLine
 62
7
  6
CONTINUOUS
 10
3.3755665285
 20
7.1346665086
 11
3.3694511485
 21
7.1407818886
  0
LINE
  5
3BD
100
AcDbEntity
  8
0
100
AcDbLine
 62
7
  6
CONTINUOUS
 10
6.15337748
 20
4.3186525188
 11
6.0454175443
 21
4.4519719364
  0
LINE
  5
3BE
100
AcDbEntity
  8
ALL_FEATURES
100
AcDbLine
 62
7
  6
CONTINUOUS
 10
5.7948851493
 20
1.0132219364
 11
5.7948851493
 21
1.0282219364
  0
LINE
  5
3BF
100
AcDbEntity
  8
0
100
AcDbLine
 62
7
  6
CONTINUOUS
 10
5.7998827824
 20
1.2307976133
 11
5.7998827824
 21
1.2174026133
  0
LINE
  5
3C0
100
AcDbEntity
  8
0
100
AcDbLine
 62
7
  6
CONTINUOUS
 10
5.7998827824
 20
1.1775476133
 11
5.7998827824
 21
1.1641526133
  0
LINE
  5
3C1
100
AcDbEntity
  8
0
100
AcDbLine
 62
7
  6
CONTINUOUS
 10
5.7998827824
 20
1.1242976133
 11
5.7998827824
 21
1.1109026133
  0
LINE
  5
3C2
100
AcDbEntity
  8
0
100
AcDbLine
 62
7
  6
CONTINUOUS
 10
5.7998827824
 20
1.0710476133
 11
5.7998827824
 21
1.0576526133
  0
LINE
  5
3C3
100
AcDbEntity
  8
ALL_FEATURES
100
AcDbLine
 62
7
  6
CONTINUOUS
 10
5.8092752872
 20
1.0132219364
 11
5.8092752872
 21
1.0282219364
  0
LINE
  5
3C4
100
AcDbEntity
  8
ALL_FEATURES
100
AcDbLine
 62
7
  6
CONTINUOUS
 10
5.8271429613
 20
1.0132219364
 11
5.8271429613
 21
1.0207219364
  0
LINE
  5
3C5
100
AcDbEntity
  8
ALL_FEATURES
100
AcDbLine
 62
7
  6
CONTINUOUS
 10
5.8381976493
 20
1.0132219364
 11
5.8381976493
 21
1.0207219364
  0
LINE
  5
3C6
100
AcDbEntity
  8
0
100
AcDbLine
 62
7
  6
CONTINUOUS
 10
5.8912921577
 20
1.0903142087
 11
5.8912921577
 21
1.0966886665
  0
LINE
  5
3C7
100
AcDbEntity
  8
0
100
AcDbLine
 62
7
  6
CONTINUOUS
 10
5.8912921577
 20
1.1435642087
 11
5.8912921577
 21
1.1499386665
  0
LINE
  5
3C8
100
AcDbEntity
  8
0
100
AcDbLine
 62
7
  6
CONTINUOUS
 10
5.8912921577
 20
1.1968142087
 11
5.8912921577
 21
1.2031886665
  0
LINE
  5
3C9
100
AcDbEntity
  8
0
100
AcDbLine
 62
7
  6
CONTINUOUS
 10
3.4433565553
 20
5.6264194355
 11
3.4171666929
 21
5.6264194355
  0
LINE
  5
3CA
100
AcDbEntity
  8
0
100
AcDbLine
 62
7
  6
CONTINUOUS
 10
3.4013652903
 20
5.6278208326
 11
3.3860063167
 21
5.6278208326
  0
LINE
  5
3CB
100
AcDbEntity
  8
0
100
AcDbLine
 62
7
  6
CONTINUOUS
 10
3.3962875557
 20
5.6585355807
 11
3.3860063167
 21
5.6585355807
  0
LINE
  5
3CC
100
AcDbEntity
  8
0
100
AcDbLine
 62
7
  6
CONTINUOUS
 10
3.3498217704
 20
5.6734089443
 11
3.3447433559
 21
5.6734089443
  0
LINE
  5
3CD
100
AcDbEntity
  8
0
100
AcDbLine
 62
7
  6
CONTINUOUS
 10
3.4359307322
 20
5.7504351836
 11
3.4171666929
 21
5.7504351836
  0
LINE
  5
3CE
100
AcDbEntity
  8
0
100
AcDbLine
 62
7
  6
CONTINUOUS
 10
3.4027527621
 20
5.7648347933
 11
3.3860063167
 21
5.7648347933
  0
LWPOLYLINE
  5
3CF
100
AcDbEntity
  8
0
100
AcDbPolyline
 62
7
  6
CONTINUOUS
 90
12
 70
0
 10
3.3155984129
 20
5.8551964072
 10
3.316922752
 20
5.8550955659
 10
3.3183436596
 20
5.8547535045
 10
3.3196474783
 20
5.8541995485
 10
3.3207667869
 20
5.8534968497
 10
3.3215996855
 20
5.8527930101
 10
3.322184536
 20
5.8521688911
 10
3.3226235975
 20
5.8515984394
 10
3.322943665
 20
5.8511001824
 10
3.3231408925
 20
5.8507389811
 10
3.3232434685
 20
5.8505239368
 10
3.3232746109
 20
5.8504526307
  0
LWPOLYLINE
  5
3D0
100
AcDbEntity
  8
0
100
AcDbPolyline
 62
7
  6
CONTINUOUS
 90
9
 70
0
 10
3.3147061806
 20
5.9316319486
 10
3.3162446188
 20
5.9314922891
 10
3.3176513841
 20
5.9311069663
 10
3.3188612052
 20
5.930546856
 10
3.3198579766
 20
5.9298840295
 10
3.3205818039
 20
5.9292475825
 10
3.3210823979
 20
5.928696385
 10
3.3214394882
 20
5.9282175695
 10
3.3215580145
 20
5.9280344797
  0
LINE
  5
3D1
100
AcDbEntity
  8
0
100
AcDbLine
 62
7
  6
CONTINUOUS
 10
3.3755665285
 20
7.3284335099
 11
3.3694511485
 21
7.33454889
  0
LINE
  5
3D2
100
AcDbEntity
  8
0
100
AcDbLine
 62
7
  6
CONTINUOUS
 10
3.4067266763
 20
7.3428333481
 11
3.4006115582
 21
7.3489484661
  0
LINE
  5
3D3
100
AcDbEntity
  8
0
100
AcDbLine
 62
7
  6
CONTINUOUS
 10
3.3755665285
 20
7.4654474706
 11
3.3694511485
 21
7.4715628506
  0
LINE
  5
3D4
100
AcDbEntity
  8
0
100
AcDbLine
 62
7
  6
CONTINUOUS
 10
3.4067266597
 20
7.5352250043
 11
3.4006115582
 21
7.5413401057
  0
LINE
  5
3D5
100
AcDbEntity
  8
0
100
AcDbLine
 62
7
  6
CONTINUOUS
 10
6.0266351493
 20
1.2457219364
 11
6.0266351493
 21
1.3019719364
  0
LINE
  5
3D6
100
AcDbEntity
  8
0
100
AcDbLine
 62
7
  6
CONTINUOUS
 10
6.0306401493
 20
1.0282219364
 11
6.0306401493
 21
1.0296691653
  0
LINE
  5
3D7
100
AcDbEntity
  8
0
100
AcDbLine
 62
7
  6
CONTINUOUS
 10
6.0306401493
 20
1.0695241653
 11
6.0306401493
 21
1.0829191653
  0
LINE
  5
3D8
100
AcDbEntity
  8
0
100
AcDbLine
 62
7
  6
CONTINUOUS
 10
6.0306401493
 20
1.1227741653
 11
6.0306401493
 21
1.1361691653
  0
LINE
  5
3D9
100
AcDbEntity
  8
0
100
AcDbLine
 62
7
  6
CONTINUOUS
 10
6.0306401493
 20
1.1760241653
 11
6.0306401493
 21
1.1894191653
  0
LINE
  5
3DA
100
AcDbEntity
  8
0
100
AcDbLine
 62
7
  6
CONTINUOUS
 10
6.0306401493
 20
1.2292741653
 11
6.0306401493
 21
1.2426691653
  0
LINE
  5
3DB
100
AcDbEntity
  8
0
100
AcDbLine
 62
7
  6
CONTINUOUS
 10
6.0341351493
 20
4.4817733309
 11
6.0341351493
 21
6.0757219364
  0
LINE
  5
3DC
100
AcDbEntity
  8
0
100
AcDbLine
 62
7
  6
CONTINUOUS
 10
6.0596351493
 20
1.0507219364
 11
6.0596351493
 21
1.0527838943
  0
LINE
  5
3DD
100
AcDbEntity
  8
0
100
AcDbLine
 62
7
  6
CONTINUOUS
 10
6.0596351493
 20
1.0996594364
 11
6.0596351493
 21
1.1060338943
  0
LINE
  5
3DE
100
AcDbEntity
  8
0
100
AcDbLine
 62
7
  6
CONTINUOUS
 10
6.0596351493
 20
1.1529094364
 11
6.0596351493
 21
1.1592838943
  0
LINE
  5
3DF
100
AcDbEntity
  8
0
100
AcDbLine
 62
7
  6
CONTINUOUS
 10
6.0596351493
 20
1.2061594364
 11
6.0596351493
 21
1.2125338943
  0
LINE
  5
3E0
100
AcDbEntity
  8
0
100
AcDbLine
 62
7
  6
CONTINUOUS
 10
6.2291351493
 20
1.3319719364
 11
6.2291351493
 21
1.3844719364
  0
LINE
  5
3E1
100
AcDbEntity
  8
0
100
AcDbLine
 62
7
  6
CONTINUOUS
 10
6.2291351493
 20
4.2194719364
 11
6.2291351493
 21
4.2719719364
  0
LINE
  5
3E2
100
AcDbEntity
  8
0
100
AcDbLine
 62
7
  6
CONTINUOUS
 10
3.4176802174
 20
5.852302582
 11
3.3860063167
 21
5.852302582
  0
LINE
  5
3E3
100
AcDbEntity
  8
0
100
AcDbLine
 62
7
  6
CONTINUOUS
 10
3.3155983822
 20
5.8551965323
 11
3.2962326437
 21
5.8551965323
  0
LINE
  5
3E4
100
AcDbEntity
  8
0
100
AcDbLine
 62
7
  6
CONTINUOUS
 10
3.4433565553
 20
5.8771491017
 11
3.4171666929
 21
5.8771491017
  0
LINE
  5
3E5
100
AcDbEntity
  8
0
100
AcDbLine
 62
7
  6
CONTINUOUS
 10
3.3147080371
 20
5.9316303319
 11
3.2962326437
 21
5.9316303319
  0
LINE
  5
3E6
100
AcDbEntity
  8
0
100
AcDbLine
 62
7
  6
CONTINUOUS
 10
3.3962875557
 20
5.9586017946
 11
3.3860063167
 21
5.9586017946
  0
LINE
  5
3E7
100
AcDbEntity
  8
0
100
AcDbLine
 62
7
  6
CONTINUOUS
 10
3.4389130132
 20
6.0011648498
 11
3.4171666929
 21
6.0011648498
  0
LINE
  5
3E8
100
AcDbEntity
  8
0
100
AcDbLine
 62
7
  6
CONTINUOUS
 10
3.3017199297
 20
6.0379295445
 11
3.2962326437
 21
6.0379295445
  0
LINE
  5
3E9
100
AcDbEntity
  8
0
100
AcDbLine
 62
7
  6
CONTINUOUS
 10
3.3134313101
 20
6.0413146202
 11
3.2962326437
 21
6.0413146202
  0
LINE
  5
3EA
100
AcDbEntity
  8
0
100
AcDbLine
 62
7
  6
CONTINUOUS
 10
5.4716351493
 20
6.0757219364
 11
6.0341351493
 21
6.0757219364
  0
LWPOLYLINE
  5
3EB
100
AcDbEntity
  8
0
100
AcDbPolyline
 62
7
  6
CONTINUOUS
 90
9
 70
0
 10
3.3134344634
 20
6.0413161715
 10
3.3148357941
 20
6.0411970528
 10
3.3162028123
 20
6.040839074
 10
3.31735278
 20
6.0403240141
 10
3.3182875542
 20
6.0397226929
 10
3.3189597609
 20
6.0391521067
 10
3.3194108569
 20
6.0386738717
 10
3.3197154269
 20
6.0382823804
 10
3.3197942182
 20
6.0381665992
  0
LWPOLYLINE
  5
3EC
100
AcDbEntity
  8
0
100
AcDbPolyline
 62
7
  6
CONTINUOUS
 90
10
 70
0
 10
3.3052350039
 20
7.1444456973
 10
3.3062879984
 20
7.1436813058
 10
3.3071325164
 20
7.142863056
 10
3.307827679
 20
7.1419835561
 10
3.3083529936
 20
7.1411171741
 10
3.3086930754
 20
7.1403910914
 10
3.3089094616
 20
7.1398013419
 10
3.3090510859
 20
7.1393076482
 10
3.3091363609
 20
7.1389211613
 10
3.3091555348
 20
7.1388155962
  0
LINE
  5
3ED
100
AcDbEntity
  8
0
100
AcDbLine
 62
7
  6
CONTINUOUS
 10
3.4067267198
 20
7.6561673848
 11
3.4006115582
 21
7.6622825463
  0
LINE
  5
3EE
100
AcDbEntity
  8
0
100
AcDbLine
 62
7
  6
CONTINUOUS
 10
3.4152704249
 20
6.0896177232
 11
3.3860063167
 21
6.0896177232
  0
LINE
  5
3EF
100
AcDbEntity
  8
0
100
AcDbLine
 62
7
  6
CONTINUOUS
 10
3.3029894821
 20
6.1476138328
 11
3.2962326437
 21
6.1476138328
  0
LINE
  5
3F0
100
AcDbEntity
  8
0
100
AcDbLine
 62
7
  6
CONTINUOUS
 10
3.4433565553
 20
6.1691299822
 11
3.4171666929
 21
6.1691299822
  0
LINE
  5
3F1
100
AcDbEntity
  8
0
100
AcDbLine
 62
7
  6
CONTINUOUS
 10
4.7370431281
 20
6.1814719364
 11
4.7220431281
 21
6.1814719364
  0
LINE
  5
3F2
100
AcDbEntity
  8
0
100
AcDbLine
 62
7
  6
CONTINUOUS
 10
3.3962875557
 20
6.1959169358
 11
3.3860063167
 21
6.1959169358
  0
LINE
  5
3F3
100
AcDbEntity
  8
0
100
AcDbLine
 62
7
  6
CONTINUOUS
 10
5.2841351493
 20
6.2632219364
 11
4.9426761689
 21
6.2632219364
  0
LINE
  5
3F4
100
AcDbEntity
  8
0
100
AcDbLine
 62
7
  6
CONTINUOUS
 10
3.4423881057
 20
6.2931457302
 11
3.4171666929
 21
6.2931457302
  0
LINE
  5
3F5
100
AcDbEntity
  8
0
100
AcDbLine
 62
7
  6
CONTINUOUS
 10
4.6596407978
 20
6.9445156204
 11
4.2279454585
 21
7.3797174865
  0
LINE
  5
3F6
100
AcDbEntity
  8
ALL_FEATURES
100
AcDbLine
 62
7
  6
CONTINUOUS
 10
5.8381976493
 20
1.0207219364
 11
5.8398851493
 21
1.0282219364
  0
LINE
  5
3F7
100
AcDbEntity
  8
ALL_FEATURES
100
AcDbLine
 62
7
  6
CONTINUOUS
 10
5.8271429613
 20
1.0207219364
 11
5.8290747698
 21
1.0282219364
  0
LINE
  5
3F8
100
AcDbEntity
  8
ALL_FEATURES
100
AcDbLine
 62
7
  6
CONTINUOUS
 10
5.8271429613
 20
1.0207219364
 11
5.8287764496
 21
1.0270576865
  0
LINE
  5
3F9
100
AcDbEntity
  8
0
100
AcDbLine
 62
7
  6
CONTINUOUS
 10
3.3078823845
 20
6.5209458076
 11
3.307869203
 21
6.5209457329
  0
LINE
  5
3FA
100
AcDbEntity
  8
0
100
AcDbLine
 62
7
  6
CONTINUOUS
 10
3.4125839588
 20
6.3543083695
 11
3.3860063167
 21
6.3543083695
  0
LINE
  5
3FB
100
AcDbEntity
  8
0
100
AcDbLine
 62
7
  6
CONTINUOUS
 10
3.4098041756
 20
6.4606075821
 11
3.3860063167
 21
6.4606075821
  0
LINE
  5
3FC
100
AcDbEntity
  8
0
100
AcDbLine
 62
7
  6
CONTINUOUS
 10
3.4433565553
 20
6.4824640624
 11
3.4171666929
 21
6.4824640624
  0
LINE
  5
3FD
100
AcDbEntity
  8
0
100
AcDbLine
 62
7
  6
CONTINUOUS
 10
3.307869203
 20
6.5209457329
 11
3.2962326437
 21
6.5209457329
  0
LWPOLYLINE
  5
3FE
100
AcDbEntity
  8
0
100
AcDbPolyline
 62
7
  6
CONTINUOUS
 90
10
 70
0
 10
3.3078783421
 20
6.520947568
 10
3.3080582436
 20
6.5209453096
 10
3.3095162259
 20
6.5207716316
 10
3.3107926032
 20
6.5203789365
 10
3.3118775147
 20
6.5198322438
 10
3.3127285285
 20
6.5192213829
 10
3.3132896581
 20
6.5186903267
 10
3.3136284723
 20
6.5182908771
 10
3.3138233498
 20
6.5180129208
 10
3.3138508104
 20
6.5179685791
  0
LWPOLYLINE
  5
3FF
100
AcDbEntity
  8
0
100
AcDbPolyline
 62
7
  6
CONTINUOUS
 90
8
 70
0
 10
3.3059673673
 20
6.6842065475
 10
3.3075116689
 20
6.684055312
 10
3.3089195507
 20
6.6836370421
 10
3.3100951379
 20
6.6830412527
 10
3.3110233857
 20
6.6823574399
 10
3.3116317253
 20
6.6817562518
 10
3.3120057953
 20
6.681287256
 10
3.3121918923
 20
6.6810031081
  0
LINE
  5
400
100
AcDbEntity
  8
0
100
AcDbLine
 62
7
  6
CONTINUOUS
 10
3.4433565553
 20
6.6064798104
 11
3.4171666929
 21
6.6064798104
  0
LINE
  5
401
100
AcDbEntity
  8
0
100
AcDbLine
 62
7
  6
CONTINUOUS
 10
3.3085493605
 20
6.6272449455
 11
3.2962326437
 21
6.6272449455
  0
LINE
  5
402
100
AcDbEntity
  8
0
100
AcDbLine
 62
7
  6
CONTINUOUS
 10
3.4098041756
 20
6.6283362907
 11
3.3860063167
 21
6.6283362907
  0
LINE
  5
403
100
AcDbEntity
  8
0
100
AcDbLine
 62
7
  6
CONTINUOUS
 10
3.3059748995
 20
6.6842067669
 11
3.2962326437
 21
6.6842067669
  0
LINE
  5
404
100
AcDbEntity
  8
0
100
AcDbLine
 62
7
  6
CONTINUOUS
 10
3.4125839588
 20
6.7346355033
 11
3.3860063167
 21
6.7346355033
  0
LINE
  5
405
100
AcDbEntity
  8
0
100
AcDbLine
 62
7
  6
CONTINUOUS
 10
3.3104503076
 20
6.7905059795
 11
3.2962326437
 21
6.7905059795
  0
LINE
  5
406
100
AcDbEntity
  8
0
100
AcDbLine
 62
7
  6
CONTINUOUS
 10
3.4423881057
 20
6.7957981426
 11
3.4171666929
 21
6.7957981426
  0
LINE
  5
407
100
AcDbEntity
  8
0
100
AcDbLine
 62
7
  6
CONTINUOUS
 10
5.2841351493
 20
6.8257219364
 11
4.9426761689
 21
6.8257219364
  0
LINE
  5
408
100
AcDbEntity
  8
0
100
AcDbLine
 62
7
  6
CONTINUOUS
 10
3.3042075622
 20
6.8360088167
 11
3.2962326437
 21
6.8360088167
  0
LWPOLYLINE
  5
409
100
AcDbEntity
  8
0
100
AcDbPolyline
 62
7
  6
CONTINUOUS
 90
8
 70
0
 10
3.3042086134
 20
6.8360085736
 10
3.3053850685
 20
6.83592313
 10
3.3068240944
 20
6.8355757558
 10
3.3080849284
 20
6.8350206092
 10
3.309131325
 20
6.8343314957
 10
3.3098700047
 20
6.8336697069
 10
3.3103668658
 20
6.8330997175
 10
3.3106925577
 20
6.8326366392
  0
LINE
  5
40A
100
AcDbEntity
  8
0
100
AcDbLine
 62
7
  6
CONTINUOUS
 10
4.909135071
 20
6.8407219618
 11
4.8093516065
 21
6.8731435748
  0
LINE
  5
40B
100
AcDbEntity
  8
0
100
AcDbLine
 62
7
  6
CONTINUOUS
 10
3.3962875557
 20
6.893026937
 11
3.3860063167
 21
6.893026937
  0
LINE
  5
40C
100
AcDbEntity
  8
0
100
AcDbLine
 62
7
  6
CONTINUOUS
 10
4.7370431281
 20
6.9074719364
 11
4.7220431281
 21
6.9074719364
  0
LINE
  5
40D
100
AcDbEntity
  8
0
100
AcDbLine
 62
7
  6
CONTINUOUS
 10
3.4433565553
 20
6.9198138906
 11
3.4171666929
 21
6.9198138906
  0
LINE
  5
40E
100
AcDbEntity
  8
0
100
AcDbLine
 62
7
  6
CONTINUOUS
 10
3.3122099556
 20
6.9423080293
 11
3.2962326437
 21
6.9423080293
  0
LINE
  5
40F
100
AcDbEntity
  8
0
100
AcDbLine
 62
7
  6
CONTINUOUS
 10
3.4152704249
 20
6.9993261496
 11
3.3860063167
 21
6.9993261496
  0
LINE
  5
410
100
AcDbEntity
  8
0
100
AcDbLine
 62
7
  6
CONTINUOUS
 10
3.4389130132
 20
7.087779023
 11
3.4171666929
 21
7.087779023
  0
LWPOLYLINE
  5
411
100
AcDbEntity
  8
0
100
AcDbPolyline
 62
7
  6
CONTINUOUS
 90
5
 70
0
 10
3.3006182123
 20
7.1457560412
 10
3.3011415164
 20
7.1457407401
 10
3.3025599612
 20
7.1455387515
 10
3.3039567309
 20
7.1450976296
 10
3.3052350039
 20
7.1444456973
  0
LINE
  5
412
100
AcDbEntity
  8
0
100
AcDbLine
 62
7
  6
CONTINUOUS
 10
5.4461351493
 20
1.2391588943
 11
5.4464857724
 21
1.2395641453
  0
LINE
  5
413
100
AcDbEntity
  8
0
100
AcDbLine
 62
7
  6
CONTINUOUS
 10
3.3962875557
 20
7.1303420782
 11
3.3860063167
 21
7.1303420782
  0
LINE
  5
414
100
AcDbEntity
  8
0
100
AcDbLine
 62
7
  6
CONTINUOUS
 10
3.3006175406
 20
7.1457563977
 11
3.2962326437
 21
7.1457563977
  0
LINE
  5
415
100
AcDbEntity
  8
0
100
AcDbLine
 62
7
  6
CONTINUOUS
 10
3.4433565553
 20
7.211794771
 11
3.4171666929
 21
7.211794771
  0
LINE
  5
416
100
AcDbEntity
  8
0
100
AcDbLine
 62
7
  6
CONTINUOUS
 10
3.4176802174
 20
7.2366412908
 11
3.3860063167
 21
7.2366412908
  0
LINE
  5
417
100
AcDbEntity
  8
0
100
AcDbLine
 62
7
  6
CONTINUOUS
 10
3.3158088847
 20
7.2520556103
 11
3.2962326437
 21
7.2520556103
  0
LINE
  5
418
100
AcDbEntity
  8
0
100
AcDbLine
 62
7
  6
CONTINUOUS
 10
3.3160946113
 20
7.2765226787
 11
3.2962326437
 21
7.2765226787
  0
LINE
  5
419
100
AcDbEntity
  8
0
100
AcDbLine
 62
7
  6
CONTINUOUS
 10
3.4027527621
 20
7.3241090795
 11
3.3860063167
 21
7.3241090795
  0
LINE
  5
41A
100
AcDbEntity
  8
0
100
AcDbLine
 62
7
  6
CONTINUOUS
 10
3.4359307322
 20
7.3385086892
 11
3.4171666929
 21
7.3385086892
  0
LINE
  5
41B
100
AcDbEntity
  8
0
100
AcDbLine
 62
7
  6
CONTINUOUS
 10
3.3498217704
 20
7.4155349285
 11
3.3447433559
 21
7.4155349285
  0
LINE
  5
41C
100
AcDbEntity
  8
0
100
AcDbLine
 62
7
  6
CONTINUOUS
 10
3.3962875557
 20
7.4304082921
 11
3.3860063167
 21
7.4304082921
  0
LINE
  5
41D
100
AcDbEntity
  8
0
100
AcDbLine
 62
7
  6
CONTINUOUS
 10
3.4013652903
 20
7.4611230402
 11
3.3860063167
 21
7.4611230402
  0
LINE
  5
41E
100
AcDbEntity
  8
0
100
AcDbLine
 62
7
  6
CONTINUOUS
 10
3.4433565553
 20
7.4625244372
 11
3.4171666929
 21
7.4625244372
  0
LINE
  5
41F
100
AcDbEntity
  8
0
100
AcDbLine
 62
7
  6
CONTINUOUS
 10
3.4336435036
 20
7.5309003288
 11
3.4171666929
 21
7.5309003288
  0
LINE
  5
420
100
AcDbEntity
  8
0
100
AcDbLine
 62
7
  6
CONTINUOUS
 10
3.3962875557
 20
7.5674222528
 11
3.3860063167
 21
7.5674222528
  0
LINE
  5
421
100
AcDbEntity
  8
0
100
AcDbLine
 62
7
  6
CONTINUOUS
 10
6.0596351493
 20
1.2061594364
 11
6.0592845261
 21
1.2057541854
  0
LINE
  5
422
100
AcDbEntity
  8
0
100
AcDbLine
 62
7
  6
CONTINUOUS
 10
5.457138751
 20
1.2457219364
 11
5.4464857724
 21
1.2395641453
  0
LINE
  5
423
100
AcDbEntity
  8
0
100
AcDbLine
 62
7
  6
CONTINUOUS
 10
5.4755172285
 20
1.2030966459
 11
5.4751301493
 21
1.202872855
  0
LINE
  5
424
100
AcDbEntity
  8
0
100
AcDbLine
 62
7
  6
CONTINUOUS
 10
5.4751301493
 20
1.202872855
 11
5.4464857724
 21
1.1863141453
  0
LINE
  5
425
100
AcDbEntity
  8
0
100
AcDbLine
 62
7
  6
CONTINUOUS
 10
5.4755172285
 20
1.1498466459
 11
5.4751301493
 21
1.149622855
  0
LINE
  5
426
100
AcDbEntity
  8
0
100
AcDbLine
 62
7
  6
CONTINUOUS
 10
5.4751301493
 20
1.149622855
 11
5.4464857724
 21
1.1330641453
  0
LINE
  5
427
100
AcDbEntity
  8
0
100
AcDbLine
 62
7
  6
CONTINUOUS
 10
5.4755172285
 20
1.0965966459
 11
5.4751301493
 21
1.096372855
  0
LINE
  5
428
100
AcDbEntity
  8
0
100
AcDbLine
 62
7
  6
CONTINUOUS
 10
5.4751301493
 20
1.096372855
 11
5.4464857724
 21
1.0798141453
  0
LINE
  5
429
100
AcDbEntity
  8
0
100
AcDbLine
 62
7
  6
CONTINUOUS
 10
3.3969562179
 20
7.6383458977
 11
3.3860063167
 21
7.6383458977
  0
LINE
  5
42A
100
AcDbEntity
  8
0
100
AcDbLine
 62
7
  6
CONTINUOUS
 10
3.4433565553
 20
7.6549160768
 11
3.4171666929
 21
7.6549160768
  0
LINE
  5
42B
100
AcDbEntity
  8
0
100
AcDbLine
 62
7
  6
CONTINUOUS
 10
3.4433565553
 20
7.7758585174
 11
3.4171666929
 21
7.7758585174
  0
LINE
  5
42C
100
AcDbEntity
  8
0
100
AcDbLine
 62
7
  6
CONTINUOUS
 10
3.4433565553
 20
7.8171097317
 11
3.4171666929
 21
7.8171097317
  0
LINE
  5
42D
100
AcDbEntity
  8
0
100
AcDbLine
 62
7
  6
CONTINUOUS
 10
6.0494316647
 20
1.0405184518
 11
6.0596351493
 21
1.0507219364
  0
LINE
  5
42E
100
AcDbEntity
  8
0
100
AcDbLine
 62
7
  6
CONTINUOUS
 10
5.4755172285
 20
1.0433466459
 11
5.4618060725
 21
1.0354199776
  0
LINE
  5
42F
100
AcDbEntity
  8
0
100
AcDbLine
 62
7
  6
CONTINUOUS
 10
6.03025307
 20
1.2422216848
 11
6.0363074144
 21
1.2457219364
  0
LINE
  5
430
100
AcDbEntity
  8
0
100
AcDbLine
 62
7
  6
CONTINUOUS
 10
6.03025307
 20
1.1889716848
 11
6.0592845261
 21
1.2057541854
  0
LINE
  5
431
100
AcDbEntity
  8
0
100
AcDbLine
 62
7
  6
CONTINUOUS
 10
6.03025307
 20
1.1357216848
 11
6.0592845261
 21
1.1525041854
  0
LINE
  5
432
100
AcDbEntity
  8
0
100
AcDbLine
 62
7
  6
CONTINUOUS
 10
6.03025307
 20
1.0824716848
 11
6.0592845261
 21
1.0992541854
  0
LINE
  5
433
100
AcDbEntity
  8
0
100
AcDbLine
 62
7
  6
CONTINUOUS
 10
6.03025307
 20
1.0292216848
 11
6.0480726968
 21
1.0395233447
  0
LINE
  5
434
100
AcDbEntity
  8
0
100
AcDbLine
 62
7
  6
CONTINUOUS
 10
4.1505431281
 20
8.0444719364
 11
3.5174810021
 21
8.0444719364
  0
ARC
  5
435
100
AcDbEntity
  8
0
100
AcDbCircle
 62
7
  6
CONTINUOUS
 10
-8.9133653174
 20
2.8019719364
 40
15.13125
100
AcDbArc
 50
354.9244926841
 51
5.0755073159
  0
ARC
  5
436
100
AcDbEntity
  8
0
100
AcDbCircle
 62
7
  6
CONTINUOUS
 10
5.3174212503
 20
4.3469719364
 40
0.045
100
AcDbArc
 50
270.0000000029
 51
320.9999999861
  0
ARC
  5
437
100
AcDbEntity
  8
0
100
AcDbCircle
 62
7
  6
CONTINUOUS
 10
5.3023920752
 20
4.1445920571
 40
0.045
100
AcDbArc
 50
354.9244926839
 51
86.756798598
  0
ARC
  5
438
100
AcDbEntity
  8
0
100
AcDbCircle
 62
7
  6
CONTINUOUS
 10
5.3023920752
 20
1.4593518157
 40
0.045
100
AcDbArc
 50
273.243201402
 51
5.0755073161
  0
ARC
  5
439
100
AcDbEntity
  8
0
100
AcDbCircle
 62
7
  6
CONTINUOUS
 10
5.4266351493
 20
4.4817733368
 40
0.045
100
AcDbArc
 50
318.5280516015
 51
360.0
  0
ARC
  5
43A
100
AcDbEntity
  8
0
100
AcDbCircle
 62
7
  6
CONTINUOUS
 10
5.3066351493
 20
4.2194719364
 40
0.03
100
AcDbArc
 50
180.0
 51
266.7567985982
  0
ARC
  5
43B
100
AcDbEntity
  8
0
100
AcDbCircle
 62
7
  6
CONTINUOUS
 10
5.3066351493
 20
4.2719719364
 40
0.03
100
AcDbArc
 50
90.0
 51
180.0
  0
ARC
  5
43C
100
AcDbEntity
  8
0
100
AcDbCircle
 62
7
  6
CONTINUOUS
 10
5.3066351493
 20
1.3319719364
 40
0.03
100
AcDbArc
 50
180.0
 51
270.0
  0
ARC
  5
43D
100
AcDbEntity
  8
0
100
AcDbCircle
 62
7
  6
CONTINUOUS
 10
5.3066351493
 20
1.3844719364
 40
0.03
100
AcDbArc
 50
93.2432014018
 51
180.0
  0
ARC
  5
43E
100
AcDbEntity
  8
0
100
AcDbCircle
 62
7
  6
CONTINUOUS
 10
2.0658695297
 20
5.7613340972
 40
1.2625850832
100
AcDbArc
 50
7.3639415863
 51
7.7368437235
  0
ARC
  5
43F
100
AcDbEntity
  8
0
100
AcDbCircle
 62
7
  6
CONTINUOUS
 10
2.7602716589
 20
5.2290570795
 40
0.7047168689
100
AcDbArc
 50
14.232946669
 51
15.2435696444
  0
ARC
  5
440
100
AcDbEntity
  8
0
100
AcDbCircle
 62
7
  6
CONTINUOUS
 10
2.7973489048
 20
5.4587231444
 40
0.6286931649
100
AcDbArc
 50
9.0882027457
 51
9.4546351358
  0
ARC
  5
441
100
AcDbEntity
  8
0
100
AcDbCircle
 62
7
  6
CONTINUOUS
 10
3.5174810021
 20
5.1044719364
 40
0.06
100
AcDbArc
 50
183.0
 51
270.0
  0
ARC
  5
442
100
AcDbEntity
  8
0
100
AcDbCircle
 62
7
  6
CONTINUOUS
 10
3.4110513352
 20
5.2927132784
 40
0.0147637795
100
AcDbArc
 50
179.998993262
 51
224.9988567098
  0
ARC
  5
443
100
AcDbEntity
  8
0
100
AcDbCircle
 62
7
  6
CONTINUOUS
 10
3.4171666929
 20
5.2865979206
 40
0.0147637795
100
AcDbArc
 50
224.9975411864
 51
270.0
  0
ARC
  5
444
100
AcDbEntity
  8
0
100
AcDbCircle
 62
7
  6
CONTINUOUS
 10
3.4171666929
 20
5.3278491349
 40
0.0147637795
100
AcDbArc
 50
224.9975411863
 51
270.0
  0
ARC
  5
445
100
AcDbEntity
  8
0
100
AcDbCircle
 62
7
  6
CONTINUOUS
 10
3.4171666929
 20
5.4223373239
 40
0.0147637795
100
AcDbArc
 50
116.1249009817
 51
135.0024588147
  0
ARC
  5
446
100
AcDbEntity
  8
0
100
AcDbCircle
 62
7
  6
CONTINUOUS
 10
3.4110513352
 20
5.4162219661
 40
0.0147637795
100
AcDbArc
 50
135.0011432896
 51
180.0008463776
  0
ARC
  5
447
100
AcDbEntity
  8
0
100
AcDbCircle
 62
7
  6
CONTINUOUS
 10
3.4110513352
 20
5.3339644926
 40
0.0147637795
100
AcDbArc
 50
179.9991536211
 51
224.9988567095
  0
ARC
  5
448
100
AcDbEntity
  8
0
100
AcDbCircle
 62
7
  6
CONTINUOUS
 10
3.4492620671
 20
5.2196577593
 40
0.0059055118
100
AcDbArc
 50
180.0
 51
194.2899403573
  0
ARC
  5
449
100
AcDbEntity
  8
0
100
AcDbCircle
 62
7
  6
CONTINUOUS
 10
3.1967559445
 20
5.462152507
 40
0.2576382111
100
AcDbArc
 50
16.8318219497
 51
17.0369449967
  0
ARC
  5
44A
100
AcDbEntity
  8
0
100
AcDbCircle
 62
7
  6
CONTINUOUS
 10
3.2534472082
 20
5.7053312322
 40
0.1624131516
100
AcDbArc
 50
15.3833711864
 51
16.8089005308
  0
ARC
  5
44B
100
AcDbEntity
  8
0
100
AcDbCircle
 62
7
  6
CONTINUOUS
 10
3.2695812052
 20
5.7566773775
 40
0.0307617503
100
AcDbArc
 50
222.3853091241
 51
224.6973934897
  0
ARC
  5
44C
100
AcDbEntity
  8
0
100
AcDbCircle
 62
7
  6
CONTINUOUS
 10
3.4171666929
 20
5.4487915755
 40
0.0147637795
100
AcDbArc
 50
224.9975417674
 51
270.0
  0
ARC
  5
44D
100
AcDbEntity
  8
0
100
AcDbCircle
 62
7
  6
CONTINUOUS
 10
3.4171666929
 20
5.5432797645
 40
0.0147637795
100
AcDbArc
 50
90.0
 51
135.0024582326
  0
ARC
  5
44E
100
AcDbEntity
  8
0
100
AcDbCircle
 62
7
  6
CONTINUOUS
 10
3.4110513352
 20
5.5371644068
 40
0.0147637795
100
AcDbArc
 50
135.0011432897
 51
180.0010702875
  0
ARC
  5
44F
100
AcDbEntity
  8
0
100
AcDbCircle
 62
7
  6
CONTINUOUS
 10
3.4110513352
 20
5.4549069332
 40
0.0147637795
100
AcDbArc
 50
179.9989297125
 51
224.9988567103
  0
ARC
  5
450
100
AcDbEntity
  8
0
100
AcDbCircle
 62
7
  6
CONTINUOUS
 10
3.3860063167
 20
5.5362853996
 40
0.0147637795
100
AcDbArc
 50
224.9987950343
 51
270.0
  0
ARC
  5
451
100
AcDbEntity
  8
0
100
AcDbCircle
 62
7
  6
CONTINUOUS
 10
3.379890959
 20
5.5424007573
 40
0.0147637795
100
AcDbArc
 50
179.9988674531
 51
224.9986727936
  0
ARC
  5
452
100
AcDbEntity
  8
0
100
AcDbCircle
 62
7
  6
CONTINUOUS
 10
3.379890959
 20
5.6069416954
 40
0.0147637795
100
AcDbArc
 50
135.0013272064
 51
180.0011325469
  0
ARC
  5
453
100
AcDbEntity
  8
0
100
AcDbCircle
 62
7
  6
CONTINUOUS
 10
3.379890959
 20
5.4714771124
 40
0.0147637795
100
AcDbArc
 50
179.9994703127
 51
224.998672795
  0
ARC
  5
454
100
AcDbEntity
  8
0
100
AcDbCircle
 62
7
  6
CONTINUOUS
 10
3.3860063167
 20
5.4653617546
 40
0.0147637795
100
AcDbArc
 50
224.9987952045
 51
270.0
  0
ARC
  5
455
100
AcDbEntity
  8
0
100
AcDbCircle
 62
7
  6
CONTINUOUS
 10
3.379890959
 20
5.5360180505
 40
0.0147637795
100
AcDbArc
 50
167.4937962893
 51
180.0005296873
  0
ARC
  5
456
100
AcDbEntity
  8
0
100
AcDbCircle
 62
7
  6
CONTINUOUS
 10
3.3671415473
 20
5.5988883684
 40
0.0059055118
100
AcDbArc
 50
190.1465387618
 51
250.0239308105
  0
ARC
  5
457
100
AcDbEntity
  8
0
100
AcDbCircle
 62
7
  6
CONTINUOUS
 10
3.4377523926
 20
5.7329900248
 40
0.2824234979
100
AcDbArc
 50
124.6072065237
 51
124.8753833236
  0
ARC
  5
458
100
AcDbEntity
  8
0
100
AcDbCircle
 62
7
  6
CONTINUOUS
 10
3.4350386418
 20
5.7368776597
 40
0.2776823866
100
AcDbArc
 50
124.8746754912
 51
125.6523527906
  0
ARC
  5
459
100
AcDbEntity
  8
0
100
AcDbCircle
 62
7
  6
CONTINUOUS
 10
3.4329048429
 20
5.7226771733
 40
0.277500597
100
AcDbArc
 50
124.0938925984
 51
124.3158984374
  0
ARC
  5
45A
100
AcDbEntity
  8
0
100
AcDbCircle
 62
7
  6
CONTINUOUS
 10
3.4313160121
 20
5.7250033209
 40
0.2746836225
100
AcDbArc
 50
124.3157098951
 51
124.6489139429
  0
ARC
  5
45B
100
AcDbEntity
  8
0
100
AcDbCircle
 62
7
  6
CONTINUOUS
 10
3.4310114979
 20
5.7425109757
 40
0.2707576476
100
AcDbArc
 50
125.6547093463
 51
126.2011656137
  0
ARC
  5
45C
100
AcDbEntity
  8
0
100
AcDbCircle
 62
7
  6
CONTINUOUS
 10
3.4285646932
 20
5.7289759136
 40
0.269851312
100
AcDbArc
 50
124.6479004319
 51
125.1924537083
  0
ARC
  5
45D
100
AcDbEntity
  8
0
100
AcDbCircle
 62
7
  6
CONTINUOUS
 10
3.4412652266
 20
5.7706297968
 40
0.2684150015
100
AcDbArc
 50
127.5533616525
 51
128.2315987674
  0
ARC
  5
45E
100
AcDbEntity
  8
0
100
AcDbCircle
 62
7
  6
CONTINUOUS
 10
3.4373437329
 20
5.7755880422
 40
0.2620934383
100
AcDbArc
 50
128.2289698121
 51
129.1815454879
  0
ARC
  5
45F
100
AcDbEntity
  8
0
100
AcDbCircle
 62
7
  6
CONTINUOUS
 10
3.3908318085
 20
5.7660808384
 40
0.1463472919
100
AcDbArc
 50
137.7347175221
 51
140.0970556477
  0
ARC
  5
460
100
AcDbEntity
  8
0
100
AcDbCircle
 62
7
  6
CONTINUOUS
 10
3.4171666929
 20
5.6411832151
 40
0.0147637795
100
AcDbArc
 50
224.9975411861
 51
270.0
  0
ARC
  5
461
100
AcDbEntity
  8
0
100
AcDbCircle
 62
7
  6
CONTINUOUS
 10
3.4171666929
 20
5.735671404
 40
0.0147637795
100
AcDbArc
 50
90.0
 51
135.0024588139
  0
ARC
  5
462
100
AcDbEntity
  8
0
100
AcDbCircle
 62
7
  6
CONTINUOUS
 10
3.4110513352
 20
5.7295560463
 40
0.0147637795
100
AcDbArc
 50
135.0011432895
 51
180.0010067371
  0
ARC
  5
463
100
AcDbEntity
  8
0
100
AcDbCircle
 62
7
  6
CONTINUOUS
 10
3.4110513352
 20
5.6472985728
 40
0.0147637795
100
AcDbArc
 50
179.9989932615
 51
224.9988567095
  0
ARC
  5
464
100
AcDbEntity
  8
0
100
AcDbCircle
 62
7
  6
CONTINUOUS
 10
3.3860063167
 20
5.6130570531
 40
0.0147637795
100
AcDbArc
 50
90.0
 51
135.0012049649
  0
ARC
  5
465
100
AcDbEntity
  8
0
100
AcDbCircle
 62
7
  6
CONTINUOUS
 10
3.379890959
 20
5.6794147179
 40
0.0147637795
100
AcDbArc
 50
179.9989099294
 51
224.9986727884
  0
ARC
  5
466
100
AcDbEntity
  8
0
100
AcDbCircle
 62
7
  6
CONTINUOUS
 10
3.3860063167
 20
5.6732993602
 40
0.0147637795
100
AcDbArc
 50
224.9987952044
 51
270.0
  0
ARC
  5
467
100
AcDbEntity
  8
0
100
AcDbCircle
 62
7
  6
CONTINUOUS
 10
3.3860063167
 20
5.7500710137
 40
0.0147637795
100
AcDbArc
 50
90.0
 51
135.0012047956
  0
ARC
  5
468
100
AcDbEntity
  8
0
100
AcDbCircle
 62
7
  6
CONTINUOUS
 10
3.379890959
 20
5.743955656
 40
0.0147637795
100
AcDbArc
 50
135.0013272117
 51
180.0010900707
  0
ARC
  5
469
100
AcDbEntity
  8
0
100
AcDbCircle
 62
7
  6
CONTINUOUS
 10
3.1589750235
 20
6.1218042719
 40
0.2628882209
100
AcDbArc
 50
1.2733704291
 51
2.4470176736
  0
ARC
  5
46A
100
AcDbEntity
  8
0
100
AcDbCircle
 62
7
  6
CONTINUOUS
 10
3.1886614797
 20
6.1223940342
 40
0.2331960002
100
AcDbArc
 50
0.0083098766
 51
1.2905928536
  0
ARC
  5
46B
100
AcDbEntity
  8
0
100
AcDbCircle
 62
7
  6
CONTINUOUS
 10
3.2103365346
 20
6.1313295824
 40
0.2108001035
100
AcDbArc
 50
9.3092369914
 51
10.3375346163
  0
ARC
  5
46C
100
AcDbEntity
  8
0
100
AcDbCircle
 62
7
  6
CONTINUOUS
 10
3.2170963672
 20
6.1223536522
 40
0.2047611237
100
AcDbArc
 50
358.5922408625
 51
0.0207634514
  0
ARC
  5
46D
100
AcDbEntity
  8
0
100
AcDbCircle
 62
7
  6
CONTINUOUS
 10
3.2440326794
 20
5.8730567734
 40
0.1778248026
100
AcDbArc
 50
0.0128831749
 51
1.3142004854
  0
ARC
  5
46E
100
AcDbEntity
  8
0
100
AcDbCircle
 62
7
  6
CONTINUOUS
 10
3.2809742924
 20
5.8729723744
 40
0.14088324
100
AcDbArc
 50
358.3022527355
 51
0.0505855852
  0
ARC
  5
46F
100
AcDbEntity
  8
0
100
AcDbCircle
 62
7
  6
CONTINUOUS
 10
3.2136915376
 20
6.1165728766
 40
0.0147637795
100
AcDbArc
 50
179.9984126899
 51
224.9974348682
  0
ARC
  5
470
100
AcDbEntity
  8
0
100
AcDbCircle
 62
7
  6
CONTINUOUS
 10
3.1989277581
 20
6.0895783816
 40
0.0147637795
100
AcDbArc
 50
3.5839805502
 51
45.0015141203
  0
ARC
  5
471
100
AcDbEntity
  8
0
100
AcDbCircle
 62
7
  6
CONTINUOUS
 10
3.2284553171
 20
6.0618622154
 40
0.0147637795
100
AcDbArc
 50
179.9997582066
 51
249.9999051805
  0
ARC
  5
472
100
AcDbEntity
  8
0
100
AcDbCircle
 62
7
  6
CONTINUOUS
 10
3.2866579173
 20
5.9500633261
 40
0.0088582677
100
AcDbArc
 50
179.9997330535
 51
224.999746835
  0
ARC
  5
473
100
AcDbEntity
  8
0
100
AcDbCircle
 62
7
  6
CONTINUOUS
 10
3.2866579173
 20
6.0194965504
 40
0.0088582677
100
AcDbArc
 50
135.0002531649
 51
180.0002669464
  0
ARC
  5
474
100
AcDbEntity
  8
0
100
AcDbCircle
 62
7
  6
CONTINUOUS
 10
3.2866579173
 20
6.0597476143
 40
0.0088582677
100
AcDbArc
 50
179.9997435846
 51
224.9997499651
  0
ARC
  5
475
100
AcDbEntity
  8
0
100
AcDbCircle
 62
7
  6
CONTINUOUS
 10
3.2866579173
 20
6.1291808386
 40
0.0088582677
100
AcDbArc
 50
135.0002500349
 51
180.0002564154
  0
ARC
  5
476
100
AcDbEntity
  8
0
100
AcDbCircle
 62
7
  6
CONTINUOUS
 10
3.2866579173
 20
5.8736295264
 40
0.0088582677
100
AcDbArc
 50
179.999737837
 51
224.9997468357
  0
ARC
  5
477
100
AcDbEntity
  8
0
100
AcDbCircle
 62
7
  6
CONTINUOUS
 10
3.2866579173
 20
5.9430627507
 40
0.0088582677
100
AcDbArc
 50
156.7034209996
 51
180.0002621649
  0
ARC
  5
478
100
AcDbEntity
  8
0
100
AcDbCircle
 62
7
  6
CONTINUOUS
 10
3.153555868
 20
6.4003364832
 40
0.2683030677
100
AcDbArc
 50
1.2179091128
 51
2.4003257805
  0
ARC
  5
479
100
AcDbEntity
  8
0
100
AcDbCircle
 62
7
  6
CONTINUOUS
 10
3.1629684151
 20
6.4005051991
 40
0.2588890628
100
AcDbArc
 50
0.0033995785
 51
1.2248550894
  0
ARC
  5
47A
100
AcDbEntity
  8
0
100
AcDbCircle
 62
7
  6
CONTINUOUS
 10
3.1729145579
 20
6.4005035995
 40
0.2489429201
100
AcDbArc
 50
358.7233993511
 51
0.0039035681
  0
ARC
  5
47B
100
AcDbEntity
  8
0
100
AcDbCircle
 62
7
  6
CONTINUOUS
 10
3.2136915376
 20
6.2504744122
 40
0.0147637795
100
AcDbArc
 50
179.9972642495
 51
224.9974348102
  0
ARC
  5
47C
100
AcDbEntity
  8
0
100
AcDbCircle
 62
7
  6
CONTINUOUS
 10
3.2136915376
 20
6.4124562952
 40
0.0147637795
100
AcDbArc
 50
135.0025651901
 51
180.002735751
  0
ARC
  5
47D
100
AcDbEntity
  8
0
100
AcDbCircle
 62
7
  6
CONTINUOUS
 10
3.1989277581
 20
6.2234799172
 40
0.0147637795
100
AcDbArc
 50
0.00392895
 51
45.0024317524
  0
ARC
  5
47E
100
AcDbEntity
  8
0
100
AcDbCircle
 62
7
  6
CONTINUOUS
 10
3.1989277581
 20
6.4394507902
 40
0.0147637795
100
AcDbArc
 50
314.9975682479
 51
359.9960710504
  0
ARC
  5
47F
100
AcDbEntity
  8
0
100
AcDbCircle
 62
7
  6
CONTINUOUS
 10
3.2136915376
 20
6.5091523151
 40
0.0147637795
100
AcDbArc
 50
179.9972643243
 51
224.9974348681
  0
ARC
  5
480
100
AcDbEntity
  8
0
100
AcDbCircle
 62
7
  6
CONTINUOUS
 10
3.1989277581
 20
6.4821578202
 40
0.0147637795
100
AcDbArc
 50
0.0039181288
 51
45.0024249217
  0
ARC
  5
481
100
AcDbEntity
  8
0
100
AcDbCircle
 62
7
  6
CONTINUOUS
 10
3.2136915376
 20
6.4178096747
 40
0.0147637795
100
AcDbArc
 50
179.9972643243
 51
190.468306272
  0
ARC
  5
482
100
AcDbEntity
  8
0
100
AcDbCircle
 62
7
  6
CONTINUOUS
 10
3.2866579173
 20
6.5393787271
 40
0.0088582677
100
AcDbArc
 50
179.9997403663
 51
224.9997468346
  0
ARC
  5
483
100
AcDbEntity
  8
0
100
AcDbCircle
 62
7
  6
CONTINUOUS
 10
3.2998411775
 20
5.8396153658
 40
0.0965517645
100
AcDbArc
 50
172.0665196425
 51
179.1968068556
  0
ARC
  5
484
100
AcDbEntity
  8
0
100
AcDbCircle
 62
7
  6
CONTINUOUS
 10
3.2994649854
 20
5.8516172287
 40
0.0961754372
100
AcDbArc
 50
178.1961638827
 51
179.9931323839
  0
ARC
  5
485
100
AcDbEntity
  8
0
100
AcDbCircle
 62
7
  6
CONTINUOUS
 10
3.2993763262
 20
5.8396282862
 40
0.096086778
100
AcDbArc
 50
179.2006248476
 51
179.9833259442
  0
ARC
  5
486
100
AcDbEntity
  8
0
100
AcDbCircle
 62
7
  6
CONTINUOUS
 10
3.4282700826
 20
5.987208981
 40
0.0184342861
100
AcDbArc
 50
35.0754381085
 51
36.5033507926
  0
ARC
  5
487
100
AcDbEntity
  8
0
100
AcDbCircle
 62
7
  6
CONTINUOUS
 10
3.4171666929
 20
5.8919128813
 40
0.0147637795
100
AcDbArc
 50
224.9975411859
 51
270.0
  0
ARC
  5
488
100
AcDbEntity
  8
0
100
AcDbCircle
 62
7
  6
CONTINUOUS
 10
3.4171666929
 20
5.9864010703
 40
0.0147637795
100
AcDbArc
 50
90.0
 51
135.0024588141
  0
ARC
  5
489
100
AcDbEntity
  8
0
100
AcDbCircle
 62
7
  6
CONTINUOUS
 10
3.4110513352
 20
5.9802857125
 40
0.0147637795
100
AcDbArc
 50
135.00114329
 51
180.0010067378
  0
ARC
  5
48A
100
AcDbEntity
  8
0
100
AcDbCircle
 62
7
  6
CONTINUOUS
 10
3.4110513352
 20
5.898028239
 40
0.0147637795
100
AcDbArc
 50
179.9989932622
 51
224.99885671
  0
ARC
  5
48B
100
AcDbEntity
  8
0
100
AcDbCircle
 62
7
  6
CONTINUOUS
 10
3.4171666929
 20
6.1838937617
 40
0.0147637795
100
AcDbArc
 50
224.9975411859
 51
270.0
  0
ARC
  5
48C
100
AcDbEntity
  8
0
100
AcDbCircle
 62
7
  6
CONTINUOUS
 10
3.3860063167
 20
5.9438380151
 40
0.0147637795
100
AcDbArc
 50
90.0
 51
135.0012047948
  0
ARC
  5
48D
100
AcDbEntity
  8
0
100
AcDbCircle
 62
7
  6
CONTINUOUS
 10
3.3860063167
 20
5.8670663616
 40
0.0147637795
100
AcDbArc
 50
224.9987952044
 51
270.0
  0
ARC
  5
48E
100
AcDbEntity
  8
0
100
AcDbCircle
 62
7
  6
CONTINUOUS
 10
3.379890959
 20
5.8731817193
 40
0.0147637795
100
AcDbArc
 50
179.9989177866
 51
224.998672795
  0
ARC
  5
48F
100
AcDbEntity
  8
0
100
AcDbCircle
 62
7
  6
CONTINUOUS
 10
3.379890959
 20
5.9377226574
 40
0.0147637795
100
AcDbArc
 50
135.0013272057
 51
180.0010822143
  0
ARC
  5
490
100
AcDbEntity
  8
0
100
AcDbCircle
 62
7
  6
CONTINUOUS
 10
3.379890959
 20
6.1104968604
 40
0.0147637795
100
AcDbArc
 50
179.9989177863
 51
224.9986727948
  0
ARC
  5
491
100
AcDbEntity
  8
0
100
AcDbCircle
 62
7
  6
CONTINUOUS
 10
3.3860063167
 20
6.1043815027
 40
0.0147637795
100
AcDbArc
 50
224.9987952051
 51
270.0
  0
ARC
  5
492
100
AcDbEntity
  8
0
100
AcDbCircle
 62
7
  6
CONTINUOUS
 10
3.3860063167
 20
6.1811531563
 40
0.0147637795
100
AcDbArc
 50
90.0
 51
135.0012047956
  0
ARC
  5
493
100
AcDbEntity
  8
0
100
AcDbCircle
 62
7
  6
CONTINUOUS
 10
3.379890959
 20
6.1750377985
 40
0.0147637795
100
AcDbArc
 50
135.0013272052
 51
180.0010822137
  0
ARC
  5
494
100
AcDbEntity
  8
0
100
AcDbCircle
 62
7
  6
CONTINUOUS
 10
3.2962326437
 20
5.9404885996
 40
0.0088582677
100
AcDbArc
 50
224.9997000112
 51
270.0
  0
ARC
  5
495
100
AcDbEntity
  8
0
100
AcDbCircle
 62
7
  6
CONTINUOUS
 10
3.2962326437
 20
6.0290712768
 40
0.0088582677
100
AcDbArc
 50
90.0
 51
135.0002999888
  0
ARC
  5
496
100
AcDbEntity
  8
0
100
AcDbCircle
 62
7
  6
CONTINUOUS
 10
3.2962326437
 20
6.0501728879
 40
0.0088582677
100
AcDbArc
 50
224.9996996385
 51
270.0
  0
ARC
  5
497
100
AcDbEntity
  8
0
100
AcDbCircle
 62
7
  6
CONTINUOUS
 10
3.2962326437
 20
6.1387555651
 40
0.0088582677
100
AcDbArc
 50
90.0
 51
135.0003003629
  0
ARC
  5
498
100
AcDbEntity
  8
0
100
AcDbCircle
 62
7
  6
CONTINUOUS
 10
3.2962326437
 20
5.8640548
 40
0.0088582677
100
AcDbArc
 50
224.9997000107
 51
270.0
  0
ARC
  5
499
100
AcDbEntity
  8
0
100
AcDbCircle
 62
7
  6
CONTINUOUS
 10
3.3134355959
 20
6.0419710825
 40
0.000654912
100
AcDbArc
 50
269.9054994432
 51
281.3521152264
  0
ARC
  5
49A
100
AcDbEntity
  8
0
100
AcDbCircle
 62
7
  6
CONTINUOUS
 10
3.4171666929
 20
6.2783819507
 40
0.0147637795
100
AcDbArc
 50
90.0
 51
135.0024588136
  0
ARC
  5
49B
100
AcDbEntity
  8
0
100
AcDbCircle
 62
7
  6
CONTINUOUS
 10
3.4110513352
 20
6.272266593
 40
0.0147637795
100
AcDbArc
 50
135.0011432902
 51
180.001006738
  0
ARC
  5
49C
100
AcDbEntity
  8
0
100
AcDbCircle
 62
7
  6
CONTINUOUS
 10
3.4110513352
 20
6.1900091194
 40
0.0147637795
100
AcDbArc
 50
179.998993262
 51
224.9988567098
  0
ARC
  5
49D
100
AcDbEntity
  8
0
100
AcDbCircle
 62
7
  6
CONTINUOUS
 10
3.4171666929
 20
6.4972278419
 40
0.0147637795
100
AcDbArc
 50
224.9975411863
 51
270.0
  0
ARC
  5
49E
100
AcDbEntity
  8
0
100
AcDbCircle
 62
7
  6
CONTINUOUS
 10
3.4110513352
 20
6.5033431996
 40
0.0147637795
100
AcDbArc
 50
179.998993262
 51
224.9988567098
  0
ARC
  5
49F
100
AcDbEntity
  8
0
100
AcDbCircle
 62
7
  6
CONTINUOUS
 10
3.3860063167
 20
6.4458438025
 40
0.0147637795
100
AcDbArc
 50
90.0
 51
135.0012047959
  0
ARC
  5
4A0
100
AcDbEntity
  8
0
100
AcDbCircle
 62
7
  6
CONTINUOUS
 10
3.3860063167
 20
6.369072149
 40
0.0147637795
100
AcDbArc
 50
224.9987952046
 51
270.0
  0
ARC
  5
4A1
100
AcDbEntity
  8
0
100
AcDbCircle
 62
7
  6
CONTINUOUS
 10
3.379890959
 20
6.3751875067
 40
0.0147637795
100
AcDbArc
 50
179.9989177866
 51
224.9986727949
  0
ARC
  5
4A2
100
AcDbEntity
  8
0
100
AcDbCircle
 62
7
  6
CONTINUOUS
 10
3.379890959
 20
6.4397284448
 40
0.0147637795
100
AcDbArc
 50
135.0013272051
 51
180.0010822134
  0
ARC
  5
4A3
100
AcDbEntity
  8
0
100
AcDbCircle
 62
7
  6
CONTINUOUS
 10
3.2962326437
 20
6.5298040006
 40
0.0088582677
100
AcDbArc
 50
224.9997000108
 51
270.0
  0
ARC
  5
4A4
100
AcDbEntity
  8
0
100
AcDbCircle
 62
7
  6
CONTINUOUS
 10
3.1453207155
 20
6.9675993418
 40
0.2765492246
100
AcDbArc
 50
356.3570763171
 51
358.7576514793
  0
ARC
  5
4A5
100
AcDbEntity
  8
0
100
AcDbCircle
 62
7
  6
CONTINUOUS
 10
3.1548658287
 20
6.6885550067
 40
0.26699214
100
AcDbArc
 50
357.5439871335
 51
359.7021225733
  0
ARC
  5
4A6
100
AcDbEntity
  8
0
100
AcDbCircle
 62
7
  6
CONTINUOUS
 10
3.1679132826
 20
6.6884251487
 40
0.2539441949
100
AcDbArc
 50
359.7161165678
 51
359.9995857781
  0
ARC
  5
4A7
100
AcDbEntity
  8
0
100
AcDbCircle
 62
7
  6
CONTINUOUS
 10
2.823945877
 20
7.8431749219
 40
0.6388886923
100
AcDbArc
 50
344.5802845708
 51
345.8148825965
  0
ARC
  5
4A8
100
AcDbEntity
  8
0
100
AcDbCircle
 62
7
  6
CONTINUOUS
 10
3.1717823924
 20
6.6884271014
 40
0.2500750852
100
AcDbArc
 50
359.9991319704
 51
1.2462497209
  0
ARC
  5
4A9
100
AcDbEntity
  8
0
100
AcDbCircle
 62
7
  6
CONTINUOUS
 10
3.2819564112
 20
6.8425754298
 40
0.0357335668
100
AcDbArc
 50
340.8485019169
 51
342.6681579278
  0
ARC
  5
4AA
100
AcDbEntity
  8
0
100
AcDbCircle
 62
7
  6
CONTINUOUS
 10
3.2136915376
 20
6.6711341981
 40
0.0147637795
100
AcDbArc
 50
135.0025651318
 51
180.0027356757
  0
ARC
  5
4AB
100
AcDbEntity
  8
0
100
AcDbCircle
 62
7
  6
CONTINUOUS
 10
3.1989277581
 20
6.6981286931
 40
0.0147637795
100
AcDbArc
 50
314.9975750784
 51
359.9960818714
  0
ARC
  5
4AC
100
AcDbEntity
  8
0
100
AcDbCircle
 62
7
  6
CONTINUOUS
 10
3.2136915376
 20
6.741076578
 40
0.0147637795
100
AcDbArc
 50
179.9972642495
 51
224.9974348102
  0
ARC
  5
4AD
100
AcDbEntity
  8
0
100
AcDbCircle
 62
7
  6
CONTINUOUS
 10
3.2136915376
 20
6.903058461
 40
0.0147637795
100
AcDbArc
 50
135.0025651901
 51
180.002735751
  0
ARC
  5
4AE
100
AcDbEntity
  8
0
100
AcDbCircle
 62
7
  6
CONTINUOUS
 10
3.1989277581
 20
6.7140820831
 40
0.0147637795
100
AcDbArc
 50
0.00392895
 51
45.0024317524
  0
ARC
  5
4AF
100
AcDbEntity
  8
0
100
AcDbCircle
 62
7
  6
CONTINUOUS
 10
3.2136915376
 20
6.6764875776
 40
0.0147637795
100
AcDbArc
 50
179.997264249
 51
190.4683062659
  0
ARC
  5
4B0
100
AcDbEntity
  8
0
100
AcDbCircle
 62
7
  6
CONTINUOUS
 10
3.2866579173
 20
6.8544418109
 40
0.0088582677
100
AcDbArc
 50
179.999740368
 51
224.9997468357
  0
ARC
  5
4B1
100
AcDbEntity
  8
0
100
AcDbCircle
 62
7
  6
CONTINUOUS
 10
3.2866579173
 20
6.9238750352
 40
0.0088582677
100
AcDbArc
 50
135.0002531656
 51
180.0002596339
  0
ARC
  5
4B2
100
AcDbEntity
  8
0
100
AcDbCircle
 62
7
  6
CONTINUOUS
 10
3.2866579173
 20
6.7026397611
 40
0.0088582677
100
AcDbArc
 50
179.9997403667
 51
224.9997468348
  0
ARC
  5
4B3
100
AcDbEntity
  8
0
100
AcDbCircle
 62
7
  6
CONTINUOUS
 10
3.2866579173
 20
6.7720729854
 40
0.0088582677
100
AcDbArc
 50
135.0002531652
 51
180.0002596333
  0
ARC
  5
4B4
100
AcDbEntity
  8
0
100
AcDbCircle
 62
7
  6
CONTINUOUS
 10
3.2866579173
 20
6.6088119514
 40
0.0088582677
100
AcDbArc
 50
135.0002531654
 51
180.0002596337
  0
ARC
  5
4B5
100
AcDbEntity
  8
0
100
AcDbCircle
 62
7
  6
CONTINUOUS
 10
3.1840129881
 20
6.9666033919
 40
0.2378445054
100
AcDbArc
 50
358.79542738
 51
359.9789517506
  0
ARC
  5
4B6
100
AcDbEntity
  8
0
100
AcDbCircle
 62
7
  6
CONTINUOUS
 10
3.2127430607
 20
6.9665383391
 40
0.209114418
100
AcDbArc
 50
359.993883932
 51
1.3628694082
  0
ARC
  5
4B7
100
AcDbEntity
  8
0
100
AcDbCircle
 62
7
  6
CONTINUOUS
 10
3.2172573383
 20
6.9563868725
 40
0.2037713834
100
AcDbArc
 50
349.6492583195
 51
350.3845294797
  0
ARC
  5
4B8
100
AcDbEntity
  8
0
100
AcDbCircle
 62
7
  6
CONTINUOUS
 10
3.2368237351
 20
7.2159690902
 40
0.1850337826
100
AcDbArc
 50
358.6914476935
 51
359.962230241
  0
ARC
  5
4B9
100
AcDbEntity
  8
0
100
AcDbCircle
 62
7
  6
CONTINUOUS
 10
3.2722472342
 20
7.257650779
 40
0.0526225878
100
AcDbArc
 50
358.847567641
 51
359.0770221774
  0
ARC
  5
4BA
100
AcDbEntity
  8
0
100
AcDbCircle
 62
7
  6
CONTINUOUS
 10
3.2827786138
 20
7.2574909804
 40
0.0420900017
100
AcDbArc
 50
359.0635935551
 51
359.9910996079
  0
ARC
  5
4BB
100
AcDbEntity
  8
0
100
AcDbCircle
 62
7
  6
CONTINUOUS
 10
3.2717806731
 20
7.0899846554
 40
0.0295275591
100
AcDbArc
 50
289.9999167392
 51
354.208519173
  0
ARC
  5
4BC
100
AcDbEntity
  8
0
100
AcDbCircle
 62
7
  6
CONTINUOUS
 10
3.1989277581
 20
6.930052956
 40
0.0147637795
100
AcDbArc
 50
314.9975682479
 51
352.4962814925
  0
ARC
  5
4BD
100
AcDbEntity
  8
0
100
AcDbCircle
 62
7
  6
CONTINUOUS
 10
3.2136915376
 20
6.9723709962
 40
0.0147637795
100
AcDbArc
 50
135.0025651318
 51
180.0015873101
  0
ARC
  5
4BE
100
AcDbEntity
  8
0
100
AcDbCircle
 62
7
  6
CONTINUOUS
 10
3.1989277581
 20
6.9993654912
 40
0.0147637795
100
AcDbArc
 50
314.9984858797
 51
356.4160194498
  0
ARC
  5
4BF
100
AcDbEntity
  8
0
100
AcDbCircle
 62
7
  6
CONTINUOUS
 10
3.2284553171
 20
7.0270816574
 40
0.0147637795
100
AcDbArc
 50
110.0000948195
 51
180.0002417934
  0
ARC
  5
4C0
100
AcDbEntity
  8
0
100
AcDbCircle
 62
7
  6
CONTINUOUS
 10
3.2866579173
 20
7.2580896846
 40
0.0088582677
100
AcDbArc
 50
135.0002531645
 51
180.0002596323
  0
ARC
  5
4C1
100
AcDbEntity
  8
0
100
AcDbCircle
 62
7
  6
CONTINUOUS
 10
3.2866579173
 20
7.1641893919
 40
0.0088582677
100
AcDbArc
 50
179.9997403685
 51
224.9997468361
  0
ARC
  5
4C2
100
AcDbEntity
  8
0
100
AcDbCircle
 62
7
  6
CONTINUOUS
 10
3.2866579173
 20
7.2336226162
 40
0.0088582677
100
AcDbArc
 50
135.0002531657
 51
180.0002596341
  0
ARC
  5
4C3
100
AcDbEntity
  8
0
100
AcDbCircle
 62
7
  6
CONTINUOUS
 10
3.4171666929
 20
6.5917160309
 40
0.0147637795
100
AcDbArc
 50
90.0
 51
135.0024588143
  0
ARC
  5
4C4
100
AcDbEntity
  8
0
100
AcDbCircle
 62
7
  6
CONTINUOUS
 10
3.4110513352
 20
6.5856006732
 40
0.0147637795
100
AcDbArc
 50
135.0011432902
 51
180.001006738
  0
ARC
  5
4C5
100
AcDbEntity
  8
0
100
AcDbCircle
 62
7
  6
CONTINUOUS
 10
3.4171666929
 20
6.8105619221
 40
0.0147637795
100
AcDbArc
 50
224.9975411863
 51
270.0
  0
ARC
  5
4C6
100
AcDbEntity
  8
0
100
AcDbCircle
 62
7
  6
CONTINUOUS
 10
3.4171666929
 20
6.9050501111
 40
0.0147637795
100
AcDbArc
 50
90.0
 51
135.0024588147
  0
ARC
  5
4C7
100
AcDbEntity
  8
0
100
AcDbCircle
 62
7
  6
CONTINUOUS
 10
3.4110513352
 20
6.8989347534
 40
0.0147637795
100
AcDbArc
 50
135.0011432896
 51
180.0010067372
  0
ARC
  5
4C8
100
AcDbEntity
  8
0
100
AcDbCircle
 62
7
  6
CONTINUOUS
 10
3.4110513352
 20
6.8166772798
 40
0.0147637795
100
AcDbArc
 50
179.9989932615
 51
224.9988567095
  0
ARC
  5
4C9
100
AcDbEntity
  8
0
100
AcDbCircle
 62
7
  6
CONTINUOUS
 10
3.3860063167
 20
6.9077907165
 40
0.0147637795
100
AcDbArc
 50
224.9987950343
 51
270.0
  0
ARC
  5
4CA
100
AcDbEntity
  8
0
100
AcDbCircle
 62
7
  6
CONTINUOUS
 10
3.379890959
 20
6.9139060742
 40
0.0147637795
100
AcDbArc
 50
179.9989177854
 51
224.9986727936
  0
ARC
  5
4CB
100
AcDbEntity
  8
0
100
AcDbCircle
 62
7
  6
CONTINUOUS
 10
3.379890959
 20
6.649215428
 40
0.0147637795
100
AcDbArc
 50
179.9989177867
 51
224.998672795
  0
ARC
  5
4CC
100
AcDbEntity
  8
0
100
AcDbCircle
 62
7
  6
CONTINUOUS
 10
3.3860063167
 20
6.6431000703
 40
0.0147637795
100
AcDbArc
 50
224.9987952045
 51
270.0
  0
ARC
  5
4CD
100
AcDbEntity
  8
0
100
AcDbCircle
 62
7
  6
CONTINUOUS
 10
3.3860063167
 20
6.7198717238
 40
0.0147637795
100
AcDbArc
 50
90.0
 51
135.0012047948
  0
ARC
  5
4CE
100
AcDbEntity
  8
0
100
AcDbCircle
 62
7
  6
CONTINUOUS
 10
3.379890959
 20
6.7137563661
 40
0.0147637795
100
AcDbArc
 50
135.0013272052
 51
180.0010822136
  0
ARC
  5
4CF
100
AcDbEntity
  8
0
100
AcDbCircle
 62
7
  6
CONTINUOUS
 10
3.2962326437
 20
6.8448670845
 40
0.0088582677
100
AcDbArc
 50
224.9997000108
 51
270.0
  0
ARC
  5
4D0
100
AcDbEntity
  8
0
100
AcDbCircle
 62
7
  6
CONTINUOUS
 10
3.2962326437
 20
6.6930650347
 40
0.0088582677
100
AcDbArc
 50
224.9997000109
 51
270.0
  0
ARC
  5
4D1
100
AcDbEntity
  8
0
100
AcDbCircle
 62
7
  6
CONTINUOUS
 10
3.2962326437
 20
6.7816477118
 40
0.0088582677
100
AcDbArc
 50
90.0
 51
135.0002999879
  0
ARC
  5
4D2
100
AcDbEntity
  8
0
100
AcDbCircle
 62
7
  6
CONTINUOUS
 10
3.2962326437
 20
6.6183866778
 40
0.0088582677
100
AcDbArc
 50
90.0
 51
135.0002999885
  0
ARC
  5
4D3
100
AcDbEntity
  8
0
100
AcDbCircle
 62
7
  6
CONTINUOUS
 10
3.3537704069
 20
7.1381275848
 40
0.04464093
100
AcDbArc
 50
179.097453037
 51
179.9383825157
  0
ARC
  5
4D4
100
AcDbEntity
  8
0
100
AcDbCircle
 62
7
  6
CONTINUOUS
 10
3.379890959
 20
7.1512212154
 40
0.0147637795
100
AcDbArc
 50
179.9989177811
 51
224.9986727884
  0
ARC
  5
4D5
100
AcDbEntity
  8
0
100
AcDbCircle
 62
7
  6
CONTINUOUS
 10
3.3860063167
 20
7.1451058577
 40
0.0147637795
100
AcDbArc
 50
224.9987952044
 51
270.0
  0
ARC
  5
4D6
100
AcDbEntity
  8
0
100
AcDbCircle
 62
7
  6
CONTINUOUS
 10
3.3860063167
 20
7.2218775112
 40
0.0147637795
100
AcDbArc
 50
90.0
 51
135.0012047956
  0
ARC
  5
4D7
100
AcDbEntity
  8
0
100
AcDbCircle
 62
7
  6
CONTINUOUS
 10
3.379890959
 20
7.2157621535
 40
0.0147637795
100
AcDbArc
 50
135.0013272116
 51
180.001082219
  0
ARC
  5
4D8
100
AcDbEntity
  8
0
100
AcDbCircle
 62
7
  6
CONTINUOUS
 10
3.3860063167
 20
6.9845623701
 40
0.0147637795
100
AcDbArc
 50
90.0
 51
135.0012049649
  0
ARC
  5
4D9
100
AcDbEntity
  8
0
100
AcDbCircle
 62
7
  6
CONTINUOUS
 10
3.379890959
 20
6.9784470124
 40
0.0147637795
100
AcDbArc
 50
135.0013272064
 51
180.0010822146
  0
ARC
  5
4DA
100
AcDbEntity
  8
0
100
AcDbCircle
 62
7
  6
CONTINUOUS
 10
3.4171666929
 20
7.1025428025
 40
0.0147637795
100
AcDbArc
 50
224.9989767129
 51
270.0
  0
ARC
  5
4DB
100
AcDbEntity
  8
0
100
AcDbCircle
 62
7
  6
CONTINUOUS
 10
3.4171666929
 20
7.1970309915
 40
0.0147637795
100
AcDbArc
 50
90.0
 51
135.0010232871
  0
ARC
  5
4DC
100
AcDbEntity
  8
0
100
AcDbCircle
 62
7
  6
CONTINUOUS
 10
3.4110513352
 20
7.1909156338
 40
0.0147637795
100
AcDbArc
 50
135.0010369649
 51
180.0009085171
  0
ARC
  5
4DD
100
AcDbEntity
  8
0
100
AcDbCircle
 62
7
  6
CONTINUOUS
 10
3.4110513352
 20
7.1086581602
 40
0.0147637795
100
AcDbArc
 50
179.9990914829
 51
224.9989630351
  0
ARC
  5
4DE
100
AcDbEntity
  8
0
100
AcDbCircle
 62
7
  6
CONTINUOUS
 10
3.2962326437
 20
7.267664411
 40
0.0088582677
100
AcDbArc
 50
90.0
 51
135.0002999894
  0
ARC
  5
4DF
100
AcDbEntity
  8
0
100
AcDbCircle
 62
7
  6
CONTINUOUS
 10
3.2962326437
 20
7.1546146654
 40
0.0088582677
100
AcDbArc
 50
224.9997000106
 51
270.0
  0
ARC
  5
4E0
100
AcDbEntity
  8
0
100
AcDbCircle
 62
7
  6
CONTINUOUS
 10
3.2962326437
 20
7.2431973426
 40
0.0088582677
100
AcDbArc
 50
90.0
 51
135.0002999876
  0
ARC
  5
4E1
100
AcDbEntity
  8
0
100
AcDbCircle
 62
7
  6
CONTINUOUS
 10
3.2962326437
 20
6.9334497616
 40
0.0088582677
100
AcDbArc
 50
90.0
 51
135.0002999879
  0
ARC
  5
4E2
100
AcDbEntity
  8
0
100
AcDbCircle
 62
7
  6
CONTINUOUS
 10
3.2415464286
 20
7.3869244168
 40
0.1747660144
100
AcDbArc
 50
344.2346095071
 51
344.5434897535
  0
ARC
  5
4E3
100
AcDbEntity
  8
0
100
AcDbCircle
 62
7
  6
CONTINUOUS
 10
3.2732698031
 20
7.3778193766
 40
0.1417622431
100
AcDbArc
 50
342.7598662874
 51
344.292535395
  0
ARC
  5
4E4
100
AcDbEntity
  8
0
100
AcDbCircle
 62
7
  6
CONTINUOUS
 10
3.5174810021
 20
7.9844719364
 40
0.06
100
AcDbArc
 50
90.0
 51
177.0
  0
ARC
  5
4E5
100
AcDbEntity
  8
0
100
AcDbCircle
 62
7
  6
CONTINUOUS
 10
3.4110513352
 20
7.7962305944
 40
0.0147637795
100
AcDbArc
 50
135.0011432902
 51
180.001006738
  0
ARC
  5
4E6
100
AcDbEntity
  8
0
100
AcDbCircle
 62
7
  6
CONTINUOUS
 10
3.4171666929
 20
7.8023459521
 40
0.0147637795
100
AcDbArc
 50
90.0
 51
135.0024588136
  0
ARC
  5
4E7
100
AcDbEntity
  8
0
100
AcDbCircle
 62
7
  6
CONTINUOUS
 10
3.4171666929
 20
7.6666065489
 40
0.0147637795
100
AcDbArc
 50
224.9975411859
 51
243.8750990227
  0
ARC
  5
4E8
100
AcDbEntity
  8
0
100
AcDbCircle
 62
7
  6
CONTINUOUS
 10
3.4171666929
 20
7.7610947379
 40
0.0147637795
100
AcDbArc
 50
90.0
 51
135.0024588136
  0
ARC
  5
4E9
100
AcDbEntity
  8
0
100
AcDbCircle
 62
7
  6
CONTINUOUS
 10
3.4110513352
 20
7.7549793802
 40
0.0147637795
100
AcDbArc
 50
135.0011432902
 51
180.001006738
  0
ARC
  5
4EA
100
AcDbEntity
  8
0
100
AcDbCircle
 62
7
  6
CONTINUOUS
 10
3.4110513352
 20
7.6727219066
 40
0.0147637795
100
AcDbArc
 50
179.998993262
 51
224.9988567098
  0
ARC
  5
4EB
100
AcDbEntity
  8
0
100
AcDbCircle
 62
7
  6
CONTINUOUS
 10
3.4171666929
 20
7.5456641083
 40
0.0147637795
100
AcDbArc
 50
224.9975411858
 51
270.0
  0
ARC
  5
4EC
100
AcDbEntity
  8
0
100
AcDbCircle
 62
7
  6
CONTINUOUS
 10
3.4171666929
 20
7.6401522973
 40
0.0147637795
100
AcDbArc
 50
90.0
 51
135.0024588142
  0
ARC
  5
4ED
100
AcDbEntity
  8
0
100
AcDbCircle
 62
7
  6
CONTINUOUS
 10
3.4110513352
 20
7.6340369396
 40
0.0147637795
100
AcDbArc
 50
135.00114329
 51
180.0010067377
  0
ARC
  5
4EE
100
AcDbEntity
  8
0
100
AcDbCircle
 62
7
  6
CONTINUOUS
 10
3.4110513352
 20
7.551779466
 40
0.0147637795
100
AcDbArc
 50
179.9989932623
 51
224.99885671
  0
ARC
  5
4EF
100
AcDbEntity
  8
0
100
AcDbCircle
 62
7
  6
CONTINUOUS
 10
3.4171666929
 20
7.3532724687
 40
0.0147637795
100
AcDbArc
 50
224.9975411861
 51
270.0
  0
ARC
  5
4F0
100
AcDbEntity
  8
0
100
AcDbCircle
 62
7
  6
CONTINUOUS
 10
3.4171666929
 20
7.4477606577
 40
0.0147637795
100
AcDbArc
 50
90.0
 51
135.0024588139
  0
ARC
  5
4F1
100
AcDbEntity
  8
0
100
AcDbCircle
 62
7
  6
CONTINUOUS
 10
3.4110513352
 20
7.4416453
 40
0.0147637795
100
AcDbArc
 50
135.0011432895
 51
180.0010067371
  0
ARC
  5
4F2
100
AcDbEntity
  8
0
100
AcDbCircle
 62
7
  6
CONTINUOUS
 10
3.4110513352
 20
7.3593878264
 40
0.0147637795
100
AcDbArc
 50
179.9989932614
 51
224.9988567094
  0
ARC
  5
4F3
100
AcDbEntity
  8
0
100
AcDbCircle
 62
7
  6
CONTINUOUS
 10
3.3860063167
 20
7.6235821181
 40
0.0147637795
100
AcDbArc
 50
90.0
 51
135.0012047959
  0
ARC
  5
4F4
100
AcDbEntity
  8
0
100
AcDbCircle
 62
7
  6
CONTINUOUS
 10
3.379890959
 20
7.5529258223
 40
0.0147637795
100
AcDbArc
 50
179.9989177866
 51
192.5062037105
  0
ARC
  5
4F5
100
AcDbEntity
  8
0
100
AcDbCircle
 62
7
  6
CONTINUOUS
 10
3.379890959
 20
7.6174667604
 40
0.0147637795
100
AcDbArc
 50
135.001327205
 51
180.0010822134
  0
ARC
  5
4F6
100
AcDbEntity
  8
0
100
AcDbCircle
 62
7
  6
CONTINUOUS
 10
3.3860063167
 20
7.4156445126
 40
0.0147637795
100
AcDbArc
 50
90.0
 51
135.0012047948
  0
ARC
  5
4F7
100
AcDbEntity
  8
0
100
AcDbCircle
 62
7
  6
CONTINUOUS
 10
3.3860063167
 20
7.338872859
 40
0.0147637795
100
AcDbArc
 50
224.9987952044
 51
270.0
  0
ARC
  5
4F8
100
AcDbEntity
  8
0
100
AcDbCircle
 62
7
  6
CONTINUOUS
 10
3.379890959
 20
7.3449882168
 40
0.0147637795
100
AcDbArc
 50
179.9989177867
 51
224.998672795
  0
ARC
  5
4F9
100
AcDbEntity
  8
0
100
AcDbCircle
 62
7
  6
CONTINUOUS
 10
3.379890959
 20
7.4095291549
 40
0.0147637795
100
AcDbArc
 50
135.0013272057
 51
180.0010822143
  0
ARC
  5
4FA
100
AcDbEntity
  8
0
100
AcDbCircle
 62
7
  6
CONTINUOUS
 10
3.379890959
 20
7.4820021774
 40
0.0147637795
100
AcDbArc
 50
179.9989177863
 51
224.9986727947
  0
ARC
  5
4FB
100
AcDbEntity
  8
0
100
AcDbCircle
 62
7
  6
CONTINUOUS
 10
3.3860063167
 20
7.4758868197
 40
0.0147637795
100
AcDbArc
 50
224.9987952051
 51
270.0
  0
ARC
  5
4FC
100
AcDbEntity
  8
0
100
AcDbCircle
 62
7
  6
CONTINUOUS
 10
3.3860063167
 20
7.5526584732
 40
0.0147637795
100
AcDbArc
 50
90.0
 51
135.0012047956
  0
ARC
  5
4FD
100
AcDbEntity
  8
0
100
AcDbCircle
 62
7
  6
CONTINUOUS
 10
3.379890959
 20
7.5465431155
 40
0.0147637795
100
AcDbArc
 50
135.0013272053
 51
180.0010822137
  0
ARC
  5
4FE
100
AcDbEntity
  8
0
100
AcDbCircle
 62
7
  6
CONTINUOUS
 10
3.3160993541
 20
7.2853617158
 40
0.0088568274
100
AcDbArc
 50
278.8340223204
 51
352.104986859
  0
ARC
  5
4FF
100
AcDbEntity
  8
0
100
AcDbCircle
 62
7
  6
CONTINUOUS
 10
3.3161055737
 20
7.2852749557
 40
0.0087701319
100
AcDbArc
 50
269.9469042525
 51
278.8809180042
  0
ARC
  5
500
100
AcDbEntity
  8
0
100
AcDbCircle
 62
7
  6
CONTINUOUS
 10
3.4492620671
 20
7.8692861135
 40
0.0059055118
100
AcDbArc
 50
165.7100596427
 51
180.0
  0
ARC
  5
501
100
AcDbEntity
  8
0
100
AcDbCircle
 62
7
  6
CONTINUOUS
 10
3.3671415473
 20
7.4900555044
 40
0.0059055118
100
AcDbArc
 50
109.9760716118
 51
169.854080614
  0
ARC
  5
502
100
AcDbEntity
  8
0
100
AcDbCircle
 62
7
  6
CONTINUOUS
 10
5.2841351493
 20
6.0757219364
 40
0.75
100
AcDbArc
 50
0.0
 51
90.0
  0
ARC
  5
503
100
AcDbEntity
  8
0
100
AcDbCircle
 62
7
  6
CONTINUOUS
 10
5.2841351493
 20
6.0757219364
 40
0.1875
100
AcDbArc
 50
0.0
 51
90.0
  0
ARC
  5
504
100
AcDbEntity
  8
0
100
AcDbCircle
 62
7
  6
CONTINUOUS
 10
4.7370431281
 20
6.2564719364
 40
0.075
100
AcDbArc
 50
270.0
 51
315.9268242885
  0
ARC
  5
505
100
AcDbEntity
  8
0
100
AcDbCircle
 62
7
  6
CONTINUOUS
 10
4.6170431281
 20
6.1866827023
 40
0.06
100
AcDbArc
 50
315.2317553725
 51
360.0
  0
ARC
  5
506
100
AcDbEntity
  8
0
100
AcDbCircle
 62
7
  6
CONTINUOUS
 10
4.2705431281
 20
5.6669719364
 40
0.06
100
AcDbArc
 50
135.2317553725
 51
180.0
  0
ARC
  5
507
100
AcDbEntity
  8
0
100
AcDbCircle
 62
7
  6
CONTINUOUS
 10
4.1505431281
 20
5.1044719364
 40
0.06
100
AcDbArc
 50
270.0
 51
360.0
  0
ARC
  5
508
100
AcDbEntity
  8
0
100
AcDbCircle
 62
7
  6
CONTINUOUS
 10
4.7220431281
 20
6.2264719364
 40
0.045
100
AcDbArc
 50
180.0
 51
270.0
  0
ARC
  5
509
100
AcDbEntity
  8
0
100
AcDbCircle
 62
7
  6
CONTINUOUS
 10
4.8232573713
 20
6.1730027548
 40
0.045
100
AcDbArc
 50
108.0
 51
135.9268242885
  0
ARC
  5
50A
100
AcDbEntity
  8
0
100
AcDbCircle
 62
7
  6
CONTINUOUS
 10
4.9426761134
 20
6.2182219364
 40
0.045
100
AcDbArc
 50
90.0
 51
138.1897285501
  0
ARC
  5
50B
100
AcDbEntity
  8
0
100
AcDbCircle
 62
7
  6
CONTINUOUS
 10
5.1159152881
 20
6.5444719364
 40
1.9192913386
100
AcDbArc
 50
174.5188586967
 51
175.9005806951
  0
ARC
  5
50C
100
AcDbEntity
  8
0
100
AcDbCircle
 62
7
  6
CONTINUOUS
 10
5.1159152881
 20
6.5444719364
 40
1.9192913386
100
AcDbArc
 50
176.6527317001
 51
183.6363791601
  0
ARC
  5
50D
100
AcDbEntity
  8
0
100
AcDbCircle
 62
7
  6
CONTINUOUS
 10
4.7370431281
 20
6.8324719364
 40
0.075
100
AcDbArc
 50
44.0731757115
 51
90.0
  0
ARC
  5
50E
100
AcDbEntity
  8
0
100
AcDbCircle
 62
7
  6
CONTINUOUS
 10
4.6170431281
 20
6.9022611705
 40
0.06
100
AcDbArc
 50
0.0
 51
44.7682446275
  0
ARC
  5
50F
100
AcDbEntity
  8
0
100
AcDbCircle
 62
7
  6
CONTINUOUS
 10
4.2705431281
 20
7.4219719364
 40
0.06
100
AcDbArc
 50
180.0
 51
224.7682446275
  0
ARC
  5
510
100
AcDbEntity
  8
0
100
AcDbCircle
 62
7
  6
CONTINUOUS
 10
4.1505431281
 20
7.9844719364
 40
0.06
100
AcDbArc
 50
0.0
 51
90.0
  0
ARC
  5
511
100
AcDbEntity
  8
0
100
AcDbCircle
 62
7
  6
CONTINUOUS
 10
4.7220431281
 20
6.8624719364
 40
0.045
100
AcDbArc
 50
90.0
 51
180.0
  0
ARC
  5
512
100
AcDbEntity
  8
0
100
AcDbCircle
 62
7
  6
CONTINUOUS
 10
4.8232573713
 20
6.915941118
 40
0.045
100
AcDbArc
 50
224.0731757115
 51
252.0
  0
ARC
  5
513
100
AcDbEntity
  8
0
100
AcDbCircle
 62
7
  6
CONTINUOUS
 10
4.9426761134
 20
6.8707219364
 40
0.045
100
AcDbArc
 50
221.8103620257
 51
270.0
  0
ARC
  5
514
100
AcDbEntity
  8
0
100
AcDbCircle
 62
7
  6
CONTINUOUS
 10
6.039321917
 20
-12.6717267004
 40
13.7606661946
100
AcDbArc
 50
91.7692184156
 51
91.9484683343
  0
ARC
  5
515
100
AcDbEntity
  8
0
100
AcDbCircle
 62
7
  6
CONTINUOUS
 10
20.4191356159
 20
2.8019719364
 40
15.13125
100
AcDbArc
 50
174.9244926841
 51
185.0755073159
  0
ARC
  5
516
100
AcDbEntity
  8
0
100
AcDbCircle
 62
7
  6
CONTINUOUS
 10
8.6505446512
 20
6.5444615615
 40
5.3768295673
100
AcDbArc
 50
187.3616080358
 51
189.3230697234
  0
ARC
  5
517
100
AcDbEntity
  8
0
100
AcDbCircle
 62
7
  6
CONTINUOUS
 10
8.6505446512
 20
6.5444823113
 40
5.3768295673
100
AcDbArc
 50
173.6113259237
 51
174.2089899485
  0
ARC
  5
518
100
AcDbEntity
  8
0
100
AcDbCircle
 62
7
  6
CONTINUOUS
 10
8.6505446512
 20
6.5444823113
 40
5.3768295673
100
AcDbArc
 50
170.6769302766
 51
172.0985812019
  0
ARC
  5
519
100
AcDbEntity
  8
0
100
AcDbCircle
 62
7
  6
CONTINUOUS
 10
8.6505711336
 20
6.5444615615
 40
5.3732862602
100
AcDbArc
 50
194.2897268228
 51
194.8055281041
  0
ARC
  5
51A
100
AcDbEntity
  8
0
100
AcDbCircle
 62
7
  6
CONTINUOUS
 10
8.6505711336
 20
6.5444823113
 40
5.3732862602
100
AcDbArc
 50
165.1944718959
 51
165.7102731772
  0
ARC
  5
51B
100
AcDbEntity
  8
0
100
AcDbCircle
 62
7
  6
CONTINUOUS
 10
8.6505711336
 20
6.5444615615
 40
5.3732862602
100
AcDbArc
 50
189.4251203928
 51
190.1467817724
  0
ARC
  5
51C
100
AcDbEntity
  8
0
100
AcDbCircle
 62
7
  6
CONTINUOUS
 10
8.6505711336
 20
6.5444823113
 40
5.3732862602
100
AcDbArc
 50
169.8532230909
 51
170.5748796072
  0
ARC
  5
51D
100
AcDbEntity
  8
0
100
AcDbCircle
 62
7
  6
CONTINUOUS
 10
6.1883490482
 20
4.3469719364
 40
0.045
100
AcDbArc
 50
219.0000000139
 51
269.9999999971
  0
ARC
  5
51E
100
AcDbEntity
  8
0
100
AcDbCircle
 62
7
  6
CONTINUOUS
 10
6.2033782233
 20
4.1445920571
 40
0.045
100
AcDbArc
 50
93.243201402
 51
185.0755073161
  0
ARC
  5
51F
100
AcDbEntity
  8
0
100
AcDbCircle
 62
7
  6
CONTINUOUS
 10
6.2033782233
 20
1.4593518157
 40
0.045
100
AcDbArc
 50
174.9244926839
 51
266.756798598
  0
ARC
  5
520
100
AcDbEntity
  8
0
100
AcDbCircle
 62
7
  6
CONTINUOUS
 10
6.0791351493
 20
4.481773337
 40
0.045
100
AcDbArc
 50
180.0
 51
221.471948532
  0
ARC
  5
521
100
AcDbEntity
  8
0
100
AcDbCircle
 62
7
  6
CONTINUOUS
 10
6.1991351493
 20
4.2194719364
 40
0.03
100
AcDbArc
 50
273.2432014018
 51
360.0
  0
ARC
  5
522
100
AcDbEntity
  8
0
100
AcDbCircle
 62
7
  6
CONTINUOUS
 10
6.1991351493
 20
4.2719719364
 40
0.03
100
AcDbArc
 50
0.0
 51
90.0
  0
ARC
  5
523
100
AcDbEntity
  8
0
100
AcDbCircle
 62
7
  6
CONTINUOUS
 10
6.1991351493
 20
1.3319719364
 40
0.03
100
AcDbArc
 50
270.0
 51
360.0
  0
ARC
  5
524
100
AcDbEntity
  8
0
100
AcDbCircle
 62
7
  6
CONTINUOUS
 10
6.1991351493
 20
1.3844719364
 40
0.03
100
AcDbArc
 50
0.0
 51
86.7567985982
  0
LINE
  5
525
100
AcDbEntity
  8
0
100
AcDbLine
 62
7
  6
CONTINUOUS
 10
6.059635146
 20
1.0527838952
 11
6.0592845606
 21
1.0531891453
  0
LINE
  5
526
100
AcDbEntity
  8
0
100
AcDbLine
 62
7
  6
CONTINUOUS
 10
5.4461355234
 20
1.1859088943
 11
5.4464858964
 21
1.1863141449
  0
LINE
  5
527
100
AcDbEntity
  8
0
100
AcDbLine
 62
7
  6
CONTINUOUS
 10
5.4461355234
 20
1.1326588943
 11
5.4464858964
 21
1.1330641449
  0
LINE
  5
528
100
AcDbEntity
  8
0
100
AcDbLine
 62
7
  6
CONTINUOUS
 10
5.4461356892
 20
1.0794088953
 11
5.4464860898
 21
1.0798141455
  0
LINE
  5
529
100
AcDbEntity
  8
0
100
AcDbLine
 62
7
  6
CONTINUOUS
 10
6.0596347751
 20
1.1592838943
 11
6.0592844021
 21
1.1596891449
  0
LINE
  5
52A
100
AcDbEntity
  8
0
100
AcDbLine
 62
7
  6
CONTINUOUS
 10
5.4464858964
 20
1.1791291858
 11
5.4461355234
 21
1.1795344364
  0
LINE
  5
52B
100
AcDbEntity
  8
0
100
AcDbLine
 62
7
  6
CONTINUOUS
 10
6.0592844021
 20
1.1525041858
 11
6.0596347751
 21
1.1529094364
  0
LINE
  5
52C
100
AcDbEntity
  8
0
100
AcDbLine
 62
7
  6
CONTINUOUS
 10
5.4464859052
 20
1.1258791861
 11
5.4461356892
 21
1.1262844374
  0
LINE
  5
52D
100
AcDbEntity
  8
0
100
AcDbLine
 62
7
  6
CONTINUOUS
 10
6.0592844021
 20
1.0992541858
 11
6.0596347751
 21
1.0996594364
  0
LINE
  5
52E
100
AcDbEntity
  8
0
100
AcDbLine
 62
7
  6
CONTINUOUS
 10
6.0480723193
 20
1.0395233533
 11
6.0494315417
 21
1.0405184533
  0
LINE
  5
52F
100
AcDbEntity
  8
0
100
AcDbLine
 62
7
  6
CONTINUOUS
 10
5.4617076433
 20
1.0351495914
 11
5.4618062205
 21
1.0354199782
  0
SPLINE
  5
530
100
AcDbEntity
  8
0
100
AcDbSpline
 62
7
  6
CONTINUOUS
 70
0
 71
3
 72
11
 73
7
 74
0
 42
0.0000001
 43
0.0000001
 44
0.0000000001
 40
0.0
 40
0.0
 40
0.0
 40
0.0
 40
0.2499971029
 40
0.4999958941
 40
0.7499968575
 40
1.0
 40
1.0
 40
1.0
 40
1.0
 10
5.7998827824
 20
1.2174026133
 30
0.0
 10
5.807582281
 20
1.2168819869
 30
0.0
 10
5.8229588534
 20
1.2154758048
 30
0.0
 10
5.8459033418
 20
1.2123366175
 30
0.0
 10
5.8686976829
 20
1.2082515239
 30
0.0
 10
5.8837809646
 20
1.2049601587
 30
0.0
 10
5.8912921577
 20
1.2031886665
 30
0.0
  0
SPLINE
  5
531
100
AcDbEntity
  8
0
100
AcDbSpline
 62
7
  6
CONTINUOUS
 70
0
 71
3
 72
37
 73
33
 74
0
 42
0.0000001
 43
0.0000001
 44
0.0000000001
 40
0.0
 40
0.0
 40
0.0
 40
0.0
 40
0.0004071362
 40
0.0008620926
 40
0.0014000856
 40
0.0020428244
 40
0.0028030975
 40
0.0036886159
 40
0.005852527
 40
0.0085576391
 40
0.0118132217
 40
0.0156235185
 40
0.019990348
 40
0.0249141975
 40
0.0303947663
 40
0.0364312579
 40
0.0430224324
 40
0.0578572629
 40
0.0748716761
 40
0.0940357058
 40
0.1153180272
 40
0.1640710214
 40
0.2207613836
 40
0.2849622172
 40
0.3561831532
 40
0.4338822561
 40
0.5174693308
 40
0.6062986227
 40
0.6996866466
 40
0.7969401429
 40
0.897335341
 40
1.0
 40
1.0
 40
1.0
 40
1.0
 10
5.4751306868
 20
1.0562941653
 30
0.0
 10
5.4751306868
 20
1.0563255729
 30
0.0
 10
5.4751434523
 20
1.0563924845
 30
0.0
 10
5.4751973581
 20
1.0564876008
 30
0.0
 10
5.4752837077
 20
1.0565806654
 30
0.0
 10
5.4754022314
 20
1.0566728822
 30
0.0
 10
5.4755531993
 20
1.0567649243
 30
0.0
 10
5.4758162317
 20
1.056896568
 30
0.0
 10
5.4762313308
 20
1.0570562745
 30
0.0
 10
5.4768312509
 20
1.0572385268
 30
0.0
 10
5.4775627266
 20
1.057421511
 30
0.0
 10
5.478425471
 20
1.057605132
 30
0.0
 10
5.4794193174
 20
1.0577891515
 30
0.0
 10
5.4805438665
 20
1.057973472
 30
0.0
 10
5.4817987122
 20
1.0581580051
 30
0.0
 10
5.4831833987
 20
1.0583427132
 30
0.0
 10
5.4852863607
 20
1.0585993595
 30
0.0
 10
5.4882349323
 20
1.0589161622
 30
0.0
 10
5.4921530867
 20
1.0592839293
 30
0.0
 10
5.496570489
 20
1.0596523721
 30
0.0
 10
5.5034322864
 20
1.0601678394
 30
0.0
 10
5.5131879501
 20
1.0608008968
 30
0.0
 10
5.5262543215
 20
1.0615335935
 30
0.0
 10
5.5410562307
 20
1.062268043
 30
0.0
 10
5.5574805046
 20
1.0630039487
 30
0.0
 10
5.5754016076
 20
1.0637407925
 30
0.0
 10
5.5946820953
 20
1.0644783037
 30
0.0
 10
5.6151736756
 20
1.0652163221
 30
0.0
 10
5.6367201526
 20
1.0659546994
 30
0.0
 10
5.6591593413
 20
1.0666934606
 30
0.0
 10
5.6823145242
 20
1.0674323233
 30
0.0
 10
5.6979714857
 20
1.0679206457
 30
0.0
 10
5.7058875161
 20
1.0681657174
 30
0.0
  0
SPLINE
  5
532
100
AcDbEntity
  8
0
100
AcDbSpline
 62
7
  6
CONTINUOUS
 70
0
 71
3
 72
18
 73
14
 74
0
 42
0.0000001
 43
0.0000001
 44
0.0000000001
 40
0.0
 40
0.0
 40
0.0
 40
0.0
 40
0.0334524569
 40
0.0717851977
 40
0.1148243872
 40
0.16238729
 40
0.2142782925
 40
0.2702978076
 40
0.3937874979
 40
0.530835966
 40
0.6791807468
 40
0.8364609704
 40
1.0
 40
1.0
 40
1.0
 40
1.0
 10
5.4945446972
 20
1.0993366653
 30
0.0
 10
5.4968953883
 20
1.0995319421
 30
0.0
 10
5.5019426611
 20
1.0999154911
 30
0.0
 10
5.5100213193
 20
1.100453162
 30
0.0
 10
5.519096815
 20
1.1009919247
 30
0.0
 10
5.5291297939
 20
1.1015312377
 30
0.0
 10
5.5400792092
 20
1.1020711354
 30
0.0
 10
5.5563786458
 20
1.1028158313
 30
0.0
 10
5.578680849
 20
1.1037343568
 30
0.0
 10
5.6074919549
 20
1.104806745
 30
0.0
 10
5.6386871335
 20
1.1058810016
 30
0.0
 10
5.6717511949
 20
1.1069564114
 30
0.0
 10
5.6943616302
 20
1.1076638886
 30
0.0
 10
5.7058875161
 20
1.1080207174
 30
0.0
  0
SPLINE
  5
533
100
AcDbEntity
  8
0
100
AcDbSpline
 62
7
  6
CONTINUOUS
 70
0
 71
3
 72
37
 73
33
 74
0
 42
0.0000001
 43
0.0000001
 44
0.0000000001
 40
0.0
 40
0.0
 40
0.0
 40
0.0
 40
0.102664659
 40
0.2030598571
 40
0.3003133534
 40
0.3937013773
 40
0.4825306692
 40
0.5661177439
 40
0.6438168468
 40
0.7150377828
 40
0.7792386164
 40
0.8359289786
 40
0.8846819728
 40
0.9059642942
 40
0.9251283239
 40
0.9421427371
 40
0.9569775676
 40
0.9635687421
 40
0.9696052337
 40
0.9750858025
 40
0.980009652
 40
0.9843764815
 40
0.9881867783
 40
0.9914423609
 40
0.994147473
 40
0.9963113841
 40
0.9971969025
 40
0.9979571756
 40
0.9985999144
 40
0.9991379074
 40
0.9995928638
 40
1.0
 40
1.0
 40
1.0
 40
1.0
 10
5.7998827824
 20
1.1109026133
 30
0.0
 10
5.8077988128
 20
1.1111476849
 30
0.0
 10
5.8234557743
 20
1.1116360074
 30
0.0
 10
5.8466109573
 20
1.1123748701
 30
0.0
 10
5.8690501459
 20
1.1131136312
 30
0.0
 10
5.8905966229
 20
1.1138520085
 30
0.0
 10
5.9110882032
 20
1.1145900269
 30
0.0
 10
5.9303686909
 20
1.1153275382
 30
0.0
 10
5.9482897939
 20
1.116064382
 30
0.0
 10
5.9647140678
 20
1.1168002877
 30
0.0
 10
5.979515977
 20
1.1175347372
 30
0.0
 10
5.9925823484
 20
1.1182674338
 30
0.0
 10
6.0023380121
 20
1.1189004912
 30
0.0
 10
6.0091998095
 20
1.1194159586
 30
0.0
 10
6.0136172119
 20
1.1197844014
 30
0.0
 10
6.0175353662
 20
1.1201521685
 30
0.0
 10
6.0204839378
 20
1.1204689712
 30
0.0
 10
6.0225868998
 20
1.1207256175
 30
0.0
 10
6.0239715863
 20
1.1209103256
 30
0.0
 10
6.025226432
 20
1.1210948586
 30
0.0
 10
6.0263509811
 20
1.1212791792
 30
0.0
 10
6.0273448275
 20
1.1214631987
 30
0.0
 10
6.0282075719
 20
1.1216468196
 30
0.0
 10
6.0289390476
 20
1.1218298039
 30
0.0
 10
6.0295389677
 20
1.1220120562
 30
0.0
 10
6.0299540668
 20
1.1221717626
 30
0.0
 10
6.0302170992
 20
1.1223034063
 30
0.0
 10
6.0303680671
 20
1.1223954485
 30
0.0
 10
6.0304865908
 20
1.1224876652
 30
0.0
 10
6.0305729404
 20
1.1225807299
 30
0.0
 10
6.0306268462
 20
1.1226758461
 30
0.0
 10
6.0306396117
 20
1.1227427578
 30
0.0
 10
6.0306396117
 20
1.1227741653
 30
0.0
  0
SPLINE
  5
534
100
AcDbEntity
  8
0
100
AcDbSpline
 62
7
  6
CONTINUOUS
 70
0
 71
3
 72
37
 73
33
 74
0
 42
0.0000001
 43
0.0000001
 44
0.0000000001
 40
0.0
 40
0.0
 40
0.0
 40
0.0
 40
0.102664659
 40
0.2030598571
 40
0.3003133534
 40
0.3937013773
 40
0.4825306692
 40
0.5661177439
 40
0.6438168468
 40
0.7150377828
 40
0.7792386164
 40
0.8359289786
 40
0.8846819728
 40
0.9059642942
 40
0.9251283239
 40
0.9421427371
 40
0.9569775676
 40
0.9635687421
 40
0.9696052337
 40
0.9750858025
 40
0.980009652
 40
0.9843764815
 40
0.9881867783
 40
0.9914423609
 40
0.994147473
 40
0.9963113841
 40
0.9971969025
 40
0.9979571756
 40
0.9985999144
 40
0.9991379074
 40
0.9995928638
 40
1.0
 40
1.0
 40
1.0
 40
1.0
 10
5.7998827824
 20
1.1641526133
 30
0.0
 10
5.8077988128
 20
1.1643976849
 30
0.0
 10
5.8234557743
 20
1.1648860074
 30
0.0
 10
5.8466109573
 20
1.1656248701
 30
0.0
 10
5.8690501459
 20
1.1663636312
 30
0.0
 10
5.8905966229
 20
1.1671020085
 30
0.0
 10
5.9110882032
 20
1.1678400269
 30
0.0
 10
5.9303686909
 20
1.1685775382
 30
0.0
 10
5.9482897939
 20
1.169314382
 30
0.0
 10
5.9647140678
 20
1.1700502877
 30
0.0
 10
5.979515977
 20
1.1707847372
 30
0.0
 10
5.9925823484
 20
1.1715174338
 30
0.0
 10
6.0023380121
 20
1.1721504912
 30
0.0
 10
6.0091998095
 20
1.1726659586
 30
0.0
 10
6.0136172119
 20
1.1730344014
 30
0.0
 10
6.0175353662
 20
1.1734021685
 30
0.0
 10
6.0204839378
 20
1.1737189712
 30
0.0
 10
6.0225868998
 20
1.1739756175
 30
0.0
 10
6.0239715863
 20
1.1741603256
 30
0.0
 10
6.025226432
 20
1.1743448586
 30
0.0
 10
6.0263509811
 20
1.1745291792
 30
0.0
 10
6.0273448275
 20
1.1747131987
 30
0.0
 10
6.0282075719
 20
1.1748968196
 30
0.0
 10
6.0289390476
 20
1.1750798039
 30
0.0
 10
6.0295389677
 20
1.1752620562
 30
0.0
 10
6.0299540668
 20
1.1754217626
 30
0.0
 10
6.0302170992
 20
1.1755534063
 30
0.0
 10
6.0303680671
 20
1.1756454485
 30
0.0
 10
6.0304865908
 20
1.1757376652
 30
0.0
 10
6.0305729404
 20
1.1758307299
 30
0.0
 10
6.0306268462
 20
1.1759258461
 30
0.0
 10
6.0306396117
 20
1.1759927578
 30
0.0
 10
6.0306396117
 20
1.1760241653
 30
0.0
  0
SPLINE
  5
535
100
AcDbEntity
  8
0
100
AcDbSpline
 62
7
  6
CONTINUOUS
 70
0
 71
3
 72
18
 73
14
 74
0
 42
0.0000001
 43
0.0000001
 44
0.0000000001
 40
0.0
 40
0.0
 40
0.0
 40
0.0
 40
0.0189600431
 40
0.0435143346
 40
0.0738280414
 40
0.1099754362
 40
0.1519923342
 40
0.1998950436
 40
0.3133693169
 40
0.4503708894
 40
0.6106943936
 40
0.7940168798
 40
1.0
 40
1.0
 40
1.0
 40
1.0
 10
5.4464860898
 20
1.0798141455
 30
0.0
 10
5.4466027689
 20
1.079881636
 30
0.0
 10
5.4468856524
 20
1.0800098236
 30
0.0
 10
5.4473824656
 20
1.0801798318
 30
0.0
 10
5.4480068964
 20
1.0803508359
 30
0.0
 10
5.4487588646
 20
1.0805225796
 30
0.0
 10
5.4496385202
 20
1.0806948473
 30
0.0
 10
5.4510638423
 20
1.0809389958
 30
0.0
 10
5.4531644111
 20
1.0812372306
 30
0.0
 10
5.4560648465
 20
1.0815800832
 30
0.0
 10
5.4594646818
 20
1.0819240505
 30
0.0
 10
5.4633569712
 20
1.0822689196
 30
0.0
 10
5.4661161258
 20
1.0824865532
 30
0.0
 10
5.4675763928
 20
1.0825963943
 30
0.0
  0
SPLINE
  5
536
100
AcDbEntity
  8
0
100
AcDbSpline
 62
7
  6
CONTINUOUS
 70
0
 71
3
 72
18
 73
14
 74
0
 42
0.0000001
 43
0.0000001
 44
0.0000000001
 40
0.0
 40
0.0
 40
0.0
 40
0.0
 40
0.0203390555
 40
0.0460870164
 40
0.0773973911
 40
0.1143479037
 40
0.1569797939
 40
0.2053147904
 40
0.3191251811
 40
0.4557594081
 40
0.6149845432
 40
0.7965023483
 40
1.0
 40
1.0
 40
1.0
 40
1.0
 10
5.4755172302
 20
1.0965966459
 30
0.0
 10
5.4756303606
 20
1.0966620841
 30
0.0
 10
5.4758996828
 20
1.0967875674
 30
0.0
 10
5.4763680624
 20
1.0969555429
 30
0.0
 10
5.4769484115
 20
1.0971243253
 30
0.0
 10
5.4776406942
 20
1.0972936926
 30
0.0
 10
5.4784450378
 20
1.0974635041
 30
0.0
 10
5.4797388895
 20
1.0977035851
 30
0.0
 10
5.4816365473
 20
1.0979972706
 30
0.0
 10
5.4842473414
 20
1.0983351563
 30
0.0
 10
5.4872961817
 20
1.0986741088
 30
0.0
 10
5.4907768488
 20
1.099013837
 30
0.0
 10
5.4932415681
 20
1.0992284117
 30
0.0
 10
5.4945446972
 20
1.0993366653
 30
0.0
  0
SPLINE
  5
537
100
AcDbEntity
  8
0
100
AcDbSpline
 62
7
  6
CONTINUOUS
 70
0
 71
3
 72
37
 73
33
 74
0
 42
0.0000001
 43
0.0000001
 44
0.0000000001
 40
0.0
 40
0.0
 40
0.0
 40
0.0
 40
0.102664659
 40
0.2030598571
 40
0.3003133534
 40
0.3937013773
 40
0.4825306692
 40
0.5661177439
 40
0.6438168468
 40
0.7150377828
 40
0.7792386164
 40
0.8359289786
 40
0.8846819728
 40
0.9059642942
 40
0.9251283239
 40
0.9421427371
 40
0.9569775676
 40
0.9635687421
 40
0.9696052337
 40
0.9750858025
 40
0.980009652
 40
0.9843764815
 40
0.9881867783
 40
0.9914423609
 40
0.994147473
 40
0.9963113841
 40
0.9971969025
 40
0.9979571756
 40
0.9985999144
 40
0.9991379074
 40
0.9995928638
 40
1.0
 40
1.0
 40
1.0
 40
1.0
 10
5.7998827824
 20
1.2174026133
 30
0.0
 10
5.8077988128
 20
1.2176476849
 30
0.0
 10
5.8234557743
 20
1.2181360074
 30
0.0
 10
5.8466109573
 20
1.2188748701
 30
0.0
 10
5.8690501459
 20
1.2196136312
 30
0.0
 10
5.8905966229
 20
1.2203520085
 30
0.0
 10
5.9110882032
 20
1.2210900269
 30
0.0
 10
5.9303686909
 20
1.2218275382
 30
0.0
 10
5.9482897939
 20
1.222564382
 30
0.0
 10
5.9647140678
 20
1.2233002877
 30
0.0
 10
5.979515977
 20
1.2240347372
 30
0.0
 10
5.9925823484
 20
1.2247674338
 30
0.0
 10
6.0023380121
 20
1.2254004912
 30
0.0
 10
6.0091998095
 20
1.2259159586
 30
0.0
 10
6.0136172119
 20
1.2262844014
 30
0.0
 10
6.0175353662
 20
1.2266521685
 30
0.0
 10
6.0204839378
 20
1.2269689712
 30
0.0
 10
6.0225868998
 20
1.2272256175
 30
0.0
 10
6.0239715863
 20
1.2274103256
 30
0.0
 10
6.025226432
 20
1.2275948586
 30
0.0
 10
6.0263509811
 20
1.2277791792
 30
0.0
 10
6.0273448275
 20
1.2279631987
 30
0.0
 10
6.0282075719
 20
1.2281468196
 30
0.0
 10
6.0289390476
 20
1.2283298039
 30
0.0
 10
6.0295389677
 20
1.2285120562
 30
0.0
 10
6.0299540668
 20
1.2286717626
 30
0.0
 10
6.0302170992
 20
1.2288034063
 30
0.0
 10
6.0303680671
 20
1.2288954485
 30
0.0
 10
6.0304865908
 20
1.2289876652
 30
0.0
 10
6.0305729404
 20
1.2290807299
 30
0.0
 10
6.0306268462
 20
1.2291758461
 30
0.0
 10
6.0306396117
 20
1.2292427578
 30
0.0
 10
6.0306396117
 20
1.2292741653
 30
0.0
  0
SPLINE
  5
538
100
AcDbEntity
  8
0
100
AcDbSpline
 62
7
  6
CONTINUOUS
 70
0
 71
3
 72
30
 73
26
 74
0
 42
0.0000001
 43
0.0000001
 44
0.0000000001
 40
0.0
 40
0.0
 40
0.0
 40
0.0
 40
0.0013160572
 40
0.0031175242
 40
0.0054180795
 40
0.0082235693
 40
0.0115367087
 40
0.0153587339
 40
0.0245305865
 40
0.0357361616
 40
0.0489611986
 40
0.064188391
 40
0.0813996469
 40
0.1005762879
 40
0.1216946341
 40
0.1696370479
 40
0.2249848002
 40
0.2874630173
 40
0.3567532281
 40
0.4325185337
 40
0.514368988
 40
0.6019012624
 40
0.6946957916
 40
0.7923221887
 40
1.0
 40
1.0
 40
1.0
 40
1.0
 10
5.4618062205
 20
1.0354199782
 30
0.0
 10
5.461872659
 20
1.0354583454
 30
0.0
 10
5.4620412296
 20
1.0355289983
 30
0.0
 10
5.4623434256
 20
1.0356209286
 30
0.0
 10
5.4627355714
 20
1.035713652
 30
0.0
 10
5.4632174735
 20
1.0358069769
 30
0.0
 10
5.4637894287
 20
1.0359006477
 30
0.0
 10
5.4647307029
 20
1.0360340737
 30
0.0
 10
5.4661322635
 20
1.0361964182
 30
0.0
 10
5.4680823543
 20
1.0363826008
 30
0.0
 10
5.4703867593
 20
1.0365693781
 30
0.0
 10
5.4730422036
 20
1.0367566308
 30
0.0
 10
5.4760453437
 20
1.0369441167
 30
0.0
 10
5.4793924992
 20
1.0371317407
 30
0.0
 10
5.4845297704
 20
1.0373931546
 30
0.0
 10
5.4917752448
 20
1.0377147264
 30
0.0
 10
5.5014317635
 20
1.0380869815
 30
0.0
 10
5.5123335803
 20
1.0384595041
 30
0.0
 10
5.52442627
 20
1.0388322482
 30
0.0
 10
5.5376487761
 20
1.0392048655
 30
0.0
 10
5.5519351136
 20
1.0395773792
 30
0.0
 10
5.5672145089
 20
1.039949622
 30
0.0
 10
5.5834138419
 20
1.0403216312
 30
0.0
 10
5.6066159481
 20
1.0408277081
 30
0.0
 10
5.6244103223
 20
1.0411902966
 30
0.0
 10
5.6365147702
 20
1.0414297109
 30
0.0
  0
SPLINE
  5
539
100
AcDbEntity
  8
0
100
AcDbSpline
 62
7
  6
CONTINUOUS
 70
0
 71
3
 72
30
 73
26
 74
0
 42
0.0000001
 43
0.0000001
 44
0.0000000001
 40
0.0
 40
0.0
 40
0.0
 40
0.0
 40
0.0017801161
 40
0.0040522885
 40
0.0068307089
 40
0.0101217677
 40
0.0139284918
 40
0.0182521483
 40
0.0284503673
 40
0.0407126182
 40
0.0550240912
 40
0.0713598673
 40
0.089693206
 40
0.109996382
 40
0.1322349538
 40
0.1823517495
 40
0.239699555
 40
0.3038694297
 40
0.3744139217
 40
0.4508309712
 40
0.5325863301
 40
0.619090207
 40
0.7097306136
 40
0.8038868976
 40
1.0
 40
1.0
 40
1.0
 40
1.0
 10
5.4755174149
 20
1.0433466451
 30
0.0
 10
5.475635962
 20
1.0434152301
 30
0.0
 10
5.4759200322
 20
1.0435463481
 30
0.0
 10
5.4764158908
 20
1.0437212396
 30
0.0
 10
5.4770334927
 20
1.0438970309
 30
0.0
 10
5.4777727106
 20
1.0440734866
 30
0.0
 10
5.4786335678
 20
1.0442504283
 30
0.0
 10
5.4800214257
 20
1.0445007577
 30
0.0
 10
5.4820596623
 20
1.0448068177
 30
0.0
 10
5.4848669556
 20
1.0451588878
 30
0.0
 10
5.4881494966
 20
1.0455120021
 30
0.0
 10
5.4919013353
 20
1.0458660839
 30
0.0
 10
5.4961159163
 20
1.0462207547
 30
0.0
 10
5.5007860416
 20
1.046575845
 30
0.0
 10
5.5078978632
 20
1.0470695679
 30
0.0
 10
5.517858466
 20
1.0476780612
 30
0.0
 10
5.5310447322
 20
1.0483843891
 30
0.0
 10
5.5458045772
 20
1.049092205
 30
0.0
 10
5.562033023
 20
1.0498010153
 30
0.0
 10
5.5796155947
 20
1.0505106527
 30
0.0
 10
5.5984269464
 20
1.0512207573
 30
0.0
 10
5.6183333197
 20
1.0519313118
 30
0.0
 10
5.639194353
 20
1.0526421507
 30
0.0
 10
5.6684847632
 20
1.0536033457
 30
0.0
 10
5.6908063287
 20
1.0543038203
 30
0.0
 10
5.7058875161
 20
1.0547707174
 30
0.0
  0
SPLINE
  5
53A
100
AcDbEntity
  8
0
100
AcDbSpline
 62
7
  6
CONTINUOUS
 70
0
 71
3
 72
30
 73
26
 74
0
 42
0.0000001
 43
0.0000001
 44
0.0000000001
 40
0.0
 40
0.0
 40
0.0
 40
0.0
 40
0.1961131026
 40
0.2902693866
 40
0.3809097932
 40
0.4674136702
 40
0.5491690291
 40
0.6255860787
 40
0.6961305707
 40
0.7603004453
 40
0.8176482508
 40
0.8677650465
 40
0.8900036182
 40
0.9103067943
 40
0.9286401329
 40
0.944975909
 40
0.959287382
 40
0.9715496329
 40
0.9817478518
 40
0.9860715083
 40
0.9898782323
 40
0.9931692911
 40
0.9959477116
 40
0.9982198839
 40
1.0
 40
1.0
 40
1.0
 40
1.0
 10
5.7998827824
 20
1.1242976133
 30
0.0
 10
5.8149639698
 20
1.1247645104
 30
0.0
 10
5.8372855353
 20
1.125464985
 30
0.0
 10
5.8665759455
 20
1.12642618
 30
0.0
 10
5.8874369788
 20
1.1271370189
 30
0.0
 10
5.9073433522
 20
1.1278475734
 30
0.0
 10
5.9261547039
 20
1.128557678
 30
0.0
 10
5.9437372756
 20
1.1292673154
 30
0.0
 10
5.9599657214
 20
1.1299761257
 30
0.0
 10
5.9747255664
 20
1.1306839416
 30
0.0
 10
5.9879118326
 20
1.1313902695
 30
0.0
 10
5.9978724354
 20
1.1319987627
 30
0.0
 10
6.004984257
 20
1.1324924857
 30
0.0
 10
6.0096543823
 20
1.132847576
 30
0.0
 10
6.0138689632
 20
1.1332022468
 30
0.0
 10
6.017620802
 20
1.1335563286
 30
0.0
 10
6.020903343
 20
1.1339094428
 30
0.0
 10
6.0237106362
 20
1.134261513
 30
0.0
 10
6.0257488729
 20
1.134567573
 30
0.0
 10
6.0271367308
 20
1.1348179024
 30
0.0
 10
6.0279975879
 20
1.134994844
 30
0.0
 10
6.0287368059
 20
1.1351712997
 30
0.0
 10
6.0293544077
 20
1.135347091
 30
0.0
 10
6.0298502663
 20
1.1355219826
 30
0.0
 10
6.0301343365
 20
1.1356531006
 30
0.0
 10
6.0302528836
 20
1.1357216855
 30
0.0
  0
SPLINE
  5
53B
100
AcDbEntity
  8
0
100
AcDbSpline
 62
7
  6
CONTINUOUS
 70
0
 71
3
 72
11
 73
7
 74
0
 42
0.0000001
 43
0.0000001
 44
0.0000000001
 40
0.0
 40
0.0
 40
0.0
 40
0.0
 40
0.2500018747
 40
0.5000024377
 40
0.7500013442
 40
1.0
 40
1.0
 40
1.0
 40
1.0
 10
5.8912921577
 20
1.1435642087
 30
0.0
 10
5.883799043
 20
1.141427478
 30
0.0
 10
5.868748301
 20
1.1373757433
 30
0.0
 10
5.8459801361
 20
1.1320611566
 30
0.0
 10
5.8230266041
 20
1.1276104521
 30
0.0
 10
5.8076116717
 20
1.1252850817
 30
0.0
 10
5.7998827824
 20
1.1242976133
 30
0.0
  0
SPLINE
  5
53C
100
AcDbEntity
  8
0
100
AcDbSpline
 62
7
  6
CONTINUOUS
 70
0
 71
3
 72
11
 73
7
 74
0
 42
0.0000001
 43
0.0000001
 44
0.0000000001
 40
0.0
 40
0.0
 40
0.0
 40
0.0
 40
0.2500003838
 40
0.5000010626
 40
0.750000839
 40
1.0
 40
1.0
 40
1.0
 40
1.0
 10
5.7058875161
 20
1.1746657174
 30
0.0
 10
5.6981879165
 20
1.1751863506
 30
0.0
 10
5.6828111852
 20
1.1765925495
 30
0.0
 10
5.6598665771
 20
1.1797317708
 30
0.0
 10
5.6370723397
 20
1.183816868
 30
0.0
 10
5.6219892143
 20
1.1871082002
 30
0.0
 10
5.6144781408
 20
1.1888796641
 30
0.0
  0
SPLINE
  5
53D
100
AcDbEntity
  8
0
100
AcDbSpline
 62
7
  6
CONTINUOUS
 70
0
 71
3
 72
18
 73
14
 74
0
 42
0.0000001
 43
0.0000001
 44
0.0000000001
 40
0.0
 40
0.0
 40
0.0
 40
0.0
 40
0.0334580361
 40
0.0717899991
 40
0.1148249871
 40
0.1623826254
 40
0.214276468
 40
0.2702988669
 40
0.393788172
 40
0.5308340379
 40
0.6791874649
 40
0.8364446773
 40
1.0
 40
1.0
 40
1.0
 40
1.0
 10
5.4945446972
 20
1.1127316653
 30
0.0
 10
5.4968957804
 20
1.1129269747
 30
0.0
 10
5.5019433882
 20
1.1133105814
 30
0.0
 10
5.5100220883
 20
1.113848266
 30
0.0
 10
5.5190968681
 20
1.1143868984
 30
0.0
 10
5.529129378
 20
1.1149262285
 30
0.0
 10
5.5400788274
 20
1.1154660957
 30
0.0
 10
5.556378638
 20
1.1162108526
 30
0.0
 10
5.5786808357
 20
1.1171293376
 30
0.0
 10
5.6074923394
 20
1.1182017666
 30
0.0
 10
5.6386863227
 20
1.119275975
 30
0.0
 10
5.6717505198
 20
1.1203513973
 30
0.0
 10
5.6943604819
 20
1.121058853
 30
0.0
 10
5.7058875161
 20
1.1214157174
 30
0.0
  0
SPLINE
  5
53E
100
AcDbEntity
  8
0
100
AcDbSpline
 62
7
  6
CONTINUOUS
 70
0
 71
3
 72
11
 73
7
 74
0
 42
0.0000001
 43
0.0000001
 44
0.0000000001
 40
0.0
 40
0.0
 40
0.0
 40
0.0
 40
0.250000386
 40
0.500001082
 40
0.7500008587
 40
1.0
 40
1.0
 40
1.0
 40
1.0
 10
5.7058875161
 20
1.1214157174
 30
0.0
 10
5.6981879164
 20
1.1219363506
 30
0.0
 10
5.6828111845
 20
1.1233425496
 30
0.0
 10
5.6598665758
 20
1.1264817711
 30
0.0
 10
5.6370723385
 20
1.1305668683
 30
0.0
 10
5.6219892137
 20
1.1338582003
 30
0.0
 10
5.6144781408
 20
1.1356296641
 30
0.0
  0
LINE
  5
53F
100
AcDbEntity
  8
0
100
AcDbLine
 62
7
  6
CONTINUOUS
 10
5.7998827824
 20
1.1775476133
 11
5.8008449014
 21
1.1775774085
  0
LINE
  5
540
100
AcDbEntity
  8
0
100
AcDbLine
 62
7
  6
CONTINUOUS
 10
5.8008449014
 20
1.1775774085
 11
5.8170749918
 21
1.1780831318
  0
LINE
  5
541
100
AcDbEntity
  8
0
100
AcDbLine
 62
7
  6
CONTINUOUS
 10
5.8170749918
 20
1.1780831318
 11
5.8278891485
 21
1.1784240005
  0
LINE
  5
542
100
AcDbEntity
  8
0
100
AcDbLine
 62
7
  6
CONTINUOUS
 10
5.8278891485
 20
1.1784240005
 11
5.8441552548
 21
1.1789442665
  0
SPLINE
  5
543
100
AcDbEntity
  8
0
100
AcDbSpline
 62
7
  6
CONTINUOUS
 70
0
 71
3
 72
30
 73
26
 74
0
 42
0.0000001
 43
0.0000001
 44
0.0000000001
 40
0.0
 40
0.0
 40
0.0
 40
0.0
 40
0.2020270085
 40
0.2976397389
 40
0.3889641988
 40
0.4754915395
 40
0.5567489943
 40
0.6322964826
 40
0.7017206113
 40
0.7646496096
 40
0.8207341184
 40
0.8696812976
 40
0.8913915805
 40
0.9112209817
 40
0.9291464701
 40
0.9451455958
 40
0.959196793
 40
0.9712837371
 40
0.9813998688
 40
0.9857185764
 40
0.9895450178
 40
0.9928809386
 40
0.9957298075
 40
0.9980982782
 40
1.0
 40
1.0
 40
1.0
 40
1.0
 10
5.8441552548
 20
1.1789442665
 30
0.0
 10
5.8567092338
 20
1.1793498384
 30
0.0
 10
5.8752041445
 20
1.1799618127
 30
0.0
 10
5.8993721563
 20
1.1808100541
 30
0.0
 10
5.9163626822
 20
1.1814342795
 30
0.0
 10
5.9324600827
 20
1.1820582474
 30
0.0
 10
5.9475758251
 20
1.1826818574
 30
0.0
 10
5.961627277
 20
1.1833049433
 30
0.0
 10
5.9745380213
 20
1.1839274678
 30
0.0
 10
5.9862372336
 20
1.1845489374
 30
0.0
 10
5.9966614016
 20
1.1851693995
 30
0.0
 10
6.0045232873
 20
1.1857037785
 30
0.0
 10
6.0101323924
 20
1.1861373352
 30
0.0
 10
6.0138163609
 20
1.1864491227
 30
0.0
 10
6.0171439004
 20
1.1867605162
 30
0.0
 10
6.0201105027
 20
1.1870714215
 30
0.0
 10
6.0227119858
 20
1.1873815885
 30
0.0
 10
6.0249448179
 20
1.1876909483
 30
0.0
 10
6.0265720692
 20
1.1879595539
 30
0.0
 10
6.0276861241
 20
1.1881788769
 30
0.0
 10
6.0283828988
 20
1.1883343376
 30
0.0
 10
6.0289858136
 20
1.1884894472
 30
0.0
 10
6.0294948844
 20
1.188644105
 30
0.0
 10
6.0299100753
 20
1.188798171
 30
0.0
 10
6.0301505422
 20
1.1889124764
 30
0.0
 10
6.0302528836
 20
1.1889716855
 30
0.0
  0
SPLINE
  5
544
100
AcDbEntity
  8
0
100
AcDbSpline
 62
7
  6
CONTINUOUS
 70
0
 71
3
 72
11
 73
7
 74
0
 42
0.0000001
 43
0.0000001
 44
0.0000000001
 40
0.0
 40
0.0
 40
0.0
 40
0.0
 40
0.2500018539
 40
0.5000024137
 40
0.750001329
 40
1.0
 40
1.0
 40
1.0
 40
1.0
 10
5.8912921577
 20
1.1968142087
 30
0.0
 10
5.8837990436
 20
1.1946774781
 30
0.0
 10
5.8687483024
 20
1.1906257436
 30
0.0
 10
5.8459801379
 20
1.185311157
 30
0.0
 10
5.8230266053
 20
1.1808604522
 30
0.0
 10
5.8076116722
 20
1.1785350817
 30
0.0
 10
5.7998827824
 20
1.1775476133
 30
0.0
  0
SPLINE
  5
545
100
AcDbEntity
  8
0
100
AcDbSpline
 62
7
  6
CONTINUOUS
 70
0
 71
3
 72
11
 73
7
 74
0
 42
0.0000001
 43
0.0000001
 44
0.0000000001
 40
0.0
 40
0.0
 40
0.0
 40
0.0
 40
0.2499992817
 40
0.500007055
 40
0.7500065942
 40
1.0
 40
1.0
 40
1.0
 40
1.0
 10
5.7058875161
 20
1.2279157174
 30
0.0
 10
5.6981879513
 20
1.2284363482
 30
0.0
 10
5.6828110683
 20
1.2298428842
 30
0.0
 10
5.6598662522
 20
1.2329818302
 30
0.0
 10
5.6370719764
 20
1.2370669218
 30
0.0
 10
5.6219890406
 20
1.2403582411
 30
0.0
 10
5.6144781408
 20
1.2421296641
 30
0.0
  0
SPLINE
  5
546
100
AcDbEntity
  8
0
100
AcDbSpline
 62
7
  6
CONTINUOUS
 70
0
 71
3
 72
30
 73
26
 74
0
 42
0.0000001
 43
0.0000001
 44
0.0000000001
 40
0.0
 40
0.0
 40
0.0
 40
0.0
 40
0.1961145109
 40
0.2902684014
 40
0.380909331
 40
0.4674148162
 40
0.5491693726
 40
0.6255869235
 40
0.696130627
 40
0.7603019784
 40
0.8176483868
 40
0.8677670437
 40
0.8900049081
 40
0.9103069159
 40
0.9286414348
 40
0.9449784236
 40
0.9592887367
 40
0.9715501241
 40
0.9817499732
 40
0.9860744267
 40
0.9898814069
 40
0.9931717965
 40
0.9959487526
 40
0.9982198948
 40
1.0
 40
1.0
 40
1.0
 40
1.0
 10
5.7998827824
 20
1.2307976133
 30
0.0
 10
5.8149640503
 20
1.2312645128
 30
0.0
 10
5.8372854988
 20
1.2319649851
 30
0.0
 10
5.8665758195
 20
1.2329261737
 30
0.0
 10
5.887436794
 20
1.2336370176
 30
0.0
 10
5.9073432332
 20
1.2343475605
 30
0.0
 10
5.92615465
 20
1.2350576853
 30
0.0
 10
5.9437371066
 20
1.2357672943
 30
0.0
 10
5.9599656123
 20
1.2364761401
 30
0.0
 10
5.9747253779
 20
1.2371839057
 30
0.0
 10
5.9879117659
 20
1.2378902958
 30
0.0
 10
5.997872335
 20
1.2384987317
 30
0.0
 10
6.0049841415
 20
1.2389924675
 30
0.0
 10
6.0096542018
 20
1.2393475919
 30
0.0
 10
6.013868871
 20
1.2397022422
 30
0.0
 10
6.0176208017
 20
1.2400562871
 30
0.0
 10
6.0209032716
 20
1.2404094269
 30
0.0
 10
6.0237105224
 20
1.2407615459
 30
0.0
 10
6.0257488829
 20
1.2410675607
 30
0.0
 10
6.0271369507
 20
1.2413178757
 30
0.0
 10
6.0279978389
 20
1.2414948057
 30
0.0
 10
6.0287369097
 20
1.241671254
 30
0.0
 10
6.0293542468
 20
1.2418470854
 30
0.0
 10
6.0298498852
 20
1.2420220187
 30
0.0
 10
6.0301338709
 20
1.242153117
 30
0.0
 10
6.0302524257
 20
1.2422216864
 30
0.0
  0
SPLINE
  5
547
100
AcDbEntity
  8
0
100
AcDbSpline
 62
7
  6
CONTINUOUS
 70
0
 71
3
 72
10
 73
6
 74
0
 42
0.0000001
 43
0.0000001
 44
0.0000000001
 40
0.0
 40
0.0
 40
0.0
 40
0.0
 40
0.4999685202
 40
0.7499869064
 40
1.0
 40
1.0
 40
1.0
 40
1.0
 10
5.8754186862
 20
1.2457219364
 30
0.0
 10
5.8629973474
 20
1.2424716664
 30
0.0
 10
5.84422612
 20
1.2380924948
 30
0.0
 10
5.81896003
 20
1.2334766649
 30
0.0
 10
5.8062515258
 20
1.2316113049
 30
0.0
 10
5.7998827824
 20
1.2307976133
 30
0.0
  0
SPLINE
  5
548
100
AcDbEntity
  8
0
100
AcDbSpline
 62
7
  6
CONTINUOUS
 70
0
 71
3
 72
9
 73
5
 74
0
 42
0.0000001
 43
0.0000001
 44
0.0000000001
 40
0.0
 40
0.0
 40
0.0
 40
0.0
 40
0.5000019966
 40
1.0
 40
1.0
 40
1.0
 40
1.0
 10
5.6365147702
 20
1.0414297109
 30
0.0
 10
5.6430298195
 20
1.0388809163
 30
0.0
 10
5.656185217
 20
1.0340966714
 30
0.0
 10
5.6695858654
 20
1.030041001
 30
0.0
 10
5.6763410443
 20
1.0282219364
 30
0.0
  0
SPLINE
  5
549
100
AcDbEntity
  8
0
100
AcDbSpline
 62
7
  6
CONTINUOUS
 70
0
 71
3
 72
29
 73
25
 74
0
 42
0.0000001
 43
0.0000001
 44
0.0000000001
 40
0.0
 40
0.0
 40
0.0
 40
0.0
 40
0.2067325395
 40
0.3036368105
 40
0.3956330482
 40
0.4823414971
 40
0.5633950208
 40
0.6384379956
 40
0.7071397417
 40
0.7692100417
 40
0.8243767391
 40
0.8724116342
 40
0.8936871599
 40
0.9131047706
 40
0.9306469119
 40
0.9462966023
 40
0.9600377208
 40
0.9718584025
 40
0.9817549567
 40
0.9897292071
 40
0.9929992805
 40
0.9957954954
 40
0.9981246281
 40
1.0
 40
1.0
 40
1.0
 40
1.0
 10
5.8912921577
 20
1.0903142087
 30
0.0
 10
5.9028889163
 20
1.0906732316
 30
0.0
 10
5.919921072
 20
1.0912170135
 30
0.0
 10
5.9421119572
 20
1.0919760489
 30
0.0
 10
5.9575697666
 20
1.0925327569
 30
0.0
 10
5.9721373973
 20
1.0930891817
 30
0.0
 10
5.985752847
 20
1.0936452891
 30
0.0
 10
5.9983568367
 20
1.0942009419
 30
0.0
 10
6.009894347
 20
1.0947560866
 30
0.0
 10
6.0203149982
 20
1.0953103034
 30
0.0
 10
6.0295739999
 20
1.0958635969
 30
0.0
 10
6.0365438072
 20
1.0963403457
 30
0.0
 10
6.041508426
 20
1.0967271068
 30
0.0
 10
6.044764919
 20
1.0970050972
 30
0.0
 10
6.0477044483
 20
1.0972827492
 30
0.0
 10
6.0503238823
 20
1.0975599518
 30
0.0
 10
6.0526202585
 20
1.0978365743
 30
0.0
 10
6.0545912719
 20
1.0981122603
 30
0.0
 10
6.0562350346
 20
1.0983868037
 30
0.0
 10
6.057397662
 20
1.0986265844
 30
0.0
 10
6.0581606044
 20
1.0988243103
 30
0.0
 10
6.0586113744
 20
1.0989622607
 30
0.0
 10
6.0589796916
 20
1.0990996697
 30
0.0
 10
6.0591932907
 20
1.0992014949
 30
0.0
 10
6.0592844021
 20
1.0992541858
 30
0.0
  0
SPLINE
  5
54A
100
AcDbEntity
  8
0
100
AcDbSpline
 62
7
  6
CONTINUOUS
 70
0
 71
3
 72
9
 73
5
 74
0
 42
0.0000001
 43
0.0000001
 44
0.0000000001
 40
0.0
 40
0.0
 40
0.0
 40
0.0
 40
0.4999887712
 40
1.0
 40
1.0
 40
1.0
 40
1.0
 10
5.8294292542
 20
1.0282219364
 30
0.0
 10
5.8381058796
 20
1.0305584167
 30
0.0
 10
5.8552790487
 20
1.0359208143
 30
0.0
 10
5.8720415041
 20
1.0424362813
 30
0.0
 10
5.8803205277
 20
1.0459302749
 30
0.0
  0
SPLINE
  5
54B
100
AcDbEntity
  8
0
100
AcDbSpline
 62
7
  6
CONTINUOUS
 70
0
 71
3
 72
36
 73
32
 74
0
 42
0.0000001
 43
0.0000001
 44
0.0000000001
 40
0.0
 40
0.0
 40
0.0
 40
0.0
 40
0.1096688249
 40
0.214997594
 40
0.3153990527
 40
0.4103985747
 40
0.499565212
 40
0.5824849013
 40
0.6587556297
 40
0.728017774
 40
0.7899458551
 40
0.8442500367
 40
0.8684645445
 40
0.8906798674
 40
0.9108717975
 40
0.9290203438
 40
0.9451062256
 40
0.9591113206
 40
0.9710236777
 40
0.9761941142
 40
0.9808407733
 40
0.9849644585
 40
0.9885669285
 40
0.9916515426
 40
0.9942245459
 40
0.9962982744
 40
0.997898283
 40
0.9985377127
 40
0.9990855267
 40
0.9995625872
 40
1.0
 40
1.0
 40
1.0
 40
1.0
 10
5.8912921577
 20
1.1499386665
 30
0.0
 10
5.8974644691
 20
1.1501297546
 30
0.0
 10
5.9095646313
 20
1.1505107564
 30
0.0
 10
5.9273146891
 20
1.1510928675
 30
0.0
 10
5.9442382832
 20
1.1516748841
 30
0.0
 10
5.9602512618
 20
1.1522565608
 30
0.0
 10
5.9752791956
 20
1.1528379391
 30
0.0
 10
5.98925172
 20
1.1534188629
 30
0.0
 10
6.0021024346
 20
1.1539992811
 30
0.0
 10
6.0137698798
 20
1.1545788899
 30
0.0
 10
6.0241987862
 20
1.1551575049
 30
0.0
 10
6.0320915404
 20
1.155655493
 30
0.0
 10
6.0377493692
 20
1.156058937
 30
0.0
 10
6.0414894785
 20
1.1563496488
 30
0.0
 10
6.0448869252
 20
1.1566400783
 30
0.0
 10
6.0479378804
 20
1.156930134
 30
0.0
 10
6.0506387887
 20
1.1572196129
 30
0.0
 10
6.0529863303
 20
1.1575084327
 30
0.0
 10
6.0547191084
 20
1.1577585158
 30
0.0
 10
6.0559256815
 20
1.1579619646
 30
0.0
 10
6.0566971906
 20
1.1581070947
 30
0.0
 10
6.0573787271
 20
1.1582519923
 30
0.0
 10
6.0579701762
 20
1.1583965927
 30
0.0
 10
6.0584714224
 20
1.1585407774
 30
0.0
 10
6.0588828293
 20
1.1586843967
 30
0.0
 10
6.0592045354
 20
1.1588273856
 30
0.0
 10
6.0594135647
 20
1.1589541463
 30
0.0
 10
6.0595308523
 20
1.1590591732
 30
0.0
 10
6.0595898587
 20
1.1591327119
 30
0.0
 10
6.0596263179
 20
1.1592074963
 30
0.0
 10
6.0596347751
 20
1.1592592643
 30
0.0
 10
6.0596347751
 20
1.1592838943
 30
0.0
  0
SPLINE
  5
54C
100
AcDbEntity
  8
0
100
AcDbSpline
 62
7
  6
CONTINUOUS
 70
0
 71
3
 72
17
 73
13
 74
0
 42
0.0000001
 43
0.0000001
 44
0.0000000001
 40
0.0
 40
0.0
 40
0.0
 40
0.0
 40
0.1771504567
 40
0.3430633098
 40
0.4955981582
 40
0.6329329026
 40
0.7533731672
 40
0.855462516
 40
0.8992426567
 40
0.9380022481
 40
0.971623897
 40
1.0
 40
1.0
 40
1.0
 40
1.0
 10
5.8803205277
 20
1.0459302749
 30
0.0
 10
5.8903781702
 20
1.0461260561
 30
0.0
 10
5.9098552775
 20
1.046513921
 30
0.0
 10
5.9379916712
 20
1.0471105072
 30
0.0
 10
5.9638666158
 20
1.04770509
 30
0.0
 10
5.987158715
 20
1.04829697
 30
0.0
 10
6.0075852858
 20
1.0488858902
 30
0.0
 10
6.022699316
 20
1.049395132
 30
0.0
 10
6.0331753108
 20
1.0498112368
 30
0.0
 10
6.0397650121
 20
1.0501062817
 30
0.0
 10
6.0454790437
 20
1.0504001166
 30
0.0
 10
6.0489932728
 20
1.0506127531
 30
0.0
 10
6.050600916
 20
1.0507219364
 30
0.0
  0
SPLINE
  5
54D
100
AcDbEntity
  8
0
100
AcDbSpline
 62
7
  6
CONTINUOUS
 70
0
 71
3
 72
29
 73
25
 74
0
 42
0.0000001
 43
0.0000001
 44
0.0000000001
 40
0.0
 40
0.0
 40
0.0
 40
0.0
 40
0.2067325395
 40
0.3036368105
 40
0.3956330482
 40
0.4823414971
 40
0.5633950208
 40
0.6384379956
 40
0.7071397417
 40
0.7692100417
 40
0.8243767391
 40
0.8724116342
 40
0.8936871599
 40
0.9131047706
 40
0.9306469119
 40
0.9462966023
 40
0.9600377208
 40
0.9718584025
 40
0.9817549567
 40
0.9897292071
 40
0.9929992805
 40
0.9957954954
 40
0.9981246281
 40
1.0
 40
1.0
 40
1.0
 40
1.0
 10
5.8912921577
 20
1.1435642087
 30
0.0
 10
5.9028889163
 20
1.1439232316
 30
0.0
 10
5.919921072
 20
1.1444670135
 30
0.0
 10
5.9421119572
 20
1.1452260489
 30
0.0
 10
5.9575697666
 20
1.1457827569
 30
0.0
 10
5.9721373973
 20
1.1463391817
 30
0.0
 10
5.985752847
 20
1.1468952891
 30
0.0
 10
5.9983568367
 20
1.1474509419
 30
0.0
 10
6.009894347
 20
1.1480060866
 30
0.0
 10
6.0203149982
 20
1.1485603034
 30
0.0
 10
6.0295739999
 20
1.1491135969
 30
0.0
 10
6.0365438072
 20
1.1495903457
 30
0.0
 10
6.041508426
 20
1.1499771068
 30
0.0
 10
6.044764919
 20
1.1502550972
 30
0.0
 10
6.0477044483
 20
1.1505327492
 30
0.0
 10
6.0503238823
 20
1.1508099518
 30
0.0
 10
6.0526202585
 20
1.1510865743
 30
0.0
 10
6.0545912719
 20
1.1513622603
 30
0.0
 10
6.0562350346
 20
1.1516368037
 30
0.0
 10
6.057397662
 20
1.1518765844
 30
0.0
 10
6.0581606044
 20
1.1520743103
 30
0.0
 10
6.0586113744
 20
1.1522122607
 30
0.0
 10
6.0589796916
 20
1.1523496697
 30
0.0
 10
6.0591932907
 20
1.1524514949
 30
0.0
 10
6.0592844021
 20
1.1525041858
 30
0.0
  0
SPLINE
  5
54E
100
AcDbEntity
  8
0
100
AcDbSpline
 62
7
  6
CONTINUOUS
 70
0
 71
3
 72
22
 73
18
 74
0
 42
0.0000001
 43
0.0000001
 44
0.0000000001
 40
0.0
 40
0.0
 40
0.0
 40
0.0
 40
0.1943320579
 40
0.3701354726
 40
0.5264505887
 40
0.5970901675
 40
0.6626390855
 40
0.7230421589
 40
0.7782511891
 40
0.8282387512
 40
0.8512698357
 40
0.8729906844
 40
0.9125008581
 40
0.9467856345
 40
0.9759041752
 40
0.9885682509
 40
1.0
 40
1.0
 40
1.0
 40
1.0
 10
5.9853430295
 20
1.0282219364
 30
0.0
 10
5.9894591329
 20
1.0286805035
 30
0.0
 10
5.9972951825
 20
1.0295880109
 30
0.0
 10
6.0084250095
 20
1.0310067356
 30
0.0
 10
6.0169230495
 20
1.0322185724
 30
0.0
 10
6.0230801395
 20
1.0331941532
 30
0.0
 10
6.0272102991
 20
1.0338987922
 30
0.0
 10
6.0310068796
 20
1.0346012732
 30
0.0
 10
6.0344660904
 20
1.0353017272
 30
0.0
 10
6.0371331247
 20
1.0358987126
 30
0.0
 10
6.0390944759
 20
1.0363783209
 30
0.0
 10
6.0408325261
 20
1.0368301239
 30
0.0
 10
6.0427906174
 20
1.0373884345
 30
0.0
 10
6.0448732726
 20
1.0380783896
 30
0.0
 10
6.0463822124
 20
1.0386751931
 30
0.0
 10
6.0474082988
 20
1.0391590263
 30
0.0
 10
6.0478613939
 20
1.0394014244
 30
0.0
 10
6.0480723193
 20
1.0395233533
 30
0.0
  0
SPLINE
  5
54F
100
AcDbEntity
  8
0
100
AcDbSpline
 62
7
  6
CONTINUOUS
 70
0
 71
3
 72
36
 73
32
 74
0
 42
0.0000001
 43
0.0000001
 44
0.0000000001
 40
0.0
 40
0.0
 40
0.0
 40
0.0
 40
0.1096593588
 40
0.2149907654
 40
0.3154005611
 40
0.4104010687
 40
0.4995652859
 40
0.5824814934
 40
0.6587556404
 40
0.7280159909
 40
0.7899461409
 40
0.8442481257
 40
0.8684611459
 40
0.8906784685
 40
0.910872702
 40
0.9290196439
 40
0.9451029714
 40
0.9591085658
 40
0.9710240827
 40
0.9761952292
 40
0.9808413083
 40
0.9849636032
 40
0.9885644971
 40
0.9916479642
 40
0.9942208352
 40
0.9962955597
 40
0.9978969898
 40
0.9985370375
 40
0.9990852891
 40
0.9995625589
 40
1.0
 40
1.0
 40
1.0
 40
1.0
 10
5.8912921577
 20
1.2031886665
 30
0.0
 10
5.8974639426
 20
1.2033797383
 30
0.0
 10
5.9095637327
 20
1.2037607321
 30
0.0
 10
5.9273138936
 20
1.2043428463
 30
0.0
 10
5.9442381784
 20
1.2049248756
 30
0.0
 10
5.9602515613
 20
1.2055065786
 30
0.0
 10
5.9752792346
 20
1.2060879259
 30
0.0
 10
5.9892516317
 20
1.2066688896
 30
0.0
 10
6.0021022576
 20
1.2072492459
 30
0.0
 10
6.0137699197
 20
1.2078289211
 30
0.0
 10
6.0241987313
 20
1.2084074814
 30
0.0
 10
6.032091402
 20
1.2089054799
 30
0.0
 10
6.0377491388
 20
1.2093089611
 30
0.0
 10
6.0414894123
 20
1.2095996548
 30
0.0
 10
6.0448870184
 20
1.2098900447
 30
0.0
 10
6.0479378701
 20
1.2101801213
 30
0.0
 10
6.0506385697
 20
1.2104696402
 30
0.0
 10
6.0529861739
 20
1.2107584746
 30
0.0
 10
6.05471921
 20
1.2110085027
 30
0.0
 10
6.0559259738
 20
1.2112119446
 30
0.0
 10
6.056697411
 20
1.2113570789
 30
0.0
 10
6.0573787427
 20
1.2115019843
 30
0.0
 10
6.0579699513
 20
1.211646596
 30
0.0
 10
6.0584710257
 20
1.2117907986
 30
0.0
 10
6.058882408
 20
1.2119344356
 30
0.0
 10
6.0592042559
 20
1.2120774174
 30
0.0
 10
6.0594134939
 20
1.2122041528
 30
0.0
 10
6.0595309782
 20
1.2123091676
 30
0.0
 10
6.0595901073
 20
1.2123826987
 30
0.0
 10
6.0596266625
 20
1.2124574808
 30
0.0
 10
6.0596351492
 20
1.2125092627
 30
0.0
 10
6.0596351493
 20
1.2125338943
 30
0.0
  0
SPLINE
  5
550
100
AcDbEntity
  8
0
100
AcDbSpline
 62
7
  6
CONTINUOUS
 70
0
 71
3
 72
36
 73
32
 74
0
 42
0.0000001
 43
0.0000001
 44
0.0000000001
 40
0.0
 40
0.0
 40
0.0
 40
0.0
 40
0.1096593585
 40
0.2149907649
 40
0.3154005604
 40
0.410401068
 40
0.4995652852
 40
0.5824814927
 40
0.6587556398
 40
0.7280159904
 40
0.7899461405
 40
0.8442481255
 40
0.8684611457
 40
0.8906784683
 40
0.9108727019
 40
0.9290196438
 40
0.9451029714
 40
0.9591085657
 40
0.9710240826
 40
0.9761952292
 40
0.9808413084
 40
0.9849636032
 40
0.9885644971
 40
0.9916479642
 40
0.9942208352
 40
0.9962955596
 40
0.9978969898
 40
0.9985370375
 40
0.9990852891
 40
0.9995625589
 40
1.0
 40
1.0
 40
1.0
 40
1.0
 10
5.6144781408
 20
1.2421296641
 30
0.0
 10
5.6083063559
 20
1.2419385924
 30
0.0
 10
5.5962065658
 20
1.2415575986
 30
0.0
 10
5.578456405
 20
1.2409754844
 30
0.0
 10
5.5615321202
 20
1.240393455
 30
0.0
 10
5.5455187373
 20
1.2398117521
 30
0.0
 10
5.530491064
 20
1.2392304047
 30
0.0
 10
5.516518667
 20
1.2386494411
 30
0.0
 10
5.503668041
 20
1.2380690848
 30
0.0
 10
5.4920003789
 20
1.2374894095
 30
0.0
 10
5.4815715673
 20
1.2369108492
 30
0.0
 10
5.4736788965
 20
1.2364128508
 30
0.0
 10
5.4680211597
 20
1.2360093696
 30
0.0
 10
5.4642808863
 20
1.2357186759
 30
0.0
 10
5.4608832801
 20
1.235428286
 30
0.0
 10
5.4578324284
 20
1.2351382094
 30
0.0
 10
5.4551317288
 20
1.2348486904
 30
0.0
 10
5.4527841246
 20
1.234559856
 30
0.0
 10
5.4510510885
 20
1.2343098279
 30
0.0
 10
5.4498443247
 20
1.2341063861
 30
0.0
 10
5.4490728875
 20
1.2339612518
 30
0.0
 10
5.4483915558
 20
1.2338163464
 30
0.0
 10
5.4478003472
 20
1.2336717347
 30
0.0
 10
5.4472992729
 20
1.2335275321
 30
0.0
 10
5.4468878905
 20
1.233383895
 30
0.0
 10
5.4465660427
 20
1.2332409133
 30
0.0
 10
5.4463568047
 20
1.2331141779
 30
0.0
 10
5.4462393203
 20
1.2330091631
 30
0.0
 10
5.4461801912
 20
1.2329356319
 30
0.0
 10
5.446143636
 20
1.2328608499
 30
0.0
 10
5.4461351493
 20
1.232809068
 30
0.0
 10
5.4461351493
 20
1.2327844364
 30
0.0
  0
SPLINE
  5
551
100
AcDbEntity
  8
0
100
AcDbSpline
 62
7
  6
CONTINUOUS
 70
0
 71
3
 72
37
 73
33
 74
0
 42
0.0000001
 43
0.0000001
 44
0.0000000001
 40
0.0
 40
0.0
 40
0.0
 40
0.0
 40
0.0004071362
 40
0.0008620926
 40
0.0014000856
 40
0.0020428244
 40
0.0028030975
 40
0.0036886159
 40
0.005852527
 40
0.0085576391
 40
0.0118132217
 40
0.0156235185
 40
0.019990348
 40
0.0249141975
 40
0.0303947663
 40
0.0364312579
 40
0.0430224324
 40
0.0578572629
 40
0.0748716761
 40
0.0940357058
 40
0.1153180272
 40
0.1640710214
 40
0.2207613836
 40
0.2849622172
 40
0.3561831532
 40
0.4338822561
 40
0.5174693308
 40
0.6062986227
 40
0.6996866466
 40
0.7969401429
 40
0.897335341
 40
1.0
 40
1.0
 40
1.0
 40
1.0
 10
5.4751306868
 20
1.2160441653
 30
0.0
 10
5.4751306868
 20
1.2160755729
 30
0.0
 10
5.4751434523
 20
1.2161424845
 30
0.0
 10
5.4751973581
 20
1.2162376008
 30
0.0
 10
5.4752837077
 20
1.2163306654
 30
0.0
 10
5.4754022314
 20
1.2164228822
 30
0.0
 10
5.4755531993
 20
1.2165149243
 30
0.0
 10
5.4758162317
 20
1.216646568
 30
0.0
 10
5.4762313308
 20
1.2168062745
 30
0.0
 10
5.4768312509
 20
1.2169885268
 30
0.0
 10
5.4775627266
 20
1.217171511
 30
0.0
 10
5.478425471
 20
1.217355132
 30
0.0
 10
5.4794193174
 20
1.2175391515
 30
0.0
 10
5.4805438665
 20
1.217723472
 30
0.0
 10
5.4817987122
 20
1.2179080051
 30
0.0
 10
5.4831833987
 20
1.2180927132
 30
0.0
 10
5.4852863607
 20
1.2183493595
 30
0.0
 10
5.4882349323
 20
1.2186661622
 30
0.0
 10
5.4921530867
 20
1.2190339293
 30
0.0
 10
5.496570489
 20
1.2194023721
 30
0.0
 10
5.5034322864
 20
1.2199178394
 30
0.0
 10
5.5131879501
 20
1.2205508968
 30
0.0
 10
5.5262543215
 20
1.2212835935
 30
0.0
 10
5.5410562307
 20
1.222018043
 30
0.0
 10
5.5574805046
 20
1.2227539487
 30
0.0
 10
5.5754016076
 20
1.2234907925
 30
0.0
 10
5.5946820953
 20
1.2242283037
 30
0.0
 10
5.6151736756
 20
1.2249663221
 30
0.0
 10
5.6367201526
 20
1.2257046994
 30
0.0
 10
5.6591593413
 20
1.2264434606
 30
0.0
 10
5.6823145242
 20
1.2271823233
 30
0.0
 10
5.6979714857
 20
1.2276706457
 30
0.0
 10
5.7058875161
 20
1.2279157174
 30
0.0
  0
SPLINE
  5
552
100
AcDbEntity
  8
0
100
AcDbSpline
 62
7
  6
CONTINUOUS
 70
0
 71
3
 72
36
 73
32
 74
0
 42
0.0000001
 43
0.0000001
 44
0.0000000001
 40
0.0
 40
0.0
 40
0.0
 40
0.0
 40
0.0004374128
 40
0.0009144733
 40
0.0014622873
 40
0.002101717
 40
0.0037017256
 40
0.0057754541
 40
0.0083484574
 40
0.0114330715
 40
0.0150355415
 40
0.0191592267
 40
0.0238058858
 40
0.0289763223
 40
0.0408886794
 40
0.0548937744
 40
0.0709796562
 40
0.0891282025
 40
0.1093201326
 40
0.1315354555
 40
0.1557499633
 40
0.2100541449
 40
0.271982226
 40
0.3412443703
 40
0.4175150987
 40
0.500434788
 40
0.5896014253
 40
0.6846009473
 40
0.785002406
 40
0.8903311751
 40
1.0
 40
1.0
 40
1.0
 40
1.0
 10
5.4461355234
 20
1.1795344364
 30
0.0
 10
5.4461355234
 20
1.1795590664
 30
0.0
 10
5.4461439806
 20
1.1796108344
 30
0.0
 10
5.4461804398
 20
1.1796856188
 30
0.0
 10
5.4462394462
 20
1.1797591575
 30
0.0
 10
5.4463567338
 20
1.1798641844
 30
0.0
 10
5.4465657631
 20
1.179990945
 30
0.0
 10
5.4468874692
 20
1.180133934
 30
0.0
 10
5.4472988761
 20
1.1802775533
 30
0.0
 10
5.4478001223
 20
1.180421738
 30
0.0
 10
5.4483915714
 20
1.1805663384
 30
0.0
 10
5.4490731079
 20
1.180711236
 30
0.0
 10
5.449844617
 20
1.1808563661
 30
0.0
 10
5.4510511901
 20
1.1810598149
 30
0.0
 10
5.4527839682
 20
1.181309898
 30
0.0
 10
5.4551315099
 20
1.1815987178
 30
0.0
 10
5.4578324181
 20
1.1818881966
 30
0.0
 10
5.4608833733
 20
1.1821782523
 30
0.0
 10
5.46428082
 20
1.1824686819
 30
0.0
 10
5.4680209293
 20
1.1827593936
 30
0.0
 10
5.4736787581
 20
1.1831628377
 30
0.0
 10
5.4815715123
 20
1.1836608257
 30
0.0
 10
5.4920004187
 20
1.1842394408
 30
0.0
 10
5.5036678639
 20
1.1848190496
 30
0.0
 10
5.5165185785
 20
1.1853994678
 30
0.0
 10
5.530491103
 20
1.1859803915
 30
0.0
 10
5.5455190367
 20
1.1865617698
 30
0.0
 10
5.5615320153
 20
1.1871434466
 30
0.0
 10
5.5784556094
 20
1.1877254632
 30
0.0
 10
5.5962056672
 20
1.1883075742
 30
0.0
 10
5.6083058294
 20
1.1886885761
 30
0.0
 10
5.6144781408
 20
1.1888796641
 30
0.0
  0
SPLINE
  5
553
100
AcDbEntity
  8
0
100
AcDbSpline
 62
7
  6
CONTINUOUS
 70
0
 71
3
 72
37
 73
33
 74
0
 42
0.0000001
 43
0.0000001
 44
0.0000000001
 40
0.0
 40
0.0
 40
0.0
 40
0.0
 40
0.0004071362
 40
0.0008620926
 40
0.0014000856
 40
0.0020428244
 40
0.0028030975
 40
0.0036886159
 40
0.005852527
 40
0.0085576391
 40
0.0118132217
 40
0.0156235185
 40
0.019990348
 40
0.0249141975
 40
0.0303947663
 40
0.0364312579
 40
0.0430224324
 40
0.0578572629
 40
0.0748716761
 40
0.0940357058
 40
0.1153180272
 40
0.1640710214
 40
0.2207613836
 40
0.2849622172
 40
0.3561831532
 40
0.4338822561
 40
0.5174693308
 40
0.6062986227
 40
0.6996866466
 40
0.7969401429
 40
0.897335341
 40
1.0
 40
1.0
 40
1.0
 40
1.0
 10
5.4751306868
 20
1.1627941653
 30
0.0
 10
5.4751306868
 20
1.1628255729
 30
0.0
 10
5.4751434523
 20
1.1628924845
 30
0.0
 10
5.4751973581
 20
1.1629876008
 30
0.0
 10
5.4752837077
 20
1.1630806654
 30
0.0
 10
5.4754022314
 20
1.1631728822
 30
0.0
 10
5.4755531993
 20
1.1632649243
 30
0.0
 10
5.4758162317
 20
1.163396568
 30
0.0
 10
5.4762313308
 20
1.1635562745
 30
0.0
 10
5.4768312509
 20
1.1637385268
 30
0.0
 10
5.4775627266
 20
1.163921511
 30
0.0
 10
5.478425471
 20
1.164105132
 30
0.0
 10
5.4794193174
 20
1.1642891515
 30
0.0
 10
5.4805438665
 20
1.164473472
 30
0.0
 10
5.4817987122
 20
1.1646580051
 30
0.0
 10
5.4831833987
 20
1.1648427132
 30
0.0
 10
5.4852863607
 20
1.1650993595
 30
0.0
 10
5.4882349323
 20
1.1654161622
 30
0.0
 10
5.4921530867
 20
1.1657839293
 30
0.0
 10
5.496570489
 20
1.1661523721
 30
0.0
 10
5.5034322864
 20
1.1666678394
 30
0.0
 10
5.5131879501
 20
1.1673008968
 30
0.0
 10
5.5262543215
 20
1.1680335935
 30
0.0
 10
5.5410562307
 20
1.168768043
 30
0.0
 10
5.5574805046
 20
1.1695039487
 30
0.0
 10
5.5754016076
 20
1.1702407925
 30
0.0
 10
5.5946820953
 20
1.1709783037
 30
0.0
 10
5.6151736756
 20
1.1717163221
 30
0.0
 10
5.6367201526
 20
1.1724546994
 30
0.0
 10
5.6591593413
 20
1.1731934606
 30
0.0
 10
5.6823145242
 20
1.1739323233
 30
0.0
 10
5.6979714857
 20
1.1744206457
 30
0.0
 10
5.7058875161
 20
1.1746657174
 30
0.0
  0
SPLINE
  5
554
100
AcDbEntity
  8
0
100
AcDbSpline
 62
7
  6
CONTINUOUS
 70
0
 71
3
 72
16
 73
12
 74
0
 42
0.0000001
 43
0.0000001
 44
0.0000000001
 40
0.0
 40
0.0
 40
0.0
 40
0.0
 40
0.0368633599
 40
0.0776613257
 40
0.1706740017
 40
0.2782380395
 40
0.3994983562
 40
0.5334460922
 40
0.6789871431
 40
0.8349720231
 40
1.0
 40
1.0
 40
1.0
 40
1.0
 10
5.4675763928
 20
1.1294719364
 30
0.0
 10
5.4693780849
 20
1.1296074594
 30
0.0
 10
5.4731750582
 20
1.1298759691
 30
0.0
 10
5.4815232758
 20
1.1304099787
 30
0.0
 10
5.4933357278
 20
1.1310663826
 30
0.0
 10
5.509091657
 20
1.1318266905
 30
0.0
 10
5.5268559186
 20
1.1325887053
 30
0.0
 10
5.5464830064
 20
1.1333522096
 30
0.0
 10
5.5678131875
 20
1.1341166457
 30
0.0
 10
5.5906675848
 20
1.134881693
 30
0.0
 10
5.6063935064
 20
1.1353793727
 30
0.0
 10
5.6144781408
 20
1.1356296641
 30
0.0
  0
SPLINE
  5
555
100
AcDbEntity
  8
0
100
AcDbSpline
 62
7
  6
CONTINUOUS
 70
0
 71
3
 72
33
 73
29
 74
0
 42
0.0000001
 43
0.0000001
 44
0.0000000001
 40
0.0
 40
0.0
 40
0.0
 40
0.0
 40
0.2200938628
 40
0.3217597995
 40
0.4173811853
 40
0.5066325585
 40
0.5891944459
 40
0.6647903985
 40
0.7331665671
 40
0.7940835063
 40
0.8473474923
 40
0.8710527335
 40
0.8927774454
 40
0.9125059144
 40
0.9302259022
 40
0.9459260509
 40
0.9595963804
 40
0.9712293563
 40
0.980825562
 40
0.9848643642
 40
0.9884009868
 40
0.9914409331
 40
0.9939932915
 40
0.9960740054
 40
0.9977134195
 40
0.9983868877
 40
0.9989790728
 40
1.0
 40
1.0
 40
1.0
 40
1.0
 10
5.5714505509
 20
1.0809832328
 30
0.0
 10
5.5622212578
 20
1.0806669989
 30
0.0
 10
5.5487293685
 20
1.0801862633
 30
0.0
 10
5.5312299935
 20
1.079508043
 30
0.0
 10
5.5192175663
 20
1.0790131029
 30
0.0
 10
5.508007417
 20
1.0785185038
 30
0.0
 10
5.4976383576
 20
1.0780242014
 30
0.0
 10
5.488146234
 20
1.077530375
 30
0.0
 10
5.4795635848
 20
1.0770372954
 30
0.0
 10
5.4719196177
 20
1.0765449414
 30
0.0
 10
5.4661496032
 20
1.0761210553
 30
0.0
 10
5.4620228314
 20
1.0757776365
 30
0.0
 10
5.459300087
 20
1.075530342
 30
0.0
 10
5.4568295783
 20
1.0752832813
 30
0.0
 10
5.4546131989
 20
1.0750365421
 30
0.0
 10
5.4526527104
 20
1.0747902308
 30
0.0
 10
5.4509497649
 20
1.0745446129
 30
0.0
 10
5.4495059082
 20
1.0742997863
 30
0.0
 10
5.4484669465
 20
1.0740866151
 30
0.0
 10
5.447767822
 20
1.0739120193
 30
0.0
 10
5.4473396391
 20
1.0737889238
 30
0.0
 10
5.4469766548
 20
1.0736661368
 30
0.0
 10
5.4466785078
 20
1.0735437036
 30
0.0
 10
5.4464449703
 20
1.0734215779
 30
0.0
 10
5.4462939942
 20
1.0733135759
 30
0.0
 10
5.4462098638
 20
1.0732246785
 30
0.0
 10
5.4461555435
 20
1.0731454268
 30
0.0
 10
5.4461351493
 20
1.0730772725
 30
0.0
 10
5.4461351493
 20
1.0730344364
 30
0.0
  0
SPLINE
  5
556
100
AcDbEntity
  8
0
100
AcDbSpline
 62
7
  6
CONTINUOUS
 70
0
 71
3
 72
16
 73
12
 74
0
 42
0.0000001
 43
0.0000001
 44
0.0000000001
 40
0.0
 40
0.0
 40
0.0
 40
0.0
 40
0.1650266313
 40
0.3210082293
 40
0.4665484237
 40
0.6004977895
 40
0.7217603938
 40
0.829326168
 40
0.9223391408
 40
0.9631368132
 40
1.0
 40
1.0
 40
1.0
 40
1.0
 10
5.6144781408
 20
1.088754122
 30
0.0
 10
5.6063935723
 20
1.0885038326
 30
0.0
 10
5.5906678774
 20
1.0880061612
 30
0.0
 10
5.5678137488
 20
1.0872411223
 30
0.0
 10
5.5464836904
 20
1.0864766933
 30
0.0
 10
5.5268564527
 20
1.0857131843
 30
0.0
 10
5.509091914
 20
1.084951161
 30
0.0
 10
5.4933357734
 20
1.0841908416
 30
0.0
 10
5.4815232361
 20
1.0835344357
 30
0.0
 10
5.4731750269
 20
1.0830004255
 30
0.0
 10
5.4693780765
 20
1.0827319166
 30
0.0
 10
5.4675763928
 20
1.0825963943
 30
0.0
  0
LINE
  5
557
100
AcDbEntity
  8
0
100
AcDbLine
 62
7
  6
CONTINUOUS
 10
6.050600916
 20
1.0507219364
 11
6.0564768973
 21
1.0515668533
  0
SPLINE
  5
558
100
AcDbEntity
  8
0
100
AcDbSpline
 62
7
  6
CONTINUOUS
 70
0
 71
3
 72
17
 73
13
 74
0
 42
0.0000001
 43
0.0000001
 44
0.0000000001
 40
0.0
 40
0.0
 40
0.0
 40
0.0
 40
0.2163122184
 40
0.4051967047
 40
0.5667765538
 40
0.7013470226
 40
0.8095449717
 40
0.8926351298
 40
0.9256198866
 40
0.9536860312
 40
0.977924127
 40
1.0
 40
1.0
 40
1.0
 40
1.0
 10
6.0564768973
 20
1.0515668533
 30
0.0
 10
6.0567239829
 20
1.051614543
 30
0.0
 10
6.0571859034
 20
1.0517088009
 30
0.0
 10
6.0578279551
 20
1.0518594479
 30
0.0
 10
6.0583720176
 20
1.0520096445
 30
0.0
 10
6.0588184499
 20
1.052159223
 30
0.0
 10
6.0591674153
 20
1.052308064
 30
0.0
 10
6.0593944251
 20
1.0524399939
 30
0.0
 10
6.0595220494
 20
1.052549561
 30
0.0
 10
6.0595861477
 20
1.052626095
 30
0.0
 10
6.0596258745
 20
1.052704033
 30
0.0
 10
6.0596351435
 20
1.0527582133
 30
0.0
 10
6.059635146
 20
1.0527838952
 30
0.0
  0
SPLINE
  5
559
100
AcDbEntity
  8
0
100
AcDbSpline
 62
7
  6
CONTINUOUS
 70
0
 71
3
 72
36
 73
32
 74
0
 42
0.0000001
 43
0.0000001
 44
0.0000000001
 40
0.0
 40
0.0
 40
0.0
 40
0.0
 40
0.0004374581
 40
0.000914756
 40
0.0014630452
 40
0.0021031377
 40
0.0037046724
 40
0.0057795132
 40
0.0083525052
 40
0.011436092
 40
0.015037099
 40
0.019159495
 40
0.0238056583
 40
0.0289768875
 40
0.0408926388
 40
0.0548984736
 40
0.0709819404
 40
0.089128813
 40
0.109322751
 40
0.1315397125
 40
0.155752397
 40
0.2100541349
 40
0.2719847186
 40
0.3412460169
 40
0.417521652
 40
0.5004395313
 40
0.5896048321
 40
0.6846052969
 40
0.785012809
 40
0.8903417487
 40
1.0
 40
1.0
 40
1.0
 40
1.0
 10
6.0596351489
 20
1.1060338942
 30
0.0
 10
6.059635147
 20
1.1060092617
 30
0.0
 10
6.0596266555
 20
1.105957478
 30
0.0
 10
6.0595900931
 20
1.1058826944
 30
0.0
 10
6.0595309561
 20
1.1058091616
 30
0.0
 10
6.0594134599
 20
1.1057041444
 30
0.0
 10
6.0592042063
 20
1.1055774062
 30
0.0
 10
6.058882339
 20
1.105434421
 30
0.0
 10
6.0584709365
 20
1.1052907806
 30
0.0
 10
6.0579698424
 20
1.105146575
 30
0.0
 10
6.0573786151
 20
1.1050019607
 30
0.0
 10
6.0566972668
 20
1.104857053
 30
0.0
 10
6.0559258147
 20
1.1047119166
 30
0.0
 10
6.0547190285
 20
1.1045084722
 30
0.0
 10
6.0529859607
 20
1.1042584444
 30
0.0
 10
6.0506383217
 20
1.1039696116
 30
0.0
 10
6.0479376044
 20
1.1036800956
 30
0.0
 10
6.0448867653
 20
1.1033900225
 30
0.0
 10
6.0414892001
 20
1.1030996361
 30
0.0
 10
6.0377489827
 20
1.1028089474
 30
0.0
 10
6.0320912992
 20
1.1024054712
 30
0.0
 10
6.0241986371
 20
1.1019074769
 30
0.0
 10
6.0137697624
 20
1.1013289143
 30
0.0
 10
6.0021019398
 20
1.1007492304
 30
0.0
 10
5.9892510836
 20
1.1001688657
 30
0.0
 10
5.9752784487
 20
1.0995878957
 30
0.0
 10
5.9602506237
 20
1.0990065426
 30
0.0
 10
5.9442373118
 20
1.0984248462
 30
0.0
 10
5.9273132979
 20
1.0978428254
 30
0.0
 10
5.909563468
 20
1.0972607229
 30
0.0
 10
5.8974638799
 20
1.0968797363
 30
0.0
 10
5.8912921577
 20
1.0966886665
 30
0.0
  0
SPLINE
  5
55A
100
AcDbEntity
  8
0
100
AcDbSpline
 62
7
  6
CONTINUOUS
 70
0
 71
3
 72
25
 73
21
 74
0
 42
0.0000001
 43
0.0000001
 44
0.0000000001
 40
0.0
 40
0.0
 40
0.0
 40
0.0
 40
0.002397362
 40
0.0052029534
 40
0.0120775197
 40
0.0206758541
 40
0.0310207855
 40
0.0431237877
 40
0.0569876157
 40
0.0899826885
 40
0.1299636981
 40
0.1768729489
 40
0.2306269844
 40
0.2911087152
 40
0.3581964414
 40
0.4317635142
 40
0.5116617083
 40
0.5977350103
 40
0.7877330928
 40
1.0
 40
1.0
 40
1.0
 40
1.0
 10
5.4464861948
 20
1.239564146
 30
0.0
 10
5.446546704
 20
1.2395991047
 30
0.0
 10
5.4466821416
 20
1.2396678674
 30
0.0
 10
5.4470068333
 20
1.2398044097
 30
0.0
 10
5.4475140841
 20
1.2399699067
 30
0.0
 10
5.4482427358
 20
1.2401589424
 30
0.0
 10
5.4491278219
 20
1.2403487539
 30
0.0
 10
5.4501691117
 20
1.2405392561
 30
0.0
 10
5.4518665245
 20
1.2408097179
 30
0.0
 10
5.4543766729
 20
1.2411396193
 30
0.0
 10
5.4578507822
 20
1.2415187865
 30
0.0
 10
5.4619329361
 20
1.2418992163
 30
0.0
 10
5.4666147841
 20
1.2422806809
 30
0.0
 10
5.4718864858
 20
1.2426628619
 30
0.0
 10
5.4777370413
 20
1.2430455506
 30
0.0
 10
5.4841546516
 20
1.2434285339
 30
0.0
 10
5.4911265626
 20
1.2438118345
 30
0.0
 10
5.501489409
 20
1.2443408463
 30
0.0
 10
5.5157092705
 20
1.2449945743
 30
0.0
 10
5.5274251523
 20
1.2454776645
 30
0.0
 10
5.5336077931
 20
1.2457219364
 30
0.0
  0
SPLINE
  5
55B
100
AcDbEntity
  8
0
100
AcDbSpline
 62
7
  6
CONTINUOUS
 70
0
 71
3
 72
10
 73
6
 74
0
 42
0.0000001
 43
0.0000001
 44
0.0000000001
 40
0.0
 40
0.0
 40
0.0
 40
0.0
 40
0.4999758386
 40
0.7499878793
 40
1.0
 40
1.0
 40
1.0
 40
1.0
 10
5.6365147702
 20
1.0414297109
 30
0.0
 10
5.6479369097
 20
1.0443091131
 30
0.0
 10
5.66518664
 20
1.0481948165
 30
0.0
 10
5.6883836194
 20
1.0523310914
 30
0.0
 10
5.7000446987
 20
1.0540242198
 30
0.0
 10
5.7058875161
 20
1.0547707174
 30
0.0
  0
SPLINE
  5
55C
100
AcDbEntity
  8
0
100
AcDbSpline
 62
7
  6
CONTINUOUS
 70
0
 71
3
 72
29
 73
25
 74
0
 42
0.0000001
 43
0.0000001
 44
0.0000000001
 40
0.0
 40
0.0
 40
0.0
 40
0.0
 40
0.0018753719
 40
0.0042045045
 40
0.0070007194
 40
0.0102707928
 40
0.0182450431
 40
0.0281415972
 40
0.0399622789
 40
0.0537033974
 40
0.0693530877
 40
0.086895229
 40
0.1063128397
 40
0.1275883653
 40
0.1756232605
 40
0.2307899578
 40
0.2928602578
 40
0.3615620039
 40
0.4366049788
 40
0.5176585025
 40
0.6043669515
 40
0.6963631892
 40
0.7932674603
 40
1.0
 40
1.0
 40
1.0
 40
1.0
 10
5.4464858964
 20
1.1863141449
 30
0.0
 10
5.4465770078
 20
1.1863668358
 30
0.0
 10
5.4467906069
 20
1.186468661
 30
0.0
 10
5.4471589241
 20
1.18660607
 30
0.0
 10
5.4476096941
 20
1.1867440204
 30
0.0
 10
5.4483726365
 20
1.1869417462
 30
0.0
 10
5.4495352639
 20
1.187181527
 30
0.0
 10
5.4511790265
 20
1.1874560704
 30
0.0
 10
5.4531500399
 20
1.1877317564
 30
0.0
 10
5.4554464161
 20
1.1880083788
 30
0.0
 10
5.4580658502
 20
1.1882855815
 30
0.0
 10
5.4610053794
 20
1.1885632335
 30
0.0
 10
5.4642618724
 20
1.1888412239
 30
0.0
 10
5.4692264912
 20
1.189227985
 30
0.0
 10
5.4761962985
 20
1.1897047338
 30
0.0
 10
5.4854553002
 20
1.1902580273
 30
0.0
 10
5.4958759514
 20
1.1908122441
 30
0.0
 10
5.5074134617
 20
1.1913673888
 30
0.0
 10
5.5200174514
 20
1.1919230416
 30
0.0
 10
5.5336329011
 20
1.192479149
 30
0.0
 10
5.5482005319
 20
1.1930355738
 30
0.0
 10
5.5636583413
 20
1.1935922818
 30
0.0
 10
5.5858492265
 20
1.1943513171
 30
0.0
 10
5.6028813822
 20
1.194895099
 30
0.0
 10
5.6144781408
 20
1.195254122
 30
0.0
  0
SPLINE
  5
55D
100
AcDbEntity
  8
0
100
AcDbSpline
 62
7
  6
CONTINUOUS
 70
0
 71
3
 72
10
 73
6
 74
0
 42
0.0000001
 43
0.0000001
 44
0.0000000001
 40
0.0
 40
0.0
 40
0.0
 40
0.0
 40
0.2500168045
 40
0.5000342511
 40
1.0
 40
1.0
 40
1.0
 40
1.0
 10
5.7998827824
 20
1.0576526133
 30
0.0
 10
5.8066470337
 20
1.0571952267
 30
0.0
 10
5.820158277
 20
1.0559988643
 30
0.0
 10
5.8470584187
 20
1.0525382948
 30
0.0
 10
5.867074672
 20
1.0488207073
 30
0.0
 10
5.8803205277
 20
1.0459302749
 30
0.0
  0
SPLINE
  5
55E
100
AcDbEntity
  8
0
100
AcDbSpline
 62
7
  6
CONTINUOUS
 70
0
 71
3
 72
30
 73
26
 74
0
 42
0.0000001
 43
0.0000001
 44
0.0000000001
 40
0.0
 40
0.0
 40
0.0
 40
0.0
 40
0.0017801161
 40
0.0040522885
 40
0.0068307089
 40
0.0101217677
 40
0.0139284918
 40
0.0182521483
 40
0.0284503673
 40
0.0407126182
 40
0.0550240912
 40
0.0713598673
 40
0.089693206
 40
0.109996382
 40
0.1322349538
 40
0.1823517495
 40
0.239699555
 40
0.3038694297
 40
0.3744139217
 40
0.4508309712
 40
0.5325863301
 40
0.619090207
 40
0.7097306136
 40
0.8038868976
 40
1.0
 40
1.0
 40
1.0
 40
1.0
 10
5.4755174149
 20
1.2030966451
 30
0.0
 10
5.475635962
 20
1.2031652301
 30
0.0
 10
5.4759200322
 20
1.2032963481
 30
0.0
 10
5.4764158908
 20
1.2034712396
 30
0.0
 10
5.4770334927
 20
1.2036470309
 30
0.0
 10
5.4777727106
 20
1.2038234866
 30
0.0
 10
5.4786335678
 20
1.2040004283
 30
0.0
 10
5.4800214257
 20
1.2042507577
 30
0.0
 10
5.4820596623
 20
1.2045568177
 30
0.0
 10
5.4848669556
 20
1.2049088878
 30
0.0
 10
5.4881494966
 20
1.2052620021
 30
0.0
 10
5.4919013353
 20
1.2056160839
 30
0.0
 10
5.4961159163
 20
1.2059707547
 30
0.0
 10
5.5007860416
 20
1.206325845
 30
0.0
 10
5.5078978632
 20
1.2068195679
 30
0.0
 10
5.517858466
 20
1.2074280612
 30
0.0
 10
5.5310447322
 20
1.2081343891
 30
0.0
 10
5.5458045772
 20
1.208842205
 30
0.0
 10
5.562033023
 20
1.2095510153
 30
0.0
 10
5.5796155947
 20
1.2102606527
 30
0.0
 10
5.5984269464
 20
1.2109707573
 30
0.0
 10
5.6183333197
 20
1.2116813118
 30
0.0
 10
5.639194353
 20
1.2123921507
 30
0.0
 10
5.6684847632
 20
1.2133533457
 30
0.0
 10
5.6908063287
 20
1.2140538203
 30
0.0
 10
5.7058875161
 20
1.2145207174
 30
0.0
  0
SPLINE
  5
55F
100
AcDbEntity
  8
0
100
AcDbSpline
 62
7
  6
CONTINUOUS
 70
0
 71
3
 72
25
 73
21
 74
0
 42
0.0000001
 43
0.0000001
 44
0.0000000001
 40
0.0
 40
0.0
 40
0.0
 40
0.0
 40
0.0046533801
 40
0.0100515446
 40
0.0166926018
 40
0.0248498907
 40
0.0346708059
 40
0.046239199
 40
0.0596059625
 40
0.0748031356
 40
0.1107570519
 40
0.1541945373
 40
0.2051528986
 40
0.2636453319
 40
0.3296719295
 40
0.4032249013
 40
0.4842774154
 40
0.5727747224
 40
0.771863209
 40
1.0
 40
1.0
 40
1.0
 40
1.0
 10
5.4461356892
 20
1.1262844374
 30
0.0
 10
5.4461357016
 20
1.1263183847
 30
0.0
 10
5.4461528378
 20
1.1263921711
 30
0.0
 10
5.4462225296
 20
1.1264941324
 30
0.0
 10
5.446332496
 20
1.1265934477
 30
0.0
 10
5.4464832011
 20
1.1266920105
 30
0.0
 10
5.4466752077
 20
1.1267905485
 30
0.0
 10
5.4469089606
 20
1.1268892124
 30
0.0
 10
5.4471846674
 20
1.1269880414
 30
0.0
 10
5.4476341826
 20
1.1271279252
 30
0.0
 10
5.4483031105
 20
1.1272989154
 30
0.0
 10
5.4492336721
 20
1.1274953987
 30
0.0
 10
5.4503316129
 20
1.1276924892
 30
0.0
 10
5.4515964895
 20
1.127890099
 30
0.0
 10
5.4530279013
 20
1.1280880505
 30
0.0
 10
5.4546252481
 20
1.1282862504
 30
0.0
 10
5.4563876319
 20
1.1284846385
 30
0.0
 10
5.4590627886
 20
1.1287602966
 30
0.0
 10
5.4628098051
 20
1.1291004977
 30
0.0
 10
5.4659167779
 20
1.1293471004
 30
0.0
 10
5.4675763928
 20
1.1294719364
 30
0.0
  0
SPLINE
  5
560
100
AcDbEntity
  8
0
100
AcDbSpline
 62
7
  6
CONTINUOUS
 70
0
 71
3
 72
29
 73
25
 74
0
 42
0.0000001
 43
0.0000001
 44
0.0000000001
 40
0.0
 40
0.0
 40
0.0
 40
0.0
 40
0.0018753719
 40
0.0042045045
 40
0.0070007194
 40
0.0102707928
 40
0.0182450431
 40
0.0281415972
 40
0.0399622789
 40
0.0537033974
 40
0.0693530877
 40
0.086895229
 40
0.1063128397
 40
0.1275883653
 40
0.1756232605
 40
0.2307899578
 40
0.2928602578
 40
0.3615620039
 40
0.4366049788
 40
0.5176585025
 40
0.6043669515
 40
0.6963631892
 40
0.7932674603
 40
1.0
 40
1.0
 40
1.0
 40
1.0
 10
5.4464858964
 20
1.1330641449
 30
0.0
 10
5.4465770078
 20
1.1331168358
 30
0.0
 10
5.4467906069
 20
1.133218661
 30
0.0
 10
5.4471589241
 20
1.13335607
 30
0.0
 10
5.4476096941
 20
1.1334940204
 30
0.0
 10
5.4483726365
 20
1.1336917462
 30
0.0
 10
5.4495352639
 20
1.133931527
 30
0.0
 10
5.4511790265
 20
1.1342060704
 30
0.0
 10
5.4531500399
 20
1.1344817564
 30
0.0
 10
5.4554464161
 20
1.1347583788
 30
0.0
 10
5.4580658502
 20
1.1350355815
 30
0.0
 10
5.4610053794
 20
1.1353132335
 30
0.0
 10
5.4642618724
 20
1.1355912239
 30
0.0
 10
5.4692264912
 20
1.135977985
 30
0.0
 10
5.4761962985
 20
1.1364547338
 30
0.0
 10
5.4854553002
 20
1.1370080273
 30
0.0
 10
5.4958759514
 20
1.1375622441
 30
0.0
 10
5.5074134617
 20
1.1381173888
 30
0.0
 10
5.5200174514
 20
1.1386730416
 30
0.0
 10
5.5336329011
 20
1.139229149
 30
0.0
 10
5.5482005319
 20
1.1397855738
 30
0.0
 10
5.5636583413
 20
1.1403422818
 30
0.0
 10
5.5858492265
 20
1.1411013171
 30
0.0
 10
5.6028813822
 20
1.141645099
 30
0.0
 10
5.6144781408
 20
1.142004122
 30
0.0
  0
SPLINE
  5
561
100
AcDbEntity
  8
0
100
AcDbSpline
 62
7
  6
CONTINUOUS
 70
0
 71
3
 72
37
 73
33
 74
0
 42
0.0000001
 43
0.0000001
 44
0.0000000001
 40
0.0
 40
0.0
 40
0.0
 40
0.0
 40
0.102664659
 40
0.2030598571
 40
0.3003133534
 40
0.3937013773
 40
0.4825306692
 40
0.5661177439
 40
0.6438168468
 40
0.7150377828
 40
0.7792386164
 40
0.8359289786
 40
0.8846819728
 40
0.9059642942
 40
0.9251283239
 40
0.9421427371
 40
0.9569775676
 40
0.9635687421
 40
0.9696052337
 40
0.9750858025
 40
0.980009652
 40
0.9843764815
 40
0.9881867783
 40
0.9914423609
 40
0.994147473
 40
0.9963113841
 40
0.9971969025
 40
0.9979571756
 40
0.9985999144
 40
0.9991379074
 40
0.9995928638
 40
1.0
 40
1.0
 40
1.0
 40
1.0
 10
5.7998827824
 20
1.0576526133
 30
0.0
 10
5.8077988128
 20
1.0578976849
 30
0.0
 10
5.8234557743
 20
1.0583860074
 30
0.0
 10
5.8466109573
 20
1.0591248701
 30
0.0
 10
5.8690501459
 20
1.0598636312
 30
0.0
 10
5.8905966229
 20
1.0606020085
 30
0.0
 10
5.9110882032
 20
1.0613400269
 30
0.0
 10
5.9303686909
 20
1.0620775382
 30
0.0
 10
5.9482897939
 20
1.062814382
 30
0.0
 10
5.9647140678
 20
1.0635502877
 30
0.0
 10
5.979515977
 20
1.0642847372
 30
0.0
 10
5.9925823484
 20
1.0650174338
 30
0.0
 10
6.0023380121
 20
1.0656504912
 30
0.0
 10
6.0091998095
 20
1.0661659586
 30
0.0
 10
6.0136172119
 20
1.0665344014
 30
0.0
 10
6.0175353662
 20
1.0669021685
 30
0.0
 10
6.0204839378
 20
1.0672189712
 30
0.0
 10
6.0225868998
 20
1.0674756175
 30
0.0
 10
6.0239715863
 20
1.0676603256
 30
0.0
 10
6.025226432
 20
1.0678448586
 30
0.0
 10
6.0263509811
 20
1.0680291792
 30
0.0
 10
6.0273448275
 20
1.0682131987
 30
0.0
 10
6.0282075719
 20
1.0683968196
 30
0.0
 10
6.0289390476
 20
1.0685798039
 30
0.0
 10
6.0295389677
 20
1.0687620562
 30
0.0
 10
6.0299540668
 20
1.0689217626
 30
0.0
 10
6.0302170992
 20
1.0690534063
 30
0.0
 10
6.0303680671
 20
1.0691454485
 30
0.0
 10
6.0304865908
 20
1.0692376652
 30
0.0
 10
6.0305729404
 20
1.0693307299
 30
0.0
 10
6.0306268462
 20
1.0694258461
 30
0.0
 10
6.0306396117
 20
1.0694927578
 30
0.0
 10
6.0306396117
 20
1.0695241653
 30
0.0
  0
SPLINE
  5
562
100
AcDbEntity
  8
0
100
AcDbSpline
 62
7
  6
CONTINUOUS
 70
0
 71
3
 72
30
 73
26
 74
0
 42
0.0000001
 43
0.0000001
 44
0.0000000001
 40
0.0
 40
0.0
 40
0.0
 40
0.0
 40
0.0017801161
 40
0.0040522885
 40
0.0068307089
 40
0.0101217677
 40
0.0139284918
 40
0.0182521483
 40
0.0284503673
 40
0.0407126182
 40
0.0550240912
 40
0.0713598673
 40
0.089693206
 40
0.109996382
 40
0.1322349538
 40
0.1823517495
 40
0.239699555
 40
0.3038694297
 40
0.3744139217
 40
0.4508309712
 40
0.5325863301
 40
0.619090207
 40
0.7097306136
 40
0.8038868976
 40
1.0
 40
1.0
 40
1.0
 40
1.0
 10
5.4755174149
 20
1.1498466451
 30
0.0
 10
5.475635962
 20
1.1499152301
 30
0.0
 10
5.4759200322
 20
1.1500463481
 30
0.0
 10
5.4764158908
 20
1.1502212396
 30
0.0
 10
5.4770334927
 20
1.1503970309
 30
0.0
 10
5.4777727106
 20
1.1505734866
 30
0.0
 10
5.4786335678
 20
1.1507504283
 30
0.0
 10
5.4800214257
 20
1.1510007577
 30
0.0
 10
5.4820596623
 20
1.1513068177
 30
0.0
 10
5.4848669556
 20
1.1516588878
 30
0.0
 10
5.4881494966
 20
1.1520120021
 30
0.0
 10
5.4919013353
 20
1.1523660839
 30
0.0
 10
5.4961159163
 20
1.1527207547
 30
0.0
 10
5.5007860416
 20
1.153075845
 30
0.0
 10
5.5078978632
 20
1.1535695679
 30
0.0
 10
5.517858466
 20
1.1541780612
 30
0.0
 10
5.5310447322
 20
1.1548843891
 30
0.0
 10
5.5458045772
 20
1.155592205
 30
0.0
 10
5.562033023
 20
1.1563010153
 30
0.0
 10
5.5796155947
 20
1.1570106527
 30
0.0
 10
5.5984269464
 20
1.1577207573
 30
0.0
 10
5.6183333197
 20
1.1584313118
 30
0.0
 10
5.639194353
 20
1.1591421507
 30
0.0
 10
5.6684847632
 20
1.1601033457
 30
0.0
 10
5.6908063287
 20
1.1608038203
 30
0.0
 10
5.7058875161
 20
1.1612707174
 30
0.0
  0
SPLINE
  5
563
100
AcDbEntity
  8
0
100
AcDbSpline
 62
7
  6
CONTINUOUS
 70
0
 71
3
 72
30
 73
26
 74
0
 42
0.0000001
 43
0.0000001
 44
0.0000000001
 40
0.0
 40
0.0
 40
0.0
 40
0.0
 40
0.1961131026
 40
0.2902693866
 40
0.3809097932
 40
0.4674136702
 40
0.5491690291
 40
0.6255860787
 40
0.6961305707
 40
0.7603004453
 40
0.8176482508
 40
0.8677650465
 40
0.8900036182
 40
0.9103067943
 40
0.9286401329
 40
0.944975909
 40
0.959287382
 40
0.9715496329
 40
0.9817478518
 40
0.9860715083
 40
0.9898782323
 40
0.9931692911
 40
0.9959477116
 40
0.9982198839
 40
1.0
 40
1.0
 40
1.0
 40
1.0
 10
5.7998827824
 20
1.0710476133
 30
0.0
 10
5.8149639698
 20
1.0715145104
 30
0.0
 10
5.8372855353
 20
1.072214985
 30
0.0
 10
5.8665759455
 20
1.07317618
 30
0.0
 10
5.8874369788
 20
1.0738870189
 30
0.0
 10
5.9073433522
 20
1.0745975734
 30
0.0
 10
5.9261547039
 20
1.075307678
 30
0.0
 10
5.9437372756
 20
1.0760173154
 30
0.0
 10
5.9599657214
 20
1.0767261257
 30
0.0
 10
5.9747255664
 20
1.0774339416
 30
0.0
 10
5.9879118326
 20
1.0781402695
 30
0.0
 10
5.9978724354
 20
1.0787487627
 30
0.0
 10
6.004984257
 20
1.0792424857
 30
0.0
 10
6.0096543823
 20
1.079597576
 30
0.0
 10
6.0138689632
 20
1.0799522468
 30
0.0
 10
6.017620802
 20
1.0803063286
 30
0.0
 10
6.020903343
 20
1.0806594428
 30
0.0
 10
6.0237106362
 20
1.081011513
 30
0.0
 10
6.0257488729
 20
1.081317573
 30
0.0
 10
6.0271367308
 20
1.0815679024
 30
0.0
 10
6.0279975879
 20
1.081744844
 30
0.0
 10
6.0287368059
 20
1.0819212997
 30
0.0
 10
6.0293544077
 20
1.082097091
 30
0.0
 10
6.0298502663
 20
1.0822719826
 30
0.0
 10
6.0301343365
 20
1.0824031006
 30
0.0
 10
6.0302528836
 20
1.0824716855
 30
0.0
  0
SPLINE
  5
564
100
AcDbEntity
  8
0
100
AcDbSpline
 62
7
  6
CONTINUOUS
 70
0
 71
3
 72
11
 73
7
 74
0
 42
0.0000001
 43
0.0000001
 44
0.0000000001
 40
0.0
 40
0.0
 40
0.0
 40
0.0
 40
0.2500031433
 40
0.500004265
 40
0.7500031514
 40
1.0
 40
1.0
 40
1.0
 40
1.0
 10
5.8912921577
 20
1.0903142087
 30
0.0
 10
5.8837990049
 20
1.0881774671
 30
0.0
 10
5.8687482072
 20
1.0841257206
 30
0.0
 10
5.8459799883
 20
1.0788111163
 30
0.0
 10
5.8230264919
 20
1.0743604355
 30
0.0
 10
5.8076116159
 20
1.0720350745
 30
0.0
 10
5.7998827824
 20
1.0710476133
 30
0.0
  0
SPLINE
  5
565
100
AcDbEntity
  8
0
100
AcDbSpline
 62
7
  6
CONTINUOUS
 70
0
 71
3
 72
13
 73
9
 74
0
 42
0.0000001
 43
0.0000001
 44
0.0000000001
 40
0.0
 40
0.0
 40
0.0
 40
0.0
 40
0.3411307055
 40
0.6209189976
 40
0.7379913765
 40
0.8400137706
 40
0.9272187665
 40
1.0
 40
1.0
 40
1.0
 40
1.0
 10
6.0266002431
 20
1.0282219364
 30
0.0
 10
6.0270254556
 20
1.0282982846
 30
0.0
 10
6.027797624
 20
1.028447546
 30
0.0
 10
6.0287077944
 20
1.0286620824
 30
0.0
 10
6.0293147136
 20
1.0288380919
 30
0.0
 10
6.0296824905
 20
1.0289619453
 30
0.0
 10
6.0299906329
 20
1.0290855045
 30
0.0
 10
6.0301725612
 20
1.0291755887
 30
0.0
 10
6.0302523788
 20
1.0292216829
 30
0.0
  0
SPLINE
  5
566
100
AcDbEntity
  8
0
100
AcDbSpline
 62
7
  6
CONTINUOUS
 70
0
 71
3
 72
29
 73
25
 74
0
 42
0.0000001
 43
0.0000001
 44
0.0000000001
 40
0.0
 40
0.0
 40
0.0
 40
0.0
 40
0.0018765094
 40
0.0042058751
 40
0.007001262
 40
0.0102699183
 40
0.0182417135
 40
0.0281394777
 40
0.039963167
 40
0.0537041727
 40
0.069351349
 40
0.08689217
 40
0.106312118
 40
0.1275897094
 40
0.1756211806
 40
0.2307897008
 40
0.2928594096
 40
0.3615616766
 40
0.4366066324
 40
0.5176564089
 40
0.6043633861
 40
0.696361559
 40
0.7932745805
 40
1.0
 40
1.0
 40
1.0
 40
1.0
 10
6.0592841718
 20
1.2057541847
 30
0.0
 10
6.0591929803
 20
1.2057015051
 30
0.0
 10
6.0589792882
 20
1.2055997048
 30
0.0
 10
6.0586109441
 20
1.2054622861
 30
0.0
 10
6.0581602991
 20
1.2053243171
 30
0.0
 10
6.0573976366
 20
1.2051265662
 30
0.0
 10
6.0562351717
 20
1.2048867364
 30
0.0
 10
6.0545913009
 20
1.2046122465
 30
0.0
 10
6.0526200506
 20
1.2043366169
 30
0.0
 10
6.0503236596
 20
1.2040599703
 30
0.0
 10
6.0477044554
 20
1.2037827348
 30
0.0
 10
6.0447650161
 20
1.2035050653
 30
0.0
 10
6.0415083509
 20
1.2032271117
 30
0.0
 10
6.0365436813
 20
1.2028403874
 30
0.0
 10
6.0295738641
 20
1.2023635465
 30
0.0
 10
6.0203149937
 20
1.2018103308
 30
0.0
 10
6.009894261
 20
1.2012560782
 30
0.0
 10
5.9983566596
 20
1.2007009296
 30
0.0
 10
5.9857527565
 20
1.2001453052
 30
0.0
 10
5.9721375089
 20
1.1995891712
 30
0.0
 10
5.9575700819
 20
1.199032776
 30
0.0
 10
5.942111778
 20
1.1984760369
 30
0.0
 10
5.9199207234
 20
1.1977170137
 30
0.0
 10
5.9028885006
 20
1.1971732188
 30
0.0
 10
5.8912921577
 20
1.1968142087
 30
0.0
  0
SPLINE
  5
567
100
AcDbEntity
  8
0
100
AcDbSpline
 62
7
  6
CONTINUOUS
 70
0
 71
3
 72
11
 73
7
 74
0
 42
0.0000001
 43
0.0000001
 44
0.0000000001
 40
0.0
 40
0.0
 40
0.0
 40
0.0
 40
0.2499995877
 40
0.500000389
 40
0.7500007548
 40
1.0
 40
1.0
 40
1.0
 40
1.0
 10
5.7058875161
 20
1.0681657174
 30
0.0
 10
5.698187941
 20
1.0686863489
 30
0.0
 10
5.68281123
 20
1.0700925415
 30
0.0
 10
5.6598666243
 20
1.0732317622
 30
0.0
 10
5.6370723626
 20
1.0773168633
 30
0.0
 10
5.6219892169
 20
1.0806081996
 30
0.0
 10
5.6144781408
 20
1.0823796641
 30
0.0
  0
SPLINE
  5
568
100
AcDbEntity
  8
0
100
AcDbSpline
 62
7
  6
CONTINUOUS
 70
0
 71
3
 72
11
 73
7
 74
0
 42
0.0000001
 43
0.0000001
 44
0.0000000001
 40
0.0
 40
0.0
 40
0.0
 40
0.0
 40
0.2499971029
 40
0.4999958941
 40
0.7499968575
 40
1.0
 40
1.0
 40
1.0
 40
1.0
 10
5.7998827824
 20
1.1641526133
 30
0.0
 10
5.807582281
 20
1.1636319869
 30
0.0
 10
5.8229588534
 20
1.1622258048
 30
0.0
 10
5.8459033418
 20
1.1590866175
 30
0.0
 10
5.8686976829
 20
1.1550015239
 30
0.0
 10
5.8837809646
 20
1.1517101587
 30
0.0
 10
5.8912921577
 20
1.1499386665
 30
0.0
  0
SPLINE
  5
569
100
AcDbEntity
  8
0
100
AcDbSpline
 62
7
  6
CONTINUOUS
 70
0
 71
3
 72
11
 73
7
 74
0
 42
0.0000001
 43
0.0000001
 44
0.0000000001
 40
0.0
 40
0.0
 40
0.0
 40
0.0
 40
0.2500002796
 40
0.5000007388
 40
0.7500005679
 40
1.0
 40
1.0
 40
1.0
 40
1.0
 10
5.7998827824
 20
1.1109026133
 30
0.0
 10
5.8075823789
 20
1.1103819803
 30
0.0
 10
5.8229591003
 20
1.108975783
 30
0.0
 10
5.8459037002
 20
1.1058365638
 30
0.0
 10
5.868697941
 20
1.1017514671
 30
0.0
 10
5.883781076
 20
1.0984601324
 30
0.0
 10
5.8912921577
 20
1.0966886665
 30
0.0
  0
SPLINE
  5
56A
100
AcDbEntity
  8
0
100
AcDbSpline
 62
7
  6
CONTINUOUS
 70
0
 71
3
 72
11
 73
7
 74
0
 42
0.0000001
 43
0.0000001
 44
0.0000000001
 40
0.0
 40
0.0
 40
0.0
 40
0.0
 40
0.2500018187
 40
0.5000022674
 40
0.7500011095
 40
1.0
 40
1.0
 40
1.0
 40
1.0
 10
5.6144781408
 20
1.142004122
 30
0.0
 10
5.6219712538
 20
1.1441408522
 30
0.0
 10
5.6370219907
 20
1.1481925856
 30
0.0
 10
5.6597901484
 20
1.1535071709
 30
0.0
 10
5.6827436817
 20
1.1579578778
 30
0.0
 10
5.6981586195
 20
1.1602832481
 30
0.0
 10
5.7058875161
 20
1.1612707174
 30
0.0
  0
SPLINE
  5
56B
100
AcDbEntity
  8
0
100
AcDbSpline
 62
7
  6
CONTINUOUS
 70
0
 71
3
 72
25
 73
21
 74
0
 42
0.0000001
 43
0.0000001
 44
0.0000000001
 40
0.0
 40
0.0
 40
0.0
 40
0.0
 40
0.0050980934
 40
0.0108771944
 40
0.017822635
 40
0.026220253
 40
0.0362325211
 40
0.0479538635
 40
0.0614410103
 40
0.0767300195
 40
0.1127971802
 40
0.1562742224
 40
0.207214317
 40
0.2656420436
 40
0.3315663397
 40
0.4049820629
 40
0.4858497035
 40
0.5741154025
 40
0.7726114675
 40
1.0
 40
1.0
 40
1.0
 40
1.0
 10
5.4751307495
 20
1.109544166
 30
0.0
 10
5.4751307145
 20
1.1095779714
 30
0.0
 10
5.4751456527
 20
1.1096505753
 30
0.0
 10
5.4752081334
 20
1.1097527183
 30
0.0
 10
5.4753076938
 20
1.1098524279
 30
0.0
 10
5.4754442862
 20
1.1099512716
 30
0.0
 10
5.4756183316
 20
1.1100499679
 30
0.0
 10
5.4758301725
 20
1.1101487186
 30
0.0
 10
5.4760799709
 20
1.1102476004
 30
0.0
 10
5.4764867088
 20
1.1103873915
 30
0.0
 10
5.4770922861
 20
1.1105584129
 30
0.0
 10
5.4779350736
 20
1.1107549795
 30
0.0
 10
5.4789293825
 20
1.1109521302
 30
0.0
 10
5.4800749016
 20
1.1111497832
 30
0.0
 10
5.4813713333
 20
1.1113477689
 30
0.0
 10
5.4828180592
 20
1.1115459806
 30
0.0
 10
5.4844141496
 20
1.1117443949
 30
0.0
 10
5.4868362993
 20
1.1120200366
 30
0.0
 10
5.4902287556
 20
1.1123602244
 30
0.0
 10
5.4930420612
 20
1.1126068382
 30
0.0
 10
5.4945446972
 20
1.1127316653
 30
0.0
  0
SPLINE
  5
56C
100
AcDbEntity
  8
0
100
AcDbSpline
 62
7
  6
CONTINUOUS
 70
0
 71
3
 72
11
 73
7
 74
0
 42
0.0000001
 43
0.0000001
 44
0.0000000001
 40
0.0
 40
0.0
 40
0.0
 40
0.0
 40
0.2499994034
 40
0.499999777
 40
0.750000484
 40
1.0
 40
1.0
 40
1.0
 40
1.0
 10
5.6144781408
 20
1.195254122
 30
0.0
 10
5.6219711815
 20
1.1973908316
 30
0.0
 10
5.6370218439
 20
1.2014425425
 30
0.0
 10
5.6597899778
 20
1.2067571439
 30
0.0
 10
5.6827435855
 20
1.211207865
 30
0.0
 10
5.6981586002
 20
1.2135332456
 30
0.0
 10
5.7058875161
 20
1.2145207174
 30
0.0
  0
SPLINE
  5
56D
100
AcDbEntity
  8
0
100
AcDbSpline
 62
7
  6
CONTINUOUS
 70
0
 71
3
 72
11
 73
7
 74
0
 42
0.0000001
 43
0.0000001
 44
0.0000000001
 40
0.0
 40
0.0
 40
0.0
 40
0.0
 40
0.2499995212
 40
0.4999993616
 40
0.7499997562
 40
1.0
 40
1.0
 40
1.0
 40
1.0
 10
5.6144781408
 20
1.088754122
 30
0.0
 10
5.621971185
 20
1.0908908326
 30
0.0
 10
5.6370218348
 20
1.0949425402
 30
0.0
 10
5.6597899466
 20
1.1002571371
 30
0.0
 10
5.6827435508
 20
1.1047078558
 30
0.0
 10
5.6981585777
 20
1.1070332427
 30
0.0
 10
5.7058875161
 20
1.1080207174
 30
0.0
  0
SPLINE
  5
56E
100
AcDbEntity
  8
0
100
AcDbSpline
 62
7
  6
CONTINUOUS
 70
0
 71
3
 72
16
 73
12
 74
0
 42
0.0000001
 43
0.0000001
 44
0.0000000001
 40
0.0
 40
0.0
 40
0.0
 40
0.0
 40
0.3723988794
 40
0.529317824
 40
0.6656459037
 40
0.7807551244
 40
0.874275881
 40
0.9130587149
 40
0.9467133583
 40
0.9755285454
 40
1.0
 40
1.0
 40
1.0
 40
1.0
 10
3.4089211908
 20
5.7522979498
 30
0.0
 10
3.4084224376
 20
5.7539427448
 30
0.0
 10
3.4076714747
 20
5.7562691023
 30
0.0
 10
3.4065855519
 20
5.7591435319
 30
0.0
 10
3.4058483794
 20
5.7608789462
 30
0.0
 10
3.4051464425
 20
5.7623088093
 30
0.0
 10
3.404563607
 20
5.7632935683
 30
0.0
 10
3.4041089311
 20
5.7639107872
 30
0.0
 10
3.4038002901
 20
5.7642627298
 30
0.0
 10
3.403502633
 20
5.7645332573
 30
0.0
 10
3.4032954428
 20
5.7646690651
 30
0.0
 10
3.4031943263
 20
5.7647193828
 30
0.0
  0
LINE
  5
56F
100
AcDbEntity
  8
0
100
AcDbLine
 62
7
  6
CONTINUOUS
 10
3.4031943263
 20
5.7647193828
 11
3.4027534585
 21
5.7648341655
  0
SPLINE
  5
570
100
AcDbEntity
  8
0
100
AcDbSpline
 62
7
  6
CONTINUOUS
 70
0
 71
3
 72
11
 73
7
 74
0
 42
0.0000001
 43
0.0000001
 44
0.0000000001
 40
0.0
 40
0.0
 40
0.0
 40
0.0
 40
0.2546807877
 40
0.5101777919
 40
0.760526277
 40
1.0
 40
1.0
 40
1.0
 40
1.0
 10
3.4216235244
 20
6.1330284246
 30
0.0
 10
3.4215060171
 20
6.1357919545
 30
0.0
 10
3.4211874866
 20
6.1413246385
 30
0.0
 10
3.4204775627
 20
6.1495550435
 30
0.0
 10
3.4195510347
 20
6.1575976836
 30
0.0
 10
3.4187812765
 20
6.1628626463
 30
0.0
 10
3.4183603271
 20
6.1654292218
 30
0.0
  0
SPLINE
  5
571
100
AcDbEntity
  8
0
100
AcDbSpline
 62
7
  6
CONTINUOUS
 70
0
 71
3
 72
11
 73
7
 74
0
 42
0.0000001
 43
0.0000001
 44
0.0000000001
 40
0.0
 40
0.0
 40
0.0
 40
0.0
 40
0.2741987848
 40
0.5351765419
 40
0.7782813469
 40
1.0
 40
1.0
 40
1.0
 40
1.0
 10
3.421798323
 20
6.6938660959
 30
0.0
 10
3.4217500631
 20
6.6960762613
 30
0.0
 10
3.421598027
 20
6.7003890318
 30
0.0
 10
3.4211936366
 20
6.7066517836
 30
0.0
 10
3.4206244001
 20
6.7124767922
 30
0.0
 10
3.4201187462
 20
6.7161914744
 30
0.0
 10
3.4198338928
 20
6.7179562106
 30
0.0
  0
SPLINE
  5
572
100
AcDbEntity
  8
0
100
AcDbSpline
 62
7
  6
CONTINUOUS
 70
0
 71
3
 72
16
 73
12
 74
0
 42
0.0000001
 43
0.0000001
 44
0.0000000001
 40
0.0
 40
0.0
 40
0.0
 40
0.0
 40
0.1905283406
 40
0.363292117
 40
0.5172802732
 40
0.6516475634
 40
0.7661333225
 40
0.8611564042
 40
0.9017641315
 40
0.9381171214
 40
1.0
 40
1.0
 40
1.0
 40
1.0
 10
3.4198338928
 20
6.7179562106
 30
0.0
 10
3.4196504176
 20
6.719092884
 30
0.0
 10
3.4192657097
 20
6.7212548995
 30
0.0
 10
3.4185964992
 20
6.7243094001
 30
0.0
 10
3.417868921
 20
6.7270006923
 30
0.0
 10
3.4170883039
 20
6.7293088805
 30
0.0
 10
3.4162611723
 20
6.7312181401
 30
0.0
 10
3.4155047166
 20
6.7325332246
 30
0.0
 10
3.4148684215
 20
6.7333578724
 30
0.0
 10
3.4142870349
 20
6.7339626808
 30
0.0
 10
3.413788876
 20
6.7343116617
 30
0.0
 10
3.4134437616
 20
6.7344556978
 30
0.0
  0
LINE
  5
573
100
AcDbEntity
  8
0
100
AcDbLine
 62
7
  6
CONTINUOUS
 10
3.4134437616
 20
6.7344556978
 11
3.4125834307
 21
6.7346342107
  0
LINE
  5
574
100
AcDbEntity
  8
0
100
AcDbLine
 62
7
  6
CONTINUOUS
 10
3.421798323
 20
6.9715119824
 11
3.4213361473
 21
6.9806324183
  0
SPLINE
  5
575
100
AcDbEntity
  8
0
100
AcDbSpline
 62
7
  6
CONTINUOUS
 70
0
 71
3
 72
19
 73
15
 74
0
 42
0.0000001
 43
0.0000001
 44
0.0000000001
 40
0.0
 40
0.0
 40
0.0
 40
0.0
 40
0.2054126902
 40
0.3889267076
 40
0.5489839375
 40
0.6844217096
 40
0.7428204217
 40
0.7950348183
 40
0.8411838067
 40
0.8815123314
 40
0.916509473
 40
0.9470066672
 40
0.9742577249
 40
1.0
 40
1.0
 40
1.0
 40
1.0
 10
3.4213361473
 20
6.9806324183
 30
0.0
 10
3.4212222494
 20
6.9820335826
 30
0.0
 10
3.420963196
 20
6.9846833475
 30
0.0
 10
3.4204436683
 20
6.9884057337
 30
0.0
 10
3.4198214062
 20
6.9916259825
 30
0.0
 10
3.4191965932
 20
6.993969498
 30
0.0
 10
3.4186357184
 20
6.9955581633
 30
0.0
 10
3.4182151399
 20
6.9965460779
 30
0.0
 10
3.4177748615
 20
6.9973883709
 30
0.0
 10
3.4173150312
 20
6.9980832494
 30
0.0
 10
3.4168353501
 20
6.9986296576
 30
0.0
 10
3.4163344892
 20
6.9990268587
 30
0.0
 10
3.4158108228
 20
6.9992706702
 30
0.0
 10
3.4154461052
 20
6.9993254951
 30
0.0
 10
3.4152699325
 20
6.9993256706
 30
0.0
  0
SPLINE
  5
576
100
AcDbEntity
  8
0
100
AcDbSpline
 62
7
  6
CONTINUOUS
 70
0
 71
3
 72
11
 73
7
 74
0
 42
0.0000001
 43
0.0000001
 44
0.0000000001
 40
0.0
 40
0.0
 40
0.0
 40
0.0
 40
0.2639613348
 40
0.5280602934
 40
0.7779178201
 40
1.0
 40
1.0
 40
1.0
 40
1.0
 10
3.4175018839
 20
5.5619964624
 30
0.0
 10
3.4168014956
 20
5.5662033962
 30
0.0
 10
3.4153189829
 20
5.5746060525
 30
0.0
 10
3.4129242881
 20
5.5869453031
 30
0.0
 10
3.4104498066
 20
5.5985778543
 30
0.0
 10
3.4087065236
 20
5.6060020711
 30
0.0
 10
3.4078314763
 20
5.609481931
 30
0.0
  0
SPLINE
  5
577
100
AcDbEntity
  8
0
100
AcDbSpline
 62
7
  6
CONTINUOUS
 70
0
 71
3
 72
17
 73
13
 74
0
 42
0.0000001
 43
0.0000001
 44
0.0000000001
 40
0.0
 40
0.0
 40
0.0
 40
0.0
 40
0.1925985914
 40
0.3684393254
 40
0.5260472774
 40
0.6639801359
 40
0.7810920479
 40
0.876514544
 40
0.9158625317
 40
0.9495396938
 40
0.9775451278
 40
1.0
 40
1.0
 40
1.0
 40
1.0
 10
3.4078314763
 20
5.609481931
 30
0.0
 10
3.4075341304
 20
5.6106644066
 30
0.0
 10
3.4069526904
 20
5.6129233322
 30
0.0
 10
3.4060789603
 20
5.6161370574
 30
0.0
 10
3.4052488718
 20
5.6190036263
 30
0.0
 10
3.4044699417
 20
5.6214974925
 30
0.0
 10
3.4037490684
 20
5.6235961106
 30
0.0
 10
3.4031722401
 20
5.625083652
 30
0.0
 10
3.4027364766
 20
5.6260571913
 30
0.0
 10
3.4024494906
 20
5.6266291655
 30
0.0
 10
3.4021816287
 20
5.6270899127
 30
0.0
 10
3.4019964458
 20
5.6273513765
 30
0.0
 10
3.4019050239
 20
5.6274602353
 30
0.0
  0
LINE
  5
578
100
AcDbEntity
  8
0
100
AcDbLine
 62
7
  6
CONTINUOUS
 10
3.4019050239
 20
5.6274602353
 11
3.4014185554
 21
5.6278164312
  0
SPLINE
  5
579
100
AcDbEntity
  8
0
100
AcDbSpline
 62
7
  6
CONTINUOUS
 70
0
 71
3
 72
8
 73
4
 74
0
 42
0.0000001
 43
0.0000001
 44
0.0000000001
 40
0.0
 40
0.0
 40
0.0
 40
0.0
 40
1.0
 40
1.0
 40
1.0
 40
1.0
 10
3.4014185554
 20
5.6278164312
 30
0.0
 10
3.4014008734
 20
5.6278193594
 30
0.0
 10
3.4013829023
 20
5.6278209494
 30
0.0
 10
3.4013649795
 20
5.6278209767
 30
0.0
  0
SPLINE
  5
57A
100
AcDbEntity
  8
0
100
AcDbSpline
 62
7
  6
CONTINUOUS
 70
0
 71
3
 72
11
 73
7
 74
0
 42
0.0000001
 43
0.0000001
 44
0.0000000001
 40
0.0
 40
0.0
 40
0.0
 40
0.0
 40
0.2710429664
 40
0.531885548
 40
0.7766584317
 40
1.0
 40
1.0
 40
1.0
 40
1.0
 10
3.4216235244
 20
6.4115733738
 30
0.0
 10
3.4215084153
 20
6.4143191294
 30
0.0
 10
3.4211997796
 20
6.4197042502
 30
0.0
 10
3.420495151
 20
6.4275488497
 30
0.0
 10
3.4195749888
 20
6.4348839985
 30
0.0
 10
3.4187923031
 20
6.4395673458
 30
0.0
 10
3.4183603271
 20
6.4417902742
 30
0.0
  0
SPLINE
  5
57B
100
AcDbEntity
  8
0
100
AcDbSpline
 62
7
  6
CONTINUOUS
 70
0
 71
3
 72
19
 73
15
 74
0
 42
0.0000001
 43
0.0000001
 44
0.0000000001
 40
0.0
 40
0.0
 40
0.0
 40
0.0
 40
0.2004213845
 40
0.3804578301
 40
0.5386940067
 40
0.6740207724
 40
0.7328978717
 40
0.7859476501
 40
0.8332944183
 40
0.8751626907
 40
0.9119350989
 40
0.9442437311
 40
0.9731086109
 40
1.0
 40
1.0
 40
1.0
 40
1.0
 10
3.4183603271
 20
6.4417902742
 30
0.0
 10
3.4180862448
 20
6.4432006889
 30
0.0
 10
3.4175207751
 20
6.4458696769
 30
0.0
 10
3.4165582791
 20
6.4496112111
 30
0.0
 10
3.4155380944
 20
6.452851278
 30
0.0
 10
3.4146135693
 20
6.455206394
 30
0.0
 10
3.4138397076
 20
6.4568020424
 30
0.0
 10
3.4132793415
 20
6.4577978825
 30
0.0
 10
3.412713296
 20
6.4586476874
 30
0.0
 10
3.4121424748
 20
6.4593498455
 30
0.0
 10
3.4115672788
 20
6.4599028556
 30
0.0
 10
3.4109864055
 20
6.460304405
 30
0.0
 10
3.4103989709
 20
6.4605500905
 30
0.0
 10
3.4099975288
 20
6.4606065014
 30
0.0
 10
3.4098047475
 20
6.4606063836
 30
0.0
  0
LINE
  5
57C
100
AcDbEntity
  8
0
100
AcDbLine
 62
7
  6
CONTINUOUS
 10
3.4433566312
 20
6.2929969699
 11
3.4423882104
 21
6.2931451979
  0
SPLINE
  5
57D
100
AcDbEntity
  8
0
100
AcDbSpline
 62
7
  6
CONTINUOUS
 70
0
 71
3
 72
11
 73
7
 74
0
 42
0.0000001
 43
0.0000001
 44
0.0000000001
 40
0.0
 40
0.0
 40
0.0
 40
0.0
 40
0.3197538902
 40
0.586843692
 40
0.8087700224
 40
1.0
 40
1.0
 40
1.0
 40
1.0
 10
3.4430879686
 20
5.998174981
 30
0.0
 10
3.4427518578
 20
5.9986288005
 30
0.0
 10
3.4420945323
 20
5.9994339517
 30
0.0
 10
3.4410331358
 20
6.0004005573
 30
0.0
 10
3.4399830755
 20
6.0010096577
 30
0.0
 10
3.4392507754
 20
6.0011639733
 30
0.0
 10
3.4389130352
 20
6.001164226
 30
0.0
  0
SPLINE
  5
57E
100
AcDbEntity
  8
0
100
AcDbSpline
 62
7
  6
CONTINUOUS
 70
0
 71
3
 72
11
 73
7
 74
0
 42
0.0000001
 43
0.0000001
 44
0.0000000001
 40
0.0
 40
0.0
 40
0.0
 40
0.0
 40
0.305867677
 40
0.5750961612
 40
0.8065686893
 40
1.0
 40
1.0
 40
1.0
 40
1.0
 10
3.4433566312
 20
5.7398623124
 30
0.0
 10
3.4429834127
 20
5.7407759619
 30
0.0
 10
3.442251644
 20
5.7424818595
 30
0.0
 10
3.4411139801
 20
5.7448240766
 30
0.0
 10
3.4400120513
 20
5.7467756496
 30
0.0
 10
3.4392377375
 20
5.747910959
 30
0.0
 10
3.438851045
 20
5.7484008792
 30
0.0
  0
SPLINE
  5
57F
100
AcDbEntity
  8
0
100
AcDbSpline
 62
7
  6
CONTINUOUS
 70
0
 71
3
 72
11
 73
7
 74
0
 42
0.0000001
 43
0.0000001
 44
0.0000000001
 40
0.0
 40
0.0
 40
0.0
 40
0.0
 40
0.3225526874
 40
0.5909641175
 40
0.8121689006
 40
1.0
 40
1.0
 40
1.0
 40
1.0
 10
3.438851045
 20
5.7484008792
 30
0.0
 10
3.4386071799
 20
5.7487098443
 30
0.0
 10
3.4381347313
 20
5.7492570394
 30
0.0
 10
3.4373863737
 20
5.749913618
 30
0.0
 10
3.4366611907
 20
5.7503264652
 30
0.0
 10
3.4361606511
 20
5.750432589
 30
0.0
 10
3.4359314408
 20
5.7504325133
 30
0.0
  0
SPLINE
  5
580
100
AcDbEntity
  8
0
100
AcDbSpline
 62
7
  6
CONTINUOUS
 70
0
 71
3
 72
14
 73
10
 74
0
 42
0.0000001
 43
0.0000001
 44
0.0000000001
 40
0.0
 40
0.0
 40
0.0
 40
0.0
 40
0.3407785307
 40
0.4904390201
 40
0.6251128629
 40
0.7439877994
 40
0.8463263341
 40
0.9316983985
 40
1.0
 40
1.0
 40
1.0
 40
1.0
 10
3.4430879686
 20
5.5376374835
 30
0.0
 10
3.4423965297
 20
5.5398936988
 30
0.0
 10
3.4413573828
 20
5.5431280009
 30
0.0
 10
3.439902145
 20
5.5472051059
 30
0.0
 10
3.4388976733
 20
5.5498106804
 30
0.0
 10
3.4379391171
 20
5.5520815268
 30
0.0
 10
3.437032411
 20
5.554002286
 30
0.0
 10
3.4361842036
 20
5.5555599511
 30
0.0
 10
3.4355976155
 20
5.5564512203
 30
0.0
 10
3.43530734
 20
5.556824635
 30
0.0
  0
SPLINE
  5
581
100
AcDbEntity
  8
0
100
AcDbSpline
 62
7
  6
CONTINUOUS
 70
0
 71
3
 72
10
 73
6
 74
0
 42
0.0000001
 43
0.0000001
 44
0.0000000001
 40
0.0
 40
0.0
 40
0.0
 40
0.0
 40
0.3324460591
 40
0.6051123084
 40
1.0
 40
1.0
 40
1.0
 40
1.0
 10
3.43530734
 20
5.556824635
 30
0.0
 10
3.4351638101
 20
5.5570092739
 30
0.0
 10
3.4348867315
 20
5.5573362821
 30
0.0
 10
3.4343748912
 20
5.5578091652
 30
0.0
 10
3.4339212363
 20
5.5580435943
 30
0.0
 10
3.433643447
 20
5.5580433958
 30
0.0
  0
SPLINE
  5
582
100
AcDbEntity
  8
0
100
AcDbSpline
 62
7
  6
CONTINUOUS
 70
0
 71
3
 72
12
 73
8
 74
0
 42
0.0000001
 43
0.0000001
 44
0.0000000001
 40
0.0
 40
0.0
 40
0.0
 40
0.0
 40
0.3220391237
 40
0.5998346313
 40
0.827496976
 40
0.920945346
 40
1.0
 40
1.0
 40
1.0
 40
1.0
 10
3.44019436
 20
5.4143433062
 30
0.0
 10
3.4396075494
 20
5.4164878643
 30
0.0
 10
3.438490555
 20
5.4204759141
 30
0.0
 10
3.4368577268
 20
5.425950972
 30
0.0
 10
3.4355857016
 20
5.4298861898
 30
0.0
 10
3.434658053
 20
5.4324887697
 30
0.0
 10
3.4342287521
 20
5.433599962
 30
0.0
 10
3.4340214609
 20
5.434104868
 30
0.0
  0
SPLINE
  5
583
100
AcDbEntity
  8
0
100
AcDbSpline
 62
7
  6
CONTINUOUS
 70
0
 71
3
 72
9
 73
5
 74
0
 42
0.0000001
 43
0.0000001
 44
0.0000000001
 40
0.0
 40
0.0
 40
0.0
 40
0.0
 40
0.5399499744
 40
1.0
 40
1.0
 40
1.0
 40
1.0
 10
3.4218574775
 20
7.2158471147
 30
0.0
 10
3.4218574775
 20
7.2179018371
 30
0.0
 10
3.4217861606
 20
7.2217076372
 30
0.0
 10
3.4215258571
 20
7.2255070765
 30
0.0
 10
3.4213361473
 20
7.2272474389
 30
0.0
  0
LINE
  5
584
100
AcDbEntity
  8
0
100
AcDbLine
 62
7
  6
CONTINUOUS
 10
3.4213361473
 20
7.2272474389
 11
3.4209386836
 21
7.2301497869
  0
SPLINE
  5
585
100
AcDbEntity
  8
0
100
AcDbSpline
 62
7
  6
CONTINUOUS
 70
0
 71
3
 72
13
 73
9
 74
0
 42
0.0000001
 43
0.0000001
 44
0.0000000001
 40
0.0
 40
0.0
 40
0.0
 40
0.0
 40
0.3518263971
 40
0.5011651446
 40
0.6328683068
 40
0.7473418169
 40
0.845556176
 40
1.0
 40
1.0
 40
1.0
 40
1.0
 10
3.4209386836
 20
7.2301497869
 30
0.0
 10
3.4208018242
 20
7.2309549433
 30
0.0
 10
3.4205724626
 20
7.2320974408
 30
0.0
 10
3.4201689349
 20
7.2335109563
 30
0.0
 10
3.4198598247
 20
7.2343759434
 30
0.0
 10
3.4195266099
 20
7.2351053802
 30
0.0
 10
3.4190892813
 20
7.2358341315
 30
0.0
 10
3.4186729897
 20
7.2362809246
 30
0.0
 10
3.4183603271
 20
7.236456353
 30
0.0
  0
LINE
  5
586
100
AcDbEntity
  8
0
100
AcDbLine
 62
7
  6
CONTINUOUS
 10
3.4183603271
 20
7.236456353
 11
3.4176809435
 21
7.2366410916
  0
SPLINE
  5
587
100
AcDbEntity
  8
0
100
AcDbSpline
 62
7
  6
CONTINUOUS
 70
0
 71
3
 72
16
 73
12
 74
0
 42
0.0000001
 43
0.0000001
 44
0.0000000001
 40
0.0
 40
0.0
 40
0.0
 40
0.0
 40
0.1228855627
 40
0.1843758366
 40
0.2459087397
 40
0.3692200289
 40
0.4930819822
 40
0.6175792028
 40
0.7431016996
 40
0.8703752431
 40
1.0
 40
1.0
 40
1.0
 40
1.0
 10
3.2032979971
 20
5.8396642817
 30
0.0
 10
3.2032965376
 20
5.834948364
 30
0.0
 10
3.2036657846
 20
5.8278650952
 30
0.0
 10
3.204901621
 20
5.8185060592
 30
0.0
 10
3.206633619
 20
5.8092085519
 30
0.0
 10
3.2097013701
 20
5.7977430981
 30
0.0
 10
3.2147251616
 20
5.7843710599
 30
0.0
 10
3.2210145034
 20
5.7714521106
 30
0.0
 10
3.22850189
 20
5.7590376972
 30
0.0
 10
3.2371164627
 20
5.7471371104
 30
0.0
 10
3.2435068588
 20
5.7396157901
 30
0.0
 10
3.2468596059
 20
5.7359408505
 30
0.0
  0
SPLINE
  5
588
100
AcDbEntity
  8
0
100
AcDbSpline
 62
7
  6
CONTINUOUS
 70
0
 71
3
 72
15
 73
11
 74
0
 42
0.0000001
 43
0.0000001
 44
0.0000000001
 40
0.0
 40
0.0
 40
0.0
 40
0.0
 40
0.0601947974
 40
0.1201186572
 40
0.2400555468
 40
0.3613543691
 40
0.4849376827
 40
0.7393470789
 40
0.8694835609
 40
1.0
 40
1.0
 40
1.0
 40
1.0
 10
3.2468596485
 20
5.735940522
 30
0.0
 10
3.2482415169
 20
5.7344258979
 30
0.0
 10
3.2511226537
 20
5.7315136494
 30
0.0
 10
3.2573115611
 20
5.7261603312
 30
0.0
 10
3.2657880217
 20
5.720320435
 30
0.0
 10
3.276866232
 20
5.7146263052
 30
0.0
 10
3.2928064141
 20
5.7086192938
 30
0.0
 10
3.3098602156
 20
5.7050219381
 30
0.0
 10
3.327361018
 20
5.7036406438
 30
0.0
 10
3.3362530395
 20
5.7036946164
 30
0.0
 10
3.3406931692
 20
5.7039127966
 30
0.0
  0
SPLINE
  5
589
100
AcDbEntity
  8
0
100
AcDbSpline
 62
7
  6
CONTINUOUS
 70
0
 71
3
 72
12
 73
8
 74
0
 42
0.0000001
 43
0.0000001
 44
0.0000000001
 40
0.0
 40
0.0
 40
0.0
 40
0.0
 40
0.0804705388
 40
0.1747509508
 40
0.4027659716
 40
0.6796868202
 40
1.0
 40
1.0
 40
1.0
 40
1.0
 10
3.4340392943
 20
7.6548829445
 30
0.0
 10
3.4342354468
 20
7.6553625698
 30
0.0
 10
3.4346411882
 20
7.6564124056
 30
0.0
 10
3.4355155409
 20
7.6588543353
 30
0.0
 10
3.4367106834
 20
7.6625239424
 30
0.0
 10
3.4382409952
 20
7.6676132
 30
0.0
 10
3.4392876631
 20
7.6713140728
 30
0.0
 10
3.4398371124
 20
7.6733021836
 30
0.0
  0
SPLINE
  5
58A
100
AcDbEntity
  8
0
100
AcDbSpline
 62
7
  6
CONTINUOUS
 70
0
 71
3
 72
10
 73
6
 74
0
 42
0.0000001
 43
0.0000001
 44
0.0000000001
 40
0.0
 40
0.0
 40
0.0
 40
0.0
 40
0.3835341269
 40
0.6591464632
 40
1.0
 40
1.0
 40
1.0
 40
1.0
 10
3.4336432756
 20
7.5309002575
 30
0.0
 10
3.4339663954
 20
7.5309001807
 30
0.0
 10
3.4344918467
 20
7.5312151918
 30
0.0
 10
3.4350730113
 20
7.5318089816
 30
0.0
 10
3.4353929322
 20
7.5322235988
 30
0.0
 10
3.4355591508
 20
7.5324577644
 30
0.0
  0
SPLINE
  5
58B
100
AcDbEntity
  8
0
100
AcDbSpline
 62
7
  6
CONTINUOUS
 70
0
 71
3
 72
14
 73
10
 74
0
 42
0.0000001
 43
0.0000001
 44
0.0000000001
 40
0.0
 40
0.0
 40
0.0
 40
0.0
 40
0.0712300624
 40
0.1588747313
 40
0.2626219725
 40
0.381914225
 40
0.5161145902
 40
0.6644715279
 40
1.0
 40
1.0
 40
1.0
 40
1.0
 10
3.4355591508
 20
7.5324577644
 30
0.0
 10
3.4358514166
 20
7.5328695029
 30
0.0
 10
3.4364429639
 20
7.5338303931
 30
0.0
 10
3.4373001733
 20
7.5354837789
 30
0.0
 10
3.4382129781
 20
7.5374889084
 30
0.0
 10
3.439175106
 20
7.5398317961
 30
0.0
 10
3.4401799913
 20
7.5424975915
 30
0.0
 10
3.4416284005
 20
7.5466329353
 30
0.0
 10
3.4426652532
 20
7.5499034981
 30
0.0
 10
3.4433542371
 20
7.5521799575
 30
0.0
  0
SPLINE
  5
58C
100
AcDbEntity
  8
0
100
AcDbSpline
 62
7
  6
CONTINUOUS
 70
0
 71
3
 72
11
 73
7
 74
0
 42
0.0000001
 43
0.0000001
 44
0.0000000001
 40
0.0
 40
0.0
 40
0.0
 40
0.0
 40
0.1915412699
 40
0.4144832738
 40
0.6817079485
 40
1.0
 40
1.0
 40
1.0
 40
1.0
 10
3.4359314046
 20
7.338509349
 30
0.0
 10
3.4361464601
 20
7.3385090247
 30
0.0
 10
3.4366134092
 20
7.3386017215
 30
0.0
 10
3.4372930987
 20
7.3389684917
 30
0.0
 10
3.4379939946
 20
7.3395515547
 30
0.0
 10
3.4384374657
 20
7.340039119
 30
0.0
 10
3.4386657243
 20
7.3403140902
 30
0.0
  0
SPLINE
  5
58D
100
AcDbEntity
  8
0
100
AcDbSpline
 62
7
  6
CONTINUOUS
 70
0
 71
3
 72
11
 73
7
 74
0
 42
0.0000001
 43
0.0000001
 44
0.0000000001
 40
0.0
 40
0.0
 40
0.0
 40
0.0
 40
0.1900362429
 40
0.4204820548
 40
0.6908780634
 40
1.0
 40
1.0
 40
1.0
 40
1.0
 10
3.4386657243
 20
7.3403140902
 30
0.0
 10
3.4390689822
 20
7.3407998738
 30
0.0
 10
3.4398761563
 20
7.3419449988
 30
0.0
 10
3.4410198522
 20
7.3439369267
 30
0.0
 10
3.4422044912
 20
7.346354791
 30
0.0
 10
3.4429656711
 20
7.348123948
 30
0.0
 10
3.4433542371
 20
7.3490745854
 30
0.0
  0
SPLINE
  5
58E
100
AcDbEntity
  8
0
100
AcDbSpline
 62
7
  6
CONTINUOUS
 70
0
 71
3
 72
18
 73
14
 74
0
 42
0.0000001
 43
0.0000001
 44
0.0000000001
 40
0.0
 40
0.0
 40
0.0
 40
0.0
 40
0.0213665862
 40
0.0459700588
 40
0.0751931556
 40
0.1098347924
 40
0.1503447312
 40
0.1969775119
 40
0.3090369488
 40
0.4461016727
 40
0.607548087
 40
0.792538882
 40
1.0
 40
1.0
 40
1.0
 40
1.0
 10
3.4027534297
 20
7.3241096268
 30
0.0
 10
3.4028490384
 20
7.3241098908
 30
0.0
 10
3.4030552689
 20
7.3241492328
 30
0.0
 10
3.4033572481
 20
7.324304012
 30
0.0
 10
3.4036688566
 20
7.324551055
 30
0.0
 10
3.4039918432
 20
7.3248898336
 30
0.0
 10
3.4043271369
 20
7.325320263
 30
0.0
 10
3.4048209951
 20
7.3260630586
 30
0.0
 10
3.405453845
 20
7.3272278552
 30
0.0
 10
3.4062170863
 20
7.3288997871
 30
0.0
 10
3.4070171213
 20
7.3309107559
 30
0.0
 10
3.4078475386
 20
7.3332464445
 30
0.0
 10
3.4083873364
 20
7.3349177797
 30
0.0
 10
3.4086628096
 20
7.3358042917
 30
0.0
  0
SPLINE
  5
58F
100
AcDbEntity
  8
0
100
AcDbSpline
 62
7
  6
CONTINUOUS
 70
0
 71
3
 72
12
 73
8
 74
0
 42
0.0000001
 43
0.0000001
 44
0.0000000001
 40
0.0
 40
0.0
 40
0.0
 40
0.0
 40
0.1423604578
 40
0.2358383488
 40
0.3477254276
 40
0.6316308903
 40
1.0
 40
1.0
 40
1.0
 40
1.0
 10
3.4013649507
 20
7.4611226682
 30
0.0
 10
3.4014509292
 20
7.4611227662
 30
0.0
 10
3.4015907664
 20
7.461183611
 30
0.0
 10
3.4017527261
 20
7.461315623
 30
0.0
 10
3.4019565408
 20
7.4615313491
 30
0.0
 10
3.4022209035
 20
7.46191145
 30
0.0
 10
3.4024132291
 20
7.4622556463
 30
0.0
 10
3.4025159173
 20
7.4624530063
 30
0.0
  0
LINE
  5
590
100
AcDbEntity
  8
0
100
AcDbLine
 62
7
  6
CONTINUOUS
 10
3.4025159173
 20
7.4624530063
 11
3.403957015
 21
7.4659674171
  0
LINE
  5
591
100
AcDbEntity
  8
0
100
AcDbLine
 62
7
  6
CONTINUOUS
 10
3.403957015
 20
7.4659674171
 11
3.4056833817
 21
7.4714488309
  0
LINE
  5
592
100
AcDbEntity
  8
0
100
AcDbLine
 62
7
  6
CONTINUOUS
 10
3.4056833817
 20
7.4714488309
 11
3.4076211248
 21
7.4786299149
  0
SPLINE
  5
593
100
AcDbEntity
  8
0
100
AcDbSpline
 62
7
  6
CONTINUOUS
 70
0
 71
3
 72
12
 73
8
 74
0
 42
0.0000001
 43
0.0000001
 44
0.0000000001
 40
0.0
 40
0.0
 40
0.0
 40
0.0
 40
0.1057850329
 40
0.2211276623
 40
0.4727586597
 40
0.738282802
 40
1.0
 40
1.0
 40
1.0
 40
1.0
 10
3.4076211248
 20
7.4786299149
 30
0.0
 10
3.4080856678
 20
7.4804566315
 30
0.0
 10
3.4090223894
 20
7.4842838738
 30
0.0
 10
3.4109116375
 20
7.4924930005
 30
0.0
 10
3.4132389841
 20
7.5035208273
 30
0.0
 10
3.4158435592
 20
7.5171527271
 30
0.0
 10
3.4174303809
 20
7.5264128535
 30
0.0
 10
3.4181659317
 20
7.5310177083
 30
0.0
  0
LINE
  5
594
100
AcDbEntity
  8
0
100
AcDbLine
 62
7
  6
CONTINUOUS
 10
3.4423880879
 20
6.79579858
 11
3.4433542698
 21
6.7959448575
  0
SPLINE
  5
595
100
AcDbEntity
  8
0
100
AcDbSpline
 62
7
  6
CONTINUOUS
 70
0
 71
3
 72
17
 73
13
 74
0
 42
0.0000001
 43
0.0000001
 44
0.0000000001
 40
0.0
 40
0.0
 40
0.0
 40
0.0
 40
0.0315306984
 40
0.0642768593
 40
0.1379154781
 40
0.1807931148
 40
0.2283836349
 40
0.3388820124
 40
0.4710701449
 40
0.6255486604
 40
0.8021269041
 40
1.0
 40
1.0
 40
1.0
 40
1.0
 10
3.4125832076
 20
6.3543097024
 30
0.0
 10
3.4127347737
 20
6.3543096896
 30
0.0
 10
3.4130447462
 20
6.3543436934
 30
0.0
 10
3.4136776847
 20
6.3545545104
 30
0.0
 10
3.414276372
 20
6.3549761796
 30
0.0
 10
3.4148273386
 20
6.3555409144
 30
0.0
 10
3.4154275613
 20
6.3563002541
 30
0.0
 10
3.416144627
 20
6.3575031491
 30
0.0
 10
3.4169327117
 20
6.3592447437
 30
0.0
 10
3.41768003
 20
6.3613445455
 30
0.0
 10
3.4183814569
 20
6.3637896348
 30
0.0
 10
3.4187927933
 20
6.3655426719
 30
0.0
 10
3.418992452
 20
6.3664726444
 30
0.0
  0
LINE
  5
596
100
AcDbEntity
  8
0
100
AcDbLine
 62
7
  6
CONTINUOUS
 10
3.418992452
 20
6.3664726444
 11
3.4203632623
 21
6.3746389153
  0
SPLINE
  5
597
100
AcDbEntity
  8
0
100
AcDbSpline
 62
7
  6
CONTINUOUS
 70
0
 71
3
 72
9
 73
5
 74
0
 42
0.0000001
 43
0.0000001
 44
0.0000000001
 40
0.0
 40
0.0
 40
0.0
 40
0.0
 40
0.4739974508
 40
1.0
 40
1.0
 40
1.0
 40
1.0
 10
3.4203632623
 20
6.3746389153
 30
0.0
 10
3.4207782272
 20
6.3778314375
 30
0.0
 10
3.421419111
 20
6.3845976671
 30
0.0
 10
3.4217159679
 20
6.3913856844
 30
0.0
 10
3.4217956883
 20
6.39495739
 30
0.0
  0
SPLINE
  5
598
100
AcDbEntity
  8
0
100
AcDbSpline
 62
7
  6
CONTINUOUS
 70
0
 71
3
 72
18
 73
14
 74
0
 42
0.0000001
 43
0.0000001
 44
0.0000000001
 40
0.0
 40
0.0
 40
0.0
 40
0.0
 40
0.0264924244
 40
0.0540987656
 40
0.0845616666
 40
0.1191869356
 40
0.1588645687
 40
0.2041819155
 40
0.3130305674
 40
0.4471319911
 40
0.6066260141
 40
0.7912139313
 40
1.0
 40
1.0
 40
1.0
 40
1.0
 10
3.4176809992
 20
5.8523032903
 30
0.0
 10
3.4178031506
 20
5.8523035683
 30
0.0
 10
3.4180539517
 20
5.8523393809
 30
0.0
 10
3.4184135796
 20
5.8525006223
 30
0.0
 10
3.4187541973
 20
5.8527640073
 30
0.0
 10
3.419076825
 20
5.8531262637
 30
0.0
 10
3.4193830534
 20
5.8535866443
 30
0.0
 10
3.4197952306
 20
5.8543811899
 30
0.0
 10
3.4202505616
 20
5.8556349032
 30
0.0
 10
3.4207046323
 20
5.8574356701
 30
0.0
 10
3.421089884
 20
5.8596081472
 30
0.0
 10
3.4214017061
 20
5.8621389883
 30
0.0
 10
3.4215492546
 20
5.8639472403
 30
0.0
 10
3.4216127136
 20
5.8649078204
 30
0.0
  0
LINE
  5
599
100
AcDbEntity
  8
0
100
AcDbLine
 62
7
  6
CONTINUOUS
 10
3.4216127136
 20
5.8649078204
 11
3.4217956883
 21
5.8687984345
  0
SPLINE
  5
59A
100
AcDbEntity
  8
0
100
AcDbSpline
 62
7
  6
CONTINUOUS
 70
0
 71
3
 72
9
 73
5
 74
0
 42
0.0000001
 43
0.0000001
 44
0.0000000001
 40
0.0
 40
0.0
 40
0.0
 40
0.0
 40
0.4867496439
 40
1.0
 40
1.0
 40
1.0
 40
1.0
 10
3.4181659317
 20
6.9223499254
 30
0.0
 10
3.4189217353
 20
6.926807438
 30
0.0
 10
3.4201927818
 20
6.9360137338
 30
0.0
 10
3.4210089405
 20
6.9452702106
 30
0.0
 10
3.421311147
 20
6.9500279065
 30
0.0
  0
SPLINE
  5
59B
100
AcDbEntity
  8
0
100
AcDbSpline
 62
7
  6
CONTINUOUS
 70
0
 71
3
 72
16
 73
12
 74
0
 42
0.0000001
 43
0.0000001
 44
0.0000000001
 40
0.0
 40
0.0
 40
0.0
 40
0.0
 40
0.0330680919
 40
0.0674947748
 40
0.1443008701
 40
0.236739841
 40
0.3479856786
 40
0.4795936667
 40
0.6322471956
 40
0.8058836627
 40
1.0
 40
1.0
 40
1.0
 40
1.0
 10
3.4098046133
 20
6.628337089
 30
0.0
 10
3.4099438196
 20
6.6283369634
 30
0.0
 10
3.4102286937
 20
6.6283654299
 30
0.0
 10
3.4108136267
 20
6.6285407924
 30
0.0
 10
3.411553513
 20
6.6290009631
 30
0.0
 10
3.4123857211
 20
6.6298472743
 30
0.0
 10
3.4132071198
 20
6.6310003678
 30
0.0
 10
3.4140159166
 20
6.6324584595
 30
0.0
 10
3.4148088293
 20
6.6342172684
 30
0.0
 10
3.4155817207
 20
6.6362683099
 30
0.0
 10
3.4160548091
 20
6.6377430187
 30
0.0
 10
3.4162892182
 20
6.6385258459
 30
0.0
  0
LINE
  5
59C
100
AcDbEntity
  8
0
100
AcDbLine
 62
7
  6
CONTINUOUS
 10
3.4162892182
 20
6.6385258459
 11
3.4181659317
 21
6.6461752509
  0
SPLINE
  5
59D
100
AcDbEntity
  8
0
100
AcDbSpline
 62
7
  6
CONTINUOUS
 70
0
 71
3
 72
11
 73
7
 74
0
 42
0.0000001
 43
0.0000001
 44
0.0000000001
 40
0.0
 40
0.0
 40
0.0
 40
0.0
 40
0.2214385687
 40
0.4657923845
 40
0.7273947421
 40
1.0
 40
1.0
 40
1.0
 40
1.0
 10
3.4181659317
 20
6.6461752509
 30
0.0
 10
3.4186229706
 20
6.6484292394
 30
0.0
 10
3.4194502614
 20
6.6531980025
 30
0.0
 10
3.4204213551
 20
6.6606918016
 30
0.0
 10
3.4211659508
 20
6.6687452085
 30
0.0
 10
3.4214914309
 20
6.6742850806
 30
0.0
 10
3.4216127136
 20
6.6771137567
 30
0.0
  0
SPLINE
  5
59E
100
AcDbEntity
  8
0
100
AcDbSpline
 62
7
  6
CONTINUOUS
 70
0
 71
3
 72
16
 73
12
 74
0
 42
0.0000001
 43
0.0000001
 44
0.0000000001
 40
0.0
 40
0.0
 40
0.0
 40
0.0
 40
0.0316913801
 40
0.0643024429
 40
0.137029705
 40
0.2261850502
 40
0.335844643
 40
0.467703789
 40
0.6223739549
 40
0.799939344
 40
1.0
 40
1.0
 40
1.0
 40
1.0
 10
3.4152701028
 20
6.0896185571
 30
0.0
 10
3.4154011204
 20
6.0896186557
 30
0.0
 10
3.4156678326
 20
6.0896479736
 30
0.0
 10
3.4162082447
 20
6.0898305165
 30
0.0
 10
3.4168721615
 20
6.0903134619
 30
0.0
 10
3.4175755366
 20
6.0911977049
 30
0.0
 10
3.4182339266
 20
6.0924010033
 30
0.0
 10
3.418848148
 20
6.0939220513
 30
0.0
 10
3.4194161605
 20
6.0957564347
 30
0.0
 10
3.4199331572
 20
6.0978965668
 30
0.0
 10
3.4202243254
 20
6.0994309442
 30
0.0
 10
3.4203632623
 20
6.1002462765
 30
0.0
  0
LINE
  5
59F
100
AcDbEntity
  8
0
100
AcDbLine
 62
7
  6
CONTINUOUS
 10
3.4203632623
 20
6.1002462765
 11
3.421311147
 21
6.1080070071
  0
LINE
  5
5A0
100
AcDbEntity
  8
0
100
AcDbLine
 62
7
  6
CONTINUOUS
 10
3.421311147
 20
6.1080070071
 11
3.4217956883
 21
6.117323171
  0
SPLINE
  5
5A1
100
AcDbEntity
  8
0
100
AcDbSpline
 62
7
  6
CONTINUOUS
 70
0
 71
3
 72
13
 73
9
 74
0
 42
0.0000001
 43
0.0000001
 44
0.0000000001
 40
0.0
 40
0.0
 40
0.0
 40
0.0
 40
0.0912477968
 40
0.1879911081
 40
0.2930947306
 40
0.4087006675
 40
0.6767819529
 40
1.0
 40
1.0
 40
1.0
 40
1.0
 10
3.4389129779
 20
7.0877795801
 30
0.0
 10
3.4390881412
 20
7.0877794603
 30
0.0
 10
3.4394498934
 20
7.0878175481
 30
0.0
 10
3.4399906341
 20
7.0879828137
 30
0.0
 10
3.4405386259
 20
7.0882546365
 30
0.0
 10
3.441316934
 20
7.0887827749
 30
0.0
 10
3.4423003275
 20
7.0897303391
 30
0.0
 10
3.4429973722
 20
7.0906293225
 30
0.0
 10
3.4433542433
 20
7.0911368837
 30
0.0
  0
SPLINE
  5
5A2
100
AcDbEntity
  8
0
100
AcDbSpline
 62
7
  6
CONTINUOUS
 70
0
 71
3
 72
15
 73
11
 74
0
 42
0.0000001
 43
0.0000001
 44
0.0000000001
 40
0.0
 40
0.0
 40
0.0
 40
0.0
 40
0.121520734
 40
0.2425189605
 40
0.3641925537
 40
0.4871461526
 40
0.6115867359
 40
0.7380598361
 40
0.8673451744
 40
1.0
 40
1.0
 40
1.0
 40
1.0
 10
3.2032891697
 20
5.8516052585
 30
0.0
 10
3.2032879342
 20
5.8576530445
 30
0.0
 10
3.2041057002
 20
5.8697386546
 30
0.0
 10
3.2077492046
 20
5.8875450825
 30
0.0
 10
3.2136861817
 20
5.9047967113
 30
0.0
 10
3.221725647
 20
5.9213572249
 30
0.0
 10
3.2317002865
 20
5.9371076176
 30
0.0
 10
3.2434581788
 20
5.9519728178
 30
0.0
 10
3.2568455708
 20
5.9659513741
 30
0.0
 10
3.2666410499
 20
5.9745782143
 30
0.0
 10
3.271758424
 20
5.9787492569
 30
0.0
  0
SPLINE
  5
5A3
100
AcDbEntity
  8
0
100
AcDbSpline
 62
7
  6
CONTINUOUS
 70
0
 71
3
 72
15
 73
11
 74
0
 42
0.0000001
 43
0.0000001
 44
0.0000000001
 40
0.0
 40
0.0
 40
0.0
 40
0.0
 40
0.0601947971
 40
0.1201186544
 40
0.2400555352
 40
0.3613543469
 40
0.4849376536
 40
0.7393470577
 40
0.8694835502
 40
1.0
 40
1.0
 40
1.0
 40
1.0
 10
3.2468597255
 20
5.7359404966
 30
0.0
 10
3.2482415938
 20
5.7344258758
 30
0.0
 10
3.25112273
 20
5.7315136339
 30
0.0
 10
3.257311635
 20
5.7261603286
 30
0.0
 10
3.2657880903
 20
5.7203204482
 30
0.0
 10
3.2768662913
 20
5.7146263352
 30
0.0
 10
3.2928064582
 20
5.7086193432
 30
0.0
 10
3.309860241
 20
5.705022001
 30
0.0
 10
3.3273610236
 20
5.7036407141
 30
0.0
 10
3.336253035
 20
5.7036946882
 30
0.0
 10
3.3406931597
 20
5.7039128687
 30
0.0
  0
SPLINE
  5
5A4
100
AcDbEntity
  8
0
100
AcDbSpline
 62
7
  6
CONTINUOUS
 70
0
 71
3
 72
26
 73
22
 74
0
 42
0.0000001
 43
0.0000001
 44
0.0000000001
 40
0.0
 40
0.0
 40
0.0
 40
0.0
 40
0.1015390301
 40
0.1898508821
 40
0.2646764034
 40
0.325797631
 40
0.3730885071
 40
0.39157901
 40
0.4067091179
 40
0.4186484626
 40
0.4277955946
 40
0.4350883146
 40
0.4422991381
 40
0.4512992216
 40
0.4631481921
 40
0.496889011
 40
0.5449029572
 40
0.6073986003
 40
0.6843230327
 40
0.7755289599
 40
1.0
 40
1.0
 40
1.0
 40
1.0
 10
3.324868615
 20
7.257484442
 30
0.0
 10
3.3248680717
 20
7.257665048
 30
0.0
 10
3.3248645308
 20
7.2580027399
 30
0.0
 10
3.324849766
 20
7.2584733194
 30
0.0
 10
3.324826021
 20
7.2588716007
 30
0.0
 10
3.324793208
 20
7.2591959257
 30
0.0
 10
3.324756614
 20
7.2594190465
 30
0.0
 10
3.324720016
 20
7.2595583483
 30
0.0
 10
3.3246925679
 20
7.2596347722
 30
0.0
 10
3.324662636
 20
7.2596921106
 30
0.0
 10
3.3246296869
 20
7.2597312873
 30
0.0
 10
3.3245899949
 20
7.2597505764
 30
0.0
 10
3.3245466019
 20
7.2597435189
 30
0.0
 10
3.32450501
 20
7.2597143685
 30
0.0
 10
3.3244402433
 20
7.2596415038
 30
0.0
 10
3.3243584898
 20
7.2594949429
 30
0.0
 10
3.3242574966
 20
7.2592592365
 30
0.0
 10
3.3241465635
 20
7.2589445198
 30
0.0
 10
3.3240257915
 20
7.2585524785
 30
0.0
 10
3.323839295
 20
7.2578794303
 30
0.0
 10
3.3237068123
 20
7.2573336574
 30
0.0
 10
3.3236165567
 20
7.2569447275
 30
0.0
  0
SPLINE
  5
5A5
100
AcDbEntity
  8
0
100
AcDbSpline
 62
7
  6
CONTINUOUS
 70
0
 71
3
 72
29
 73
25
 74
0
 42
0.0000001
 43
0.0000001
 44
0.0000000001
 40
0.0
 40
0.0
 40
0.0
 40
0.0
 40
0.0706166766
 40
0.1276727606
 40
0.1510901502
 40
0.1710972357
 40
0.1877120668
 40
0.2009947176
 40
0.2110764718
 40
0.2182723264
 40
0.2234620723
 40
0.2286765067
 40
0.2359306399
 40
0.2460850536
 40
0.259442531
 40
0.2761257258
 40
0.2961908582
 40
0.3196651344
 40
0.3768688415
 40
0.4476898238
 40
0.5320000098
 40
0.6296358305
 40
0.7403599639
 40
1.0
 40
1.0
 40
1.0
 40
1.0
 10
3.3091295027
 20
7.1381755929
 30
0.0
 10
3.3091295967
 20
7.1379324623
 30
0.0
 10
3.3091342622
 20
7.1374928775
 30
0.0
 10
3.3091561927
 20
7.136972956
 30
0.0
 10
3.3091851082
 20
7.1366281677
 30
0.0
 10
3.3092097321
 20
7.1364228557
 30
0.0
 10
3.3092387483
 20
7.1362534326
 30
0.0
 10
3.3092716676
 20
7.1361195306
 30
0.0
 10
3.3093093132
 20
7.1360209669
 30
0.0
 10
3.3093503816
 20
7.1359543401
 30
0.0
 10
3.3094070118
 20
7.1359211694
 30
0.0
 10
3.3094698521
 20
7.1359407145
 30
0.0
 10
3.3095257548
 20
7.1359961397
 30
0.0
 10
3.3095861472
 20
7.1360835424
 30
0.0
 10
3.3096504622
 20
7.1362063358
 30
0.0
 10
3.3097195514
 20
7.1363644892
 30
0.0
 10
3.3097930262
 20
7.136558451
 30
0.0
 10
3.3099043169
 20
7.1368870178
 30
0.0
 10
3.3100511043
 20
7.1373877371
 30
0.0
 10
3.31023465
 20
7.1380954385
 30
0.0
 10
3.3104343705
 20
7.1389425404
 30
0.0
 10
3.3106497128
 20
7.139926945
 30
0.0
 10
3.3109743983
 20
7.1415052314
 30
0.0
 10
3.3112122367
 20
7.1427580863
 30
0.0
 10
3.3113738729
 20
7.1436372831
 30
0.0
  0
LINE
  5
5A6
100
AcDbEntity
  8
0
100
AcDbLine
 62
7
  6
CONTINUOUS
 10
3.3113738729
 20
7.1436372831
 11
3.3125087358
 21
7.1502312028
  0
SPLINE
  5
5A7
100
AcDbEntity
  8
0
100
AcDbSpline
 62
7
  6
CONTINUOUS
 70
0
 71
3
 72
19
 73
15
 74
0
 42
0.0000001
 43
0.0000001
 44
0.0000000001
 40
0.0
 40
0.0
 40
0.0
 40
0.0
 40
0.0535114695
 40
0.1138784767
 40
0.2508525093
 40
0.4014541332
 40
0.5553049369
 40
0.7017492067
 40
0.7689484237
 40
0.8305070752
 40
0.8853137114
 40
0.9323713085
 40
0.9708123953
 40
1.0
 40
1.0
 40
1.0
 40
1.0
 10
3.3125087358
 20
7.1502312028
 30
0.0
 10
3.312816535
 20
7.1521168267
 30
0.0
 10
3.3134490801
 20
7.1561333261
 30
0.0
 10
3.3147723018
 20
7.1649915734
 30
0.0
 10
3.3164866166
 20
7.1772960125
 30
0.0
 10
3.3185131387
 20
7.1929261222
 30
0.0
 10
3.3204446336
 20
7.2089089043
 30
0.0
 10
3.3219035954
 20
7.2219488416
 30
0.0
 10
3.3229155274
 20
7.231722497
 30
0.0
 10
3.3235492415
 20
7.2382458591
 30
0.0
 10
3.3240685044
 20
7.2440576317
 30
0.0
 10
3.324464974
 20
7.2490515661
 30
0.0
 10
3.3247308967
 20
7.2531377402
 30
0.0
 10
3.324838256
 20
7.2555505053
 30
0.0
 10
3.3248591778
 20
7.2565924133
 30
0.0
  0
LINE
  5
5A8
100
AcDbEntity
  8
0
100
AcDbLine
 62
7
  6
CONTINUOUS
 10
3.3211976311
 20
7.2539363307
 11
3.321946378
 21
7.2599295921
  0
LINE
  5
5A9
100
AcDbEntity
  8
0
100
AcDbLine
 62
7
  6
CONTINUOUS
 10
3.321946378
 20
7.2599295921
 11
3.3235134924
 21
7.2725918958
  0
LINE
  5
5AA
100
AcDbEntity
  8
0
100
AcDbLine
 62
7
  6
CONTINUOUS
 10
3.3235134924
 20
7.2725918958
 11
3.3248253977
 21
7.2836402012
  0
LINE
  5
5AB
100
AcDbEntity
  8
0
100
AcDbLine
 62
7
  6
CONTINUOUS
 10
3.3248253977
 20
7.2836402012
 11
3.324868615
 21
7.2841415596
  0
SPLINE
  5
5AC
100
AcDbEntity
  8
0
100
AcDbSpline
 62
7
  6
CONTINUOUS
 70
0
 71
3
 72
34
 73
30
 74
0
 42
0.0000001
 43
0.0000001
 44
0.0000000001
 40
0.0
 40
0.0
 40
0.0
 40
0.0
 40
0.112321446
 40
0.2225639259
 40
0.3285708244
 40
0.4287156682
 40
0.5217260546
 40
0.6062897319
 40
0.6810290083
 40
0.744723462
 40
0.7722184158
 40
0.7967334414
 40
0.8182249318
 40
0.8366803953
 40
0.8521402312
 40
0.8647170564
 40
0.8700049339
 40
0.8746944496
 40
0.8826336308
 40
0.8862258544
 40
0.8898147709
 40
0.8977236076
 40
0.9023850569
 40
0.9076405178
 40
0.9201585393
 40
0.935593977
 40
0.9540462478
 40
0.975524643
 40
1.0
 40
1.0
 40
1.0
 40
1.0
 10
3.324868615
 20
6.5767469322
 30
0.0
 10
3.3248665958
 20
6.5793082267
 30
0.0
 10
3.3248257391
 20
6.5843834639
 30
0.0
 10
3.3246496694
 20
6.5918742114
 30
0.0
 10
3.3243518808
 20
6.5990833109
 30
0.0
 10
3.3239376338
 20
6.6058930591
 30
0.0
 10
3.3234204093
 20
6.6122053087
 30
0.0
 10
3.3228112888
 20
6.6179272808
 30
0.0
 10
3.3221189168
 20
6.6229658743
 30
0.0
 10
3.3214500443
 20
6.6266918609
 30
0.0
 10
3.3208657282
 20
6.6292652374
 30
0.0
 10
3.3204353477
 20
6.6308855995
 30
0.0
 10
3.3199930973
 20
6.6322880808
 30
0.0
 10
3.3195407884
 20
6.6334690197
 30
0.0
 10
3.3190802172
 20
6.6344253854
 30
0.0
 10
3.3186698129
 20
6.6350689673
 30
0.0
 10
3.3183303197
 20
6.63545717
 30
0.0
 10
3.3180257174
 20
6.6357295105
 30
0.0
 10
3.3176910132
 20
6.6359129578
 30
0.0
 10
3.3173458769
 20
6.6359596437
 30
0.0
 10
3.3170006319
 20
6.6359195532
 30
0.0
 10
3.3166636741
 20
6.6357433945
 30
0.0
 10
3.3163556705
 20
6.6354780136
 30
0.0
 10
3.3160115784
 20
6.6350975101
 30
0.0
 10
3.3155937063
 20
6.6344617348
 30
0.0
 10
3.3151234963
 20
6.633512224
 30
0.0
 10
3.3146591167
 20
6.6323369789
 30
0.0
 10
3.3142021198
 20
6.630940603
 30
0.0
 10
3.3139217655
 20
6.629930557
 30
0.0
 10
3.3137815846
 20
6.6293903302
 30
0.0
  0
SPLINE
  5
5AD
100
AcDbEntity
  8
0
100
AcDbSpline
 62
7
  6
CONTINUOUS
 70
0
 71
3
 72
22
 73
18
 74
0
 42
0.0000001
 43
0.0000001
 44
0.0000000001
 40
0.0
 40
0.0
 40
0.0
 40
0.0
 40
0.2125045383
 40
0.3024333632
 40
0.3814635374
 40
0.4497152785
 40
0.5074986882
 40
0.5554933308
 40
0.5951264975
 40
0.6289726071
 40
0.6610357292
 40
0.695942998
 40
0.7373832287
 40
0.7876087464
 40
0.8477846289
 40
0.9184884234
 40
1.0
 40
1.0
 40
1.0
 40
1.0
 10
3.3131460055
 20
6.5187847498
 30
0.0
 10
3.3133526592
 20
6.5179457428
 30
0.0
 10
3.3136767219
 20
6.5167579203
 30
0.0
 10
3.3141847398
 20
6.5152917984
 30
0.0
 10
3.3145505069
 20
6.5143986149
 30
0.0
 10
3.3149216232
 20
6.5136508741
 30
0.0
 10
3.3152976585
 20
6.513049567
 30
0.0
 10
3.3156800121
 20
6.5125950108
 30
0.0
 10
3.3160723477
 20
6.5122867801
 30
0.0
 10
3.316482767
 20
6.5121321886
 30
0.0
 10
3.3169036818
 20
6.5121507541
 30
0.0
 10
3.3173116384
 20
6.5123387577
 30
0.0
 10
3.3177048598
 20
6.512677348
 30
0.0
 10
3.3180909745
 20
6.513162179
 30
0.0
 10
3.3184733149
 20
6.5137931419
 30
0.0
 10
3.3188523701
 20
6.5145700629
 30
0.0
 10
3.3190857819
 20
6.5151437436
 30
0.0
 10
3.3192032008
 20
6.5154536887
 30
0.0
  0
SPLINE
  5
5AE
100
AcDbEntity
  8
0
100
AcDbSpline
 62
7
  6
CONTINUOUS
 70
0
 71
3
 72
17
 73
13
 74
0
 42
0.0000001
 43
0.0000001
 44
0.0000000001
 40
0.0
 40
0.0
 40
0.0
 40
0.0
 40
0.0304456606
 40
0.0664750725
 40
0.1079536808
 40
0.154678993
 40
0.2629387373
 40
0.3887557373
 40
0.5289592922
 40
0.6801607096
 40
0.8387097691
 40
1.0
 40
1.0
 40
1.0
 40
1.0
 10
3.3192032008
 20
6.5154536887
 30
0.0
 10
3.3194251787
 20
6.5160396337
 30
0.0
 10
3.3198521717
 20
6.5173408321
 30
0.0
 10
3.3204232302
 20
6.5194886272
 30
0.0
 10
3.3209748477
 20
6.5219858386
 30
0.0
 10
3.3217157805
 20
6.5259612215
 30
0.0
 10
3.3225379356
 20
6.5316837638
 30
0.0
 10
3.3233534912
 20
6.5393443788
 30
0.0
 10
3.3240164759
 20
6.5479063706
 30
0.0
 10
3.3245055712
 20
6.557154502
 30
0.0
 10
3.3247978767
 20
6.5668449971
 30
0.0
 10
3.3248656254
 20
6.5734275229
 30
0.0
 10
3.324868615
 20
6.5767469322
 30
0.0
  0
LINE
  5
5AF
100
AcDbEntity
  8
0
100
AcDbLine
 62
7
  6
CONTINUOUS
 10
3.324868615
 20
5.8514064749
 11
3.324573506
 21
5.8594536554
  0
SPLINE
  5
5B0
100
AcDbEntity
  8
0
100
AcDbSpline
 62
7
  6
CONTINUOUS
 70
0
 71
3
 72
13
 73
9
 74
0
 42
0.0000001
 43
0.0000001
 44
0.0000000001
 40
0.0
 40
0.0
 40
0.0
 40
0.0
 40
0.0917425868
 40
0.1977038737
 40
0.3161333953
 40
0.4444770278
 40
0.7196180749
 40
1.0
 40
1.0
 40
1.0
 40
1.0
 10
3.324573506
 20
5.8594536554
 30
0.0
 10
3.3244581724
 20
5.8614090167
 30
0.0
 10
3.3241710089
 20
5.8656205214
 30
0.0
 10
3.3236283975
 20
5.8723484303
 30
0.0
 10
3.3229471622
 20
5.8798487624
 30
0.0
 10
3.3218479849
 20
5.8909376978
 30
0.0
 10
3.3202503405
 20
5.9054514464
 30
0.0
 10
3.3188082666
 20
5.9172245603
 30
0.0
 10
3.3180408389
 20
5.9231614893
 30
0.0
  0
SPLINE
  5
5B1
100
AcDbEntity
  8
0
100
AcDbSpline
 62
7
  6
CONTINUOUS
 70
0
 71
3
 72
27
 73
23
 74
0
 42
0.0000001
 43
0.0000001
 44
0.0000000001
 40
0.0
 40
0.0
 40
0.0
 40
0.0
 40
0.1083475408
 40
0.2027803506
 40
0.2831513163
 40
0.3493777473
 40
0.4014714977
 40
0.4222832311
 40
0.4396848789
 40
0.4538172307
 40
0.4649674688
 40
0.473748983
 40
0.4814022223
 40
0.4999070852
 40
0.5133127697
 40
0.5300141171
 40
0.5737851541
 40
0.6316235605
 40
0.7034339379
 40
0.7889744241
 40
0.8879412067
 40
1.0
 40
1.0
 40
1.0
 40
1.0
 10
3.323070148
 20
5.850858753
 30
0.0
 10
3.3231375712
 20
5.8505878754
 30
0.0
 10
3.3232677137
 20
5.8500818695
 30
0.0
 10
3.3234645219
 20
5.849379357
 30
0.0
 10
3.3236490571
 20
5.8487862769
 30
0.0
 10
3.3238208818
 20
5.8483039531
 30
0.0
 10
3.3239611918
 20
5.8479735649
 30
0.0
 10
3.3240699688
 20
5.8477677124
 30
0.0
 10
3.324141946
 20
5.8476534742
 30
0.0
 10
3.3242106675
 20
5.8475671459
 30
0.0
 10
3.3242766647
 20
5.8475084956
 30
0.0
 10
3.3243424061
 20
5.8474770535
 30
0.0
 10
3.3244367928
 20
5.8474814535
 30
0.0
 10
3.3245116973
 20
5.8475667022
 30
0.0
 10
3.3245668971
 20
5.8476769808
 30
0.0
 10
3.3246315908
 20
5.8478573236
 30
0.0
 10
3.3246965749
 20
5.8481554038
 30
0.0
 10
3.3247581165
 20
5.8485982965
 30
0.0
 10
3.3248061673
 20
5.849150743
 30
0.0
 10
3.3248411752
 20
5.8498102769
 30
0.0
 10
3.3248627415
 20
5.8505740886
 30
0.0
 10
3.3248678975
 20
5.8511177717
 30
0.0
 10
3.324868615
 20
5.8514064749
 30
0.0
  0
SPLINE
  5
5B2
100
AcDbEntity
  8
0
100
AcDbSpline
 62
7
  6
CONTINUOUS
 70
0
 71
3
 72
39
 73
35
 74
0
 42
0.0000001
 43
0.0000001
 44
0.0000000001
 40
0.0
 40
0.0
 40
0.0
 40
0.0
 40
0.0766875155
 40
0.1619172136
 40
0.2533450956
 40
0.3481550232
 40
0.4435575801
 40
0.5368445186
 40
0.6254040954
 40
0.7067482394
 40
0.7440026013
 40
0.7786136355
 40
0.8103502023
 40
0.8389951604
 40
0.8643376508
 40
0.8862284101
 40
0.9045845382
 40
0.9124186936
 40
0.9193507277
 40
0.9253814371
 40
0.9305187859
 40
0.9347862385
 40
0.9382386494
 40
0.9409974853
 40
0.9433177593
 40
0.9456270755
 40
0.9483630363
 40
0.9517887359
 40
0.9560269819
 40
0.9611309001
 40
0.9671210659
 40
0.9740019431
 40
0.9817731953
 40
1.0
 40
1.0
 40
1.0
 40
1.0
 10
3.324868615
 20
6.0541840058
 30
0.0
 10
3.3248656626
 20
6.0570185794
 30
0.0
 10
3.3247772564
 20
6.0630035044
 30
0.0
 10
3.3244338662
 20
6.0723621322
 30
0.0
 10
3.3238702174
 20
6.0823810026
 30
0.0
 10
3.3231171263
 20
6.0927643148
 30
0.0
 10
3.3221960369
 20
6.1032031054
 30
0.0
 10
3.321125696
 20
6.1133954286
 30
0.0
 10
3.3199419586
 20
6.1230518645
 30
0.0
 10
3.3188629175
 20
6.1306332582
 30
0.0
 10
3.317961291
 20
6.1362242066
 30
0.0
 10
3.3172984453
 20
6.1399959565
 30
0.0
 10
3.3166343334
 20
6.143443947
 30
0.0
 10
3.3159742251
 20
6.1465432536
 30
0.0
 10
3.3153227939
 20
6.1492716182
 30
0.0
 10
3.3146845782
 20
6.1516109064
 30
0.0
 10
3.3141441555
 20
6.1533049753
 30
0.0
 10
3.3137143462
 20
6.154451613
 30
0.0
 10
3.3134154068
 20
6.1551601
 30
0.0
 10
3.3131232792
 20
6.1557624294
 30
0.0
 10
3.3128384622
 20
6.1562574998
 30
0.0
 10
3.3125612096
 20
6.1566448979
 30
0.0
 10
3.3122903786
 20
6.1569245012
 30
0.0
 10
3.3120210799
 20
6.1570972714
 30
0.0
 10
3.3117427821
 20
6.1571489243
 30
0.0
 10
3.3114754378
 20
6.1570577906
 30
0.0
 10
3.3112379291
 20
6.1568462615
 30
0.0
 10
3.3110172558
 20
6.1565291488
 30
0.0
 10
3.310808299
 20
6.1561046619
 30
0.0
 10
3.3106098439
 20
6.1555731689
 30
0.0
 10
3.3104220322
 20
6.1549354386
 30
0.0
 10
3.3102451234
 20
6.1541929643
 30
0.0
 10
3.3100118055
 20
6.1530000357
 30
0.0
 10
3.3098754086
 20
6.1520481226
 30
0.0
 10
3.3097929037
 20
6.1513794823
 30
0.0
  0
LINE
  5
5B3
100
AcDbEntity
  8
0
100
AcDbLine
 62
7
  6
CONTINUOUS
 10
3.3183644825
 20
6.0424070461
 11
3.3193526843
 21
6.0386810227
  0
SPLINE
  5
5B4
100
AcDbEntity
  8
0
100
AcDbSpline
 62
7
  6
CONTINUOUS
 70
0
 71
3
 72
28
 73
24
 74
0
 42
0.0000001
 43
0.0000001
 44
0.0000000001
 40
0.0
 40
0.0
 40
0.0
 40
0.0
 40
0.0840014163
 40
0.1553230679
 40
0.213888148
 40
0.2598606405
 40
0.2783147557
 40
0.2939493345
 40
0.3070813102
 40
0.3182731349
 40
0.3284480575
 40
0.3388005262
 40
0.3504548801
 40
0.3642067559
 40
0.3805371096
 40
0.3997246582
 40
0.4472355691
 40
0.5074389081
 40
0.5805151055
 40
0.666457592
 40
0.7651784736
 40
0.8765337057
 40
1.0
 40
1.0
 40
1.0
 40
1.0
 10
3.3193526843
 20
6.0386810227
 30
0.0
 10
3.3195072802
 20
6.0381613614
 30
0.0
 10
3.3198083042
 20
6.0372048668
 30
0.0
 10
3.3202826615
 20
6.0359075635
 30
0.0
 10
3.320741062
 20
6.034868483
 30
0.0
 10
3.3211308912
 20
6.0341736929
 30
0.0
 10
3.3214430054
 20
6.0337607625
 30
0.0
 10
3.3216555344
 20
6.0335409061
 30
0.0
 10
3.3218649981
 20
6.033387499
 30
0.0
 10
3.3220742654
 20
6.0333025674
 30
0.0
 10
3.3222832428
 20
6.0332923651
 30
0.0
 10
3.3224842539
 20
6.0333593926
 30
0.0
 10
3.3226727733
 20
6.0334970362
 30
0.0
 10
3.3228513622
 20
6.0337006482
 30
0.0
 10
3.3230223672
 20
6.0339697978
 30
0.0
 10
3.3232582449
 20
6.0344518466
 30
0.0
 10
3.3235235938
 20
6.0352294656
 30
0.0
 10
3.3237984073
 20
6.0363641878
 30
0.0
 10
3.3240453453
 20
6.0377581749
 30
0.0
 10
3.324262715
 20
6.0394077888
 30
0.0
 10
3.3244484817
 20
6.0413096257
 30
0.0
 10
3.3246005661
 20
6.0434572175
 30
0.0
 10
3.324675528
 20
6.0449710745
 30
0.0
 10
3.3247085199
 20
6.0457672785
 30
0.0
  0
LINE
  5
5B5
100
AcDbEntity
  8
0
100
AcDbLine
 62
7
  6
CONTINUOUS
 10
3.3247085199
 20
6.0457672785
 11
3.324868615
 21
6.0541840058
  0
SPLINE
  5
5B6
100
AcDbEntity
  8
0
100
AcDbSpline
 62
7
  6
CONTINUOUS
 70
0
 71
3
 72
32
 73
28
 74
0
 42
0.0000001
 43
0.0000001
 44
0.0000000001
 40
0.0
 40
0.0
 40
0.0
 40
0.0
 40
0.1253373415
 40
0.2425731394
 40
0.3506949759
 40
0.4488082051
 40
0.5361330119
 40
0.6119998237
 40
0.6759008007
 40
0.7032567308
 40
0.7275234776
 40
0.7487048441
 40
0.7668445549
 40
0.7820474782
 40
0.7886101399
 40
0.7945278505
 40
0.8046569461
 40
0.8132062929
 40
0.8213915517
 40
0.8305752572
 40
0.8417503093
 40
0.8554678685
 40
0.872013563
 40
0.8915291126
 40
0.9140766159
 40
0.9396794116
 40
1.0
 40
1.0
 40
1.0
 40
1.0
 10
3.324868615
 20
6.9200113341
 30
0.0
 10
3.3248688842
 20
6.9216152058
 30
0.0
 10
3.3248481777
 20
6.9247193407
 30
0.0
 10
3.3247490819
 20
6.9292060833
 30
0.0
 10
3.3245849204
 20
6.9333423617
 30
0.0
 10
3.3243566524
 20
6.9370922628
 30
0.0
 10
3.3240670919
 20
6.9404239881
 30
0.0
 10
3.323719201
 20
6.9433096301
 30
0.0
 10
3.3233693171
 20
6.9454206894
 30
0.0
 10
3.3230525346
 20
6.946864984
 30
0.0
 10
3.3228149865
 20
6.9477661605
 30
0.0
 10
3.3225656595
 20
6.9485412867
 30
0.0
 10
3.3223050348
 20
6.9491892122
 30
0.0
 10
3.3220685692
 20
6.9496433839
 30
0.0
 10
3.3218703504
 20
6.9499375608
 30
0.0
 10
3.3216875082
 20
6.9501619921
 30
0.0
 10
3.3214510498
 20
6.9503753962
 30
0.0
 10
3.3211260873
 20
6.9505131603
 30
0.0
 10
3.3207840698
 20
6.9504973441
 30
0.0
 10
3.3204490136
 20
6.9503351845
 30
0.0
 10
3.3201185927
 20
6.9500459819
 30
0.0
 10
3.3197850498
 20
6.9496314714
 30
0.0
 10
3.3194464315
 20
6.9490907758
 30
0.0
 10
3.3191024396
 20
6.9484236322
 30
0.0
 10
3.3187535182
 20
6.9476307119
 30
0.0
 10
3.3182552114
 20
6.9463348115
 30
0.0
 10
3.3179204725
 20
6.9452864542
 30
0.0
 10
3.3177015103
 20
6.9445462732
 30
0.0
  0
SPLINE
  5
5B7
100
AcDbEntity
  8
0
100
AcDbSpline
 62
7
  6
CONTINUOUS
 70
0
 71
3
 72
23
 73
19
 74
0
 42
0.0000001
 43
0.0000001
 44
0.0000000001
 40
0.0
 40
0.0
 40
0.0
 40
0.0
 40
0.2082015819
 40
0.2944518431
 40
0.3686358351
 40
0.430818831
 40
0.4815160732
 40
0.5218867005
 40
0.554203703
 40
0.5686751599
 40
0.5829063575
 40
0.6134617187
 40
0.6509308605
 40
0.6979996767
 40
0.7559603795
 40
0.8254386649
 40
0.9067426195
 40
1.0
 40
1.0
 40
1.0
 40
1.0
 10
3.310440411
 20
6.8329361146
 30
0.0
 10
3.310574412
 20
6.8320997337
 30
0.0
 10
3.3107913462
 20
6.8309201421
 30
0.0
 10
3.3111626621
 20
6.8294664959
 30
0.0
 10
3.3114378317
 20
6.8286028811
 30
0.0
 10
3.3117269163
 20
6.8278976618
 30
0.0
 10
3.3120305908
 20
6.8273506718
 30
0.0
 10
3.3123492091
 20
6.8269583051
 30
0.0
 10
3.3126497591
 20
6.8267535858
 30
0.0
 10
3.3128919431
 20
6.8266896544
 30
0.0
 10
3.3131353164
 20
6.8266846556
 30
0.0
 10
3.3134601925
 20
6.8268011149
 30
0.0
 10
3.3138270041
 20
6.8270997823
 30
0.0
 10
3.3141965505
 20
6.8275495151
 30
0.0
 10
3.3145719435
 20
6.8281537215
 30
0.0
 10
3.3149542111
 20
6.8289129407
 30
0.0
 10
3.315342412
 20
6.8298273028
 30
0.0
 10
3.3155876616
 20
6.8304940647
 30
0.0
 10
3.3157122832
 20
6.8308524222
 30
0.0
  0
SPLINE
  5
5B8
100
AcDbEntity
  8
0
100
AcDbSpline
 62
7
  6
CONTINUOUS
 70
0
 71
3
 72
17
 73
13
 74
0
 42
0.0000001
 43
0.0000001
 44
0.0000000001
 40
0.0
 40
0.0
 40
0.0
 40
0.0
 40
0.0343053531
 40
0.0750885987
 40
0.121986096
 40
0.1744989341
 40
0.2941782604
 40
0.4291347265
 40
0.5736203528
 40
0.7212853748
 40
0.8655553057
 40
1.0
 40
1.0
 40
1.0
 40
1.0
 10
3.3160675092
 20
6.831930206
 30
0.0
 10
3.3163708474
 20
6.8328982638
 30
0.0
 10
3.3169625906
 20
6.8350397652
 30
0.0
 10
3.3177771718
 20
6.8385545393
 30
0.0
 10
3.3185858018
 20
6.8426212797
 30
0.0
 10
3.3196937969
 20
6.8490051798
 30
0.0
 10
3.3209707286
 20
6.8580000056
 30
0.0
 10
3.3222889189
 20
6.8697301274
 30
0.0
 10
3.3233852034
 20
6.8823139819
 30
0.0
 10
3.3242172123
 20
6.8951939746
 30
0.0
 10
3.324735024
 20
6.90779332
 30
0.0
 10
3.3248644779
 20
6.9160355676
 30
0.0
 10
3.324868615
 20
6.9200113341
 30
0.0
  0
SPLINE
  5
5B9
100
AcDbEntity
  8
0
100
AcDbSpline
 62
7
  6
CONTINUOUS
 70
0
 71
3
 72
32
 73
28
 74
0
 42
0.0000001
 43
0.0000001
 44
0.0000000001
 40
0.0
 40
0.0
 40
0.0
 40
0.0
 40
0.1197549445
 40
0.2345987631
 40
0.3426248206
 40
0.4423351211
 40
0.5328927915
 40
0.6135238893
 40
0.683376177
 40
0.7415816212
 40
0.7660953107
 40
0.7875266866
 40
0.8059197587
 40
0.8213598734
 40
0.8340113341
 40
0.844199251
 40
0.8525763085
 40
0.8564483898
 40
0.8603313598
 40
0.8687889628
 40
0.8791106637
 40
0.8919344982
 40
0.9075798288
 40
0.9261786231
 40
0.9477800051
 40
0.9723920435
 40
1.0
 40
1.0
 40
1.0
 40
1.0
 10
3.324868615
 20
6.7546214725
 30
0.0
 10
3.3248668718
 20
6.756740506
 30
0.0
 10
3.3248362987
 20
6.7608917168
 30
0.0
 10
3.3247023511
 20
6.7669531432
 30
0.0
 10
3.3244772147
 20
6.7726570254
 30
0.0
 10
3.3241596251
 20
6.7779261405
 30
0.0
 10
3.3237586976
 20
6.7827033187
 30
0.0
 10
3.3232832614
 20
6.7869426846
 30
0.0
 10
3.3227401398
 20
6.790595999
 30
0.0
 10
3.3222128769
 20
6.7932459154
 30
0.0
 10
3.3217431711
 20
6.7950285856
 30
0.0
 10
3.3213976167
 20
6.7961139717
 30
0.0
 10
3.3210399565
 20
6.7970250999
 30
0.0
 10
3.3206712999
 20
6.7977620996
 30
0.0
 10
3.3202910181
 20
6.798325869
 30
0.0
 10
3.3198964038
 20
6.7987195007
 30
0.0
 10
3.3195330292
 20
6.7989041664
 30
0.0
 10
3.3192477999
 20
6.7989427478
 30
0.0
 10
3.3189597223
 20
6.7989168683
 30
0.0
 10
3.3185843975
 20
6.7987485851
 30
0.0
 10
3.3181630355
 20
6.7983737604
 30
0.0
 10
3.3177434141
 20
6.7978272193
 30
0.0
 10
3.3173232456
 20
6.797106428
 30
0.0
 10
3.3169012723
 20
6.7962119188
 30
0.0
 10
3.3164788081
 20
6.7951451081
 30
0.0
 10
3.316057111
 20
6.7939083941
 30
0.0
 10
3.315792528
 20
6.7930228438
 30
0.0
 10
3.3156595953
 20
6.7925527621
 30
0.0
  0
LINE
  5
5BA
100
AcDbEntity
  8
0
100
AcDbLine
 62
7
  6
CONTINUOUS
 10
3.3110100646
 20
6.6851361588
 11
3.3116093319
 21
6.6817328895
  0
SPLINE
  5
5BB
100
AcDbEntity
  8
0
100
AcDbSpline
 62
7
  6
CONTINUOUS
 70
0
 71
3
 72
22
 73
18
 74
0
 42
0.0000001
 43
0.0000001
 44
0.0000000001
 40
0.0
 40
0.0
 40
0.0
 40
0.0
 40
0.2156834411
 40
0.3069947579
 40
0.3872347579
 40
0.4564906376
 40
0.5150674179
 40
0.5636859338
 40
0.6036724845
 40
0.6374294813
 40
0.6688688848
 40
0.7027549225
 40
0.7429650148
 40
0.7918175812
 40
0.8505530453
 40
0.9198294901
 40
1.0
 40
1.0
 40
1.0
 40
1.0
 10
3.3116093319
 20
6.6817328895
 30
0.0
 10
3.3117783046
 20
6.6809131973
 30
0.0
 10
3.3120467936
 20
6.6797512473
 30
0.0
 10
3.312478752
 20
6.6783115615
 30
0.0
 10
3.3127944431
 20
6.6774314922
 30
0.0
 10
3.3131193379
 20
6.6766914184
 30
0.0
 10
3.3134533575
 20
6.676092137
 30
0.0
 10
3.3137969052
 20
6.6756329159
 30
0.0
 10
3.3141531075
 20
6.6753124572
 30
0.0
 10
3.3145306819
 20
6.6751358649
 30
0.0
 10
3.3149262289
 20
6.6751235744
 30
0.0
 10
3.3153153271
 20
6.675276713
 30
0.0
 10
3.3156935216
 20
6.6755743804
 30
0.0
 10
3.3160694427
 20
6.6760105744
 30
0.0
 10
3.3164461529
 20
6.6765858482
 30
0.0
 10
3.3168242876
 20
6.6773006269
 30
0.0
 10
3.3170596196
 20
6.6778310774
 30
0.0
 10
3.3171787132
 20
6.6781184681
 30
0.0
  0
SPLINE
  5
5BC
100
AcDbEntity
  8
0
100
AcDbSpline
 62
7
  6
CONTINUOUS
 70
0
 71
3
 72
18
 73
14
 74
0
 42
0.0000001
 43
0.0000001
 44
0.0000000001
 40
0.0
 40
0.0
 40
0.0
 40
0.0
 40
0.0289054793
 40
0.0642704668
 40
0.1058888761
 40
0.153484533
 40
0.2066565285
 40
0.2649657619
 40
0.3950131695
 40
0.5389098566
 40
0.6915398185
 40
0.8475391461
 40
1.0
 40
1.0
 40
1.0
 40
1.0
 10
3.3171787132
 20
6.6781184681
 30
0.0
 10
3.3174632373
 20
6.6788050674
 30
0.0
 10
3.3180091834
 20
6.6803673336
 30
0.0
 10
3.3187424607
 20
6.6829902318
 30
0.0
 10
3.3194637153
 20
6.6861121248
 30
0.0
 10
3.3201646891
 20
6.6897059371
 30
0.0
 10
3.3208393173
 20
6.6937405267
 30
0.0
 10
3.3217266844
 20
6.6998873944
 30
0.0
 10
3.3227008368
 20
6.7083763949
 30
0.0
 10
3.323634034
 20
6.7193059038
 30
0.0
 10
3.3243282909
 20
6.7309216783
 30
0.0
 10
3.3247714524
 20
6.7427697871
 30
0.0
 10
3.3248787009
 20
6.750701412
 30
0.0
 10
3.324868615
 20
6.7546214725
 30
0.0
  0
SPLINE
  5
5BD
100
AcDbEntity
  8
0
100
AcDbSpline
 62
7
  6
CONTINUOUS
 70
0
 71
3
 72
17
 73
13
 74
0
 42
0.0000001
 43
0.0000001
 44
0.0000000001
 40
0.0
 40
0.0
 40
0.0
 40
0.0
 40
0.0443716947
 40
0.0948961036
 40
0.2123250557
 40
0.3459320934
 40
0.4883312885
 40
0.6322631342
 40
0.7701479923
 40
0.8948846144
 40
0.9502734482
 40
1.0
 40
1.0
 40
1.0
 40
1.0
 10
3.324868615
 20
5.9346818694
 30
0.0
 10
3.3248665923
 20
5.9361487984
 30
0.0
 10
3.3248235981
 20
5.9392860414
 30
0.0
 10
3.3246005822
 20
5.9463022583
 30
0.0
 10
3.3240448861
 20
5.9562576692
 30
0.0
 10
3.3230565912
 20
5.9692276136
 30
0.0
 10
3.321766015
 20
5.9830513613
 30
0.0
 10
3.3202313517
 20
5.9969923762
 30
0.0
 10
3.3185432166
 20
6.0103271987
 30
0.0
 10
3.3170281613
 20
6.0207318673
 30
0.0
 10
3.3157898127
 20
6.028229404
 30
0.0
 10
3.3151713646
 20
6.0316492637
 30
0.0
 10
3.3148624341
 20
6.0332639381
 30
0.0
  0
LINE
  5
5BE
100
AcDbEntity
  8
0
100
AcDbLine
 62
7
  6
CONTINUOUS
 10
3.3148624341
 20
6.0332639381
 11
3.3131103144
 21
6.0413747376
  0
SPLINE
  5
5BF
100
AcDbEntity
  8
0
100
AcDbSpline
 62
7
  6
CONTINUOUS
 70
0
 71
3
 72
26
 73
22
 74
0
 42
0.0000001
 43
0.0000001
 44
0.0000000001
 40
0.0
 40
0.0
 40
0.0
 40
0.0
 40
0.0953708198
 40
0.1773257688
 40
0.2457029154
 40
0.3006300804
 40
0.3424836676
 40
0.3588003449
 40
0.372339275
 40
0.3930042304
 40
0.4024040037
 40
0.4128262857
 40
0.4252771504
 40
0.4403639821
 40
0.4796433264
 40
0.5321306534
 40
0.5983887638
 40
0.6786794546
 40
0.7727754743
 40
0.8800919983
 40
1.0
 40
1.0
 40
1.0
 40
1.0
 10
3.3213191632
 20
5.9283711497
 30
0.0
 10
3.3214329676
 20
5.927966834
 30
0.0
 10
3.3216534853
 20
5.9272175009
 30
0.0
 10
3.3219938741
 20
5.9261900868
 30
0.0
 10
3.3223178335
 20
5.9253455268
 30
0.0
 10
3.3226245988
 20
5.9246854159
 30
0.0
 10
3.3228807515
 20
5.9242559762
 30
0.0
 10
3.3230852668
 20
5.9240133438
 30
0.0
 10
3.3232502449
 20
5.9238656255
 30
0.0
 10
3.3234404453
 20
5.9237816599
 30
0.0
 10
3.3236195845
 20
5.9238217312
 30
0.0
 10
3.3237395679
 20
5.9239020653
 30
0.0
 10
3.32385083
 20
5.924028481
 30
0.0
 10
3.3240040306
 20
5.924280888
 30
0.0
 10
3.3241701421
 20
5.9247243845
 30
0.0
 10
3.3243366702
 20
5.9254004847
 30
0.0
 10
3.324481788
 20
5.9262657455
 30
0.0
 10
3.324604181
 20
5.9273187109
 30
0.0
 10
3.3247034434
 20
5.9285556117
 30
0.0
 10
3.3247798399
 20
5.9299687979
 30
0.0
 10
3.3248136858
 20
5.9309690203
 30
0.0
 10
3.3248274967
 20
5.931496932
 30
0.0
  0
LINE
  5
5C0
100
AcDbEntity
  8
0
100
AcDbLine
 62
7
  6
CONTINUOUS
 10
3.3248274967
 20
5.931496932
 11
3.324868615
 21
5.9346818694
  0
SPLINE
  5
5C1
100
AcDbEntity
  8
0
100
AcDbSpline
 62
7
  6
CONTINUOUS
 70
0
 71
3
 72
25
 73
21
 74
0
 42
0.0000001
 43
0.0000001
 44
0.0000000001
 40
0.0
 40
0.0
 40
0.0
 40
0.0
 40
0.1877890362
 40
0.3695311343
 40
0.4558725394
 40
0.5380622404
 40
0.6152667418
 40
0.6867098929
 40
0.7517824441
 40
0.8099200173
 40
0.8605901145
 40
0.9034414788
 40
0.9218922519
 40
0.9383511628
 40
0.9528336247
 40
0.9653838944
 40
0.9760989068
 40
0.9851790759
 40
0.9929673911
 40
1.0
 40
1.0
 40
1.0
 40
1.0
 10
3.3160975273
 20
6.5764137213
 30
0.0
 10
3.3160976275
 20
6.5728373185
 30
0.0
 10
3.3159923712
 20
6.565799285
 30
0.0
 10
3.3156015192
 20
6.5571245099
 30
0.0
 10
3.3151292533
 20
6.5504700515
 30
0.0
 10
3.3147124183
 20
6.5458083737
 30
0.0
 10
3.3142312858
 20
6.541438179
 30
0.0
 10
3.3136898532
 20
6.5374036414
 30
0.0
 10
3.3130952765
 20
6.5337439597
 30
0.0
 10
3.3124549135
 20
6.5304940941
 30
0.0
 10
3.3117746426
 20
6.5276860442
 30
0.0
 10
3.3111540583
 20
6.5256437049
 30
0.0
 10
3.3106319757
 20
6.5242572839
 30
0.0
 10
3.3102546089
 20
6.5233950482
 30
0.0
 10
3.3098726456
 20
6.5226592221
 30
0.0
 10
3.3094866897
 20
6.5220512946
 30
0.0
 10
3.3090963682
 20
6.5215722615
 30
0.0
 10
3.3087002796
 20
6.5212222995
 30
0.0
 10
3.3082955295
 20
6.5210030876
 30
0.0
 10
3.3080123181
 20
6.5209491505
 30
0.0
 10
3.3078783929
 20
6.5209475686
 30
0.0
  0
SPLINE
  5
5C2
100
AcDbEntity
  8
0
100
AcDbSpline
 62
7
  6
CONTINUOUS
 70
0
 71
3
 72
17
 73
13
 74
0
 42
0.0000001
 43
0.0000001
 44
0.0000000001
 40
0.0
 40
0.0
 40
0.0
 40
0.0
 40
0.018272688
 40
0.04458025
 40
0.0780109428
 40
0.1175320075
 40
0.2099959009
 40
0.3184746459
 40
0.4532939864
 40
0.6151485887
 40
0.8000557489
 40
1.0
 40
1.0
 40
1.0
 40
1.0
 10
3.3248698914
 20
6.5767469215
 30
0.0
 10
3.3248188536
 20
6.5767308219
 30
0.0
 10
3.3246905466
 20
6.5767044625
 30
0.0
 10
3.324464541
 20
6.576671591
 30
0.0
 10
3.324175414
 20
6.5766403191
 30
0.0
 10
3.3236927376
 20
6.5765987555
 30
0.0
 10
3.3229897487
 20
6.5765547838
 30
0.0
 10
3.3220073866
 20
6.5765098339
 30
0.0
 10
3.3208213876
 20
6.57647078
 30
0.0
 10
3.3194112695
 20
6.5764391878
 30
0.0
 10
3.3178101944
 20
6.57641837
 30
0.0
 10
3.316683038
 20
6.5764135043
 30
0.0
 10
3.3160974426
 20
6.5764135123
 30
0.0
  0
SPLINE
  5
5C3
100
AcDbEntity
  8
0
100
AcDbSpline
 62
7
  6
CONTINUOUS
 70
0
 71
3
 72
22
 73
18
 74
0
 42
0.0000001
 43
0.0000001
 44
0.0000000001
 40
0.0
 40
0.0
 40
0.0
 40
0.0
 40
0.1667063039
 40
0.3359962454
 40
0.4996910664
 40
0.6500012286
 40
0.717924826
 40
0.7799669583
 40
0.83545115
 40
0.8838037997
 40
0.9245306611
 40
0.9419515986
 40
0.9573876217
 40
0.9708415765
 40
0.9823458792
 40
0.9919991735
 40
1.0
 40
1.0
 40
1.0
 40
1.0
 10
3.316097376
 20
6.7524517765
 30
0.0
 10
3.316097393
 20
6.7485989578
 30
0.0
 10
3.3159628754
 20
6.7408331673
 30
0.0
 10
3.3154054728
 20
6.7292962869
 30
0.0
 10
3.3145153074
 20
6.7181603195
 30
0.0
 10
3.3135056517
 20
6.7093887387
 30
0.0
 10
3.3125470891
 20
6.7029818926
 30
0.0
 10
3.3118023608
 20
6.6987605061
 30
0.0
 10
3.3110172112
 20
6.6950071989
 30
0.0
 10
3.3102026789
 20
6.6917659656
 30
0.0
 10
3.3094748802
 20
6.6894124102
 30
0.0
 10
3.3088721551
 20
6.687821589
 30
0.0
 10
3.3084425866
 20
6.6868406249
 30
0.0
 10
3.3080131486
 20
6.6860107839
 30
0.0
 10
3.3075841634
 20
6.6853338391
 30
0.0
 10
3.3071565316
 20
6.6848106849
 30
0.0
 10
3.3068445802
 20
6.6845417401
 30
0.0
 10
3.3066891852
 20
6.684441519
 30
0.0
  0
LINE
  5
5C4
100
AcDbEntity
  8
0
100
AcDbLine
 62
7
  6
CONTINUOUS
 10
3.3066891852
 20
6.684441519
 11
3.3059705525
 21
6.684206546
  0
SPLINE
  5
5C5
100
AcDbEntity
  8
0
100
AcDbSpline
 62
7
  6
CONTINUOUS
 70
0
 71
3
 72
16
 73
12
 74
0
 42
0.0000001
 43
0.0000001
 44
0.0000000001
 40
0.0
 40
0.0
 40
0.0
 40
0.0
 40
0.0649052853
 40
0.1038210458
 40
0.1467696979
 40
0.2417779121
 40
0.3490953433
 40
0.4797680972
 40
0.6347334962
 40
0.810526233
 40
1.0
 40
1.0
 40
1.0
 40
1.0
 10
3.3248698914
 20
6.7546214123
 30
0.0
 10
3.3247820453
 20
6.7544409827
 30
0.0
 10
3.3245549688
 20
6.754196877
 30
0.0
 10
3.324186464
 20
6.7539339554
 30
0.0
 10
3.3237087835
 20
6.7536647681
 30
0.0
 10
3.3230055836
 20
6.7533753877
 30
0.0
 10
3.3220180068
 20
6.7530804286
 30
0.0
 10
3.3208291288
 20
6.7528247557
 30
0.0
 10
3.3194165026
 20
6.7526183645
 30
0.0
 10
3.3178128976
 20
6.7524823902
 30
0.0
 10
3.3166832698
 20
6.752450625
 30
0.0
 10
3.3160974426
 20
6.7524506909
 30
0.0
  0
SPLINE
  5
5C6
100
AcDbEntity
  8
0
100
AcDbSpline
 62
7
  6
CONTINUOUS
 70
0
 71
3
 72
26
 73
22
 74
0
 42
0.0000001
 43
0.0000001
 44
0.0000000001
 40
0.0
 40
0.0
 40
0.0
 40
0.0
 40
0.0757677157
 40
0.1558354229
 40
0.3234765202
 40
0.4916615992
 40
0.5724256371
 40
0.649198409
 40
0.7207012385
 40
0.7858386841
 40
0.8435904599
 40
0.8930393165
 40
0.9144499003
 40
0.9335601437
 40
0.9503131644
 40
0.9646706578
 40
0.9766522688
 40
0.9863499763
 40
0.9904057381
 40
0.9939864245
 40
1.0
 40
1.0
 40
1.0
 40
1.0
 10
3.3160975273
 20
6.9161342211
 30
0.0
 10
3.3160975945
 20
6.9140665238
 30
0.0
 10
3.3160481472
 20
6.909813688
 30
0.0
 10
3.3157739281
 20
6.9009898719
 30
0.0
 10
3.3151156177
 20
6.8896569422
 30
0.0
 10
3.3140934958
 20
6.8783320342
 30
0.0
 10
3.3130619663
 20
6.8695027275
 30
0.0
 10
3.3122209193
 20
6.8633086639
 30
0.0
 10
3.311314766
 20
6.8575550666
 30
0.0
 10
3.3103608613
 20
6.8523358943
 30
0.0
 10
3.3093764027
 20
6.8477362068
 30
0.0
 10
3.3085072822
 20
6.8443341262
 30
0.0
 10
3.3077962909
 20
6.8419836593
 30
0.0
 10
3.3072915824
 20
6.840503958
 30
0.0
 10
3.3067919049
 20
6.8392271921
 30
0.0
 10
3.3062989888
 20
6.8381583647
 30
0.0
 10
3.3058147095
 20
6.8373010492
 30
0.0
 10
3.3053982033
 20
6.8367317833
 30
0.0
 10
3.3050637944
 20
6.8363952811
 30
0.0
 10
3.3047709233
 20
6.8361653631
 30
0.0
 10
3.3045252221
 20
6.8360508762
 30
0.0
 10
3.3043636076
 20
6.8360223649
 30
0.0
  0
LINE
  5
5C7
100
AcDbEntity
  8
0
100
AcDbLine
 62
7
  6
CONTINUOUS
 10
3.3043636076
 20
6.8360223649
 11
3.304209593
 21
6.8360085745
  0
SPLINE
  5
5C8
100
AcDbEntity
  8
0
100
AcDbSpline
 62
7
  6
CONTINUOUS
 70
0
 71
3
 72
15
 73
11
 74
0
 42
0.0000001
 43
0.0000001
 44
0.0000000001
 40
0.0
 40
0.0
 40
0.0
 40
0.0
 40
0.0900432822
 40
0.1859016106
 40
0.2864697194
 40
0.3935028745
 40
0.5190160565
 40
0.6642042573
 40
0.8264204406
 40
1.0
 40
1.0
 40
1.0
 40
1.0
 10
3.3248709793
 20
6.9200111246
 30
0.0
 10
3.3247907573
 20
6.9197177815
 30
0.0
 10
3.3245103371
 20
6.9191412383
 30
0.0
 10
3.3238570095
 20
6.9184168487
 30
0.0
 10
3.3230316831
 20
6.9178009796
 30
0.0
 10
3.3220374921
 20
6.9172676241
 30
0.0
 10
3.3208446594
 20
6.9168069162
 30
0.0
 10
3.3194274296
 20
6.9164356147
 30
0.0
 10
3.3178186996
 20
6.9161910722
 30
0.0
 10
3.3166836972
 20
6.9161339263
 30
0.0
 10
3.3160974447
 20
6.9161340672
 30
0.0
  0
LINE
  5
5C9
100
AcDbEntity
  8
0
100
AcDbLine
 62
7
  6
CONTINUOUS
 10
3.3160974381
 20
7.2501229185
 11
3.3160663893
 21
7.2486630254
  0
SPLINE
  5
5CA
100
AcDbEntity
  8
0
100
AcDbSpline
 62
7
  6
CONTINUOUS
 70
0
 71
3
 72
34
 73
30
 74
0
 42
0.0000001
 43
0.0000001
 44
0.0000000001
 40
0.0
 40
0.0
 40
0.0
 40
0.0
 40
0.0174602096
 40
0.0384450698
 40
0.090319825
 40
0.1540274316
 40
0.2276007684
 40
0.3087919947
 40
0.3951536677
 40
0.4841087057
 40
0.5730034209
 40
0.6592027916
 40
0.7401411692
 40
0.7778801139
 40
0.8134124764
 40
0.8464816518
 40
0.8768364559
 40
0.904248037
 40
0.9285119846
 40
0.9494373842
 40
0.9668706383
 40
0.980676664
 40
0.9861909806
 40
0.9907686983
 40
0.9944069423
 40
0.9971155192
 40
0.9981314931
 40
0.9989340314
 40
1.0
 40
1.0
 40
1.0
 40
1.0
 10
3.3160663893
 20
7.2486630254
 30
0.0
 10
3.3160436927
 20
7.2480567566
 30
0.0
 10
3.3159740118
 20
7.2467225773
 30
0.0
 10
3.3157546852
 20
7.2435918015
 30
0.0
 10
3.3153285265
 20
7.2388652435
 30
0.0
 10
3.3146406763
 20
7.2323285922
 30
0.0
 10
3.3137624722
 20
7.2247881208
 30
0.0
 10
3.3127207527
 20
7.2164745868
 30
0.0
 10
3.311546467
 20
7.2076392691
 30
0.0
 10
3.310274841
 20
7.1985470853
 30
0.0
 10
3.3089437637
 20
7.1894691125
 30
0.0
 10
3.3075932304
 20
7.1806757355
 30
0.0
 10
3.3064600851
 20
7.1736475153
 30
0.0
 10
3.305571671
 20
7.1683633036
 30
0.0
 10
3.3049409202
 20
7.1647224843
 30
0.0
 10
3.3043349621
 20
7.1613378212
 30
0.0
 10
3.303758281
 20
7.1582346415
 30
0.0
 10
3.3032152973
 20
7.1554364741
 30
0.0
 10
3.3027103598
 20
7.1529647987
 30
0.0
 10
3.3022475425
 20
7.1508385279
 30
0.0
 10
3.3018306925
 20
7.1490744523
 30
0.0
 10
3.3015054246
 20
7.1478391594
 30
0.0
 10
3.3012653008
 20
7.1470441292
 30
0.0
 10
3.3011128816
 20
7.1465919572
 30
0.0
 10
3.3009740935
 20
7.1462382983
 30
0.0
 10
3.3008636232
 20
7.1460074341
 30
0.0
 10
3.3007775885
 20
7.1458743586
 30
0.0
 10
3.3007150151
 20
7.1457984591
 30
0.0
 10
3.3006552992
 20
7.1457560456
 30
0.0
 10
3.3006182598
 20
7.1457560412
 30
0.0
  0
SPLINE
  5
5CB
100
AcDbEntity
  8
0
100
AcDbSpline
 62
7
  6
CONTINUOUS
 70
0
 71
3
 72
13
 73
9
 74
0
 42
0.0000001
 43
0.0000001
 44
0.0000000001
 40
0.0
 40
0.0
 40
0.0
 40
0.0
 40
0.12996552
 40
0.2529342951
 40
0.3674890961
 40
0.4776305601
 40
0.723332556
 40
1.0
 40
1.0
 40
1.0
 40
1.0
 10
3.3248698914
 20
7.2574841932
 30
0.0
 10
3.3247933243
 20
7.2569506173
 30
0.0
 10
3.3245418312
 20
7.2559238472
 30
0.0
 10
3.3239019527
 20
7.254531637
 30
0.0
 10
3.3230773595
 20
7.2533401426
 30
0.0
 10
3.3217166352
 20
7.2519323283
 30
0.0
 10
3.3194344018
 20
7.250532998
 30
0.0
 10
3.3172449411
 20
7.2501188428
 30
0.0
 10
3.3160974426
 20
7.2501192952
 30
0.0
  0
LINE
  5
5CC
100
AcDbEntity
  8
0
100
AcDbLine
 62
7
  6
CONTINUOUS
 10
3.3160975273
 20
7.2765051231
 11
3.312642351
 21
7.2520925875
  0
SPLINE
  5
5CD
100
AcDbEntity
  8
0
100
AcDbSpline
 62
7
  6
CONTINUOUS
 70
0
 71
3
 72
17
 73
13
 74
0
 42
0.0000001
 43
0.0000001
 44
0.0000000001
 40
0.0
 40
0.0
 40
0.0
 40
0.0
 40
0.2237503224
 40
0.4184976731
 40
0.5841764357
 40
0.7208200935
 40
0.8286693849
 40
0.9084724801
 40
0.9385227672
 40
0.9627592436
 40
0.9824680089
 40
1.0
 40
1.0
 40
1.0
 40
1.0
 10
3.3160975276
 20
5.8585617556
 30
0.0
 10
3.3160975509
 20
5.8583009121
 30
0.0
 10
3.316093289
 20
5.8578130171
 30
0.0
 10
3.3160709549
 20
5.8571322626
 30
0.0
 10
3.316033371
 20
5.8565539243
 30
0.0
 10
3.3159811299
 20
5.8560782599
 30
0.0
 10
3.3159143829
 20
5.8557060405
 30
0.0
 10
3.3158429371
 20
5.8554610053
 30
0.0
 10
3.3157727168
 20
5.8553207721
 30
0.0
 10
3.3157207548
 20
5.8552511215
 30
0.0
 10
3.3156627608
 20
5.8552066174
 30
0.0
 10
3.3156188309
 20
5.8551963978
 30
0.0
 10
3.3155983925
 20
5.8551964072
 30
0.0
  0
SPLINE
  5
5CE
100
AcDbEntity
  8
0
100
AcDbSpline
 62
7
  6
CONTINUOUS
 70
0
 71
3
 72
13
 73
9
 74
0
 42
0.0000001
 43
0.0000001
 44
0.0000000001
 40
0.0
 40
0.0
 40
0.0
 40
0.0
 40
0.1280751535
 40
0.2496695365
 40
0.3634334782
 40
0.4733323007
 40
0.7201954559
 40
1.0
 40
1.0
 40
1.0
 40
1.0
 10
3.3248709805
 20
5.8514068619
 30
0.0
 10
3.3247940766
 20
5.8519258518
 30
0.0
 10
3.3245413733
 20
5.852925428
 30
0.0
 10
3.323900379
 20
5.8542781752
 30
0.0
 10
3.323075163
 20
5.855435429
 30
0.0
 10
3.3217102372
 20
5.8568062155
 30
0.0
 10
3.3194230027
 20
5.8581638267
 30
0.0
 10
3.3172436562
 20
5.858562574
 30
0.0
 10
3.3160974437
 20
5.8585620652
 30
0.0
  0
SPLINE
  5
5CF
100
AcDbEntity
  8
0
100
AcDbSpline
 62
7
  6
CONTINUOUS
 70
0
 71
3
 72
19
 73
15
 74
0
 42
0.0000001
 43
0.0000001
 44
0.0000000001
 40
0.0
 40
0.0
 40
0.0
 40
0.0
 40
0.2119784984
 40
0.4014005744
 40
0.566496296
 40
0.7056257749
 40
0.7651388004
 40
0.8178733974
 40
0.8638131768
 40
0.9029976894
 40
0.9355702023
 40
0.9618833622
 40
0.9827751336
 40
1.0
 40
1.0
 40
1.0
 40
1.0
 10
3.3160975316
 20
6.0592458003
 30
0.0
 10
3.3160975824
 20
6.0579407861
 30
0.0
 10
3.3160736567
 20
6.0554695114
 30
0.0
 10
3.3159542443
 20
6.0519835465
 30
0.0
 10
3.315755664
 20
6.0489504538
 30
0.0
 10
3.3155160151
 20
6.0467228242
 30
0.0
 10
3.315275877
 20
6.0451936939
 30
0.0
 10
3.3150871357
 20
6.0442379857
 30
0.0
 10
3.3148811182
 20
6.0434141833
 30
0.0
 10
3.3146584288
 20
6.0427239222
 30
0.0
 10
3.3144198115
 20
6.0421679491
 30
0.0
 10
3.3141639475
 20
6.0417460412
 30
0.0
 10
3.3138872602
 20
6.0414553084
 30
0.0
 10
3.3136684693
 20
6.0413498853
 30
0.0
 10
3.3135645074
 20
6.0413289832
 30
0.0
  0
SPLINE
  5
5D0
100
AcDbEntity
  8
0
100
AcDbSpline
 62
7
  6
CONTINUOUS
 70
0
 71
3
 72
14
 73
10
 74
0
 42
0.0000001
 43
0.0000001
 44
0.0000000001
 40
0.0
 40
0.0
 40
0.0
 40
0.0
 40
0.1056337311
 40
0.2115410679
 40
0.3168734506
 40
0.4245487628
 40
0.6851080648
 40
0.8377906333
 40
1.0
 40
1.0
 40
1.0
 40
1.0
 10
3.3248698699
 20
6.0541841784
 30
0.0
 10
3.3247918006
 20
6.0545583083
 30
0.0
 10
3.3245265995
 20
6.0552880682
 30
0.0
 10
3.3238773098
 20
6.0562435697
 30
0.0
 10
3.3230498061
 20
6.0570566328
 30
0.0
 10
3.3216444993
 20
6.0580464409
 30
0.0
 10
3.3198703815
 20
6.0587656479
 30
0.0
 10
3.3178256323
 20
6.0591732752
 30
0.0
 10
3.3166843247
 20
6.0592486785
 30
0.0
 10
3.3160974426
 20
6.0592485176
 30
0.0
  0
SPLINE
  5
5D1
100
AcDbEntity
  8
0
100
AcDbSpline
 62
7
  6
CONTINUOUS
 70
0
 71
3
 72
21
 73
17
 74
0
 42
0.0000001
 43
0.0000001
 44
0.0000000001
 40
0.0
 40
0.0
 40
0.0
 40
0.0
 40
0.2207319518
 40
0.4145734077
 40
0.5807513535
 40
0.653254791
 40
0.7186025129
 40
0.7767436413
 40
0.8276694818
 40
0.8714793198
 40
0.8907771284
 40
0.9083798352
 40
0.9386906784
 40
0.9630590264
 40
0.9827257905
 40
1.0
 40
1.0
 40
1.0
 40
1.0
 10
3.3160975273
 20
5.9409774139
 30
0.0
 10
3.3160975626
 20
5.9402632713
 30
0.0
 10
3.3160852292
 20
5.9389219089
 30
0.0
 10
3.3160216674
 20
5.9370438609
 30
0.0
 10
3.3159296989
 20
5.9356471217
 30
0.0
 10
3.3158303878
 20
5.9346684087
 30
0.0
 10
3.315748707
 20
5.9340394906
 30
0.0
 10
3.3156566167
 20
5.9334826123
 30
0.0
 10
3.3155541421
 20
5.9329985449
 30
0.0
 10
3.3154567107
 20
5.9326423594
 30
0.0
 10
3.3153720666
 20
5.932395224
 30
0.0
 10
3.3152915581
 20
5.9321931827
 30
0.0
 10
3.3151872053
 20
5.9319830326
 30
0.0
 10
3.3150441453
 20
5.9317876152
 30
0.0
 10
3.3148855337
 20
5.9316621733
 30
0.0
 10
3.3147648839
 20
5.9316322498
 30
0.0
 10
3.3147089968
 20
5.931631953
 30
0.0
  0
SPLINE
  5
5D2
100
AcDbEntity
  8
0
100
AcDbSpline
 62
7
  6
CONTINUOUS
 70
0
 71
3
 72
13
 73
9
 74
0
 42
0.0000001
 43
0.0000001
 44
0.0000000001
 40
0.0
 40
0.0
 40
0.0
 40
0.0
 40
0.1196651296
 40
0.2352486403
 40
0.3456704108
 40
0.4545757981
 40
0.7065877099
 40
1.0
 40
1.0
 40
1.0
 40
1.0
 10
3.3248698914
 20
5.9346820861
 30
0.0
 10
3.324792817
 20
5.9351414398
 30
0.0
 10
3.3245365326
 20
5.9360301507
 30
0.0
 10
3.3238925339
 20
5.9372212101
 30
0.0
 10
3.3230659752
 20
5.9382380506
 30
0.0
 10
3.321684282
 20
5.9394553502
 30
0.0
 10
3.319379725
 20
5.9406418295
 30
0.0
 10
3.3172394968
 20
5.9409811343
 30
0.0
 10
3.3160974426
 20
5.9409807454
 30
0.0
  0
SPLINE
  5
5D3
100
AcDbEntity
  8
0
100
AcDbSpline
 62
7
  6
CONTINUOUS
 70
0
 71
3
 72
12
 73
8
 74
0
 42
0.0000001
 43
0.0000001
 44
0.0000000001
 40
0.0
 40
0.0
 40
0.0
 40
0.0
 40
0.1466684424
 40
0.2406467091
 40
0.3523269179
 40
0.6344574872
 40
1.0
 40
1.0
 40
1.0
 40
1.0
 10
3.3017164531
 20
6.037929612
 30
0.0
 10
3.3018128483
 20
6.0379293207
 30
0.0
 10
3.3019689913
 20
6.0378639619
 30
0.0
 10
3.3021467209
 20
6.0377167941
 30
0.0
 10
3.3023640711
 20
6.0374792343
 30
0.0
 10
3.3026386725
 20
6.0370600857
 30
0.0
 10
3.3028329601
 20
6.0366808994
 30
0.0
 10
3.3029355855
 20
6.036463674
 30
0.0
  0
SPLINE
  5
5D4
100
AcDbEntity
  8
0
100
AcDbSpline
 62
7
  6
CONTINUOUS
 70
0
 71
3
 72
23
 73
19
 74
0
 42
0.0000001
 43
0.0000001
 44
0.0000000001
 40
0.0
 40
0.0
 40
0.0
 40
0.0
 40
0.011516804
 40
0.0256623976
 40
0.0423766798
 40
0.0615817665
 40
0.1071192142
 40
0.1614373333
 40
0.2234081554
 40
0.2918394359
 40
0.3653509191
 40
0.4424599715
 40
0.6012717275
 40
0.7553989052
 40
0.8266944086
 40
0.8920980997
 40
0.9502878909
 40
1.0
 40
1.0
 40
1.0
 40
1.0
 10
3.3029355855
 20
6.036463674
 30
0.0
 10
3.3030940649
 20
6.0361282231
 30
0.0
 10
3.3034109117
 20
6.0353637158
 30
0.0
 10
3.303864254
 20
6.0340757403
 30
0.0
 10
3.3043414934
 20
6.0325348277
 30
0.0
 10
3.3050464026
 20
6.0300069798
 30
0.0
 10
3.3059501464
 20
6.0262785312
 30
0.0
 10
3.3070336459
 20
6.0211788913
 30
0.0
 10
3.308146272
 20
6.015332852
 30
0.0
 10
3.3092627845
 20
6.008859293
 30
0.0
 10
3.310361129
 20
6.0018885229
 30
0.0
 10
3.3117843676
 20
5.9920223569
 30
0.0
 10
3.3133520102
 20
5.9795543034
 30
0.0
 10
3.3146109284
 20
5.967239309
 30
0.0
 10
3.3153686628
 20
5.957901002
 30
0.0
 10
3.315774907
 20
5.9516356436
 30
0.0
 10
3.3160280485
 20
5.9460581631
 30
0.0
 10
3.3160971471
 20
5.942582193
 30
0.0
 10
3.3160968349
 20
5.9409807655
 30
0.0
  0
SPLINE
  5
5D5
100
AcDbEntity
  8
0
100
AcDbSpline
 62
7
  6
CONTINUOUS
 70
0
 71
3
 72
28
 73
24
 74
0
 42
0.0000001
 43
0.0000001
 44
0.0000000001
 40
0.0
 40
0.0
 40
0.0
 40
0.0
 40
0.0024110637
 40
0.0051164893
 40
0.0082726177
 40
0.0119750491
 40
0.0212118362
 40
0.0330613311
 40
0.0475926148
 40
0.0648142992
 40
0.0846724351
 40
0.1070749382
 40
0.1319211345
 40
0.1591055932
 40
0.2200130305
 40
0.2886008643
 40
0.3635357907
 40
0.4433819149
 40
0.5265230919
 40
0.6960299288
 40
0.8582708512
 40
0.9324869584
 40
1.0
 40
1.0
 40
1.0
 40
1.0
 10
3.3029900136
 20
6.1476139626
 30
0.0
 10
3.303062512
 20
6.1476139033
 30
0.0
 10
3.3032169811
 20
6.1475871405
 30
0.0
 10
3.3034424186
 20
6.1474767241
 30
0.0
 10
3.3036706583
 20
6.1472993975
 30
0.0
 10
3.304005434
 20
6.146948181
 30
0.0
 10
3.3044251739
 20
6.146327372
 30
0.0
 10
3.304918465
 20
6.1453757845
 30
0.0
 10
3.3054303238
 20
6.1441675299
 30
0.0
 10
3.305957497
 20
6.1427074295
 30
0.0
 10
3.3064973065
 20
6.1410018538
 30
0.0
 10
3.3070469131
 20
6.1390600571
 30
0.0
 10
3.3076032542
 20
6.136891974
 30
0.0
 10
3.3083797232
 20
6.1335857949
 30
0.0
 10
3.3093334002
 20
6.1289712726
 30
0.0
 10
3.3104222627
 20
6.1229209625
 30
0.0
 10
3.3114703871
 20
6.1162862896
 30
0.0
 10
3.3124551148
 20
6.1091999142
 30
0.0
 10
3.313665858
 20
6.0992753158
 30
0.0
 10
3.3148808927
 20
6.0868572445
 30
0.0
 10
3.3156922416
 20
6.0746745977
 30
0.0
 10
3.3160343224
 20
6.0655403655
 30
0.0
 10
3.3160971196
 20
6.0612785986
 30
0.0
 10
3.3160968195
 20
6.0592485447
 30
0.0
  0
SPLINE
  5
5D6
100
AcDbEntity
  8
0
100
AcDbSpline
 62
7
  6
CONTINUOUS
 70
0
 71
3
 72
16
 73
12
 74
0
 42
0.0000001
 43
0.0000001
 44
0.0000000001
 40
0.0
 40
0.0
 40
0.0
 40
0.0
 40
0.1424125805
 40
0.2847251708
 40
0.4241639926
 40
0.5581716516
 40
0.6843780715
 40
0.7439300568
 40
0.800806575
 40
0.9059979495
 40
1.0
 40
1.0
 40
1.0
 40
1.0
 10
3.3397980347
 20
5.7106978511
 30
0.0
 10
3.3369543329
 20
5.7105027347
 30
0.0
 10
3.3312503116
 20
5.7103484277
 30
0.0
 10
3.3227636899
 20
5.7107943367
 30
0.0
 10
3.314507831
 20
5.7119142984
 30
0.0
 10
3.3066932447
 20
5.713669306
 30
0.0
 10
3.3005983244
 20
5.7156630999
 30
0.0
 10
3.2961243576
 20
5.717558787
 30
0.0
 10
3.2921519294
 20
5.7195380509
 30
0.0
 10
3.2878018673
 20
5.7222816059
 30
0.0
 10
3.2847876281
 20
5.724927119
 30
0.0
 10
3.2835037282
 20
5.7263024223
 30
0.0
  0
SPLINE
  5
5D7
100
AcDbEntity
  8
0
100
AcDbSpline
 62
7
  6
CONTINUOUS
 70
0
 71
3
 72
20
 73
16
 74
0
 42
0.0000001
 43
0.0000001
 44
0.0000000001
 40
0.0
 40
0.0
 40
0.0
 40
0.0
 40
0.1381586618
 40
0.2037279202
 40
0.2671450391
 40
0.3286704836
 40
0.3886759766
 40
0.4475784117
 40
0.5058182559
 40
0.5638517273
 40
0.6221373228
 40
0.6811230611
 40
0.7412379764
 40
0.8662801217
 40
1.0
 40
1.0
 40
1.0
 40
1.0
 10
3.2835037282
 20
5.7263024223
 30
0.0
 10
3.278927786
 20
5.731357574
 30
0.0
 10
3.2726248875
 20
5.7392485311
 30
0.0
 10
3.265638656
 20
5.7504431792
 30
0.0
 10
3.2613350315
 20
5.758816871
 30
0.0
 10
3.2579105286
 20
5.7672921567
 30
0.0
 10
3.255371048
 20
5.7758420836
 30
0.0
 10
3.2537192449
 20
5.7844424842
 30
0.0
 10
3.2529573885
 20
5.7930696447
 30
0.0
 10
3.2530872905
 20
5.8016990891
 30
0.0
 10
3.2541059472
 20
5.8103058967
 30
0.0
 10
3.2560100756
 20
5.8188661411
 30
0.0
 10
3.259771049
 20
5.8303314507
 30
0.0
 10
3.2668038462
 20
5.8445108685
 30
0.0
 10
3.2743311515
 20
5.8548977739
 30
0.0
 10
3.2785640903
 20
5.8599610243
 30
0.0
  0
LINE
  5
5D8
100
AcDbEntity
  8
0
100
AcDbLine
 62
7
  6
CONTINUOUS
 10
3.3074526519
 20
5.9316499685
 11
3.3076383742
 21
5.9305139423
  0
SPLINE
  5
5D9
100
AcDbEntity
  8
0
100
AcDbSpline
 62
7
  6
CONTINUOUS
 70
0
 71
3
 72
17
 73
13
 74
0
 42
0.0000001
 43
0.0000001
 44
0.0000000001
 40
0.0
 40
0.0
 40
0.0
 40
0.0
 40
0.1435387041
 40
0.2937809342
 40
0.4446054431
 40
0.5897802308
 40
0.7232138877
 40
0.8392256887
 40
0.8891036227
 40
0.9328218975
 40
0.9699150163
 40
1.0
 40
1.0
 40
1.0
 40
1.0
 10
3.3076383742
 20
5.9305139423
 30
0.0
 10
3.3081954667
 20
5.9270907508
 30
0.0
 10
3.309290973
 20
5.9200771811
 30
0.0
 10
3.3108355139
 20
5.9094459227
 30
0.0
 10
3.3122764986
 20
5.8987602292
 30
0.0
 10
3.3135541855
 20
5.8884628739
 30
0.0
 10
3.3146146511
 20
5.8789868687
 30
0.0
 10
3.3153136613
 20
5.8717879238
 30
0.0
 10
3.3157196098
 20
5.8667394996
 30
0.0
 10
3.315929827
 20
5.8635885994
 30
0.0
 10
3.3160598312
 20
5.8609121149
 30
0.0
 10
3.3160974308
 20
5.8592889879
 30
0.0
 10
3.3160974312
 20
5.8585620653
 30
0.0
  0
SPLINE
  5
5DA
100
AcDbEntity
  8
0
100
AcDbSpline
 62
7
  6
CONTINUOUS
 70
0
 71
3
 72
15
 73
11
 74
0
 42
0.0000001
 43
0.0000001
 44
0.0000000001
 40
0.0
 40
0.0
 40
0.0
 40
0.0
 40
0.1359578261
 40
0.2687650966
 40
0.3979962885
 40
0.5235829496
 40
0.6459338953
 40
0.7656334688
 40
0.8833973618
 40
1.0
 40
1.0
 40
1.0
 40
1.0
 10
3.2835040354
 20
5.7263024974
 30
0.0
 10
3.2818033027
 20
5.7259247266
 30
0.0
 10
3.2783999014
 20
5.7253505103
 30
0.0
 10
3.2732993057
 20
5.7250442469
 30
0.0
 10
3.2683277167
 20
5.7253104772
 30
0.0
 10
3.263556381
 20
5.7261552823
 30
0.0
 10
3.2590462117
 20
5.7275614941
 30
0.0
 10
3.2548547278
 20
5.7295174367
 30
0.0
 10
3.2510370244
 20
5.731995147
 30
0.0
 10
3.2487657217
 20
5.7339786205
 30
0.0
 10
3.2477147849
 20
5.73504072
 30
0.0
  0
SPLINE
  5
5DB
100
AcDbEntity
  8
0
100
AcDbSpline
 62
7
  6
CONTINUOUS
 70
0
 71
3
 72
15
 73
11
 74
0
 42
0.0000001
 43
0.0000001
 44
0.0000000001
 40
0.0
 40
0.0
 40
0.0
 40
0.0
 40
0.1480235276
 40
0.2882185983
 40
0.4209055346
 40
0.5466337115
 40
0.6661991983
 40
0.7806887359
 40
0.8914344481
 40
1.0
 40
1.0
 40
1.0
 40
1.0
 10
3.2710960518
 20
5.9609983983
 30
0.0
 10
3.2659007295
 20
5.9571956422
 30
0.0
 10
3.2560455641
 20
5.9494235951
 30
0.0
 10
3.2426377164
 20
5.9369251513
 30
0.0
 10
3.2310769159
 20
5.9239678116
 30
0.0
 10
3.2214263659
 20
5.9106180751
 30
0.0
 10
3.2137492296
 20
5.8969388478
 30
0.0
 10
3.2080883962
 20
5.8830039164
 30
0.0
 10
3.2044924401
 20
5.8688904481
 30
0.0
 10
3.2034858261
 20
5.8593643751
 30
0.0
 10
3.2033372074
 20
5.8546446082
 30
0.0
  0
SPLINE
  5
5DC
100
AcDbEntity
  8
0
100
AcDbSpline
 62
7
  6
CONTINUOUS
 70
0
 71
3
 72
17
 73
13
 74
0
 42
0.0000001
 43
0.0000001
 44
0.0000000001
 40
0.0
 40
0.0
 40
0.0
 40
0.0
 40
0.0364979898
 40
0.0605377276
 40
0.0902944476
 40
0.1264715045
 40
0.1694614207
 40
0.2767066086
 40
0.4131423649
 40
0.5792424065
 40
0.7749568451
 40
1.0
 40
1.0
 40
1.0
 40
1.0
 10
3.3158103128
 20
7.2520551269
 30
0.0
 10
3.3158347817
 20
7.2520551398
 30
0.0
 10
3.3158748155
 20
7.2520333593
 30
0.0
 10
3.315910633
 20
7.2519847693
 30
0.0
 10
3.3159384631
 20
7.2519308669
 30
0.0
 10
3.31596367
 20
7.2518622493
 30
0.0
 10
3.3159971018
 20
7.2517417119
 30
0.0
 10
3.3160308358
 20
7.2515521742
 30
0.0
 10
3.3160608446
 20
7.2512790115
 30
0.0
 10
3.3160820823
 20
7.2509455538
 30
0.0
 10
3.3160946032
 20
7.250552274
 30
0.0
 10
3.316096897
 20
7.2502701747
 30
0.0
 10
3.3160968349
 20
7.2501193017
 30
0.0
  0
SPLINE
  5
5DD
100
AcDbEntity
  8
0
100
AcDbSpline
 62
7
  6
CONTINUOUS
 70
0
 71
3
 72
14
 73
10
 74
0
 42
0.0000001
 43
0.0000001
 44
0.0000000001
 40
0.0
 40
0.0
 40
0.0
 40
0.0
 40
0.0764597148
 40
0.1586360058
 40
0.2527037387
 40
0.362775914
 40
0.4913432982
 40
0.6398960075
 40
1.0
 40
1.0
 40
1.0
 40
1.0
 10
3.3122111381
 20
6.9423081697
 30
0.0
 10
3.3123040499
 20
6.9423081903
 30
0.0
 10
3.3124981431
 20
6.9422759042
 30
0.0
 10
3.3127740509
 20
6.942132488
 30
0.0
 10
3.3130364836
 20
6.9419002089
 30
0.0
 10
3.3132879251
 20
6.9415817271
 30
0.0
 10
3.3135300875
 20
6.9411772066
 30
0.0
 10
3.3138625215
 20
6.9404769625
 30
0.0
 10
3.3140630594
 20
6.9398901414
 30
0.0
 10
3.3141889031
 20
6.9394710385
 30
0.0
  0
SPLINE
  5
5DE
100
AcDbEntity
  8
0
100
AcDbSpline
 62
7
  6
CONTINUOUS
 70
0
 71
3
 72
13
 73
9
 74
0
 42
0.0000001
 43
0.0000001
 44
0.0000000001
 40
0.0
 40
0.0
 40
0.0
 40
0.0
 40
0.0753137262
 40
0.1661307513
 40
0.2720444485
 40
0.3924214465
 40
0.6731113435
 40
1.0
 40
1.0
 40
1.0
 40
1.0
 10
3.3141889031
 20
6.9394710385
 30
0.0
 10
3.3143583592
 20
6.9389066908
 30
0.0
 10
3.3146662085
 20
6.9376421271
 30
0.0
 10
3.3150383025
 20
6.9355457385
 30
0.0
 10
3.3153596459
 20
6.9330849088
 30
0.0
 10
3.3157348675
 20
6.9291355957
 30
0.0
 10
3.3160299945
 20
6.9234454992
 30
0.0
 10
3.3160974494
 20
6.9186915806
 30
0.0
 10
3.3160974447
 20
6.9161340674
 30
0.0
  0
SPLINE
  5
5DF
100
AcDbEntity
  8
0
100
AcDbSpline
 62
7
  6
CONTINUOUS
 70
0
 71
3
 72
23
 73
19
 74
0
 42
0.0000001
 43
0.0000001
 44
0.0000000001
 40
0.0
 40
0.0
 40
0.0
 40
0.0
 40
0.0076946401
 40
0.0158723999
 40
0.0250231603
 40
0.0354963863
 40
0.0611755711
 40
0.0938885682
 40
0.1339634633
 40
0.1814907578
 40
0.2363857765
 40
0.298359618
 40
0.3670691079
 40
0.4421509465
 40
0.5232210075
 40
0.6097935768
 40
0.797241059
 40
1.0
 40
1.0
 40
1.0
 40
1.0
 10
3.3104486343
 20
6.7905048096
 30
0.0
 10
3.3105495473
 20
6.7905050104
 30
0.0
 10
3.3107588508
 20
6.7904751786
 30
0.0
 10
3.3110620779
 20
6.7903413462
 30
0.0
 10
3.3113563782
 20
6.7901220601
 30
0.0
 10
3.3117660042
 20
6.789688746
 30
0.0
 10
3.3122473493
 20
6.7889161358
 30
0.0
 10
3.3127664397
 20
6.7877318002
 30
0.0
 10
3.3132598544
 20
6.7862309368
 30
0.0
 10
3.3137233444
 20
6.7844196066
 30
0.0
 10
3.3141531042
 20
6.7823061352
 30
0.0
 10
3.3145469563
 20
6.7799039515
 30
0.0
 10
3.3149018367
 20
6.7772284783
 30
0.0
 10
3.3152149665
 20
6.7742958811
 30
0.0
 10
3.3154833753
 20
6.7711237243
 30
0.0
 10
3.3157874885
 20
6.7664765237
 30
0.0
 10
3.3160362085
 20
6.7602275711
 30
0.0
 10
3.3160971408
 20
6.7551098432
 30
0.0
 10
3.3160968349
 20
6.7524507134
 30
0.0
  0
SPLINE
  5
5E0
100
AcDbEntity
  8
0
100
AcDbSpline
 62
7
  6
CONTINUOUS
 70
0
 71
3
 72
14
 73
10
 74
0
 42
0.0000001
 43
0.0000001
 44
0.0000000001
 40
0.0
 40
0.0
 40
0.0
 40
0.0
 40
0.0768433858
 40
0.1604423633
 40
0.2561094354
 40
0.3673413587
 40
0.4962893718
 40
0.6442602825
 40
1.0
 40
1.0
 40
1.0
 40
1.0
 10
3.3085526088
 20
6.6272451962
 30
0.0
 10
3.3086751688
 20
6.6272450414
 30
0.0
 10
3.3089323913
 20
6.6272024232
 30
0.0
 10
3.3093027739
 20
6.6270201582
 30
0.0
 10
3.3096647059
 20
6.6267263093
 30
0.0
 10
3.3100203727
 20
6.6263234632
 30
0.0
 10
3.3103712735
 20
6.6258120457
 30
0.0
 10
3.3108633865
 20
6.6249300044
 30
0.0
 10
3.3111756304
 20
6.6241870013
 30
0.0
 10
3.3113753102
 20
6.6236559182
 30
0.0
  0
SPLINE
  5
5E1
100
AcDbEntity
  8
0
100
AcDbSpline
 62
7
  6
CONTINUOUS
 70
0
 71
3
 72
16
 73
12
 74
0
 42
0.0000001
 43
0.0000001
 44
0.0000000001
 40
0.0
 40
0.0
 40
0.0
 40
0.0
 40
0.0334998423
 40
0.0718975994
 40
0.1150721624
 40
0.1628771097
 40
0.2716680091
 40
0.3962739043
 40
0.5342256589
 40
0.6828691632
 40
1.0
 40
1.0
 40
1.0
 40
1.0
 10
3.3113753102
 20
6.6236559182
 30
0.0
 10
3.3115625193
 20
6.6231580033
 30
0.0
 10
3.3119239058
 20
6.6220741207
 30
0.0
 10
3.3124113636
 20
6.6203125589
 30
0.0
 10
3.3128786822
 20
6.6183115318
 30
0.0
 10
3.3134980515
 20
6.6151999673
 30
0.0
 10
3.3141834581
 20
6.6107857369
 30
0.0
 10
3.3148597398
 20
6.6049269767
 30
0.0
 10
3.3154039558
 20
6.5984191978
 30
0.0
 10
3.3159447636
 20
6.5888471148
 30
0.0
 10
3.3160973909
 20
6.5814492872
 30
0.0
 10
3.3160968349
 20
6.5764135481
 30
0.0
  0
LINE
  5
5E2
100
AcDbEntity
  8
0
100
AcDbLine
 62
7
  6
CONTINUOUS
 10
3.3247678051
 20
7.2836082142
 11
3.3248605209
 21
7.2841517141
  0
SPLINE
  5
5E3
100
AcDbEntity
  8
0
100
AcDbSpline
 62
7
  6
CONTINUOUS
 70
0
 71
3
 72
15
 73
11
 74
0
 42
0.0000001
 43
0.0000001
 44
0.0000000001
 40
0.0
 40
0.0
 40
0.0
 40
0.0
 40
0.1084046967
 40
0.2195900794
 40
0.3347823613
 40
0.4550225826
 40
0.5811462812
 40
0.7137607131
 40
0.8532989278
 40
1.0
 40
1.0
 40
1.0
 40
1.0
 10
3.2042135119
 20
5.8529417608
 30
0.0
 10
3.2048200361
 20
5.8573042009
 30
0.0
 10
3.2066499935
 20
5.8660679213
 30
0.0
 10
3.2111432024
 20
5.878942327
 30
0.0
 10
3.2173730816
 20
5.8916084457
 30
0.0
 10
3.2253067708
 20
5.9040048615
 30
0.0
 10
3.2349042068
 20
5.9160764128
 30
0.0
 10
3.2461140185
 20
5.9277753053
 30
0.0
 10
3.2588867963
 20
5.9390468307
 30
0.0
 10
3.2681718214
 20
5.9460688835
 30
0.0
 10
3.2730427203
 20
5.9495040218
 30
0.0
  0
ENDSEC
  0
SECTION
  2
OBJECTS
  0
DICTIONARY
  5
C
100
AcDbDictionary
280
0
281
1
  3
ACAD_GROUP
350
D
  3
ACAD_MLINESTYLE
350
17
  3
ACAD_LAYOUT
350
1A
  3
ACAD_PLOTSETTINGS
350
19
  3
ACAD_PLOTSTYLENAME
350
E
  0
DICTIONARY
  5
D
102
{ACAD_REACTORS
330
C
102
}
100
AcDbDictionary
280
0
281
1
  0
ACDBDICTIONARYWDFLT
  5
E
102
{ACAD_REACTORS
330
C
102
}
100
AcDbDictionary
281
1
  3
Normal
350
F
100
AcDbDictionaryWithDefault
340
F
  0
DICTIONARY
  5
17
102
{ACAD_REACTORS
330
C
102
}
100
AcDbDictionary
280
0
281
1
  3
Standard
350
18
  0
DICTIONARY
  5
19
102
{ACAD_REACTORS
330
C
102
}
100
AcDbDictionary
281
1
  0
DICTIONARY
  5
1A
102
{ACAD_REACTORS
330
C
102
}
100
AcDbDictionary
281
1
  3
Model
350
5E4
  3
Layout1
350
5E5
  0
ACDBPLACEHOLDER
  5
F
102
{ACAD_REACTORS
330
E
102
}
  0
MLINESTYLE
  5
18
102
{ACAD_REACTORS
330
17
102
}
100
AcDbMlineStyle
  2
STANDARD
 70
0
  3

 62
256
 51
90.0
 52
90.0
 71
2
 49
0.5
 62
256
  6
BYLAYER
 49
-0.5
 62
256
  6
BYLAYER
  0
LAYOUT
  5
5E4
102
{ACAD_REACTORS
330
1A
102
}
100
AcDbPlotSettings
  1

  2
none_device
  4
ANSI_A_(11.00_x_8.50_Inches)
  6

 40
0.0
 41
0.0
 42
0.0
 43
0.0
 44
279.4
 45
215.9
 46
0.0
 47
0.0
 48
0.0
 49
0.0
140
0.0
141
0.0
142
1.0
143
1.0
 70
1024
 72
0
 73
0
 74
0
  7

 75
0
147
1.0
148
0.0
149
0.0
100
AcDbLayout
  1
Model
 70
0
 71
0
 10
0.0
 20
0.0
 11
11.0
 21
8.5
 12
0.0
 22
0.0
 32
0.0
 14
0.0
 24
0.0
 34
0.0
 15
0.0
 25
0.0
 35
0.0
146
0.0
 13
0.0
 23
0.0
 33
0.0
 16
1.0
 26
0.0
 36
0.0
 17
0.0
 27
1.0
 37
0.0
 76
0
330
248
345
0
346
0
  0
LAYOUT
  5
5E5
102
{ACAD_REACTORS
330
1A
102
}
100
AcDbPlotSettings
  1

  2
none_device
  4
ANSI_A_(11.00_x_8.50_Inches)
  6

 40
0.0
 41
0.0
 42
0.0
 43
0.0
 44
279.4
 45
215.9
 46
0.0
 47
0.0
 48
0.0
 49
0.0
140
0.0
141
0.0
142
1.0
143
1.0
 70
0
 72
0
 73
0
 74
0
  7

 75
0
147
1.0
148
0.0
149
0.0
100
AcDbLayout
  1
Layout1
 70
0
 71
1
 10
0.0
 20
0.0
 11
11.0
 21
8.5
 12
0.0
 22
0.0
 32
0.0
 14
0.0
 24
0.0
 34
0.0
 15
0.0
 25
0.0
 35
0.0
146
0.0
 13
0.0
 23
0.0
 33
0.0
 16
1.0
 26
0.0
 36
0.0
 17
0.0
 27
1.0
 37
0.0
 76
0
330
249
345
0
346
0
  0
ENDSEC
  0
EOF
