999
DXF file: 283_RIGHT.dxf
999
Pro/ENGINEER 2018400 by Parametric Technology Corporation
  0
SECTION
  2
HEADER
  9
$ACADVER
  1
AC1027
  9
$DWGCODEPAGE
  3
ANSI_1252
  9
$EXTMAX
 10
11.0
 20
8.5
 30
0.0
  9
$EXTMIN
 10
0.0
 20
0.0
 30
0.0
  9
$LIMMIN
 10
0.0
 20
0.0
  9
$LIMMAX
 10
11.0
 20
8.5
  9
$VIEWCTR
 10
5.5
 20
4.25
  9
$VIEWSIZE
 40
8.5
  9
$CLAYER
  8
0
  9
$LTSCALE
 40
0.605
  9
$CELTYPE
  6
BYLAYER
  9
$DIMSCALE
 40
1.0
  9
$DIMASZ
 40
0.1
  9
$DIMEXO
 40
0.0625
  9
$DIMDLI
 40
0.418
  9
$DIMEXE
 40
0.125
  9
$DIMCEN
 40
0.099
  9
$DIMLFAC
 40
1.0
  9
$DIMBLK
  1
_FILLED
  9
$DIMALT
 70
1
  9
$DIMALTD
 70
2
  9
$DIMALTTD
 70
2
  9
$DIMALTF
 40
25.4
  9
$DIMTXT
 40
0.08
  9
$DIMTOL
 70
1
  9
$DIMLIM
 70
0
  9
$DIMTFAC
 40
1.0
  9
$DIMTP
 40
0.001
  9
$DIMTM
 40
0.001
  9
$DIMGAP
 40
0.09
  9
$DIMDSEP
 70
46
  9
$AUNITS
 70
0
  9
$PDMODE
 70
3
  9
$PDSIZE
 40
0.3125
  9
$HANDSEED
  5
285
  9
$TILEMODE
 70
1
  9
$MEASUREMENT
 70
0
  9
$INSUNITS
 70
1
  0
ENDSEC
  0
SECTION
  2
CLASSES
  0
CLASS
  1
ACDBDICTIONARYWDFLT
  2
AcDbDictionaryWithDefault
  3
AutoCAD 2000
 90
0
 91
1
280
0
281
0
  0
CLASS
  1
ACDBPLACEHOLDER
  2
AcDbPlaceHolder
  3
AutoCAD 2000
 90
0
 91
1
280
0
281
0
  0
CLASS
  1
LAYOUT
  2
AcDbLayout
  3
AutoCAD 2000
 90
0
 91
0
280
0
281
0
  0
ENDSEC
  0
SECTION
  2
TABLES
  0
TABLE
  2
VPORT
  5
8
100
AcDbSymbolTable
 70
2
  0
VPORT
  5
1F4
100
AcDbSymbolTableRecord
100
AcDbViewportTableRecord
  2
*ACTIVE
 70
0
 10
0.0
 20
0.0
 11
1.0
 21
1.0
 12
5.5
 22
4.25
 13
0.0
 23
0.0
 14
1.0
 24
1.0
 15
0.0
 25
0.0
 16
0.0
 26
0.0
 36
1.0
 17
0.0
 27
0.0
 37
0.0
 40
8.5
 41
1.2941176471
 42
50.0
 43
0.0
 44
0.0
 50
0.0
 51
0.0
 71
0
 72
100
 73
1
 74
1
 75
0
 76
0
 77
0
 78
0
  0
ENDTAB
  0
TABLE
  2
LTYPE
  5
5
100
AcDbSymbolTable
 70
6
  0
LTYPE
  5
14
100
AcDbSymbolTableRecord
100
AcDbLinetypeTableRecord
  2
BYBLOCK
 70
0
  3

 72
65
 73
0
 40
0.0
  0
LTYPE
  5
15
100
AcDbSymbolTableRecord
100
AcDbLinetypeTableRecord
  2
BYLAYER
 70
0
  3

 72
65
 73
0
 40
0.0
  0
LTYPE
  5
16
100
AcDbSymbolTableRecord
100
AcDbLinetypeTableRecord
  2
CONTINUOUS
 70
64
  3
Solid line
 72
65
 73
0
 40
0.0
  0
LTYPE
  5
1F5
100
AcDbSymbolTableRecord
100
AcDbLinetypeTableRecord
  2
CENTER
 70
64
  3
____ _ ____ _ ____ _ ____ _ ____ _ ____ _ ____
 72
65
 73
4
 40
0.6
 49
0.375
 74
0
 49
-0.075
 74
0
 49
0.075
 74
0
 49
-0.075
 74
0
  0
LTYPE
  5
1F6
100
AcDbSymbolTableRecord
100
AcDbLinetypeTableRecord
  2
HIDDEN
 70
64
  3
- - - - - - - - - - - - - - - - - - - -
 72
65
 73
2
 40
0.2
 49
0.1
 74
0
 49
-0.1
 74
0
  0
LTYPE
  5
1F7
100
AcDbSymbolTableRecord
100
AcDbLinetypeTableRecord
  2
PHANTOM
 70
64
  3
_____ _ _ _____ _ _ _____ _ _ _____
 72
65
 73
6
 40
0.8
 49
0.45
 74
0
 49
-0.05
 74
0
 49
0.1
 74
0
 49
-0.05
 74
0
 49
0.1
 74
0
 49
-0.05
 74
0
  0
LTYPE
  5
1F8
100
AcDbSymbolTableRecord
100
AcDbLinetypeTableRecord
  2
DOT
 70
64
  3
. . . . . . . . . . . . . . . . . . . .
 72
65
 73
2
 40
0.2
 49
0.1
 74
0
 49
-0.1
 74
0
  0
LTYPE
  5
1F9
100
AcDbSymbolTableRecord
100
AcDbLinetypeTableRecord
  2
DASHED
 70
64
  3
- - - - - - - - - - - - - - - - - - - -
 72
65
 73
2
 40
0.2
 49
0.1
 74
0
 49
-0.1
 74
0
  0
ENDTAB
  0
TABLE
  2
LAYER
  5
2
100
AcDbSymbolTable
 70
36
  0
LAYER
  5
10
100
AcDbSymbolTableRecord
100
AcDbLayerTableRecord
  2
0
 70
0
 62
7
  6
CONTINUOUS
370
-3
390
F
  0
LAYER
  5
1FA
100
AcDbSymbolTableRecord
100
AcDbLayerTableRecord
  2
DEFAULT_1
 70
0
 62
7
  6
CENTER
370
-3
390
F
  0
LAYER
  5
1FB
100
AcDbSymbolTableRecord
100
AcDbLayerTableRecord
  2
DEFAULT_2
 70
0
 62
8
  6
HIDDEN
370
-3
390
F
  0
LAYER
  5
1FC
100
AcDbSymbolTableRecord
100
AcDbLayerTableRecord
  2
DEFAULT_3
 70
0
 62
7
  6
PHANTOM
370
-3
390
F
  0
LAYER
  5
1FD
100
AcDbSymbolTableRecord
100
AcDbLayerTableRecord
  2
ALL_ASSEMBLY_MEMBERS
 70
0
 62
7
  6
CONTINUOUS
370
-3
390
F
  0
LAYER
  5
1FE
100
AcDbSymbolTableRecord
100
AcDbLayerTableRecord
  2
ALL_FEATURES
 70
0
 62
7
  6
CONTINUOUS
370
-3
390
F
  0
LAYER
  5
1FF
100
AcDbSymbolTableRecord
100
AcDbLayerTableRecord
  2
AXES_FEATURES
 70
0
 62
7
  6
CONTINUOUS
370
-3
390
F
  0
LAYER
  5
200
100
AcDbSymbolTableRecord
100
AcDbLayerTableRecord
  2
CHAMFER_FEATURES
 70
0
 62
7
  6
CONTINUOUS
370
-3
390
F
  0
LAYER
  5
201
100
AcDbSymbolTableRecord
100
AcDbLayerTableRecord
  2
COSMETIC_SKETCHES
 70
0
 62
7
  6
CONTINUOUS
370
-3
390
F
  0
LAYER
  5
202
100
AcDbSymbolTableRecord
100
AcDbLayerTableRecord
  2
CURVE
 70
0
 62
7
  6
CONTINUOUS
370
-3
390
F
  0
LAYER
  5
203
100
AcDbSymbolTableRecord
100
AcDbLayerTableRecord
  2
CUT_FEATURES
 70
0
 62
7
  6
CONTINUOUS
370
-3
390
F
  0
LAYER
  5
204
100
AcDbSymbolTableRecord
100
AcDbLayerTableRecord
  2
DATUM_CURVES
 70
0
 62
7
  6
CONTINUOUS
370
-3
390
F
  0
LAYER
  5
205
100
AcDbSymbolTableRecord
100
AcDbLayerTableRecord
  2
DATUM_PLANES
 70
0
 62
7
  6
CONTINUOUS
370
-3
390
F
  0
LAYER
  5
206
100
AcDbSymbolTableRecord
100
AcDbLayerTableRecord
  2
DEFAULT_COORDINATE_SYSTEM
 70
0
 62
7
  6
CONTINUOUS
370
-3
390
F
  0
LAYER
  5
207
100
AcDbSymbolTableRecord
100
AcDbLayerTableRecord
  2
DEFAULT_DATUM_AXES
 70
0
 62
7
  6
CONTINUOUS
370
-3
390
F
  0
LAYER
  5
208
100
AcDbSymbolTableRecord
100
AcDbLayerTableRecord
  2
DEFAULT_DATUM_CURVES
 70
0
 62
7
  6
CONTINUOUS
370
-3
390
F
  0
LAYER
  5
209
100
AcDbSymbolTableRecord
100
AcDbLayerTableRecord
  2
DEFAULT_DATUM_PLANES
 70
0
 62
7
  6
CONTINUOUS
370
-3
390
F
  0
LAYER
  5
20A
100
AcDbSymbolTableRecord
100
AcDbLayerTableRecord
  2
DEFAULT_SURFACES
 70
0
 62
7
  6
CONTINUOUS
370
-3
390
F
  0
LAYER
  5
20B
100
AcDbSymbolTableRecord
100
AcDbLayerTableRecord
  2
DIMENSIONS
 70
0
 62
7
  6
CONTINUOUS
370
-3
390
F
  0
LAYER
  5
20C
100
AcDbSymbolTableRecord
100
AcDbLayerTableRecord
  2
PART_REFERENCE_DIMENSIONS
 70
0
 62
7
  6
CONTINUOUS
370
-3
390
F
  0
LAYER
  5
20D
100
AcDbSymbolTableRecord
100
AcDbLayerTableRecord
  2
PLATING_AREA
 70
0
 62
7
  6
CONTINUOUS
370
-3
390
F
  0
LAYER
  5
20E
100
AcDbSymbolTableRecord
100
AcDbLayerTableRecord
  2
PLATTED_SURFACE_AREA
 70
0
 62
7
  6
CONTINUOUS
370
-3
390
F
  0
LAYER
  5
20F
100
AcDbSymbolTableRecord
100
AcDbLayerTableRecord
  2
PROTRUSION_FEATURES
 70
0
 62
7
  6
CONTINUOUS
370
-3
390
F
  0
LAYER
  5
210
100
AcDbSymbolTableRecord
100
AcDbLayerTableRecord
  2
QUILT
 70
0
 62
7
  6
CONTINUOUS
370
-3
390
F
  0
LAYER
  5
211
100
AcDbSymbolTableRecord
100
AcDbLayerTableRecord
  2
QUILTS
 70
0
 62
7
  6
CONTINUOUS
370
-3
390
F
  0
LAYER
  5
212
100
AcDbSymbolTableRecord
100
AcDbLayerTableRecord
  2
REFERENCE_DIMENSIONS
 70
0
 62
7
  6
CONTINUOUS
370
-3
390
F
  0
ENDTAB
  0
TABLE
  2
STYLE
  5
3
100
AcDbSymbolTable
 70
1
  0
STYLE
  5
11
100
AcDbSymbolTableRecord
100
AcDbTextStyleTableRecord
  2
STANDARD
 70
0
 40
0.0
 41
0.8
 50
0.0
 71
0
 42
0.2
  3
txt
  4

  0
STYLE
  5
213
100
AcDbSymbolTableRecord
100
AcDbTextStyleTableRecord
  2
TEXTSTYLE_1
 70
0
 40
0.0
 41
0.8
 50
0.0
 71
0
 42
0.2
  3
gdt
  4

  0
ENDTAB
  0
TABLE
  2
VIEW
  5
6
100
AcDbSymbolTable
 70
0
  0
ENDTAB
  0
TABLE
  2
UCS
  5
7
100
AcDbSymbolTable
 70
0
  0
ENDTAB
  0
TABLE
  2
APPID
  5
9
100
AcDbSymbolTable
 70
1
  0
APPID
  5
214
100
AcDbSymbolTableRecord
100
AcDbRegAppTableRecord
  2
ACAD
 70
0
  0
ENDTAB
  0
TABLE
  2
BLOCK_RECORD
  5
1
100
AcDbSymbolTable
 70
0
  0
BLOCK_RECORD
  5
215
100
AcDbSymbolTableRecord
100
AcDbBlockTableRecord
  2
*Model_Space
  0
BLOCK_RECORD
  5
216
100
AcDbSymbolTableRecord
100
AcDbBlockTableRecord
  2
*Paper_Space
  0
BLOCK_RECORD
  5
217
100
AcDbSymbolTableRecord
100
AcDbBlockTableRecord
  2
_FILLED
  0
ENDTAB
  0
TABLE
  2
DIMSTYLE
  5
A
100
AcDbSymbolTable
 70
1
100
AcDbDimStyleTable
 71
0
  0
DIMSTYLE
105
218
100
AcDbSymbolTableRecord
100
AcDbDimStyleTableRecord
  2
STANDARD
 70
0
  3

  4

 40
1.0
 41
0.1
 42
0.0625
 43
0.38
 44
0.125
 45
0.0
 46
0.0
 47
0.001
 48
0.001
140
0.08
141
0.09
142
0.0
143
25.4
144
1.0
145
0.0
146
1.0
147
0.09
 71
1.0
 72
0.0
 73
1
 74
1
 75
0
 76
0
 77
0
 78
4
 79
1
170
1
171
2
172
0
173
0
174
0
175
0
176
0
177
0
178
0
270
2
179
3
271
3
272
3
273
2
274
2
275
0
280
0
281
0
282
0
283
1
284
4
285
0
286
0
287
3
288
0
340
11
278
46
341
217
342
217
343
217
344
217
  0
ENDTAB
  0
ENDSEC
  0
SECTION
  2
BLOCKS
  0
BLOCK
  5
20
100
AcDbEntity
  8
0
100
AcDbBlockBegin
  2
*Model_Space
 70
0
 10
0.0
 20
0.0
 30
0.0
  3
*Model_Space
  1

  0
ENDBLK
  5
21
100
AcDbEntity
  8
0
100
AcDbBlockEnd
  0
BLOCK
  5
1C
100
AcDbEntity
  8
0
100
AcDbBlockBegin
  2
*Paper_Space
 70
0
 10
0.0
 20
0.0
 30
0.0
  3
*Paper_Space
  1

  0
ENDBLK
  5
1D
100
AcDbEntity
  8
0
100
AcDbBlockEnd
  0
BLOCK
  5
219
100
AcDbEntity
  8
0
100
AcDbBlockBegin
  2
_FILLED
 70
64
 10
0.0
 20
0.0
  3
_FILLED
  1

  0
SOLID
  5
21A
100
AcDbEntity
  8
0
  6
BYBLOCK
 62
0
100
AcDbTrace
 10
0.0
 20
0.0
 11
-1.0
 21
0.2
 12
-1.0
 22
-0.2
 13
-1.0
 23
-0.2
  0
ENDBLK
  5
21B
100
AcDbEntity
  8
0
  6
BYBLOCK
 62
0
100
AcDbBlockEnd
  0
ENDSEC
  0
SECTION
  2
ENTITIES
  0
MTEXT
  5
21C
100
AcDbEntity
  8
0
100
AcDbMText
 62
2
  6
CONTINUOUS
  7
STANDARD
 71
3
 72
1
 10
5.5319638018
 20
0.6535092139
 30
0.0
 11
1.0
 21
0.0
 31
0.0
 73
2
 44
0.9
  1
SCALE  .750
 40
0.08
 41
0.704
  0
LINE
  5
21D
100
AcDbEntity
  8
0
100
AcDbLine
 62
7
  6
CONTINUOUS
 10
0.0
 20
0.0
 11
0.0
 21
8.5
  0
LINE
  5
21E
100
AcDbEntity
  8
0
100
AcDbLine
 62
7
  6
CONTINUOUS
 10
0.0
 20
0.0
 11
11.0
 21
0.0
  0
LINE
  5
21F
100
AcDbEntity
  8
0
100
AcDbLine
 62
7
  6
CONTINUOUS
 10
0.0
 20
8.5
 11
11.0
 21
8.5
  0
LINE
  5
220
100
AcDbEntity
  8
0
100
AcDbLine
 62
7
  6
CONTINUOUS
 10
11.0
 20
0.0
 11
11.0
 21
8.5
  0
LINE
  5
221
100
AcDbEntity
  8
ALL_ASSEMBLY_MEMBERS
100
AcDbLine
 62
7
  6
CONTINUOUS
 10
5.4594272442
 20
1.5313974127
 11
6.0031772442
 21
1.5313974127
  0
LINE
  5
222
100
AcDbEntity
  8
ALL_ASSEMBLY_MEMBERS
100
AcDbLine
 62
7
  6
CONTINUOUS
 10
4.066757738
 20
7.2463873311
 11
4.0102495804
 21
7.2137623311
  0
LINE
  5
223
100
AcDbEntity
  8
ALL_ASSEMBLY_MEMBERS
100
AcDbLine
 62
7
  6
CONTINUOUS
 10
4.1977157563
 20
7.3219959782
 11
4.7513508197
 21
7.6416373311
  0
LINE
  5
224
100
AcDbEntity
  8
ALL_ASSEMBLY_MEMBERS
100
AcDbLine
 62
7
  6
CONTINUOUS
 10
5.4535509927
 20
1.6063974127
 11
6.0363896197
 21
1.6063974127
  0
LINE
  5
225
100
AcDbEntity
  8
ALL_ASSEMBLY_MEMBERS
100
AcDbLine
 62
7
  6
CONTINUOUS
 10
5.4384068887
 20
1.7563974127
 11
6.0178526211
 21
1.7563974127
  0
LINE
  5
226
100
AcDbEntity
  8
ALL_ASSEMBLY_MEMBERS
100
AcDbLine
 62
7
  6
CONTINUOUS
 10
6.1063022442
 20
1.8313974127
 11
5.3563022442
 21
1.8313974127
  0
LINE
  5
227
100
AcDbEntity
  8
ALL_ASSEMBLY_MEMBERS
100
AcDbLine
 62
7
  6
CONTINUOUS
 10
6.1063022442
 20
1.9251474127
 11
5.3563022442
 21
1.9251474127
  0
LINE
  5
228
100
AcDbEntity
  8
ALL_ASSEMBLY_MEMBERS
100
AcDbLine
 62
7
  6
CONTINUOUS
 10
5.4249071198
 20
1.6339322592
 11
5.4535472454
 21
1.6173757539
  0
LINE
  5
229
100
AcDbEntity
  8
ALL_ASSEMBLY_MEMBERS
100
AcDbLine
 62
7
  6
CONTINUOUS
 10
5.4249071196
 20
1.6875047213
 11
5.4535472443
 21
1.6709482166
  0
LINE
  5
22A
100
AcDbEntity
  8
ALL_ASSEMBLY_MEMBERS
100
AcDbLine
 62
7
  6
CONTINUOUS
 10
5.4249071203
 20
1.7410772342
 11
5.4535472453
 21
1.7245207293
  0
LINE
  5
22B
100
AcDbEntity
  8
ALL_ASSEMBLY_MEMBERS
100
AcDbLine
 62
7
  6
CONTINUOUS
 10
6.0376973693
 20
1.6146632924
 11
6.0090572439
 21
1.6312197977
  0
LINE
  5
22C
100
AcDbEntity
  8
ALL_ASSEMBLY_MEMBERS
100
AcDbLine
 62
7
  6
CONTINUOUS
 10
6.0376973683
 20
1.6682357701
 11
6.0090572436
 21
1.684792275
  0
LINE
  5
22D
100
AcDbEntity
  8
ALL_ASSEMBLY_MEMBERS
100
AcDbLine
 62
7
  6
CONTINUOUS
 10
6.0376973682
 20
1.7218082991
 11
6.0090572427
 21
1.7383648045
  0
LINE
  5
22E
100
AcDbEntity
  8
ALL_ASSEMBLY_MEMBERS
100
AcDbLine
 62
7
  6
CONTINUOUS
 10
5.4245522442
 20
1.6343424299
 11
5.4249071198
 21
1.6339322592
  0
LINE
  5
22F
100
AcDbEntity
  8
ALL_ASSEMBLY_MEMBERS
100
AcDbLine
 62
7
  6
CONTINUOUS
 10
5.4249071196
 20
1.6875047213
 11
5.4245522442
 21
1.6879148918
  0
LINE
  5
230
100
AcDbEntity
  8
ALL_ASSEMBLY_MEMBERS
100
AcDbLine
 62
7
  6
CONTINUOUS
 10
5.4245522442
 20
1.7414874055
 11
5.4249071203
 21
1.7410772342
  0
LINE
  5
231
100
AcDbEntity
  8
ALL_ASSEMBLY_MEMBERS
100
AcDbLine
 62
7
  6
CONTINUOUS
 10
4.816757738
 20
5.9473492254
 11
4.7602495804
 21
5.9147242254
  0
LINE
  5
232
100
AcDbEntity
  8
ALL_ASSEMBLY_MEMBERS
100
AcDbLine
 62
7
  6
CONTINUOUS
 10
4.9477157563
 20
6.0229578726
 11
5.1064432355
 21
6.1145992254
  0
LINE
  5
233
100
AcDbEntity
  8
ALL_ASSEMBLY_MEMBERS
100
AcDbLine
 62
7
  6
CONTINUOUS
 10
5.4389969906
 20
6.3065992254
 11
5.5013508197
 21
6.3425992254
  0
LINE
  5
234
100
AcDbEntity
  8
ALL_ASSEMBLY_MEMBERS
100
AcDbLine
 62
7
  6
CONTINUOUS
 10
6.0376973683
 20
1.6682357701
 11
6.0380522442
 21
1.667825599
  0
LINE
  5
235
100
AcDbEntity
  8
ALL_ASSEMBLY_MEMBERS
100
AcDbLine
 62
7
  6
CONTINUOUS
 10
6.0380522442
 20
1.7213981279
 11
6.0376973682
 21
1.7218082991
  0
LINE
  5
236
100
AcDbEntity
  8
ALL_ASSEMBLY_MEMBERS
100
AcDbLine
 62
7
  6
CONTINUOUS
 10
5.3428403498
 20
5.7141474127
 11
5.6675998763
 21
5.9016474127
  0
LINE
  5
237
100
AcDbEntity
  8
ALL_ASSEMBLY_MEMBERS
100
AcDbLine
 62
7
  6
CONTINUOUS
 10
6.1063022442
 20
4.7376474127
 11
5.3563022442
 21
4.7376474127
  0
LINE
  5
238
100
AcDbEntity
  8
ALL_ASSEMBLY_MEMBERS
100
AcDbLine
 62
7
  6
CONTINUOUS
 10
5.3563022442
 20
1.8313974127
 11
5.3563022442
 21
4.8313974127
  0
LINE
  5
239
100
AcDbEntity
  8
ALL_ASSEMBLY_MEMBERS
100
AcDbLine
 62
7
  6
CONTINUOUS
 10
5.4245522442
 20
1.7481843863
 11
5.4245522442
 21
1.7414874055
  0
LINE
  5
23A
100
AcDbEntity
  8
ALL_ASSEMBLY_MEMBERS
100
AcDbLine
 62
7
  6
CONTINUOUS
 10
5.4245522442
 20
1.6343424299
 11
5.4245522442
 21
1.6410393495
  0
LINE
  5
23B
100
AcDbEntity
  8
ALL_ASSEMBLY_MEMBERS
100
AcDbLine
 62
7
  6
CONTINUOUS
 10
5.4245522442
 20
1.6879148918
 11
5.4245522442
 21
1.694611862
  0
LINE
  5
23C
100
AcDbEntity
  8
ALL_ASSEMBLY_MEMBERS
100
AcDbLine
 62
7
  6
CONTINUOUS
 10
5.4535472453
 20
1.7247471337
 11
5.4535472453
 21
1.7115785384
  0
LINE
  5
23D
100
AcDbEntity
  8
ALL_ASSEMBLY_MEMBERS
100
AcDbLine
 62
7
  6
CONTINUOUS
 10
5.4535472443
 20
1.6711746206
 11
5.4535472443
 21
1.6580060249
  0
LINE
  5
23E
100
AcDbEntity
  8
ALL_ASSEMBLY_MEMBERS
100
AcDbLine
 62
7
  6
CONTINUOUS
 10
5.4535472454
 20
1.6176021581
 11
5.4535472454
 21
1.6063974127
  0
LINE
  5
23F
100
AcDbEntity
  8
ALL_ASSEMBLY_MEMBERS
100
AcDbLine
 62
7
  6
CONTINUOUS
 10
5.4594272442
 20
1.6063974127
 11
5.4594272442
 21
1.5313974127
  0
LINE
  5
240
100
AcDbEntity
  8
ALL_ASSEMBLY_MEMBERS
100
AcDbLine
 62
7
  6
CONTINUOUS
 10
5.4594272442
 20
1.7563974127
 11
5.4594272442
 21
1.8313974127
  0
LINE
  5
241
100
AcDbEntity
  8
ALL_ASSEMBLY_MEMBERS
100
AcDbLine
 62
7
  6
CONTINUOUS
 10
6.1063022442
 20
4.8313974127
 11
5.3563022442
 21
4.8313974127
  0
LINE
  5
242
100
AcDbEntity
  8
ALL_ASSEMBLY_MEMBERS
100
AcDbLine
 62
7
  6
CONTINUOUS
 10
5.5438022442
 20
4.9641474127
 11
5.9188022442
 21
4.9641474127
  0
LINE
  5
243
100
AcDbEntity
  8
ALL_ASSEMBLY_MEMBERS
100
AcDbLine
 62
7
  6
CONTINUOUS
 10
4.7602495804
 20
5.9147242254
 11
4.0102495804
 21
7.2137623311
  0
LINE
  5
244
100
AcDbEntity
  8
ALL_ASSEMBLY_MEMBERS
100
AcDbLine
 62
7
  6
CONTINUOUS
 10
5.5438022442
 20
4.8313974127
 11
5.5438022442
 21
4.9641474127
  0
LINE
  5
245
100
AcDbEntity
  8
ALL_ASSEMBLY_MEMBERS
100
AcDbLine
 62
7
  6
CONTINUOUS
 10
4.816757738
 20
5.9473492254
 11
4.066757738
 21
7.2463873311
  0
LINE
  5
246
100
AcDbEntity
  8
ALL_ASSEMBLY_MEMBERS
100
AcDbLine
 62
7
  6
CONTINUOUS
 10
4.1977157563
 20
7.3219959782
 11
4.9477157563
 21
6.0229578726
  0
LINE
  5
247
100
AcDbEntity
  8
ALL_ASSEMBLY_MEMBERS
100
AcDbLine
 62
7
  6
CONTINUOUS
 10
5.9188022442
 20
4.8313974127
 11
5.9188022442
 21
4.9641474127
  0
LINE
  5
248
100
AcDbEntity
  8
ALL_ASSEMBLY_MEMBERS
100
AcDbLine
 62
7
  6
CONTINUOUS
 10
5.3428403498
 20
5.7141474127
 11
5.1097716422
 21
6.1178342559
  0
LINE
  5
249
100
AcDbEntity
  8
ALL_ASSEMBLY_MEMBERS
100
AcDbLine
 62
7
  6
CONTINUOUS
 10
6.0031772442
 20
1.6063974127
 11
6.0031772442
 21
1.5313974127
  0
LINE
  5
24A
100
AcDbEntity
  8
ALL_ASSEMBLY_MEMBERS
100
AcDbLine
 62
7
  6
CONTINUOUS
 10
6.0031772442
 20
1.7563974127
 11
6.0031772442
 21
1.8313974127
  0
LINE
  5
24B
100
AcDbEntity
  8
ALL_ASSEMBLY_MEMBERS
100
AcDbLine
 62
7
  6
CONTINUOUS
 10
6.0090572439
 20
1.6309933937
 11
6.0090572439
 21
1.64416199
  0
LINE
  5
24C
100
AcDbEntity
  8
ALL_ASSEMBLY_MEMBERS
100
AcDbLine
 62
7
  6
CONTINUOUS
 10
6.0090572436
 20
1.6845658705
 11
6.0090572436
 21
1.6977344661
  0
LINE
  5
24D
100
AcDbEntity
  8
ALL_ASSEMBLY_MEMBERS
100
AcDbLine
 62
7
  6
CONTINUOUS
 10
6.0090572427
 20
1.7381383998
 11
6.0090572427
 21
1.7513069954
  0
LINE
  5
24E
100
AcDbEntity
  8
ALL_ASSEMBLY_MEMBERS
100
AcDbLine
 62
7
  6
CONTINUOUS
 10
6.0380522442
 20
1.6142531225
 11
6.0380522442
 21
1.6075561742
  0
LINE
  5
24F
100
AcDbEntity
  8
ALL_ASSEMBLY_MEMBERS
100
AcDbLine
 62
7
  6
CONTINUOUS
 10
6.0380522442
 20
1.6611286649
 11
6.0380522442
 21
1.667825599
  0
LINE
  5
250
100
AcDbEntity
  8
ALL_ASSEMBLY_MEMBERS
100
AcDbLine
 62
7
  6
CONTINUOUS
 10
6.0380522442
 20
1.7147011419
 11
6.0380522442
 21
1.7213981279
  0
LINE
  5
251
100
AcDbEntity
  8
ALL_ASSEMBLY_MEMBERS
100
AcDbLine
 62
7
  6
CONTINUOUS
 10
6.1063022442
 20
1.8313974127
 11
6.1063022442
 21
4.8313974127
  0
LINE
  5
252
100
AcDbEntity
  8
ALL_ASSEMBLY_MEMBERS
100
AcDbLine
 62
7
  6
CONTINUOUS
 10
5.6675998763
 20
5.9016474127
 11
5.4345310866
 21
6.305334398
  0
LINE
  5
253
100
AcDbEntity
  8
ALL_ASSEMBLY_MEMBERS
100
AcDbLine
 62
7
  6
CONTINUOUS
 10
4.7513508197
 20
7.6416373311
 11
5.5013508197
 21
6.3425992254
  0
LINE
  5
254
100
AcDbEntity
  8
ALL_ASSEMBLY_MEMBERS
100
AcDbLine
 62
7
  6
CONTINUOUS
 10
5.4249071202
 20
1.6950220333
 11
5.4245522442
 21
1.694611862
  0
LINE
  5
255
100
AcDbEntity
  8
ALL_ASSEMBLY_MEMBERS
100
AcDbLine
 62
7
  6
CONTINUOUS
 10
5.4249071195
 20
1.6414495199
 11
5.4245522442
 21
1.6410393495
  0
LINE
  5
256
100
AcDbEntity
  8
ALL_ASSEMBLY_MEMBERS
100
AcDbLine
 62
7
  6
CONTINUOUS
 10
6.0376973683
 20
1.7142909709
 11
6.0380522442
 21
1.7147011419
  0
LINE
  5
257
100
AcDbEntity
  8
ALL_ASSEMBLY_MEMBERS
100
AcDbLine
 62
7
  6
CONTINUOUS
 10
6.0376973693
 20
1.660718495
 11
6.0380522442
 21
1.6611286649
  0
LINE
  5
258
100
AcDbEntity
  8
ALL_ASSEMBLY_MEMBERS
100
AcDbLine
 62
7
  6
CONTINUOUS
 10
5.4384057093
 20
1.7563974127
 11
5.4249071198
 21
1.7485945571
  0
LINE
  5
259
100
AcDbEntity
  8
ALL_ASSEMBLY_MEMBERS
100
AcDbLine
 62
7
  6
CONTINUOUS
 10
5.4539390179
 20
1.7118050464
 11
5.4249071202
 21
1.6950220333
  0
LINE
  5
25A
100
AcDbEntity
  8
ALL_ASSEMBLY_MEMBERS
100
AcDbLine
 62
7
  6
CONTINUOUS
 10
5.4539390161
 20
1.6582325324
 11
5.4249071195
 21
1.6414495199
  0
LINE
  5
25B
100
AcDbEntity
  8
ALL_ASSEMBLY_MEMBERS
100
AcDbLine
 62
7
  6
CONTINUOUS
 10
6.0086654702
 20
1.7510804873
 11
6.0178620805
 21
1.7563974127
  0
LINE
  5
25C
100
AcDbEntity
  8
ALL_ASSEMBLY_MEMBERS
100
AcDbLine
 62
7
  6
CONTINUOUS
 10
6.0086654712
 20
1.6975079581
 11
6.0376973683
 21
1.7142909709
  0
LINE
  5
25D
100
AcDbEntity
  8
ALL_ASSEMBLY_MEMBERS
100
AcDbLine
 62
7
  6
CONTINUOUS
 10
6.0086654726
 20
1.6439354825
 11
6.0376973693
 21
1.660718495
  0
ARC
  5
25E
100
AcDbEntity
  8
ALL_ASSEMBLY_MEMBERS
100
AcDbCircle
 62
7
  6
CONTINUOUS
 10
4.0438022442
 20
4.9641474127
 40
1.875
100
AcDbArc
 50
0.0
 51
30.0
  0
ARC
  5
25F
100
AcDbEntity
  8
ALL_ASSEMBLY_MEMBERS
100
AcDbCircle
 62
7
  6
CONTINUOUS
 10
4.0438022442
 20
4.9641474127
 40
1.5
100
AcDbArc
 50
0.0
 51
30.0
  0
ARC
  5
260
100
AcDbEntity
  8
ALL_ASSEMBLY_MEMBERS
100
AcDbCircle
 62
7
  6
CONTINUOUS
 10
4.1586091623
 20
7.2387959974
 40
0.07875
100
AcDbArc
 50
58.4230487039
 51
181.8012550883
  0
ARC
  5
261
100
AcDbEntity
  8
ALL_ASSEMBLY_MEMBERS
100
AcDbCircle
 62
7
  6
CONTINUOUS
 10
4.8561091623
 20
6.0306905591
 40
0.07875
100
AcDbArc
 50
238.1987449117
 51
1.5769512961
  0
ARC
  5
262
100
AcDbEntity
  8
ALL_ASSEMBLY_MEMBERS
100
AcDbCircle
 62
7
  6
CONTINUOUS
 10
4.1208647163
 20
7.3036061864
 40
0.07875
100
AcDbArc
 50
226.6011647511
 51
238.7017148357
  0
ARC
  5
263
100
AcDbEntity
  8
ALL_ASSEMBLY_MEMBERS
100
AcDbCircle
 62
7
  6
CONTINUOUS
 10
4.8933642094
 20
5.9655978155
 40
0.07875
100
AcDbArc
 50
181.2982851643
 51
193.3988352489
  0
ARC
  5
264
100
AcDbEntity
  8
ALL_ASSEMBLY_MEMBERS
100
AcDbCircle
 62
7
  6
CONTINUOUS
 10
4.1211091623
 20
7.3037479027
 40
0.07875
100
AcDbArc
 50
1.5209505628
 51
13.398450401
  0
ARC
  5
265
100
AcDbEntity
  8
ALL_ASSEMBLY_MEMBERS
100
AcDbCircle
 62
7
  6
CONTINUOUS
 10
4.8936091623
 20
5.9657386539
 40
0.07875
100
AcDbArc
 50
46.601549599
 51
58.4790494372
  0
LINE
  5
266
100
AcDbEntity
  8
ALL_ASSEMBLY_MEMBERS
100
AcDbLine
 62
7
  6
CONTINUOUS
 10
5.424552313
 20
1.7481843859
 11
5.4249073236
 21
1.7485945577
  0
LINE
  5
267
100
AcDbEntity
  8
ALL_ASSEMBLY_MEMBERS
100
AcDbLine
 62
7
  6
CONTINUOUS
 10
6.0380518844
 20
1.607556173
 11
6.0376962982
 21
1.6071460014
  0
LINE
  5
268
100
AcDbEntity
  8
ALL_ASSEMBLY_MEMBERS
100
AcDbLine
 62
7
  6
CONTINUOUS
 10
6.0380520929
 20
1.6142531227
 11
6.0376970515
 21
1.6146632918
  0
SPLINE
  5
269
100
AcDbEntity
  8
ALL_ASSEMBLY_MEMBERS
100
AcDbSpline
 62
7
  6
CONTINUOUS
 70
0
 71
3
 72
29
 73
25
 74
0
 42
0.0000001
 43
0.0000001
 44
0.0000000001
 40
0.0
 40
0.0
 40
0.0
 40
0.0
 40
0.0020609179
 40
0.0045555713
 40
0.0074962103
 40
0.0108899883
 40
0.0190522082
 40
0.029062488
 40
0.0409280454
 40
0.0546463781
 40
0.0702087271
 40
0.0876046668
 40
0.1068228111
 40
0.1278511549
 40
0.1752764302
 40
0.2297244085
 40
0.2910264184
 40
0.3589900207
 40
0.4333819167
 40
0.513963274
 40
0.6004788
 40
0.6926576518
 40
0.7902186418
 40
1.0
 40
1.0
 40
1.0
 40
1.0
 10
5.4249073236
 20
1.7485945577
 30
0.0
 10
5.4249856345
 20
1.7486397936
 30
0.0
 10
5.4251655478
 20
1.7487279427
 30
0.0
 10
5.4254718886
 20
1.7488482868
 30
0.0
 10
5.4258402343
 20
1.7489689765
 30
0.0
 10
5.4264528271
 20
1.749140954
 30
0.0
 10
5.427376281
 20
1.7493503068
 30
0.0
 10
5.4286725427
 20
1.7495903476
 30
0.0
 10
5.4302159744
 20
1.7498312183
 30
0.0
 10
5.4320054025
 20
1.7500728284
 30
0.0
 10
5.4340393781
 20
1.7503149114
 30
0.0
 10
5.436316159
 20
1.7505573424
 30
0.0
 10
5.4388339883
 20
1.7508000428
 30
0.0
 10
5.4426664009
 20
1.7511375645
 30
0.0
 10
5.4480436239
 20
1.7515538152
 30
0.0
 10
5.4551878349
 20
1.7520369558
 30
0.0
 10
5.4632350737
 20
1.7525209487
 30
0.0
 10
5.4721588605
 20
1.7530055731
 30
0.0
 10
5.4819297653
 20
1.7534907474
 30
0.0
 10
5.4925156685
 20
1.7539762466
 30
0.0
 10
5.5038828457
 20
1.7544620195
 30
0.0
 10
5.5159957442
 20
1.7549481347
 30
0.0
 10
5.5335149437
 20
1.7556126675
 30
0.0
 10
5.546993464
 20
1.756085947
 30
0.0
 10
5.5561938183
 20
1.7563974127
 30
0.0
  0
SPLINE
  5
26A
100
AcDbEntity
  8
ALL_ASSEMBLY_MEMBERS
100
AcDbSpline
 62
7
  6
CONTINUOUS
 70
0
 71
3
 72
40
 73
36
 74
0
 42
0.0000001
 43
0.0000001
 44
0.0000000001
 40
0.0
 40
0.0
 40
0.0
 40
0.0
 40
0.0003666206
 40
0.0007953466
 40
0.0013267376
 40
0.0019824815
 40
0.0027740342
 40
0.0037078015
 40
0.0047876053
 40
0.0060158556
 40
0.008923285
 40
0.0124379129
 40
0.0165616794
 40
0.0212937709
 40
0.0266323497
 40
0.0325749835
 40
0.0391188688
 40
0.046260804
 40
0.0623180745
 40
0.0807000933
 40
0.1013578646
 40
0.124234331
 40
0.1492610043
 40
0.1763681217
 40
0.2054790665
 40
0.2365070386
 40
0.3039569045
 40
0.3779381577
 40
0.4575985378
 40
0.5420157236
 40
0.630213014
 40
0.7211715765
 40
0.8138380539
 40
0.9071406595
 40
1.0
 40
1.0
 40
1.0
 40
1.0
 10
5.4535473369
 20
1.6176021586
 30
0.0
 10
5.4535473736
 20
1.6176413258
 30
0.0
 10
5.4535680272
 20
1.6177267996
 30
0.0
 10
5.4536511344
 20
1.617844135
 30
0.0
 10
5.4537818171
 20
1.6179583854
 30
0.0
 10
5.4539608315
 20
1.6180718242
 30
0.0
 10
5.4541888383
 20
1.6181852838
 30
0.0
 10
5.4544663468
 20
1.618298915
 30
0.0
 10
5.4547935679
 20
1.6184127554
 30
0.0
 10
5.4553270553
 20
1.6185739414
 30
0.0
 10
5.4561207162
 20
1.6187709543
 30
0.0
 10
5.4572245665
 20
1.6189972704
 30
0.0
 10
5.4585266579
 20
1.6192242818
 30
0.0
 10
5.4600259993
 20
1.6194518961
 30
0.0
 10
5.4617215545
 20
1.6196798918
 30
0.0
 10
5.4636121767
 20
1.619908173
 30
0.0
 10
5.4656966912
 20
1.6201366789
 30
0.0
 10
5.4688583795
 20
1.6204540641
 30
0.0
 10
5.4732834665
 20
1.6208457986
 30
0.0
 10
5.479152119
 20
1.6213007492
 30
0.0
 10
5.4857511679
 20
1.6217564321
 30
0.0
 10
5.4930615524
 20
1.622212683
 30
0.0
 10
5.5010621262
 20
1.6226694361
 30
0.0
 10
5.5097297242
 20
1.6231265005
 30
0.0
 10
5.5190392717
 20
1.6235837942
 30
0.0
 10
5.5326555217
 20
1.6242114469
 30
0.0
 10
5.5510635319
 20
1.6249881414
 30
0.0
 10
5.5746659057
 20
1.6258978922
 30
0.0
 10
5.6000821538
 20
1.6268086451
 30
0.0
 10
5.6270180244
 20
1.6277202106
 30
0.0
 10
5.6551615521
 20
1.6286323103
 30
0.0
 10
5.6841868106
 20
1.6295447424
 30
0.0
 10
5.7137577411
 20
1.6304573849
 30
0.0
 10
5.7435318305
 20
1.6313700972
 30
0.0
 10
5.7634106431
 20
1.6319823496
 30
0.0
 10
5.7733263044
 20
1.632290277
 30
0.0
  0
LINE
  5
26B
100
AcDbEntity
  8
ALL_ASSEMBLY_MEMBERS
100
AcDbLine
 62
7
  6
CONTINUOUS
 10
5.7733263044
 20
1.632290277
 11
5.7877061059
 21
1.6327388517
  0
LINE
  5
26C
100
AcDbEntity
  8
ALL_ASSEMBLY_MEMBERS
100
AcDbLine
 62
7
  6
CONTINUOUS
 10
5.7877061059
 20
1.6327388517
 11
5.8098322493
 21
1.6334392706
  0
SPLINE
  5
26D
100
AcDbEntity
  8
ALL_ASSEMBLY_MEMBERS
100
AcDbSpline
 62
7
  6
CONTINUOUS
 70
0
 71
3
 72
30
 73
26
 74
0
 42
0.0000001
 43
0.0000001
 44
0.0000000001
 40
0.0
 40
0.0
 40
0.0
 40
0.0
 40
0.2003820895
 40
0.2955938481
 40
0.386726005
 40
0.4732454195
 40
0.5546354543
 40
0.630422331
 40
0.7001526356
 40
0.7634227058
 40
0.8198546788
 40
0.8691247538
 40
0.890982065
 40
0.9109429235
 40
0.9289822579
 40
0.9450762004
 40
0.9592017078
 40
0.9713397844
 40
0.9814820552
 40
0.9858041017
 40
0.9896272002
 40
0.9929529471
 40
0.9957846767
 40
0.9981290309
 40
1.0
 40
1.0
 40
1.0
 40
1.0
 10
5.8098322493
 20
1.6334392706
 30
0.0
 10
5.8231350758
 20
1.6338649988
 30
0.0
 10
5.8427583367
 20
1.6345064478
 30
0.0
 10
5.8684298811
 20
1.6353929919
 30
0.0
 10
5.8865420433
 20
1.636046373
 30
0.0
 10
5.9037355378
 20
1.6366993844
 30
0.0
 10
5.9199090152
 20
1.6373521033
 30
0.0
 10
5.9349663984
 20
1.6380042209
 30
0.0
 10
5.9488190413
 20
1.6386557729
 30
0.0
 10
5.9613846223
 20
1.63930623
 30
0.0
 10
5.9725892478
 20
1.6399555611
 30
0.0
 10
5.9810435854
 20
1.640514857
 30
0.0
 10
5.987076786
 20
1.6409686013
 30
0.0
 10
5.9910392225
 20
1.6412949457
 30
0.0
 10
5.9946174686
 20
1.641620873
 30
0.0
 10
5.9978063933
 20
1.6419462836
 30
0.0
 10
6.0006011799
 20
1.6422708832
 30
0.0
 10
6.0029976816
 20
1.6425946222
 30
0.0
 10
6.0047424975
 20
1.642875795
 30
0.0
 10
6.0059353523
 20
1.6431054812
 30
0.0
 10
6.0066798002
 20
1.6432681687
 30
0.0
 10
6.007322682
 20
1.6434304687
 30
0.0
 10
6.0078640129
 20
1.6435922625
 30
0.0
 10
6.0083037483
 20
1.6437533963
 30
0.0
 10
6.0085577214
 20
1.6438732547
 30
0.0
 10
6.008665291
 20
1.6439354829
 30
0.0
  0
SPLINE
  5
26E
100
AcDbEntity
  8
ALL_ASSEMBLY_MEMBERS
100
AcDbSpline
 62
7
  6
CONTINUOUS
 70
0
 71
3
 72
65
 73
61
 74
0
 42
0.0000001
 43
0.0000001
 44
0.0000000001
 40
0.0
 40
0.0
 40
0.0
 40
0.0
 40
0.0001884272
 40
0.0004029868
 40
0.0006620489
 40
0.0009762799
 40
0.0013516783
 40
0.0017917535
 40
0.0022986492
 40
0.0028736643
 40
0.0042309469
 40
0.0058676165
 40
0.0077852879
 40
0.0099845341
 40
0.01246536
 40
0.015227434
 40
0.0182699106
 40
0.0215910912
 40
0.0290618496
 40
0.03762387
 40
0.0472602049
 40
0.0579486813
 40
0.0696637135
 40
0.0823794959
 40
0.110695246
 40
0.1426321915
 40
0.1778957512
 40
0.2161588141
 40
0.2570650755
 40
0.3002360671
 40
0.3452689275
 40
0.3917462613
 40
0.4392351636
 40
0.4872944531
 40
0.5354770054
 40
0.5833350142
 40
0.6304231226
 40
0.6763037674
 40
0.7205504585
 40
0.7627512448
 40
0.802515338
 40
0.8394713639
 40
0.873278454
 40
0.9036214844
 40
0.9174057274
 40
0.9302204935
 40
0.9420379036
 40
0.9528311699
 40
0.9625740399
 40
0.9712452628
 40
0.9788271289
 40
0.9853025857
 40
0.9906583338
 40
0.992914524
 40
0.9948891604
 40
0.9965825413
 40
0.9979958828
 40
0.9991322625
 40
0.999598921
 40
1.0
 40
1.0
 40
1.0
 40
1.0
 10
5.4535477712
 20
1.7247471334
 30
0.0
 10
5.4535477567
 20
1.7247820733
 30
0.0
 10
5.4535636407
 20
1.724857285
 30
0.0
 10
5.4536296393
 20
1.7249627397
 30
0.0
 10
5.4537345739
 20
1.725065632
 30
0.0
 10
5.4538784836
 20
1.7251676523
 30
0.0
 10
5.4540618388
 20
1.7252695523
 30
0.0
 10
5.4542850362
 20
1.7253715247
 30
0.0
 10
5.4545482688
 20
1.7254736302
 30
0.0
 10
5.4549770227
 20
1.7256180192
 30
0.0
 10
5.4556152612
 20
1.725794625
 30
0.0
 10
5.456503285
 20
1.7259976012
 30
0.0
 10
5.457550722
 20
1.7262011768
 30
0.0
 10
5.4587570802
 20
1.7264052596
 30
0.0
 10
5.4601219141
 20
1.7266096705
 30
0.0
 10
5.461644619
 20
1.7268143173
 30
0.0
 10
5.4633243886
 20
1.7270191374
 30
0.0
 10
5.4658738929
 20
1.7273037157
 30
0.0
 10
5.4694455905
 20
1.7276550242
 30
0.0
 10
5.4741879583
 20
1.7280629206
 30
0.0
 10
5.479528882
 20
1.7284714204
 30
0.0
 10
5.4854559432
 20
1.728880468
 30
0.0
 10
5.4919552234
 20
1.7292899763
 30
0.0
 10
5.5017195566
 20
1.7298568788
 30
0.0
 10
5.5152320644
 20
1.730556356
 30
0.0
 10
5.5329248743
 20
1.7313708553
 30
0.0
 10
5.552463905
 20
1.7321866898
 30
0.0
 10
5.5736673809
 20
1.733003594
 30
0.0
 10
5.5963381051
 20
1.7338212613
 30
0.0
 10
5.620264896
 20
1.7346394134
 30
0.0
 10
5.6452252861
 20
1.7354579862
 30
0.0
 10
5.670986749
 20
1.7362767911
 30
0.0
 10
5.6973096694
 20
1.7370957852
 30
0.0
 10
5.7239489346
 20
1.7379148603
 30
0.0
 10
5.750656674
 20
1.7387339623
 30
0.0
 10
5.7771842454
 20
1.7395530051
 30
0.0
 10
5.8032847746
 20
1.7403719291
 30
0.0
 10
5.8287153315
 20
1.7411906429
 30
0.0
 10
5.8532391644
 20
1.7420090315
 30
0.0
 10
5.8766281689
 20
1.7428270125
 30
0.0
 10
5.8986644272
 20
1.7436443289
 30
0.0
 10
5.9191431468
 20
1.7444608341
 30
0.0
 10
5.9378734742
 20
1.7452761307
 30
0.0
 10
5.9523079729
 20
1.7459745842
 30
0.0
 10
5.9628515813
 20
1.7465394871
 30
0.0
 10
5.9699633249
 20
1.7469493201
 30
0.0
 10
5.9765194847
 20
1.7473588257
 30
0.0
 10
5.9825048498
 20
1.7477679057
 30
0.0
 10
5.9879053683
 20
1.7481765098
 30
0.0
 10
5.9927085618
 20
1.7485844507
 30
0.0
 10
5.9969035701
 20
1.7489911927
 30
0.0
 10
6.0004805855
 20
1.7493965371
 30
0.0
 10
6.0030693079
 20
1.7497492666
 30
0.0
 10
6.0048234178
 20
1.7500382476
 30
0.0
 10
6.0059029929
 20
1.7502419893
 30
0.0
 10
6.0068233371
 20
1.7504450046
 30
0.0
 10
6.007583926
 20
1.7506472149
 30
0.0
 10
6.0081153482
 20
1.7508241453
 30
0.0
 10
6.008457399
 20
1.7509698897
 30
0.0
 10
6.0086008641
 20
1.7510432457
 30
0.0
 10
6.0086652394
 20
1.7510804877
 30
0.0
  0
LINE
  5
26F
100
AcDbEntity
  8
ALL_ASSEMBLY_MEMBERS
100
AcDbLine
 62
7
  6
CONTINUOUS
 10
5.45393925
 20
1.7118050472
 11
5.4543003566
 21
1.7119799801
  0
SPLINE
  5
270
100
AcDbEntity
  8
ALL_ASSEMBLY_MEMBERS
100
AcDbSpline
 62
7
  6
CONTINUOUS
 70
0
 71
3
 72
29
 73
25
 74
0
 42
0.0000001
 43
0.0000001
 44
0.0000000001
 40
0.0
 40
0.0
 40
0.0
 40
0.0
 40
0.002287084
 40
0.0050539465
 40
0.0083073556
 40
0.0120510317
 40
0.0210160277
 40
0.0319526711
 40
0.0448488927
 40
0.0596883706
 40
0.0764530744
 40
0.0951215447
 40
0.1156635023
 40
0.1380465431
 40
0.1882034766
 40
0.2452867656
 40
0.3089411957
 40
0.3787757487
 40
0.4543526162
 40
0.5352063745
 40
0.62082916
 40
0.7106925869
 40
0.8042324699
 40
1.0
 40
1.0
 40
1.0
 40
1.0
 10
5.4543003566
 20
1.7119799801
 30
0.0
 10
5.4544503956
 20
1.7120425612
 30
0.0
 10
5.4547888967
 20
1.7121641224
 30
0.0
 10
5.4553557247
 20
1.7123302396
 30
0.0
 10
5.4560296226
 20
1.7124969031
 30
0.0
 10
5.4571392814
 20
1.7127340965
 30
0.0
 10
5.4587955066
 20
1.7130230174
 30
0.0
 10
5.461103276
 20
1.7133545665
 30
0.0
 10
5.4638320803
 20
1.713687363
 30
0.0
 10
5.4669776184
 20
1.7140211887
 30
0.0
 10
5.4705354126
 20
1.7143556216
 30
0.0
 10
5.4745000899
 20
1.7146904476
 30
0.0
 10
5.4788653731
 20
1.7150256477
 30
0.0
 10
5.4854653543
 20
1.7154907881
 30
0.0
 10
5.4946613036
 20
1.7160646314
 30
0.0
 10
5.5067903367
 20
1.716731648
 30
0.0
 10
5.5203198885
 20
1.7173998689
 30
0.0
 10
5.5351653729
 20
1.7180689594
 30
0.0
 10
5.551234503
 20
1.718738751
 30
0.0
 10
5.5684267562
 20
1.7194089594
 30
0.0
 10
5.5866352138
 20
1.7200795884
 30
0.0
 10
5.6057459794
 20
1.720750445
 30
0.0
 10
5.6326823459
 20
1.7216590611
 30
0.0
 10
5.6532359031
 20
1.7223190236
 30
0.0
 10
5.6671442506
 20
1.7227578408
 30
0.0
  0
LINE
  5
271
100
AcDbEntity
  8
ALL_ASSEMBLY_MEMBERS
100
AcDbLine
 62
7
  6
CONTINUOUS
 10
5.6671442506
 20
1.7227578408
 11
5.6720464693
 21
1.7229121851
  0
LINE
  5
272
100
AcDbEntity
  8
ALL_ASSEMBLY_MEMBERS
100
AcDbLine
 62
7
  6
CONTINUOUS
 10
5.6720464693
 20
1.7229121851
 11
5.6812778832
 21
1.7232012264
  0
LINE
  5
273
100
AcDbEntity
  8
ALL_ASSEMBLY_MEMBERS
100
AcDbLine
 62
7
  6
CONTINUOUS
 10
5.6812778832
 20
1.7232012264
 11
5.683362414
 21
1.7232662346
  0
SPLINE
  5
274
100
AcDbEntity
  8
ALL_ASSEMBLY_MEMBERS
100
AcDbSpline
 62
7
  6
CONTINUOUS
 70
0
 71
3
 72
40
 73
36
 74
0
 42
0.0000001
 43
0.0000001
 44
0.0000000001
 40
0.0
 40
0.0
 40
0.0
 40
0.0
 40
0.0921067706
 40
0.1848641736
 40
0.2771713396
 40
0.3679342854
 40
0.4560753702
 40
0.5405499118
 40
0.6203573465
 40
0.6945493745
 40
0.7622490177
 40
0.7934106391
 40
0.8226560863
 40
0.8498961925
 40
0.8750538773
 40
0.8980550543
 40
0.9188292357
 40
0.9373196241
 40
0.9534733483
 40
0.9606581758
 40
0.9672421384
 40
0.9732217547
 40
0.978593783
 40
0.9833553478
 40
0.9875041606
 40
0.9910393054
 40
0.9939635147
 40
0.9951986681
 40
0.9962842967
 40
0.9972227325
 40
0.9980177055
 40
0.9986755136
 40
0.9992075028
 40
0.999635342
 40
1.0
 40
1.0
 40
1.0
 40
1.0
 10
5.683362414
 20
1.7232662346
 30
0.0
 10
5.6933793099
 20
1.72357841
 30
0.0
 10
5.7134840458
 20
1.7241989976
 30
0.0
 10
5.7436277612
 20
1.7251230061
 30
0.0
 10
5.7736251934
 20
1.7260469737
 30
0.0
 10
5.803120109
 20
1.7269707394
 30
0.0
 10
5.8317623731
 20
1.7278941741
 30
0.0
 10
5.8592119896
 20
1.7288170943
 30
0.0
 10
5.8851429999
 20
1.7297391834
 30
0.0
 10
5.9092476096
 20
1.7306602575
 30
0.0
 10
5.92806047
 20
1.7314465263
 30
0.0
 10
5.9419847631
 20
1.7320818854
 30
0.0
 10
5.9515100621
 20
1.7325449003
 30
0.0
 10
5.9603812853
 20
1.7330077085
 30
0.0
 10
5.9685721234
 20
1.7334701542
 30
0.0
 10
5.9760582456
 20
1.733932111
 30
0.0
 10
5.9828174583
 20
1.7343935301
 30
0.0
 10
5.9888297527
 20
1.734854145
 30
0.0
 10
5.9933638203
 20
1.7352507542
 30
0.0
 10
5.9966037003
 20
1.7355721368
 30
0.0
 10
5.998739986
 20
1.7358035023
 30
0.0
 10
6.0006777953
 20
1.7360346378
 30
0.0
 10
6.0024158103
 20
1.7362654812
 30
0.0
 10
6.0039527241
 20
1.7364959355
 30
0.0
 10
6.0052873815
 20
1.7367257754
 30
0.0
 10
6.0064188044
 20
1.7369549555
 30
0.0
 10
6.0072323581
 20
1.737154427
 30
0.0
 10
6.0077793345
 20
1.7373176338
 30
0.0
 10
6.0081148359
 20
1.7374328915
 30
0.0
 10
6.0083993815
 20
1.7375479312
 30
0.0
 10
6.0086331719
 20
1.7376627864
 30
0.0
 10
6.0088167237
 20
1.7377776005
 30
0.0
 10
6.0089507113
 20
1.7378932142
 30
0.0
 10
6.0090360026
 20
1.7380119723
 30
0.0
 10
6.0090572322
 20
1.7380987228
 30
0.0
 10
6.0090572402
 20
1.7381383997
 30
0.0
  0
SPLINE
  5
275
100
AcDbEntity
  8
ALL_ASSEMBLY_MEMBERS
100
AcDbSpline
 62
7
  6
CONTINUOUS
 70
0
 71
3
 72
40
 73
36
 74
0
 42
0.0000001
 43
0.0000001
 44
0.0000000001
 40
0.0
 40
0.0
 40
0.0
 40
0.0
 40
0.0919598903
 40
0.1846534138
 40
0.2769053335
 40
0.3676512431
 40
0.4558062671
 40
0.5403154528
 40
0.6201721997
 40
0.6944258995
 40
0.7621928117
 40
0.7933865439
 40
0.8226638535
 40
0.8499369698
 40
0.8751225467
 40
0.8981494666
 40
0.9189489245
 40
0.9374573949
 40
0.9536250422
 40
0.9608164307
 40
0.9674051928
 40
0.9733867184
 40
0.9787581711
 40
0.9835171597
 40
0.9876617731
 40
0.9911909206
 40
0.9941050544
 40
0.995332816
 40
0.9964092355
 40
0.9973363441
 40
0.9981173881
 40
0.9987578978
 40
0.9992680706
 40
0.9996682914
 40
1.0
 40
1.0
 40
1.0
 40
1.0
 10
5.7855870571
 20
1.7563974127
 30
0.0
 10
5.7745041513
 20
1.7560844153
 30
0.0
 10
5.7522497487
 20
1.7554621021
 30
0.0
 10
5.7188769681
 20
1.7545357505
 30
0.0
 10
5.6856506088
 20
1.7536094215
 30
0.0
 10
5.6529716502
 20
1.7526833379
 30
0.0
 10
5.6212265827
 20
1.7517575698
 30
0.0
 10
5.5907949494
 20
1.750832338
 30
0.0
 10
5.5620401404
 20
1.7499078946
 30
0.0
 10
5.5353049735
 20
1.7489844946
 30
0.0
 10
5.5144358655
 20
1.7481962945
 30
0.0
 10
5.4989877166
 20
1.7475593204
 30
0.0
 10
5.488418845
 20
1.7470951001
 30
0.0
 10
5.478575089
 20
1.7466311832
 30
0.0
 10
5.4694858082
 20
1.74616753
 30
0.0
 10
5.4611781109
 20
1.7457043612
 30
0.0
 10
5.4536767737
 20
1.7452418683
 30
0.0
 10
5.4470041449
 20
1.7447800497
 30
0.0
 10
5.4419718631
 20
1.7443823824
 30
0.0
 10
5.4383755173
 20
1.7440602189
 30
0.0
 10
5.4360041948
 20
1.7438282938
 30
0.0
 10
5.4338534191
 20
1.7435965702
 30
0.0
 10
5.4319246225
 20
1.7433651401
 30
0.0
 10
5.4302190212
 20
1.7431341037
 30
0.0
 10
5.4287377116
 20
1.7429036948
 30
0.0
 10
5.4274818338
 20
1.7426740384
 30
0.0
 10
5.426578405
 20
1.7424741247
 30
0.0
 10
5.4259708079
 20
1.7423104026
 30
0.0
 10
5.4255986122
 20
1.7421949109
 30
0.0
 10
5.4252830823
 20
1.7420796821
 30
0.0
 10
5.4250239965
 20
1.7419647117
 30
0.0
 10
5.4248207001
 20
1.7418499466
 30
0.0
 10
5.424672392
 20
1.7417345618
 30
0.0
 10
5.4245771426
 20
1.7416160558
 30
0.0
 10
5.4245526462
 20
1.7415273994
 30
0.0
 10
5.4245525989
 20
1.7414874063
 30
0.0
  0
LINE
  5
276
100
AcDbEntity
  8
ALL_ASSEMBLY_MEMBERS
100
AcDbLine
 62
7
  6
CONTINUOUS
 10
5.453939018
 20
1.6582325325
 11
5.455091668
 21
1.6586790602
  0
SPLINE
  5
277
100
AcDbEntity
  8
ALL_ASSEMBLY_MEMBERS
100
AcDbSpline
 62
7
  6
CONTINUOUS
 70
0
 71
3
 72
23
 73
19
 74
0
 42
0.0000001
 43
0.0000001
 44
0.0000000001
 40
0.0
 40
0.0
 40
0.0
 40
0.0
 40
0.007285476
 40
0.0162671913
 40
0.0269523522
 40
0.0393422117
 40
0.0534318634
 40
0.0692098531
 40
0.1057780579
 40
0.1489361756
 40
0.1985400524
 40
0.2544088712
 40
0.3163551131
 40
0.3841561641
 40
0.4575670378
 40
0.6201723845
 40
0.8018480659
 40
1.0
 40
1.0
 40
1.0
 40
1.0
 10
5.455091668
 20
1.6586790602
 30
0.0
 10
5.4554216486
 20
1.658775237
 30
0.0
 10
5.4561670217
 20
1.658960292
 30
0.0
 10
5.457413745
 20
1.6592112697
 30
0.0
 10
5.458905162
 20
1.6594633113
 30
0.0
 10
5.4606402818
 20
1.6597161083
 30
0.0
 10
5.4626178109
 20
1.6599694094
 30
0.0
 10
5.4657318816
 20
1.6603254046
 30
0.0
 10
5.4702166108
 20
1.6607621292
 30
0.0
 10
5.4762973592
 20
1.6612661791
 30
0.0
 10
5.4832912715
 20
1.661771501
 30
0.0
 10
5.4911734897
 20
1.6622780292
 30
0.0
 10
5.4999157526
 20
1.6627851614
 30
0.0
 10
5.509486833
 20
1.6632928665
 30
0.0
 10
5.5238030366
 20
1.6639945004
 30
0.0
 10
5.5434898381
 20
1.6648595852
 30
0.0
 10
5.5690606513
 20
1.6658685205
 30
0.0
 10
5.5869682674
 20
1.6665173343
 30
0.0
 10
5.5963108301
 20
1.6668454829
 30
0.0
  0
SPLINE
  5
278
100
AcDbEntity
  8
ALL_ASSEMBLY_MEMBERS
100
AcDbSpline
 62
7
  6
CONTINUOUS
 70
0
 71
3
 72
42
 73
38
 74
0
 42
0.0000001
 43
0.0000001
 44
0.0000000001
 40
0.0
 40
0.0
 40
0.0
 40
0.0
 40
0.0788328704
 40
0.1618365469
 40
0.2476135298
 40
0.3347202058
 40
0.4216906884
 40
0.5070608438
 40
0.5893933368
 40
0.6673029639
 40
0.7394794771
 40
0.773033831
 40
0.8047091761
 40
0.8343701485
 40
0.8618953687
 40
0.8871668091
 40
0.9100798311
 40
0.9305403303
 40
0.9484604043
 40
0.9564459518
 40
0.9637710504
 40
0.970427781
 40
0.9764091403
 40
0.9817108063
 40
0.9863294172
 40
0.9902624082
 40
0.9935086987
 40
0.9948749981
 40
0.9960713216
 40
0.9970996111
 40
0.9979630264
 40
0.9986670545
 40
0.9992220612
 40
0.9994502215
 40
0.9996509735
 40
0.9998311232
 40
1.0
 40
1.0
 40
1.0
 40
1.0
 10
5.5963108301
 20
1.6668454829
 30
0.0
 10
5.6071703631
 20
1.6672269137
 30
0.0
 10
5.6294649831
 20
1.6679812691
 30
0.0
 10
5.6635781034
 20
1.669078569
 30
0.0
 10
5.6988322222
 20
1.6701765005
 30
0.0
 10
5.7346333695
 20
1.6712747203
 30
0.0
 10
5.7703784155
 20
1.6723729052
 30
0.0
 10
5.805465091
 20
1.6734707499
 30
0.0
 10
5.8393022279
 20
1.6745678671
 30
0.0
 10
5.8713198048
 20
1.6756638917
 30
0.0
 10
5.8966154464
 20
1.6765968575
 30
0.0
 10
5.9155403475
 20
1.6773510632
 30
0.0
 10
5.9286083461
 20
1.6779026092
 30
0.0
 10
5.9408445219
 20
1.6784539118
 30
0.0
 10
5.9521970573
 20
1.6790047384
 30
0.0
 10
5.9626183065
 20
1.679555091
 30
0.0
 10
5.9720643305
 20
1.6801047155
 30
0.0
 10
5.9804952115
 20
1.6806533077
 30
0.0
 10
5.9868689275
 20
1.6811256371
 30
0.0
 10
5.991433435
 20
1.6815082737
 30
0.0
 10
5.9944488566
 20
1.6817838934
 30
0.0
 10
5.9971867945
 20
1.6820592299
 30
0.0
 10
5.9996443134
 20
1.6823342628
 30
0.0
 10
6.0018189971
 20
1.6826088302
 30
0.0
 10
6.003708943
 20
1.6828826348
 30
0.0
 10
6.0053122583
 20
1.6831555318
 30
0.0
 10
6.0064664417
 20
1.6833930534
 30
0.0
 10
6.0072432509
 20
1.6835876601
 30
0.0
 10
6.0077189647
 20
1.6837248752
 30
0.0
 10
6.008122196
 20
1.6838617395
 30
0.0
 10
6.0084533698
 20
1.6839982397
 30
0.0
 10
6.0087127791
 20
1.6841343342
 30
0.0
 10
6.0088804405
 20
1.6842548484
 30
0.0
 10
6.0089738992
 20
1.6843537278
 30
0.0
 10
6.0090212837
 20
1.6844236002
 30
0.0
 10
6.0090503119
 20
1.6844942859
 30
0.0
 10
6.0090569798
 20
1.6845425919
 30
0.0
 10
6.0090570071
 20
1.6845658696
 30
0.0
  0
SPLINE
  5
279
100
AcDbEntity
  8
ALL_ASSEMBLY_MEMBERS
100
AcDbSpline
 62
7
  6
CONTINUOUS
 70
0
 71
3
 72
42
 73
38
 74
0
 42
0.0000001
 43
0.0000001
 44
0.0000000001
 40
0.0
 40
0.0
 40
0.0
 40
0.0
 40
0.0001704415
 40
0.0003513494
 40
0.0005515799
 40
0.0007777337
 40
0.0013241595
 40
0.0020138022
 40
0.002857429
 40
0.0038606133
 40
0.0050263958
 40
0.0063565482
 40
0.0095135211
 40
0.01333589
 40
0.0178243911
 40
0.022978115
 40
0.0287935268
 40
0.0352651125
 40
0.0423870029
 40
0.0501531259
 40
0.0675919538
 40
0.0875153234
 40
0.1098457231
 40
0.1345011166
 40
0.161383163
 40
0.1903889703
 40
0.2214076928
 40
0.2543161988
 40
0.3252913918
 40
0.4022118782
 40
0.4838834463
 40
0.5690379714
 40
0.6563517489
 40
0.7444675198
 40
0.832016354
 40
0.9176375791
 40
1.0
 40
1.0
 40
1.0
 40
1.0
 10
5.4535477479
 20
1.6711746201
 30
0.0
 10
5.4535477346
 20
1.6711969658
 30
0.0
 10
5.453553764
 20
1.6712432173
 30
0.0
 10
5.4535803468
 20
1.6713110831
 30
0.0
 10
5.4536239179
 20
1.6713782431
 30
0.0
 10
5.4537098021
 20
1.6714730858
 30
0.0
 10
5.4538643086
 20
1.671588956
 30
0.0
 10
5.4541039387
 20
1.6717198558
 30
0.0
 10
5.454409931
 20
1.6718510673
 30
0.0
 10
5.4547825394
 20
1.6719825909
 30
0.0
 10
5.4552220774
 20
1.6721144416
 30
0.0
 10
5.4559393619
 20
1.672301366
 30
0.0
 10
5.4570050529
 20
1.6725296335
 30
0.0
 10
5.4584856557
 20
1.6727919036
 30
0.0
 10
5.4602313636
 20
1.6730550246
 30
0.0
 10
5.4622407729
 20
1.6733188143
 30
0.0
 10
5.4645120774
 20
1.6735830359
 30
0.0
 10
5.4670429212
 20
1.6738476112
 30
0.0
 10
5.469830741
 20
1.6741124567
 30
0.0
 10
5.474052981
 20
1.6744802125
 30
0.0
 10
5.4799522151
 20
1.6749340349
 30
0.0
 10
5.4877604744
 20
1.675461218
 30
0.0
 10
5.4965167072
 20
1.6759893704
 30
0.0
 10
5.5061866986
 20
1.6765181317
 30
0.0
 10
5.5167330251
 20
1.6770474698
 30
0.0
 10
5.5281145594
 20
1.6775771815
 30
0.0
 10
5.5402869721
 20
1.6781071545
 30
0.0
 10
5.5579584047
 20
1.6788325501
 30
0.0
 10
5.5816456912
 20
1.6797299358
 30
0.0
 10
5.6117245479
 20
1.680783402
 30
0.0
 10
5.6436634057
 20
1.681837963
 30
0.0
 10
5.6769655477
 20
1.6828932892
 30
0.0
 10
5.7111129499
 20
1.6839490307
 30
0.0
 10
5.7455743985
 20
1.6850049294
 30
0.0
 10
5.7798138462
 20
1.6860607177
 30
0.0
 10
5.813298652
 20
1.6871161332
 30
0.0
 10
5.8353102589
 20
1.6878369257
 30
0.0
 10
5.8461022037
 20
1.6882007335
 30
0.0
  0
SPLINE
  5
27A
100
AcDbEntity
  8
ALL_ASSEMBLY_MEMBERS
100
AcDbSpline
 62
7
  6
CONTINUOUS
 70
0
 71
3
 72
29
 73
25
 74
0
 42
0.0000001
 43
0.0000001
 44
0.0000000001
 40
0.0
 40
0.0
 40
0.0
 40
0.0
 40
0.2046746827
 40
0.3009078872
 40
0.3924647022
 40
0.4789253524
 40
0.5598871175
 40
0.6349720224
 40
0.7038395288
 40
0.7661622386
 40
0.8216625477
 40
0.8700816156
 40
0.8915652071
 40
0.9112017932
 40
0.9289700513
 40
0.9448492558
 40
0.9588221573
 40
0.9708800046
 40
0.9810178673
 40
0.9892359431
 40
0.9926285047
 40
0.9955474593
 40
0.9980001104
 40
1.0
 40
1.0
 40
1.0
 40
1.0
 10
5.8461022037
 20
1.6882007335
 30
0.0
 10
5.8572147963
 20
1.6885753508
 30
0.0
 10
5.8735517441
 20
1.6891421363
 30
0.0
 10
5.8948576945
 20
1.6899313917
 30
0.0
 10
5.9097450329
 20
1.6905109566
 30
0.0
 10
5.9238021046
 20
1.6910902222
 30
0.0
 10
5.9369635536
 20
1.6916691405
 30
0.0
 10
5.9491682893
 20
1.6922476798
 30
0.0
 10
5.9603592692
 20
1.6928255288
 30
0.0
 10
5.9704848207
 20
1.6934026495
 30
0.0
 10
5.9794975769
 20
1.6939786246
 30
0.0
 10
5.9862921271
 20
1.6944748332
 30
0.0
 10
5.9911396873
 20
1.694877285
 30
0.0
 10
5.9943257084
 20
1.6951667076
 30
0.0
 10
5.9972059327
 20
1.6954557869
 30
0.0
 10
5.9997768243
 20
1.695744427
 30
0.0
 10
6.0020353676
 20
1.6960325539
 30
0.0
 10
6.0039793256
 20
1.6963197155
 30
0.0
 10
6.0056067957
 20
1.6966057427
 30
0.0
 10
6.0067622516
 20
1.6968553704
 30
0.0
 10
6.0075245215
 20
1.697060857
 30
0.0
 10
6.0079786421
 20
1.6972046434
 30
0.0
 10
6.0083528155
 20
1.6973479561
 30
0.0
 10
6.0085711042
 20
1.6974535528
 30
0.0
 10
6.0086651435
 20
1.697507959
 30
0.0
  0
SPLINE
  5
27B
100
AcDbEntity
  8
ALL_ASSEMBLY_MEMBERS
100
AcDbSpline
 62
7
  6
CONTINUOUS
 70
0
 71
3
 72
34
 73
30
 74
0
 42
0.0000001
 43
0.0000001
 44
0.0000000001
 40
0.0
 40
0.0
 40
0.0
 40
0.0
 40
0.2205132869
 40
0.3223251701
 40
0.4179968781
 40
0.5072340354
 40
0.5897504732
 40
0.6652824267
 40
0.7335754572
 40
0.7943994541
 40
0.8475674564
 40
0.8712242858
 40
0.892903621
 40
0.9125916486
 40
0.9302754124
 40
0.9459428548
 40
0.9595833941
 40
0.9711918044
 40
0.9807726653
 40
0.9848071835
 40
0.98834173
 40
0.9913818671
 40
0.9939368727
 40
0.9960231036
 40
0.9976716912
 40
0.9983515614
 40
0.9989516124
 40
0.9994919993
 40
1.0
 40
1.0
 40
1.0
 40
1.0
 10
5.9168083977
 20
1.6063974127
 30
0.0
 10
5.9257563253
 20
1.6067097032
 30
0.0
 10
5.9388349273
 20
1.6071846898
 30
0.0
 10
5.9557933799
 20
1.6078551878
 30
0.0
 10
5.9674246712
 20
1.6083443853
 30
0.0
 10
5.9782717997
 20
1.6088331979
 30
0.0
 10
5.98830033
 20
1.6093217099
 30
0.0
 10
5.9974774108
 20
1.6098097387
 30
0.0
 10
6.0057724106
 20
1.6102970774
 30
0.0
 10
6.0131576812
 20
1.6107836789
 30
0.0
 10
6.0187309667
 20
1.6112026079
 30
0.0
 10
6.0227160769
 20
1.6115420478
 30
0.0
 10
6.0253449116
 20
1.611786457
 30
0.0
 10
6.0277301078
 20
1.6120306183
 30
0.0
 10
6.0298698404
 20
1.6122744635
 30
0.0
 10
6.0317623067
 20
1.6125178814
 30
0.0
 10
6.0334059257
 20
1.6127606379
 30
0.0
 10
6.0347993926
 20
1.6130026571
 30
0.0
 10
6.0358020597
 20
1.6132133251
 30
0.0
 10
6.0364767896
 20
1.6133858495
 30
0.0
 10
6.0368901414
 20
1.6135075152
 30
0.0
 10
6.0372405675
 20
1.6136288753
 30
0.0
 10
6.0375283948
 20
1.6137499278
 30
0.0
 10
6.0377538456
 20
1.6138706408
 30
0.0
 10
6.0378993822
 20
1.6139775223
 30
0.0
 10
6.037980346
 20
1.6140651272
 30
0.0
 10
6.0380213776
 20
1.6141270949
 30
0.0
 10
6.0380464276
 20
1.6141897487
 30
0.0
 10
6.03805211
 20
1.6142324966
 30
0.0
 10
6.0380520929
 20
1.6142531227
 30
0.0
  0
SPLINE
  5
27C
100
AcDbEntity
  8
ALL_ASSEMBLY_MEMBERS
100
AcDbSpline
 62
7
  6
CONTINUOUS
 70
0
 71
3
 72
67
 73
63
 74
0
 42
0.0000001
 43
0.0000001
 44
0.0000000001
 40
0.0
 40
0.0
 40
0.0
 40
0.0
 40
0.0001715237
 40
0.0003717622
 40
0.0006195564
 40
0.0009250235
 40
0.0012935203
 40
0.0017280449
 40
0.0022303846
 40
0.0028016648
 40
0.0041536446
 40
0.0057876824
 40
0.0077054369
 40
0.0099071628
 40
0.0123921404
 40
0.0151593475
 40
0.0182075852
 40
0.0215355386
 40
0.0290247347
 40
0.0376109833
 40
0.0472737616
 40
0.0579920582
 40
0.0697421365
 40
0.0824954958
 40
0.0962230572
 40
0.1108942665
 40
0.1429252626
 40
0.1782922122
 40
0.2166636851
 40
0.2576831137
 40
0.3009667533
 40
0.3461106447
 40
0.3926946065
 40
0.4402835012
 40
0.4884341312
 40
0.5366973177
 40
0.5846226297
 40
0.6317623375
 40
0.6776769043
 40
0.7219389318
 40
0.7641347809
 40
0.8038717727
 40
0.8407780302
 40
0.8745092628
 40
0.904752859
 40
0.9184766921
 40
0.9312264225
 40
0.9429727069
 40
0.9536869863
 40
0.9633457719
 40
0.971927892
 40
0.9794126971
 40
0.9857843327
 40
0.9885492663
 40
0.991031946
 40
0.993231347
 40
0.995146752
 40
0.9967784423
 40
0.9981280903
 40
0.9991991754
 40
0.999632583
 40
1.0
 40
1.0
 40
1.0
 40
1.0
 10
5.4245522442
 20
1.6879148918
 30
0.0
 10
5.4245522442
 20
1.6879500099
 30
0.0
 10
5.4245705407
 20
1.6880265977
 30
0.0
 10
5.424644482
 20
1.6881319064
 30
0.0
 10
5.4247608686
 20
1.6882344744
 30
0.0
 10
5.4249203259
 20
1.6883363237
 30
0.0
 10
5.4251234331
 20
1.6884381993
 30
0.0
 10
5.4253706365
 20
1.6885402387
 30
0.0
 10
5.4256621204
 20
1.6886424745
 30
0.0
 10
5.4261372918
 20
1.6887872278
 30
0.0
 10
5.4268442087
 20
1.6889641832
 30
0.0
 10
5.4278275707
 20
1.6891675106
 30
0.0
 10
5.4289879225
 20
1.6893714078
 30
0.0
 10
5.4303246769
 20
1.6895757917
 30
0.0
 10
5.4318370749
 20
1.6897805035
 30
0.0
 10
5.4335241585
 20
1.6899854574
 30
0.0
 10
5.4353849544
 20
1.6901906053
 30
0.0
 10
5.4382094656
 20
1.6904756749
 30
0.0
 10
5.4421666807
 20
1.6908275226
 30
0.0
 10
5.447420596
 20
1.691235971
 30
0.0
 10
5.4533373516
 20
1.6916451793
 30
0.0
 10
5.4599032163
 20
1.6920549289
 30
0.0
 10
5.4671029476
 20
1.6924650076
 30
0.0
 10
5.4749196961
 20
1.6928754234
 30
0.0
 10
5.4833352712
 20
1.693286095
 30
0.0
 10
5.4956949241
 20
1.6938504951
 30
0.0
 10
5.512483469
 20
1.694549177
 30
0.0
 10
5.534123531
 20
1.6953663802
 30
0.0
 10
5.5576050672
 20
1.696184628
 30
0.0
 10
5.5827083688
 20
1.6970035914
 30
0.0
 10
5.6091989465
 20
1.6978230829
 30
0.0
 10
5.6368293255
 20
1.6986429515
 30
0.0
 10
5.665341538
 20
1.6994630566
 30
0.0
 10
5.6944695988
 20
1.7002833457
 30
0.0
 10
5.7239415993
 20
1.7011037155
 30
0.0
 10
5.7534825041
 20
1.7019241145
 30
0.0
 10
5.7828163524
 20
1.7027444565
 30
0.0
 10
5.8116691531
 20
1.7035646697
 30
0.0
 10
5.8397716222
 20
1.7043846791
 30
0.0
 10
5.8668614418
 20
1.705204356
 30
0.0
 10
5.8926858627
 20
1.7060236259
 30
0.0
 10
5.9170034716
 20
1.7068422568
 30
0.0
 10
5.9395870074
 20
1.7076599848
 30
0.0
 10
5.9602255064
 20
1.7084765894
 30
0.0
 10
5.9761183893
 20
1.7091761733
 30
0.0
 10
5.987716996
 20
1.7097422237
 30
0.0
 10
5.9955314578
 20
1.7101526594
 30
0.0
 10
6.0027288421
 20
1.7105627426
 30
0.0
 10
6.0092922868
 20
1.7109725012
 30
0.0
 10
6.015206543
 20
1.7113817429
 30
0.0
 10
6.0204579135
 20
1.7117901067
 30
0.0
 10
6.0250340362
 20
1.7121975007
 30
0.0
 10
6.0284190353
 20
1.7125501705
 30
0.0
 10
6.0307806632
 20
1.7128372117
 30
0.0
 10
6.03229163
 20
1.7130419455
 30
0.0
 10
6.0336269551
 20
1.7132463111
 30
0.0
 10
6.0347858047
 20
1.7134502533
 30
0.0
 10
6.0357678251
 20
1.7136534454
 30
0.0
 10
6.0365726981
 20
1.7138557344
 30
0.0
 10
6.0371304362
 20
1.7140329653
 30
0.0
 10
6.0374847893
 20
1.714179517
 30
0.0
 10
6.0376314878
 20
1.7142533605
 30
0.0
 10
6.0376966363
 20
1.7142909713
 30
0.0
  0
SPLINE
  5
27D
100
AcDbEntity
  8
ALL_ASSEMBLY_MEMBERS
100
AcDbSpline
 62
7
  6
CONTINUOUS
 70
0
 71
3
 72
67
 73
63
 74
0
 42
0.0000001
 43
0.0000001
 44
0.0000000001
 40
0.0
 40
0.0
 40
0.0
 40
0.0
 40
0.0001715241
 40
0.0003717641
 40
0.0006195616
 40
0.0009250335
 40
0.0012935368
 40
0.0017280692
 40
0.0022304182
 40
0.0028017089
 40
0.0041537132
 40
0.0057877799
 40
0.0077055709
 40
0.0099073613
 40
0.0123924282
 40
0.0151597421
 40
0.0182080967
 40
0.0215361699
 40
0.0290256305
 40
0.0376123535
 40
0.0472756783
 40
0.0579944164
 40
0.0697450972
 40
0.0824990904
 40
0.0962269411
 40
0.1108982037
 40
0.1429290685
 40
0.1782952948
 40
0.2166660786
 40
0.2576850638
 40
0.3009684172
 40
0.3461123465
 40
0.3926968309
 40
0.4402869604
 40
0.4884392675
 40
0.5367034945
 40
0.5846290342
 40
0.6317682727
 40
0.6776825636
 40
0.7219445349
 40
0.7641402165
 40
0.803877024
 40
0.8407828389
 40
0.8745138329
 40
0.9047569175
 40
0.9184805227
 40
0.9312297712
 40
0.9429756186
 40
0.9536895303
 40
0.9633476644
 40
0.9719291453
 40
0.9794135736
 40
0.9857848687
 40
0.9885496468
 40
0.9910321946
 40
0.993231498
 40
0.9951468456
 40
0.9967784967
 40
0.9981281174
 40
0.9991991849
 40
0.9996325869
 40
1.0
 40
1.0
 40
1.0
 40
1.0
 10
6.0380522442
 20
1.7213981279
 30
0.0
 10
6.0380522442
 20
1.7213630097
 30
0.0
 10
6.0380339471
 20
1.7212864215
 30
0.0
 10
6.0379600041
 20
1.7211811126
 30
0.0
 10
6.037843615
 20
1.7210785444
 30
0.0
 10
6.0376841544
 20
1.7209766949
 30
0.0
 10
6.0374810431
 20
1.7208748187
 30
0.0
 10
6.0372338347
 20
1.7207727787
 30
0.0
 10
6.0369423451
 20
1.7206705422
 30
0.0
 10
6.0364671647
 20
1.7205257875
 30
0.0
 10
6.0357602347
 20
1.7203488298
 30
0.0
 10
6.0347768547
 20
1.7201454988
 30
0.0
 10
6.0336164769
 20
1.7199415959
 30
0.0
 10
6.0322796837
 20
1.7197372078
 30
0.0
 10
6.0307672325
 20
1.7195324915
 30
0.0
 10
6.029080085
 20
1.7193275327
 30
0.0
 10
6.0272192188
 20
1.7191223799
 30
0.0
 10
6.0243946052
 20
1.718837303
 30
0.0
 10
6.0204372147
 20
1.7184854414
 30
0.0
 10
6.0151830361
 20
1.7180769857
 30
0.0
 10
6.009265981
 20
1.7176677676
 30
0.0
 10
6.0026997914
 20
1.7172579962
 30
0.0
 10
5.9954997165
 20
1.7168479075
 30
0.0
 10
5.9876826553
 20
1.7164374884
 30
0.0
 10
5.9792668803
 20
1.7160268095
 30
0.0
 10
5.966907184
 20
1.7154624121
 30
0.0
 10
5.9501188023
 20
1.7147637537
 30
0.0
 10
5.928479056
 20
1.7139465634
 30
0.0
 10
5.9049978992
 20
1.7131283337
 30
0.0
 10
5.8798948878
 20
1.7123093827
 30
0.0
 10
5.8534044515
 20
1.7114898956
 30
0.0
 10
5.8257740163
 20
1.7106700265
 30
0.0
 10
5.7972614362
 20
1.7098499114
 30
0.0
 10
5.7681326724
 20
1.7090296022
 30
0.0
 10
5.7386598629
 20
1.7082092109
 30
0.0
 10
5.7091183552
 20
1.7073887931
 30
0.0
 10
5.6797843433
 20
1.7065684465
 30
0.0
 10
5.6509316485
 20
1.7057482319
 30
0.0
 10
5.6228293433
 20
1.704928225
 30
0.0
 10
5.5957396261
 20
1.7041085458
 30
0.0
 10
5.5699152888
 20
1.7032892708
 30
0.0
 10
5.5455978424
 20
1.7024706431
 30
0.0
 10
5.5230144843
 20
1.7016529039
 30
0.0
 10
5.5023762293
 20
1.7008363062
 30
0.0
 10
5.4864835472
 20
1.7001367122
 30
0.0
 10
5.4748851906
 20
1.6995706688
 30
0.0
 10
5.467070964
 20
1.6991602298
 30
0.0
 10
5.4598738433
 20
1.6987501512
 30
0.0
 10
5.4533106959
 20
1.6983404141
 30
0.0
 10
5.4473967794
 20
1.6979311809
 30
0.0
 10
5.4421457508
 20
1.6975228241
 30
0.0
 10
5.437569905
 20
1.6971154516
 30
0.0
 10
5.4341850843
 20
1.6967627948
 30
0.0
 10
5.4318235846
 20
1.6964757634
 30
0.0
 10
5.4303126965
 20
1.6962710364
 30
0.0
 10
5.4289774299
 20
1.6960666766
 30
0.0
 10
5.4278186195
 20
1.6958627414
 30
0.0
 10
5.4268366241
 20
1.6956595535
 30
0.0
 10
5.4260317682
 20
1.6954572671
 30
0.0
 10
5.4254740405
 20
1.6952800377
 30
0.0
 10
5.4251196931
 20
1.6951334868
 30
0.0
 10
5.4249729966
 20
1.6950596436
 30
0.0
 10
5.4249078489
 20
1.6950220329
 30
0.0
  0
SPLINE
  5
27E
100
AcDbEntity
  8
ALL_ASSEMBLY_MEMBERS
100
AcDbSpline
 62
7
  6
CONTINUOUS
 70
0
 71
3
 72
67
 73
63
 74
0
 42
0.0000001
 43
0.0000001
 44
0.0000000001
 40
0.0
 40
0.0
 40
0.0
 40
0.0
 40
0.000171524
 40
0.0003717633
 40
0.0006195595
 40
0.0009250295
 40
0.0012935303
 40
0.0017280599
 40
0.0022304057
 40
0.0028016929
 40
0.0041536896
 40
0.0057877483
 40
0.0077055304
 40
0.0099073049
 40
0.0123923505
 40
0.0151596407
 40
0.0182079721
 40
0.0215360257
 40
0.0290254597
 40
0.0376121272
 40
0.0472753723
 40
0.0579940217
 40
0.0697445646
 40
0.0824984308
 40
0.0962262769
 40
0.1108976866
 40
0.1429291451
 40
0.1782963974
 40
0.2166681597
 40
0.2576879577
 40
0.3009717343
 40
0.3461158357
 40
0.3927001074
 40
0.440289633
 40
0.4884409371
 40
0.5367038425
 40
0.5846284127
 40
0.6317676226
 40
0.6776820066
 40
0.721943837
 40
0.7641394244
 40
0.8038761742
 40
0.8407819737
 40
0.8745129644
 40
0.9047560729
 40
0.9184796197
 40
0.9312288427
 40
0.942974663
 40
0.9536885894
 40
0.963346908
 40
0.9719286095
 40
0.9794131773
 40
0.985784619
 40
0.9885494697
 40
0.9910320815
 40
0.993231434
 40
0.9951468117
 40
0.9967784812
 40
0.9981281123
 40
0.9991991843
 40
0.9996325869
 40
1.0
 40
1.0
 40
1.0
 40
1.0
 10
6.0380522442
 20
1.667825599
 30
0.0
 10
6.0380522442
 20
1.6677904809
 30
0.0
 10
6.0380339474
 20
1.6677138928
 30
0.0
 10
6.037960005
 20
1.667608584
 30
0.0
 10
6.0378436169
 20
1.6675060159
 30
0.0
 10
6.0376841576
 20
1.6674041665
 30
0.0
 10
6.0374810479
 20
1.6673022905
 30
0.0
 10
6.0372338413
 20
1.6672002507
 30
0.0
 10
6.0369423536
 20
1.6670980145
 30
0.0
 10
6.0364671761
 20
1.6669532602
 30
0.0
 10
6.0357602501
 20
1.6667763032
 30
0.0
 10
6.034776875
 20
1.6665729732
 30
0.0
 10
6.0336165037
 20
1.6663690719
 30
0.0
 10
6.0322797199
 20
1.6661646847
 30
0.0
 10
6.0307672812
 20
1.6659599693
 30
0.0
 10
6.0290801476
 20
1.6657550114
 30
0.0
 10
6.027219295
 20
1.6655498593
 30
0.0
 10
6.0243946956
 20
1.6652647831
 30
0.0
 10
6.0204373259
 20
1.6649129236
 30
0.0
 10
6.0151831804
 20
1.6645044685
 30
0.0
 10
6.0092661712
 20
1.6640952516
 30
0.0
 10
6.0027000441
 20
1.6636854839
 30
0.0
 10
5.9955000417
 20
1.6632753973
 30
0.0
 10
5.9876830356
 20
1.662864979
 30
0.0
 10
5.9792672575
 20
1.6624542999
 30
0.0
 10
5.9669074105
 20
1.6618898964
 30
0.0
 10
5.9501186675
 20
1.6611912202
 30
0.0
 10
5.9284783893
 20
1.660374014
 30
0.0
 10
5.9049966561
 20
1.6595557641
 30
0.0
 10
5.8798931913
 20
1.6587368046
 30
0.0
 10
5.8534024668
 20
1.6579173093
 30
0.0
 10
5.825771953
 20
1.6570974421
 30
0.0
 10
5.7972595048
 20
1.656277332
 30
0.0
 10
5.7681311132
 20
1.6554570347
 30
0.0
 10
5.738658903
 20
1.6546366607
 30
0.0
 10
5.7091180694
 20
1.6538162625
 30
0.0
 10
5.6797845322
 20
1.6529959293
 30
0.0
 10
5.6509320226
 20
1.6521757207
 30
0.0
 10
5.622829733
 20
1.6513557154
 30
0.0
 10
5.5957400447
 20
1.650536038
 30
0.0
 10
5.5699157672
 20
1.6497167665
 30
0.0
 10
5.545598355
 20
1.6488981408
 30
0.0
 10
5.5230150123
 20
1.6480804062
 30
0.0
 10
5.5023767563
 20
1.6472638087
 30
0.0
 10
5.4864840816
 20
1.6465642194
 30
0.0
 10
5.4748857371
 20
1.6459981792
 30
0.0
 10
5.467071533
 20
1.645587746
 30
0.0
 10
5.4598744198
 20
1.6451776706
 30
0.0
 10
5.4533112373
 20
1.6447679303
 30
0.0
 10
5.4473972348
 20
1.6443586972
 30
0.0
 10
5.4421460943
 20
1.64395034
 30
0.0
 10
5.437570145
 20
1.6435429594
 30
0.0
 10
5.434185251
 20
1.6431902972
 30
0.0
 10
5.4318236935
 20
1.6429032615
 30
0.0
 10
5.4303127674
 20
1.6426985315
 30
0.0
 10
5.4289774715
 20
1.6424941691
 30
0.0
 10
5.4278186413
 20
1.6422902311
 30
0.0
 10
5.426836634
 20
1.6420870415
 30
0.0
 10
5.4260317712
 20
1.6418847543
 30
0.0
 10
5.4254740402
 20
1.6417075245
 30
0.0
 10
5.4251196918
 20
1.6415609734
 30
0.0
 10
5.4249729952
 20
1.6414871302
 30
0.0
 10
5.4249078475
 20
1.6414495195
 30
0.0
  0
SPLINE
  5
27F
100
AcDbEntity
  8
ALL_ASSEMBLY_MEMBERS
100
AcDbSpline
 62
7
  6
CONTINUOUS
 70
0
 71
3
 72
67
 73
63
 74
0
 42
0.0000001
 43
0.0000001
 44
0.0000000001
 40
0.0
 40
0.0
 40
0.0
 40
0.0
 40
0.0001715239
 40
0.0003717634
 40
0.0006195598
 40
0.0009250303
 40
0.0012935317
 40
0.0017280621
 40
0.0022304087
 40
0.0028016969
 40
0.004153696
 40
0.0057877575
 40
0.0077055429
 40
0.0099073234
 40
0.0123923768
 40
0.0151596758
 40
0.018208016
 40
0.0215360774
 40
0.0290255236
 40
0.0376122161
 40
0.0472754977
 40
0.0579941901
 40
0.0697447999
 40
0.0824987289
 40
0.0962265844
 40
0.1108979412
 40
0.1429292324
 40
0.1782963117
 40
0.2166679477
 40
0.2576876381
 40
0.300971366
 40
0.3461154647
 40
0.3926997943
 40
0.4402894683
 40
0.4884409907
 40
0.5367040592
 40
0.5846286894
 40
0.6317678707
 40
0.6776822437
 40
0.7219441022
 40
0.7641397076
 40
0.8038764718
 40
0.8407822726
 40
0.8745132645
 40
0.9047563635
 40
0.918479923
 40
0.9312291429
 40
0.9429749561
 40
0.9536888592
 40
0.9633471043
 40
0.9719287238
 40
0.9794132405
 40
0.9857846511
 40
0.9885494912
 40
0.9910320953
 40
0.9932314428
 40
0.9951468176
 40
0.9967784849
 40
0.9981281144
 40
0.9991991852
 40
0.9996325874
 40
1.0
 40
1.0
 40
1.0
 40
1.0
 10
5.4245522442
 20
1.6343424299
 30
0.0
 10
5.4245522442
 20
1.6343775481
 30
0.0
 10
5.424570541
 20
1.6344541361
 30
0.0
 10
5.4246444835
 20
1.6345594448
 30
0.0
 10
5.4247608719
 20
1.634662013
 30
0.0
 10
5.4249203315
 20
1.6347638624
 30
0.0
 10
5.4251234417
 20
1.6348657384
 30
0.0
 10
5.4253706488
 20
1.6349677781
 30
0.0
 10
5.425662137
 20
1.6350700144
 30
0.0
 10
5.4261373154
 20
1.6352147688
 30
0.0
 10
5.4268442427
 20
1.6353917259
 30
0.0
 10
5.4278276195
 20
1.6355950561
 30
0.0
 10
5.4289879932
 20
1.6357989579
 30
0.0
 10
5.4303247806
 20
1.6360033453
 30
0.0
 10
5.4318372239
 20
1.6362080609
 30
0.0
 10
5.4335243627
 20
1.6364130191
 30
0.0
 10
5.4353852205
 20
1.6366181714
 30
0.0
 10
5.4382098258
 20
1.6369032478
 30
0.0
 10
5.4421672047
 20
1.637255108
 30
0.0
 10
5.4474213653
 20
1.6376635633
 30
0.0
 10
5.4533383959
 20
1.6380727806
 30
0.0
 10
5.4599045529
 20
1.6384825499
 30
0.0
 10
5.4671045908
 20
1.6388926373
 30
0.0
 10
5.4749216253
 20
1.6393030559
 30
0.0
 10
5.4833374074
 20
1.639713735
 30
0.0
 10
5.4956972113
 20
1.6402781365
 30
0.0
 10
5.5124858739
 20
1.6409768076
 30
0.0
 10
5.5341260565
 20
1.6417940101
 30
0.0
 10
5.5576077065
 20
1.6426122568
 30
0.0
 10
5.5827111135
 20
1.6434312146
 30
0.0
 10
5.6092018054
 20
1.6442507084
 30
0.0
 10
5.6368323205
 20
1.6450705757
 30
0.0
 10
5.6653448104
 20
1.6458906866
 30
0.0
 10
5.6944732888
 20
1.646710986
 30
0.0
 10
5.7239456074
 20
1.6475313626
 30
0.0
 10
5.7534865314
 20
1.6483517629
 30
0.0
 10
5.7828201083
 20
1.6491720967
 30
0.0
 10
5.8116726221
 20
1.6499923051
 30
0.0
 10
5.8397749094
 20
1.6508123101
 30
0.0
 10
5.8668646049
 20
1.6516319874
 30
0.0
 10
5.8926888947
 20
1.6524512592
 30
0.0
 10
5.9170063138
 20
1.6532698847
 30
0.0
 10
5.9395896599
 20
1.6540876201
 30
0.0
 10
5.9602279145
 20
1.6549042169
 30
0.0
 10
5.97612059
 20
1.6556038071
 30
0.0
 10
5.9877189345
 20
1.6561698477
 30
0.0
 10
5.995533139
 20
1.6565802821
 30
0.0
 10
6.0027302454
 20
1.6569903576
 30
0.0
 10
6.0092934067
 20
1.6574000956
 30
0.0
 10
6.0152073727
 20
1.6578093272
 30
0.0
 10
6.0204584708
 20
1.6582176829
 30
0.0
 10
6.0250343865
 20
1.6586250611
 30
0.0
 10
6.0284192616
 20
1.6589777215
 30
0.0
 10
6.0307808091
 20
1.6592647561
 30
0.0
 10
6.0322917305
 20
1.6594694855
 30
0.0
 10
6.0336270232
 20
1.6596738474
 30
0.0
 10
6.0347858514
 20
1.6598777848
 30
0.0
 10
6.0357678574
 20
1.660080974
 30
0.0
 10
6.0365727192
 20
1.660283261
 30
0.0
 10
6.0371304495
 20
1.6604604906
 30
0.0
 10
6.0374847975
 20
1.6606070416
 30
0.0
 10
6.0376314939
 20
1.6606808847
 30
0.0
 10
6.0376966415
 20
1.6607184954
 30
0.0
  0
SPLINE
  5
280
100
AcDbEntity
  8
ALL_ASSEMBLY_MEMBERS
100
AcDbSpline
 62
7
  6
CONTINUOUS
 70
0
 71
3
 72
53
 73
49
 74
0
 42
0.0000001
 43
0.0000001
 44
0.0000000001
 40
0.0
 40
0.0
 40
0.0
 40
0.0
 40
0.0063434821
 40
0.0136696937
 40
0.0219622932
 40
0.0312044838
 40
0.0413775827
 40
0.0524603874
 40
0.0772685359
 40
0.105433696
 40
0.1367269691
 40
0.1708948667
 40
0.2076617778
 40
0.2467286313
 40
0.287780143
 40
0.3744889154
 40
0.4649806114
 40
0.5563246142
 40
0.6013900005
 40
0.6455625672
 40
0.6884830176
 40
0.7298045275
 40
0.769190362
 40
0.8063230446
 40
0.8408998715
 40
0.8726424175
 40
0.9012929111
 40
0.9266204751
 40
0.9379732818
 40
0.9484221139
 40
0.9579449168
 40
0.9665227015
 40
0.9741403949
 40
0.9807835238
 40
0.9837353249
 40
0.9864388886
 40
0.9888935772
 40
0.9910989081
 40
0.9930546111
 40
0.9947607553
 40
0.996217983
 40
0.996853779
 40
0.9974281301
 40
0.9979416506
 40
0.9983952809
 40
0.9987903977
 40
0.9991290987
 40
1.0
 40
1.0
 40
1.0
 40
1.0
 10
5.4626612158
 20
1.6063974127
 30
0.0
 10
5.4638102203
 20
1.6065362404
 30
0.0
 10
5.4662894628
 20
1.6068087224
 30
0.0
 10
5.4702784206
 20
1.6071893722
 30
0.0
 10
5.4747982788
 20
1.6075709448
 30
0.0
 10
5.4798391373
 20
1.6079530419
 30
0.0
 10
5.4853903604
 20
1.6083354383
 30
0.0
 10
5.4937779751
 20
1.6088658341
 30
0.0
 10
5.5054467603
 20
1.6095199374
 30
0.0
 10
5.5208023392
 20
1.6102806089
 30
0.0
 10
5.5378674029
 20
1.6110426516
 30
0.0
 10
5.5565032116
 20
1.6118057672
 30
0.0
 10
5.5765583694
 20
1.6125695758
 30
0.0
 10
5.5978702615
 20
1.6133339948
 30
0.0
 10
5.6282899643
 20
1.6143726601
 30
0.0
 10
5.6680892237
 20
1.6156531092
 30
0.0
 10
5.7170615112
 20
1.617165286
 30
0.0
 10
5.7584399921
 20
1.6184312395
 30
0.0
 10
5.7913710104
 20
1.6194563749
 30
0.0
 10
5.8154710134
 20
1.6202216528
 30
0.0
 10
5.8388876036
 20
1.6209867665
 30
0.0
 10
5.8614303901
 20
1.6217515607
 30
0.0
 10
5.8829165837
 20
1.622516034
 30
0.0
 10
5.903171421
 20
1.6232799303
 30
0.0
 10
5.9220307194
 20
1.6240431918
 30
0.0
 10
5.9393411402
 20
1.6248053839
 30
0.0
 10
5.9549623062
 20
1.6255663238
 30
0.0
 10
5.9668640286
 20
1.6262201846
 30
0.0
 10
5.9754463856
 20
1.6267500892
 30
0.0
 10
5.9811487148
 20
1.6271325523
 30
0.0
 10
5.9863435329
 20
1.627514649
 30
0.0
 10
5.9910203242
 20
1.6278962858
 30
0.0
 10
5.9951698281
 20
1.6282772559
 30
0.0
 10
5.9982932081
 20
1.6286054101
 30
0.0
 10
6.0005212841
 20
1.628871271
 30
0.0
 10
6.0019885654
 20
1.6290626124
 30
0.0
 10
6.0033184212
 20
1.6292537691
 30
0.0
 10
6.0045103172
 20
1.6294447072
 30
0.0
 10
6.0055637685
 20
1.6296353185
 30
0.0
 10
6.0064782828
 20
1.6298255452
 30
0.0
 10
6.0071518471
 20
1.6299901227
 30
0.0
 10
6.00761986
 20
1.6301238424
 30
0.0
 10
6.0079194737
 20
1.6302194011
 30
0.0
 10
6.0081842459
 20
1.6303150258
 30
0.0
 10
6.0084134
 20
1.6304100714
 30
0.0
 10
6.0086095896
 20
1.6305065054
 30
0.0
 10
6.0088547962
 20
1.6306512938
 30
0.0
 10
6.0090567544
 20
1.6308344976
 30
0.0
 10
6.0090568349
 20
1.6309933925
 30
0.0
  0
LINE
  5
281
100
AcDbEntity
  8
ALL_ASSEMBLY_MEMBERS
100
AcDbLine
 62
7
  6
CONTINUOUS
 10
6.0376962982
 20
1.6071460014
 11
6.0352237868
 21
1.6063974127
  0
SPLINE
  5
282
100
AcDbEntity
  8
ALL_ASSEMBLY_MEMBERS
100
AcDbSpline
 62
7
  6
CONTINUOUS
 70
0
 71
3
 72
25
 73
21
 74
0
 42
0.0000001
 43
0.0000001
 44
0.0000000001
 40
0.0
 40
0.0
 40
0.0
 40
0.0
 40
0.0389846571
 40
0.1483527792
 40
0.2239914476
 40
0.2658706419
 40
0.3099567512
 40
0.3558464131
 40
0.4031186349
 40
0.4513245841
 40
0.5000023042
 40
0.5486800887
 40
0.5968859802
 40
0.644158266
 40
0.690047613
 40
0.73413334
 40
0.7760118067
 40
0.8516491474
 40
0.9610154678
 40
1.0
 40
1.0
 40
1.0
 40
1.0
 10
5.1064432355
 20
6.1145992254
 30
0.0
 10
5.1100501471
 20
6.1181265039
 30
0.0
 10
5.1238925525
 20
6.1314323887
 30
0.0
 10
5.1454637478
 20
6.1508185432
 30
0.0
 10
5.1681655138
 20
6.1694516016
 30
0.0
 10
5.1847168456
 20
6.1822389391
 30
0.0
 10
5.1984485272
 20
6.192371914
 30
0.0
 10
5.2129832497
 20
6.2025843878
 30
0.0
 10
5.2282094148
 20
6.2127308436
 30
0.0
 10
5.2439914303
 20
6.2226834627
 30
0.0
 10
5.2601843207
 20
6.2323136613
 30
0.0
 10
5.2766207683
 20
6.2415219928
 30
0.0
 10
5.2931310517
 20
6.2502132242
 30
0.0
 10
5.3095311762
 20
6.2583262464
 30
0.0
 10
5.3256427699
 20
6.265807317
 30
0.0
 10
5.3412838479
 20
6.2726327575
 30
0.0
 10
5.3606334126
 20
6.2805727667
 30
0.0
 10
5.3881205333
 20
6.2909163565
 30
0.0
 10
5.4156946399
 20
6.2999043299
 30
0.0
 10
5.4341388379
 20
6.3052391913
 30
0.0
 10
5.4389969906
 20
6.3065992254
 30
0.0
  0
ENDSEC
  0
SECTION
  2
OBJECTS
  0
DICTIONARY
  5
C
100
AcDbDictionary
280
0
281
1
  3
ACAD_GROUP
350
D
  3
ACAD_MLINESTYLE
350
17
  3
ACAD_LAYOUT
350
1A
  3
ACAD_PLOTSETTINGS
350
19
  3
ACAD_PLOTSTYLENAME
350
E
  0
DICTIONARY
  5
D
102
{ACAD_REACTORS
330
C
102
}
100
AcDbDictionary
280
0
281
1
  0
ACDBDICTIONARYWDFLT
  5
E
102
{ACAD_REACTORS
330
C
102
}
100
AcDbDictionary
281
1
  3
Normal
350
F
100
AcDbDictionaryWithDefault
340
F
  0
DICTIONARY
  5
17
102
{ACAD_REACTORS
330
C
102
}
100
AcDbDictionary
280
0
281
1
  3
Standard
350
18
  0
DICTIONARY
  5
19
102
{ACAD_REACTORS
330
C
102
}
100
AcDbDictionary
281
1
  0
DICTIONARY
  5
1A
102
{ACAD_REACTORS
330
C
102
}
100
AcDbDictionary
281
1
  3
Model
350
283
  3
Layout1
350
284
  0
ACDBPLACEHOLDER
  5
F
102
{ACAD_REACTORS
330
E
102
}
  0
MLINESTYLE
  5
18
102
{ACAD_REACTORS
330
17
102
}
100
AcDbMlineStyle
  2
STANDARD
 70
0
  3

 62
256
 51
90.0
 52
90.0
 71
2
 49
0.5
 62
256
  6
BYLAYER
 49
-0.5
 62
256
  6
BYLAYER
  0
LAYOUT
  5
283
102
{ACAD_REACTORS
330
1A
102
}
100
AcDbPlotSettings
  1

  2
none_device
  4
ANSI_A_(11.00_x_8.50_Inches)
  6

 40
0.0
 41
0.0
 42
0.0
 43
0.0
 44
279.4
 45
215.9
 46
0.0
 47
0.0
 48
0.0
 49
0.0
140
0.0
141
0.0
142
1.0
143
1.0
 70
1024
 72
0
 73
0
 74
0
  7

 75
0
147
1.0
148
0.0
149
0.0
100
AcDbLayout
  1
Model
 70
0
 71
0
 10
0.0
 20
0.0
 11
11.0
 21
8.5
 12
0.0
 22
0.0
 32
0.0
 14
0.0
 24
0.0
 34
0.0
 15
0.0
 25
0.0
 35
0.0
146
0.0
 13
0.0
 23
0.0
 33
0.0
 16
1.0
 26
0.0
 36
0.0
 17
0.0
 27
1.0
 37
0.0
 76
0
330
215
345
0
346
0
  0
LAYOUT
  5
284
102
{ACAD_REACTORS
330
1A
102
}
100
AcDbPlotSettings
  1

  2
none_device
  4
ANSI_A_(11.00_x_8.50_Inches)
  6

 40
0.0
 41
0.0
 42
0.0
 43
0.0
 44
279.4
 45
215.9
 46
0.0
 47
0.0
 48
0.0
 49
0.0
140
0.0
141
0.0
142
1.0
143
1.0
 70
0
 72
0
 73
0
 74
0
  7

 75
0
147
1.0
148
0.0
149
0.0
100
AcDbLayout
  1
Layout1
 70
0
 71
1
 10
0.0
 20
0.0
 11
11.0
 21
8.5
 12
0.0
 22
0.0
 32
0.0
 14
0.0
 24
0.0
 34
0.0
 15
0.0
 25
0.0
 35
0.0
146
0.0
 13
0.0
 23
0.0
 33
0.0
 16
1.0
 26
0.0
 36
0.0
 17
0.0
 27
1.0
 37
0.0
 76
0
330
216
345
0
346
0
  0
ENDSEC
  0
EOF
