999
DXF file: 283_TOP.dxf
999
Pro/ENGINEER 2018400 by Parametric Technology Corporation
  0
SECTION
  2
HEADER
  9
$ACADVER
  1
AC1027
  9
$DWGCODEPAGE
  3
ANSI_1252
  9
$EXTMAX
 10
11.0
 20
8.5
 30
0.0
  9
$EXTMIN
 10
0.0
 20
0.0
 30
0.0
  9
$LIMMIN
 10
0.0
 20
0.0
  9
$LIMMAX
 10
11.0
 20
8.5
  9
$VIEWCTR
 10
5.5
 20
4.25
  9
$VIEWSIZE
 40
8.5
  9
$CLAYER
  8
0
  9
$LTSCALE
 40
0.605
  9
$CELTYPE
  6
BYLAYER
  9
$DIMSCALE
 40
1.0
  9
$DIMASZ
 40
0.1
  9
$DIMEXO
 40
0.0625
  9
$DIMDLI
 40
0.418
  9
$DIMEXE
 40
0.125
  9
$DIMCEN
 40
0.099
  9
$DIMLFAC
 40
1.0
  9
$DIMBLK
  1
_FILLED
  9
$DIMALT
 70
1
  9
$DIMALTD
 70
2
  9
$DIMALTTD
 70
2
  9
$DIMALTF
 40
25.4
  9
$DIMTXT
 40
0.08
  9
$DIMTOL
 70
1
  9
$DIMLIM
 70
0
  9
$DIMTFAC
 40
1.0
  9
$DIMTP
 40
0.001
  9
$DIMTM
 40
0.001
  9
$DIMGAP
 40
0.09
  9
$DIMDSEP
 70
46
  9
$AUNITS
 70
0
  9
$PDMODE
 70
3
  9
$PDSIZE
 40
0.3125
  9
$HANDSEED
  5
248
  9
$TILEMODE
 70
1
  9
$MEASUREMENT
 70
0
  9
$INSUNITS
 70
1
  0
ENDSEC
  0
SECTION
  2
CLASSES
  0
CLASS
  1
ACDBDICTIONARYWDFLT
  2
AcDbDictionaryWithDefault
  3
AutoCAD 2000
 90
0
 91
1
280
0
281
0
  0
CLASS
  1
ACDBPLACEHOLDER
  2
AcDbPlaceHolder
  3
AutoCAD 2000
 90
0
 91
1
280
0
281
0
  0
CLASS
  1
LAYOUT
  2
AcDbLayout
  3
AutoCAD 2000
 90
0
 91
0
280
0
281
0
  0
ENDSEC
  0
SECTION
  2
TABLES
  0
TABLE
  2
VPORT
  5
8
100
AcDbSymbolTable
 70
2
  0
VPORT
  5
1F4
100
AcDbSymbolTableRecord
100
AcDbViewportTableRecord
  2
*ACTIVE
 70
0
 10
0.0
 20
0.0
 11
1.0
 21
1.0
 12
5.5
 22
4.25
 13
0.0
 23
0.0
 14
1.0
 24
1.0
 15
0.0
 25
0.0
 16
0.0
 26
0.0
 36
1.0
 17
0.0
 27
0.0
 37
0.0
 40
8.5
 41
1.2941176471
 42
50.0
 43
0.0
 44
0.0
 50
0.0
 51
0.0
 71
0
 72
100
 73
1
 74
1
 75
0
 76
0
 77
0
 78
0
  0
ENDTAB
  0
TABLE
  2
LTYPE
  5
5
100
AcDbSymbolTable
 70
6
  0
LTYPE
  5
14
100
AcDbSymbolTableRecord
100
AcDbLinetypeTableRecord
  2
BYBLOCK
 70
0
  3

 72
65
 73
0
 40
0.0
  0
LTYPE
  5
15
100
AcDbSymbolTableRecord
100
AcDbLinetypeTableRecord
  2
BYLAYER
 70
0
  3

 72
65
 73
0
 40
0.0
  0
LTYPE
  5
16
100
AcDbSymbolTableRecord
100
AcDbLinetypeTableRecord
  2
CONTINUOUS
 70
64
  3
Solid line
 72
65
 73
0
 40
0.0
  0
LTYPE
  5
1F5
100
AcDbSymbolTableRecord
100
AcDbLinetypeTableRecord
  2
CENTER
 70
64
  3
____ _ ____ _ ____ _ ____ _ ____ _ ____ _ ____
 72
65
 73
4
 40
0.6
 49
0.375
 74
0
 49
-0.075
 74
0
 49
0.075
 74
0
 49
-0.075
 74
0
  0
LTYPE
  5
1F6
100
AcDbSymbolTableRecord
100
AcDbLinetypeTableRecord
  2
HIDDEN
 70
64
  3
- - - - - - - - - - - - - - - - - - - -
 72
65
 73
2
 40
0.2
 49
0.1
 74
0
 49
-0.1
 74
0
  0
LTYPE
  5
1F7
100
AcDbSymbolTableRecord
100
AcDbLinetypeTableRecord
  2
PHANTOM
 70
64
  3
_____ _ _ _____ _ _ _____ _ _ _____
 72
65
 73
6
 40
0.8
 49
0.45
 74
0
 49
-0.05
 74
0
 49
0.1
 74
0
 49
-0.05
 74
0
 49
0.1
 74
0
 49
-0.05
 74
0
  0
LTYPE
  5
1F8
100
AcDbSymbolTableRecord
100
AcDbLinetypeTableRecord
  2
DOT
 70
64
  3
. . . . . . . . . . . . . . . . . . . .
 72
65
 73
2
 40
0.2
 49
0.1
 74
0
 49
-0.1
 74
0
  0
LTYPE
  5
1F9
100
AcDbSymbolTableRecord
100
AcDbLinetypeTableRecord
  2
DASHED
 70
64
  3
- - - - - - - - - - - - - - - - - - - -
 72
65
 73
2
 40
0.2
 49
0.1
 74
0
 49
-0.1
 74
0
  0
ENDTAB
  0
TABLE
  2
LAYER
  5
2
100
AcDbSymbolTable
 70
36
  0
LAYER
  5
10
100
AcDbSymbolTableRecord
100
AcDbLayerTableRecord
  2
0
 70
0
 62
7
  6
CONTINUOUS
370
-3
390
F
  0
LAYER
  5
1FA
100
AcDbSymbolTableRecord
100
AcDbLayerTableRecord
  2
DEFAULT_1
 70
0
 62
7
  6
CENTER
370
-3
390
F
  0
LAYER
  5
1FB
100
AcDbSymbolTableRecord
100
AcDbLayerTableRecord
  2
DEFAULT_2
 70
0
 62
8
  6
HIDDEN
370
-3
390
F
  0
LAYER
  5
1FC
100
AcDbSymbolTableRecord
100
AcDbLayerTableRecord
  2
DEFAULT_3
 70
0
 62
7
  6
PHANTOM
370
-3
390
F
  0
LAYER
  5
1FD
100
AcDbSymbolTableRecord
100
AcDbLayerTableRecord
  2
ALL_ASSEMBLY_MEMBERS
 70
0
 62
7
  6
CONTINUOUS
370
-3
390
F
  0
LAYER
  5
1FE
100
AcDbSymbolTableRecord
100
AcDbLayerTableRecord
  2
ALL_FEATURES
 70
0
 62
7
  6
CONTINUOUS
370
-3
390
F
  0
LAYER
  5
1FF
100
AcDbSymbolTableRecord
100
AcDbLayerTableRecord
  2
AXES_FEATURES
 70
0
 62
7
  6
CONTINUOUS
370
-3
390
F
  0
LAYER
  5
200
100
AcDbSymbolTableRecord
100
AcDbLayerTableRecord
  2
CHAMFER_FEATURES
 70
0
 62
7
  6
CONTINUOUS
370
-3
390
F
  0
LAYER
  5
201
100
AcDbSymbolTableRecord
100
AcDbLayerTableRecord
  2
COSMETIC_SKETCHES
 70
0
 62
7
  6
CONTINUOUS
370
-3
390
F
  0
LAYER
  5
202
100
AcDbSymbolTableRecord
100
AcDbLayerTableRecord
  2
CURVE
 70
0
 62
7
  6
CONTINUOUS
370
-3
390
F
  0
LAYER
  5
203
100
AcDbSymbolTableRecord
100
AcDbLayerTableRecord
  2
CUT_FEATURES
 70
0
 62
7
  6
CONTINUOUS
370
-3
390
F
  0
LAYER
  5
204
100
AcDbSymbolTableRecord
100
AcDbLayerTableRecord
  2
DATUM_CURVES
 70
0
 62
7
  6
CONTINUOUS
370
-3
390
F
  0
LAYER
  5
205
100
AcDbSymbolTableRecord
100
AcDbLayerTableRecord
  2
DATUM_PLANES
 70
0
 62
7
  6
CONTINUOUS
370
-3
390
F
  0
LAYER
  5
206
100
AcDbSymbolTableRecord
100
AcDbLayerTableRecord
  2
DEFAULT_COORDINATE_SYSTEM
 70
0
 62
7
  6
CONTINUOUS
370
-3
390
F
  0
LAYER
  5
207
100
AcDbSymbolTableRecord
100
AcDbLayerTableRecord
  2
DEFAULT_DATUM_AXES
 70
0
 62
7
  6
CONTINUOUS
370
-3
390
F
  0
LAYER
  5
208
100
AcDbSymbolTableRecord
100
AcDbLayerTableRecord
  2
DEFAULT_DATUM_CURVES
 70
0
 62
7
  6
CONTINUOUS
370
-3
390
F
  0
LAYER
  5
209
100
AcDbSymbolTableRecord
100
AcDbLayerTableRecord
  2
DEFAULT_DATUM_PLANES
 70
0
 62
7
  6
CONTINUOUS
370
-3
390
F
  0
LAYER
  5
20A
100
AcDbSymbolTableRecord
100
AcDbLayerTableRecord
  2
DEFAULT_SURFACES
 70
0
 62
7
  6
CONTINUOUS
370
-3
390
F
  0
LAYER
  5
20B
100
AcDbSymbolTableRecord
100
AcDbLayerTableRecord
  2
DIMENSIONS
 70
0
 62
7
  6
CONTINUOUS
370
-3
390
F
  0
LAYER
  5
20C
100
AcDbSymbolTableRecord
100
AcDbLayerTableRecord
  2
PART_REFERENCE_DIMENSIONS
 70
0
 62
7
  6
CONTINUOUS
370
-3
390
F
  0
LAYER
  5
20D
100
AcDbSymbolTableRecord
100
AcDbLayerTableRecord
  2
PLATING_AREA
 70
0
 62
7
  6
CONTINUOUS
370
-3
390
F
  0
LAYER
  5
20E
100
AcDbSymbolTableRecord
100
AcDbLayerTableRecord
  2
PLATTED_SURFACE_AREA
 70
0
 62
7
  6
CONTINUOUS
370
-3
390
F
  0
LAYER
  5
20F
100
AcDbSymbolTableRecord
100
AcDbLayerTableRecord
  2
PROTRUSION_FEATURES
 70
0
 62
7
  6
CONTINUOUS
370
-3
390
F
  0
LAYER
  5
210
100
AcDbSymbolTableRecord
100
AcDbLayerTableRecord
  2
QUILT
 70
0
 62
7
  6
CONTINUOUS
370
-3
390
F
  0
LAYER
  5
211
100
AcDbSymbolTableRecord
100
AcDbLayerTableRecord
  2
QUILTS
 70
0
 62
7
  6
CONTINUOUS
370
-3
390
F
  0
LAYER
  5
212
100
AcDbSymbolTableRecord
100
AcDbLayerTableRecord
  2
REFERENCE_DIMENSIONS
 70
0
 62
7
  6
CONTINUOUS
370
-3
390
F
  0
ENDTAB
  0
TABLE
  2
STYLE
  5
3
100
AcDbSymbolTable
 70
1
  0
STYLE
  5
11
100
AcDbSymbolTableRecord
100
AcDbTextStyleTableRecord
  2
STANDARD
 70
0
 40
0.0
 41
0.8
 50
0.0
 71
0
 42
0.2
  3
txt
  4

  0
STYLE
  5
213
100
AcDbSymbolTableRecord
100
AcDbTextStyleTableRecord
  2
TEXTSTYLE_1
 70
0
 40
0.0
 41
0.8
 50
0.0
 71
0
 42
0.2
  3
gdt
  4

  0
ENDTAB
  0
TABLE
  2
VIEW
  5
6
100
AcDbSymbolTable
 70
0
  0
ENDTAB
  0
TABLE
  2
UCS
  5
7
100
AcDbSymbolTable
 70
0
  0
ENDTAB
  0
TABLE
  2
APPID
  5
9
100
AcDbSymbolTable
 70
1
  0
APPID
  5
214
100
AcDbSymbolTableRecord
100
AcDbRegAppTableRecord
  2
ACAD
 70
0
  0
ENDTAB
  0
TABLE
  2
BLOCK_RECORD
  5
1
100
AcDbSymbolTable
 70
0
  0
BLOCK_RECORD
  5
215
100
AcDbSymbolTableRecord
100
AcDbBlockTableRecord
  2
*Model_Space
  0
BLOCK_RECORD
  5
216
100
AcDbSymbolTableRecord
100
AcDbBlockTableRecord
  2
*Paper_Space
  0
BLOCK_RECORD
  5
217
100
AcDbSymbolTableRecord
100
AcDbBlockTableRecord
  2
_FILLED
  0
ENDTAB
  0
TABLE
  2
DIMSTYLE
  5
A
100
AcDbSymbolTable
 70
1
100
AcDbDimStyleTable
 71
0
  0
DIMSTYLE
105
218
100
AcDbSymbolTableRecord
100
AcDbDimStyleTableRecord
  2
STANDARD
 70
0
  3

  4

 40
1.0
 41
0.1
 42
0.0625
 43
0.38
 44
0.125
 45
0.0
 46
0.0
 47
0.001
 48
0.001
140
0.08
141
0.09
142
0.0
143
25.4
144
1.0
145
0.0
146
1.0
147
0.09
 71
1.0
 72
0.0
 73
1
 74
1
 75
0
 76
0
 77
0
 78
4
 79
1
170
1
171
2
172
0
173
0
174
0
175
0
176
0
177
0
178
0
270
2
179
3
271
3
272
3
273
2
274
2
275
0
280
0
281
0
282
0
283
1
284
4
285
0
286
0
287
3
288
0
340
11
278
46
341
217
342
217
343
217
344
217
  0
ENDTAB
  0
ENDSEC
  0
SECTION
  2
BLOCKS
  0
BLOCK
  5
20
100
AcDbEntity
  8
0
100
AcDbBlockBegin
  2
*Model_Space
 70
0
 10
0.0
 20
0.0
 30
0.0
  3
*Model_Space
  1

  0
ENDBLK
  5
21
100
AcDbEntity
  8
0
100
AcDbBlockEnd
  0
BLOCK
  5
1C
100
AcDbEntity
  8
0
100
AcDbBlockBegin
  2
*Paper_Space
 70
0
 10
0.0
 20
0.0
 30
0.0
  3
*Paper_Space
  1

  0
ENDBLK
  5
1D
100
AcDbEntity
  8
0
100
AcDbBlockEnd
  0
BLOCK
  5
219
100
AcDbEntity
  8
0
100
AcDbBlockBegin
  2
_FILLED
 70
64
 10
0.0
 20
0.0
  3
_FILLED
  1

  0
SOLID
  5
21A
100
AcDbEntity
  8
0
  6
BYBLOCK
 62
0
100
AcDbTrace
 10
0.0
 20
0.0
 11
-1.0
 21
0.2
 12
-1.0
 22
-0.2
 13
-1.0
 23
-0.2
  0
ENDBLK
  5
21B
100
AcDbEntity
  8
0
  6
BYBLOCK
 62
0
100
AcDbBlockEnd
  0
ENDSEC
  0
SECTION
  2
ENTITIES
  0
MTEXT
  5
21C
100
AcDbEntity
  8
0
100
AcDbMText
 62
2
  6
CONTINUOUS
  7
STANDARD
 71
3
 72
1
 10
5.4087728067
 20
2.6606028412
 30
0.0
 11
1.0
 21
0.0
 31
0.0
 73
2
 44
0.9
  1
SCALE  .750
 40
0.08
 41
0.704
  0
LINE
  5
21D
100
AcDbEntity
  8
0
100
AcDbLine
 62
7
  6
CONTINUOUS
 10
0.0
 20
0.0
 11
0.0
 21
8.5
  0
LINE
  5
21E
100
AcDbEntity
  8
0
100
AcDbLine
 62
7
  6
CONTINUOUS
 10
0.0
 20
0.0
 11
11.0
 21
0.0
  0
LINE
  5
21F
100
AcDbEntity
  8
0
100
AcDbLine
 62
7
  6
CONTINUOUS
 10
0.0
 20
8.5
 11
11.0
 21
8.5
  0
LINE
  5
220
100
AcDbEntity
  8
0
100
AcDbLine
 62
7
  6
CONTINUOUS
 10
11.0
 20
0.0
 11
11.0
 21
8.5
  0
LINE
  5
221
100
AcDbEntity
  8
ALL_ASSEMBLY_MEMBERS
100
AcDbLine
 62
7
  6
CONTINUOUS
 10
5.4090746786
 20
3.7695058937
 11
5.4103794924
 21
3.7698519551
  0
LINE
  5
222
100
AcDbEntity
  8
ALL_ASSEMBLY_MEMBERS
100
AcDbLine
 62
7
  6
CONTINUOUS
 10
5.4090633972
 20
3.7695165531
 11
5.4103795844
 21
3.7698518686
  0
LINE
  5
223
100
AcDbEntity
  8
ALL_ASSEMBLY_MEMBERS
100
AcDbLine
 62
7
  6
CONTINUOUS
 10
4.7075558747
 20
3.7694993701
 11
4.7061722402
 21
3.7698518686
  0
LINE
  5
224
100
AcDbEntity
  8
ALL_ASSEMBLY_MEMBERS
100
AcDbLine
 62
7
  6
CONTINUOUS
 10
4.7075440494
 20
3.769488194
 11
4.7061723322
 21
3.7698519551
  0
LINE
  5
225
100
AcDbEntity
  8
ALL_ASSEMBLY_MEMBERS
100
AcDbLine
 62
7
  6
CONTINUOUS
 10
4.3082759123
 20
4.6545922793
 11
4.3082759123
 21
4.1009572159
  0
LINE
  5
226
100
AcDbEntity
  8
ALL_ASSEMBLY_MEMBERS
100
AcDbLine
 62
7
  6
CONTINUOUS
 10
4.3082759123
 20
3.91349104
 11
4.3082759123
 21
3.9221752801
  0
LINE
  5
227
100
AcDbEntity
  8
ALL_ASSEMBLY_MEMBERS
100
AcDbLine
 62
7
  6
CONTINUOUS
 10
4.8707759123
 20
5.2595437038
 11
4.8707759123
 21
5.0176405213
  0
LINE
  5
228
100
AcDbEntity
  8
ALL_ASSEMBLY_MEMBERS
100
AcDbLine
 62
7
  6
CONTINUOUS
 10
5.2457759123
 20
5.2595437038
 11
5.2457759123
 21
5.0176405213
  0
LINE
  5
229
100
AcDbEntity
  8
ALL_ASSEMBLY_MEMBERS
100
AcDbLine
 62
7
  6
CONTINUOUS
 10
5.8082759123
 20
4.6545922793
 11
5.8082759123
 21
4.1009572159
  0
LINE
  5
22A
100
AcDbEntity
  8
ALL_ASSEMBLY_MEMBERS
100
AcDbLine
 62
7
  6
CONTINUOUS
 10
5.8082759123
 20
3.91349104
 11
5.8082759123
 21
3.9221028215
  0
ARC
  5
22B
100
AcDbEntity
  8
ALL_ASSEMBLY_MEMBERS
100
AcDbCircle
 62
7
  6
CONTINUOUS
 10
5.0582785767
 20
5.2246416076
 40
1.4986843917
100
AcDbArc
 50
268.6894561908
 51
269.999898135
  0
ARC
  5
22C
100
AcDbEntity
  8
ALL_ASSEMBLY_MEMBERS
100
AcDbCircle
 62
7
  6
CONTINUOUS
 10
5.0583605313
 20
5.2188991145
 40
1.492941901
100
AcDbArc
 50
269.9967525113
 51
273.5774431894
  0
ARC
  5
22D
100
AcDbEntity
  8
ALL_ASSEMBLY_MEMBERS
100
AcDbCircle
 62
7
  6
CONTINUOUS
 10
5.0595413971
 20
5.1970459419
 40
1.4710576405
100
AcDbArc
 50
273.5846495091
 51
274.0194656221
  0
ARC
  5
22E
100
AcDbEntity
  8
ALL_ASSEMBLY_MEMBERS
100
AcDbCircle
 62
7
  6
CONTINUOUS
 10
5.0514498352
 20
5.1377186085
 40
1.4114645997
100
AcDbArc
 50
262.5428276334
 51
263.756771095
  0
ARC
  5
22F
100
AcDbEntity
  8
ALL_ASSEMBLY_MEMBERS
100
AcDbCircle
 62
7
  6
CONTINUOUS
 10
5.0582759123
 20
5.2595437038
 40
0.375
100
AcDbArc
 50
316.9568840181
 51
223.0431159819
  0
ARC
  5
230
100
AcDbEntity
  8
ALL_ASSEMBLY_MEMBERS
100
AcDbCircle
 62
7
  6
CONTINUOUS
 10
4.582275898
 20
4.0513563854
 40
0.3031106423
100
AcDbArc
 50
206.728883445
 51
207.0125777211
  0
ARC
  5
231
100
AcDbEntity
  8
ALL_ASSEMBLY_MEMBERS
100
AcDbCircle
 62
7
  6
CONTINUOUS
 10
5.0582759123
 20
5.2595437038
 40
0.19125
100
AcDbArc
 50
348.7226313671
 51
191.2773686329
  0
ARC
  5
232
100
AcDbEntity
  8
ALL_ASSEMBLY_MEMBERS
100
AcDbCircle
 62
7
  6
CONTINUOUS
 10
5.0582759123
 20
5.2595437038
 40
0.1875
100
AcDbArc
 50
0.0
 51
180.0
  0
SPLINE
  5
233
100
AcDbEntity
  8
ALL_ASSEMBLY_MEMBERS
100
AcDbSpline
 62
7
  6
CONTINUOUS
 70
0
 71
3
 72
23
 73
19
 74
0
 42
0.0000001
 43
0.0000001
 44
0.0000000001
 40
0.0
 40
0.0
 40
0.0
 40
0.0
 40
0.0668133697
 40
0.1335773651
 40
0.2000209458
 40
0.2659648842
 40
0.3313062293
 40
0.3959550812
 40
0.4598235297
 40
0.5228414521
 40
0.5849822772
 40
0.6462506793
 40
0.7066863059
 40
0.766364452
 40
0.8253874299
 40
0.883893415
 40
0.9420385785
 40
1.0
 40
1.0
 40
1.0
 40
1.0
 10
5.0582759123
 20
5.1958413359
 30
0.0
 10
5.0521505234
 20
5.1958413359
 30
0.0
 10
5.039898076
 20
5.1953167694
 30
0.0
 10
5.0216881126
 20
5.1929841361
 30
0.0
 10
5.0038208799
 20
5.1891160478
 30
0.0
 10
4.9864822694
 20
5.1837478964
 30
0.0
 10
4.9698340308
 20
5.1769387583
 30
0.0
 10
4.9540355986
 20
5.1687441108
 30
0.0
 10
4.9392319477
 20
5.159252614
 30
0.0
 10
4.9255721426
 20
5.1485447178
 30
0.0
 10
4.9131875938
 20
5.136725983
 30
0.0
 10
4.902194144
 20
5.1239117484
 30
0.0
 10
4.892707279
 20
5.1102178546
 30
0.0
 10
4.8848082418
 20
5.0957834966
 30
0.0
 10
4.8785856022
 20
5.0807411381
 30
0.0
 10
4.874095332
 20
5.0652392131
 30
0.0
 10
4.8713801715
 20
5.0494299585
 30
0.0
 10
4.8707776148
 20
5.038775423
 30
0.0
 10
4.8707776148
 20
5.0334615727
 30
0.0
  0
SPLINE
  5
234
100
AcDbEntity
  8
ALL_ASSEMBLY_MEMBERS
100
AcDbSpline
 62
7
  6
CONTINUOUS
 70
0
 71
3
 72
23
 73
19
 74
0
 42
0.0000001
 43
0.0000001
 44
0.0000000001
 40
0.0
 40
0.0
 40
0.0
 40
0.0
 40
0.0579614215
 40
0.116106585
 40
0.1746125701
 40
0.233635548
 40
0.2933136941
 40
0.3537493207
 40
0.4150177228
 40
0.4771585479
 40
0.5401764703
 40
0.6040449188
 40
0.6686937707
 40
0.7340351158
 40
0.7999790542
 40
0.8664226349
 40
0.9331866303
 40
1.0
 40
1.0
 40
1.0
 40
1.0
 10
5.2457742097
 20
5.0334615727
 30
0.0
 10
5.2457742097
 20
5.038775423
 30
0.0
 10
5.245171653
 20
5.0494299585
 30
0.0
 10
5.2424564926
 20
5.0652392131
 30
0.0
 10
5.2379662223
 20
5.0807411381
 30
0.0
 10
5.2317435828
 20
5.0957834966
 30
0.0
 10
5.2238445456
 20
5.1102178546
 30
0.0
 10
5.2143576806
 20
5.1239117484
 30
0.0
 10
5.2033642307
 20
5.136725983
 30
0.0
 10
5.190979682
 20
5.1485447178
 30
0.0
 10
5.1773198768
 20
5.159252614
 30
0.0
 10
5.1625162259
 20
5.1687441108
 30
0.0
 10
5.1467177938
 20
5.1769387583
 30
0.0
 10
5.1300695552
 20
5.1837478964
 30
0.0
 10
5.1127309446
 20
5.1891160478
 30
0.0
 10
5.0948637119
 20
5.1929841361
 30
0.0
 10
5.0766537485
 20
5.1953167694
 30
0.0
 10
5.0644013011
 20
5.1958413359
 30
0.0
 10
5.0582759123
 20
5.1958413359
 30
0.0
  0
SPLINE
  5
235
100
AcDbEntity
  8
ALL_ASSEMBLY_MEMBERS
100
AcDbSpline
 62
7
  6
CONTINUOUS
 70
0
 71
3
 72
12
 73
8
 74
0
 42
0.0000001
 43
0.0000001
 44
0.0000000001
 40
0.0
 40
0.0
 40
0.0
 40
0.0
 40
0.1242057214
 40
0.2484721644
 40
0.4974335628
 40
0.7477066548
 40
1.0
 40
1.0
 40
1.0
 40
1.0
 10
5.8345218746
 20
4.0355763801
 30
0.0
 10
5.8345226065
 20
4.0404359779
 30
0.0
 10
5.8342452986
 20
4.0501602073
 30
0.0
 10
5.8325724634
 20
4.0695589597
 30
0.0
 10
5.8283800858
 20
4.0936492398
 30
0.0
 10
5.820152052
 20
4.1219348942
 30
0.0
 10
5.8126562577
 20
4.1401586714
 30
0.0
 10
5.8084501634
 20
4.1490887848
 30
0.0
  0
SPLINE
  5
236
100
AcDbEntity
  8
ALL_ASSEMBLY_MEMBERS
100
AcDbSpline
 62
7
  6
CONTINUOUS
 70
0
 71
3
 72
14
 73
10
 74
0
 42
0.0000001
 43
0.0000001
 44
0.0000000001
 40
0.0
 40
0.0
 40
0.0
 40
0.0
 40
0.1240586454
 40
0.2481868489
 40
0.3724805948
 40
0.4970535271
 40
0.6219996832
 40
0.7473971456
 40
1.0
 40
1.0
 40
1.0
 40
1.0
 10
4.2820299499
 20
4.0356248638
 30
0.0
 10
4.2820291697
 20
4.0304443209
 30
0.0
 10
4.2823442929
 20
4.0200774575
 30
0.0
 10
4.2837704623
 20
4.0045792803
 30
0.0
 10
4.2861449192
 20
3.989175684
 30
0.0
 10
4.2894434948
 20
3.9739090627
 30
0.0
 10
4.2936454067
 20
3.9588175289
 30
0.0
 10
4.3004406319
 20
3.938935975
 30
0.0
 10
4.3068098834
 20
3.924447778
 30
0.0
 10
4.3115542136
 20
3.915026524
 30
0.0
  0
SPLINE
  5
237
100
AcDbEntity
  8
ALL_ASSEMBLY_MEMBERS
100
AcDbSpline
 62
7
  6
CONTINUOUS
 70
0
 71
3
 72
27
 73
23
 74
0
 42
0.0000001
 43
0.0000001
 44
0.0000000001
 40
0.0
 40
0.0
 40
0.0
 40
0.0
 40
0.0243177024
 40
0.0488865067
 40
0.0737574712
 40
0.0989783799
 40
0.1506067704
 40
0.1771094041
 40
0.2041093181
 40
0.2596851787
 40
0.2883097583
 40
0.3175049355
 40
0.3776114354
 40
0.4399976493
 40
0.5045751425
 40
0.5711963627
 40
0.6396596051
 40
0.7097227155
 40
0.7810999635
 40
0.8534919913
 40
0.9265877759
 40
1.0
 40
1.0
 40
1.0
 40
1.0
 10
4.312232553
 20
3.9136877495
 30
0.0
 10
4.3153306559
 20
3.9076106543
 30
0.0
 10
4.3219724177
 20
3.8956000912
 30
0.0
 10
4.333132229
 20
3.8781636103
 30
0.0
 10
4.3454841865
 20
3.8612352172
 30
0.0
 10
4.3636130904
 20
3.8391855495
 30
0.0
 10
4.383848906
 20
3.8183394585
 30
0.0
 10
4.4058736219
 20
3.7987182538
 30
0.0
 10
4.4296381956
 20
3.7794307572
 30
0.0
 10
4.4551283519
 20
3.7613804822
 30
0.0
 10
4.4821087122
 20
3.7445241776
 30
0.0
 10
4.5107953251
 20
3.7280392874
 30
0.0
 10
4.5487883784
 20
3.7088059296
 30
0.0
 10
4.5970434991
 20
3.6881120343
 30
0.0
 10
4.6481362162
 20
3.669637745
 30
0.0
 10
4.7017785827
 20
3.6534509926
 30
0.0
 10
4.7576593074
 20
3.6396159401
 30
0.0
 10
4.8154424832
 20
3.6281991837
 30
0.0
 10
4.874772841
 20
3.6192541383
 30
0.0
 10
4.9352837097
 20
3.6128292446
 30
0.0
 10
4.9965819395
 20
3.6089626318
 30
0.0
 10
5.0376834051
 20
3.6081006219
 30
0.0
 10
5.0582759123
 20
3.6081006219
 30
0.0
  0
SPLINE
  5
238
100
AcDbEntity
  8
ALL_ASSEMBLY_MEMBERS
100
AcDbSpline
 62
7
  6
CONTINUOUS
 70
0
 71
3
 72
27
 73
23
 74
0
 42
0.0000001
 43
0.0000001
 44
0.0000000001
 40
0.0
 40
0.0
 40
0.0
 40
0.0
 40
0.0734527821
 40
0.1465870142
 40
0.2190136901
 40
0.2904203184
 40
0.3605058724
 40
0.4289834546
 40
0.4956101448
 40
0.5601841232
 40
0.6225576115
 40
0.6826436604
 40
0.7118258711
 40
0.740436328
 40
0.7959815656
 40
0.8494379458
 40
0.8754598383
 40
0.9010558609
 40
0.9262637996
 40
0.9511241454
 40
0.9756874466
 40
1.0
 40
1.0
 40
1.0
 40
1.0
 10
5.0582759123
 20
3.6081006219
 30
0.0
 10
5.0789183995
 20
3.6081006219
 30
0.0
 10
5.1201191042
 20
3.608966794
 30
0.0
 10
5.1815635578
 20
3.6128521162
 30
0.0
 10
5.2422148615
 20
3.6193079332
 30
0.0
 10
5.3016771387
 20
3.6282958074
 30
0.0
 10
5.3595811675
 20
3.6397667913
 30
0.0
 10
5.4155692415
 20
3.6536670481
 30
0.0
 10
5.469303397
 20
3.6699293932
 30
0.0
 10
5.5204704567
 20
3.6884891271
 30
0.0
 10
5.5687808573
 20
3.7092779865
 30
0.0
 10
5.6068044389
 20
3.7285998485
 30
0.0
 10
5.6355036559
 20
3.7451599072
 30
0.0
 10
5.6624882455
 20
3.7620932614
 30
0.0
 10
5.6940352497
 20
3.784540055
 30
0.0
 10
5.7229668738
 20
3.809184879
 30
0.0
 10
5.7439724939
 20
3.8299548564
 30
0.0
 10
5.7585244413
 20
3.8459186012
 30
0.0
 10
5.7719723799
 20
3.862404544
 30
0.0
 10
5.7842701354
 20
3.8794103617
 30
0.0
 10
5.7953665151
 20
3.8969264347
 30
0.0
 10
5.8019596234
 20
3.9089897822
 30
0.0
 10
5.8050313958
 20
3.9150929193
 30
0.0
  0
SPLINE
  5
239
100
AcDbEntity
  8
ALL_ASSEMBLY_MEMBERS
100
AcDbSpline
 62
7
  6
CONTINUOUS
 70
0
 71
3
 72
11
 73
7
 74
0
 42
0.0000001
 43
0.0000001
 44
0.0000000001
 40
0.0
 40
0.0
 40
0.0
 40
0.0
 40
0.2526714082
 40
0.5030033525
 40
0.7518317266
 40
1.0
 40
1.0
 40
1.0
 40
1.0
 10
5.8050313958
 20
3.9150929193
 30
0.0
 10
5.809768783
 20
3.9245053754
 30
0.0
 10
5.8182273715
 20
3.9437550203
 30
0.0
 10
5.8275455525
 20
3.9737636776
 30
0.0
 10
5.8332496174
 20
4.0044773932
 30
0.0
 10
5.8345203159
 20
4.0252267616
 30
0.0
 10
5.8345218746
 20
4.0355763801
 30
0.0
  0
SPLINE
  5
23A
100
AcDbEntity
  8
ALL_ASSEMBLY_MEMBERS
100
AcDbSpline
 62
7
  6
CONTINUOUS
 70
0
 71
3
 72
13
 73
9
 74
0
 42
0.0000001
 43
0.0000001
 44
0.0000000001
 40
0.0
 40
0.0
 40
0.0
 40
0.0
 40
0.1264890661
 40
0.2523574866
 40
0.5026122491
 40
0.6272445553
 40
0.7516413666
 40
1.0
 40
1.0
 40
1.0
 40
1.0
 10
4.3081327882
 20
4.1491560854
 30
0.0
 10
4.3060221986
 20
4.1446781304
 30
0.0
 10
4.3020344191
 20
4.1356364285
 30
0.0
 10
4.2950396317
 20
4.1172446737
 30
0.0
 10
4.2895467414
 20
4.0983838731
 30
0.0
 10
4.2856597409
 20
4.0792248901
 30
0.0
 10
4.2828717772
 20
4.0599515037
 30
0.0
 10
4.2820314138
 20
4.0453449118
 30
0.0
 10
4.2820299499
 20
4.0356248638
 30
0.0
  0
SPLINE
  5
23B
100
AcDbEntity
  8
ALL_ASSEMBLY_MEMBERS
100
AcDbSpline
 62
7
  6
CONTINUOUS
 70
0
 71
3
 72
63
 73
59
 74
0
 42
0.0000001
 43
0.0000001
 44
0.0000000001
 40
0.0
 40
0.0
 40
0.0
 40
0.0
 40
0.0101415344
 40
0.0203579856
 40
0.0307168124
 40
0.0412848627
 40
0.0521234347
 40
0.0632859195
 40
0.0748183928
 40
0.0867593554
 40
0.0991398042
 40
0.1119834922
 40
0.1253074511
 40
0.1391226498
 40
0.1534343038
 40
0.1682427469
 40
0.1835435051
 40
0.1993282561
 40
0.2238833312
 40
0.2494445668
 40
0.275942869
 40
0.303296907
 40
0.331415023
 40
0.3601969475
 40
0.3895352984
 40
0.4193169561
 40
0.4494243503
 40
0.4797367412
 40
0.5101314388
 40
0.5404849692
 40
0.5706742326
 40
0.6005776995
 40
0.6300766303
 40
0.6590562899
 40
0.6874072157
 40
0.7150265719
 40
0.741819673
 40
0.7677015906
 40
0.7925989245
 40
0.8046603493
 40
0.816454511
 40
0.8279763502
 40
0.839222217
 40
0.8501894984
 40
0.8608770856
 40
0.8814120072
 40
0.9008531899
 40
0.9192530167
 40
0.9280911822
 40
0.936704543
 40
0.9451096935
 40
0.9533256792
 40
0.9613738889
 40
0.9692780077
 40
0.9770643808
 40
0.9847611618
 40
0.9923968947
 40
1.0
 40
1.0
 40
1.0
 40
1.0
 10
5.8082759123
 20
3.91349104
 30
0.0
 10
5.8082759123
 20
3.9073508151
 30
0.0
 10
5.8076677548
 20
3.89501659
 30
0.0
 10
5.8049405571
 20
3.8765920963
 30
0.0
 10
5.8004028122
 20
3.858261295
 30
0.0
 10
5.7940699769
 20
3.8400737157
 30
0.0
 10
5.7859597044
 20
3.8220730766
 30
0.0
 10
5.7760949383
 20
3.8043023908
 30
0.0
 10
5.7645011626
 20
3.7868042346
 30
0.0
 10
5.751208618
 20
3.7696192813
 30
0.0
 10
5.7362504185
 20
3.7527875094
 30
0.0
 10
5.7196632246
 20
3.7363481352
 30
0.0
 10
5.7014875302
 20
3.7203391758
 30
0.0
 10
5.6817668365
 20
3.7047984763
 30
0.0
 10
5.6605488895
 20
3.6897618837
 30
0.0
 10
5.6378841188
 20
3.6752656194
 30
0.0
 10
5.6138270998
 20
3.6613429835
 30
0.0
 10
5.5839846661
 20
3.6456945522
 30
0.0
 10
5.5477570355
 20
3.6289200691
 30
0.0
 10
5.5046549383
 20
3.6117211475
 30
0.0
 10
5.4591446496
 20
3.5961510203
 30
0.0
 10
5.4114716076
 20
3.582293536
 30
0.0
 10
5.3618921907
 20
3.570223112
 30
0.0
 10
5.3106736062
 20
3.5600048832
 30
0.0
 10
5.2580920275
 20
3.5516940752
 30
0.0
 10
5.2044311985
 20
3.5453357472
 30
0.0
 10
5.1499808614
 20
3.5409642948
 30
0.0
 10
5.0950351195
 20
3.5386033155
 30
0.0
 10
5.039890787
 20
3.5382655927
 30
0.0
 10
4.9848457741
 20
3.5399529784
 30
0.0
 10
4.9301974631
 20
3.5436564305
 30
0.0
 10
4.8762410435
 20
3.5493558451
 30
0.0
 10
4.8232678564
 20
3.5570202865
 30
0.0
 10
4.7715638175
 20
3.5666082724
 30
0.0
 10
4.7214078165
 20
3.5780680025
 30
0.0
 10
4.6730703247
 20
3.5913376924
 30
0.0
 10
4.6268112504
 20
3.6063458915
 30
0.0
 10
4.5828804664
 20
3.623011572
 30
0.0
 10
4.5480459419
 20
3.6383656736
 30
0.0
 10
4.5215728543
 20
3.6514301669
 30
0.0
 10
4.5026536632
 20
3.6614800854
 30
0.0
 10
4.4844865784
 20
3.6718717682
 30
0.0
 10
4.4670957955
 20
3.6825905704
 30
0.0
 10
4.4505045938
 20
3.693622877
 30
0.0
 10
4.4297571773
 20
3.7085310696
 30
0.0
 10
4.4058682925
 20
3.7278298966
 30
0.0
 10
4.3803253393
 20
3.7523228647
 30
0.0
 10
4.3618367339
 20
3.7737687367
 30
0.0
 10
4.3490263335
 20
3.7913035494
 30
0.0
 10
4.3405066609
 20
3.8044477564
 30
0.0
 10
4.3329598681
 20
3.8177426118
 30
0.0
 10
4.3263965445
 20
3.8311704435
 30
0.0
 10
4.3208256313
 20
3.8447126496
 30
0.0
 10
4.3162562959
 20
3.8583513882
 30
0.0
 10
4.3126945668
 20
3.8720680017
 30
0.0
 10
4.3101468173
 20
3.8858440402
 30
0.0
 10
4.3086167767
 20
3.8996577439
 30
0.0
 10
4.3082759123
 20
3.9088877153
 30
0.0
 10
4.3082759123
 20
3.91349104
 30
0.0
  0
SPLINE
  5
23C
100
AcDbEntity
  8
ALL_ASSEMBLY_MEMBERS
100
AcDbSpline
 62
7
  6
CONTINUOUS
 70
0
 71
3
 72
55
 73
51
 74
0
 42
0.0000001
 43
0.0000001
 44
0.0000000001
 40
0.0
 40
0.0
 40
0.0
 40
0.0
 40
0.010377435
 40
0.0210296667
 40
0.0319885889
 40
0.0432814454
 40
0.054930938
 40
0.0669550879
 40
0.0793679514
 40
0.0921793645
 40
0.1053958441
 40
0.1190202285
 40
0.1330525872
 40
0.1474899284
 40
0.162326891
 40
0.1775556603
 40
0.1931663278
 40
0.2091470849
 40
0.2421592203
 40
0.2764684263
 40
0.3119257542
 40
0.3483647471
 40
0.3856048764
 40
0.423454665
 40
0.4617145923
 40
0.5001798557
 40
0.5386430436
 40
0.5768967706
 40
0.6147363128
 40
0.6519622826
 40
0.6883833924
 40
0.7238193633
 40
0.7581040532
 40
0.7910889013
 40
0.8070551282
 40
0.8226507493
 40
0.8378640466
 40
0.8526851754
 40
0.8671064281
 40
0.8811225246
 40
0.8947305952
 40
0.9079308154
 40
0.9207261591
 40
0.933123281
 40
0.9451321652
 40
0.9567670384
 40
0.9680460853
 40
0.9789922049
 40
0.989632814
 40
1.0
 40
1.0
 40
1.0
 40
1.0
 10
5.7912173762
 20
3.8904747373
 30
0.0
 10
5.7889404756
 20
3.8852286051
 30
0.0
 10
5.7839223395
 20
3.874768463
 30
0.0
 10
5.7751787605
 20
3.8594456074
 30
0.0
 10
5.7651443226
 20
3.8443261061
 30
0.0
 10
5.7538387427
 20
3.8294375655
 30
0.0
 10
5.7412824225
 20
3.8148061274
 30
0.0
 10
5.7274990058
 20
3.8004569169
 30
0.0
 10
5.712512803
 20
3.7864158852
 30
0.0
 10
5.696351636
 20
3.7727067987
 30
0.0
 10
5.6790438625
 20
3.7593547741
 30
0.0
 10
5.6606212037
 20
3.7463824471
 30
0.0
 10
5.6411161543
 20
3.7338136681
 30
0.0
 10
5.6205640926
 20
3.7216700376
 30
0.0
 10
5.5990015532
 20
3.7099736946
 30
0.0
 10
5.5764673947
 20
3.6987452207
 30
0.0
 10
5.5530017884
 20
3.6880046106
 30
0.0
 10
5.5201742708
 20
3.6742116665
 30
0.0
 10
5.4770593046
 20
3.6583635484
 30
0.0
 10
5.4228743076
 20
3.6417786682
 30
0.0
 10
5.3660775329
 20
3.6275429643
 30
0.0
 10
5.3070762616
 20
3.6157586667
 30
0.0
 10
5.2462920578
 20
3.6065101734
 30
0.0
 10
5.1841602582
 20
3.5998639542
 30
0.0
 10
5.1211260006
 20
3.5958677992
 30
0.0
 10
5.0576411313
 20
3.5945504721
 30
0.0
 10
4.9941608129
 20
3.595921462
 30
0.0
 10
4.9311401747
 20
3.5999708954
 30
0.0
 10
4.869030963
 20
3.6066696247
 30
0.0
 10
4.8082781493
 20
3.615969483
 30
0.0
 10
4.7493168385
 20
3.627803632
 30
0.0
 10
4.6925682979
 20
3.6420873225
 30
0.0
 10
4.6384394529
 20
3.6587179771
 30
0.0
 10
4.5953769449
 20
3.6746029704
 30
0.0
 10
4.5625952624
 20
3.688424072
 30
0.0
 10
4.5391660745
 20
3.6991845767
 30
0.0
 10
4.5166699613
 20
3.7104321082
 30
0.0
 10
4.4951470676
 20
3.7221467432
 30
0.0
 10
4.4746361353
 20
3.7343077663
 30
0.0
 10
4.4551736696
 20
3.7468931034
 30
0.0
 10
4.4367949332
 20
3.7598810477
 30
0.0
 10
4.4195323729
 20
3.7732477813
 30
0.0
 10
4.4034176164
 20
3.7869706139
 30
0.0
 10
4.388478935
 20
3.8010244092
 30
0.0
 10
4.3747441018
 20
3.815385408
 30
0.0
 10
4.3622372874
 20
3.8300275861
 30
0.0
 10
4.3509821377
 20
3.8449258727
 30
0.0
 10
4.34099887
 20
3.860054027
 30
0.0
 10
4.3323072407
 20
3.8753844991
 30
0.0
 10
4.3273248342
 20
3.8858483971
 30
0.0
 10
4.3250658594
 20
3.8910961244
 30
0.0
  0
SPLINE
  5
23D
100
AcDbEntity
  8
ALL_ASSEMBLY_MEMBERS
100
AcDbSpline
 62
7
  6
CONTINUOUS
 70
0
 71
3
 72
9
 73
5
 74
0
 42
0.0000001
 43
0.0000001
 44
0.0000000001
 40
0.0
 40
0.0
 40
0.0
 40
0.0
 40
0.5021161573
 40
1.0
 40
1.0
 40
1.0
 40
1.0
 10
5.0240017014
 20
3.7263492457
 30
0.0
 10
5.0028600452
 20
3.7268329225
 30
0.0
 10
4.9607704661
 20
3.7286870687
 30
0.0
 10
4.9187984462
 20
3.7323444067
 30
0.0
 10
4.8979539089
 20
3.7346251274
 30
0.0
  0
SPLINE
  5
23E
100
AcDbEntity
  8
ALL_ASSEMBLY_MEMBERS
100
AcDbSpline
 62
7
  6
CONTINUOUS
 70
0
 71
3
 72
10
 73
6
 74
0
 42
0.0000001
 43
0.0000001
 44
0.0000000001
 40
0.0
 40
0.0
 40
0.0
 40
0.0
 40
0.5080759849
 40
0.756348096
 40
1.0
 40
1.0
 40
1.0
 40
1.0
 10
4.868262807
 20
3.738191964
 30
0.0
 10
4.8407512448
 20
3.7417945724
 30
0.0
 10
4.7999388164
 20
3.7483799665
 30
0.0
 10
4.7465004794
 20
3.7596662078
 30
0.0
 10
4.7204076332
 20
3.7660854667
 30
0.0
 10
4.7075440494
 20
3.769488194
 30
0.0
  0
SPLINE
  5
23F
100
AcDbEntity
  8
ALL_ASSEMBLY_MEMBERS
100
AcDbSpline
 62
7
  6
CONTINUOUS
 70
0
 71
3
 72
27
 73
23
 74
0
 42
0.0000001
 43
0.0000001
 44
0.0000000001
 40
0.0
 40
0.0
 40
0.0
 40
0.0
 40
0.0827930797
 40
0.1632389316
 40
0.2411256067
 40
0.3162696748
 40
0.3885191808
 40
0.4577592278
 40
0.5239190228
 40
0.555839561
 40
0.5869869013
 40
0.6469788426
 40
0.7040081112
 40
0.7582521114
 40
0.8099724296
 40
0.8595200918
 40
0.8836246341
 40
0.9073586369
 40
0.9307898036
 40
0.9539899105
 40
0.9770342135
 40
1.0
 40
1.0
 40
1.0
 40
1.0
 10
4.7061723322
 20
3.7698519551
 30
0.0
 10
4.6914397742
 20
3.7737686046
 30
0.0
 10
4.6625425529
 20
3.7820720908
 30
0.0
 10
4.6204206368
 20
3.796146156
 30
0.0
 10
4.5802922695
 20
3.811609951
 30
0.0
 10
4.5423401475
 20
3.8283924038
 30
0.0
 10
4.5067356491
 20
3.8464184984
 30
0.0
 10
4.4736413346
 20
3.8656073373
 30
0.0
 10
4.4479777639
 20
3.8826950072
 30
0.0
 10
4.4288771409
 20
3.8968915895
 30
0.0
 10
4.4111841442
 20
3.911052726
 30
0.0
 10
4.390844332
 20
3.9292799292
 30
0.0
 10
4.3691605744
 20
3.9522300409
 30
0.0
 10
4.3506131287
 20
3.9758841173
 30
0.0
 10
4.3352940796
 20
4.0001370563
 30
0.0
 10
4.3251900585
 20
4.0209566488
 30
0.0
 10
4.3188631758
 20
4.0377450892
 30
0.0
 10
4.3150067764
 20
4.0502976582
 30
0.0
 10
4.3120020987
 20
4.0629097252
 30
0.0
 10
4.3098536369
 20
4.0755672602
 30
0.0
 10
4.3085631959
 20
4.0882542436
 30
0.0
 10
4.3082759123
 20
4.0967286362
 30
0.0
 10
4.3082759123
 20
4.1009572159
 30
0.0
  0
SPLINE
  5
240
100
AcDbEntity
  8
ALL_ASSEMBLY_MEMBERS
100
AcDbSpline
 62
7
  6
CONTINUOUS
 70
0
 71
3
 72
11
 73
7
 74
0
 42
0.0000001
 43
0.0000001
 44
0.0000000001
 40
0.0
 40
0.0
 40
0.0
 40
0.0
 40
0.2570118139
 40
0.5102573941
 40
0.7583534423
 40
1.0
 40
1.0
 40
1.0
 40
1.0
 10
5.1626557433
 20
3.7296066711
 30
0.0
 10
5.1840182331
 20
3.7311078599
 30
0.0
 10
5.2263712447
 20
3.7350159867
 30
0.0
 10
5.2889892661
 20
3.7436480253
 30
0.0
 10
5.3498794845
 20
3.7549530264
 30
0.0
 10
5.3896096194
 20
3.7643556606
 30
0.0
 10
5.4090746786
 20
3.7695058937
 30
0.0
  0
SPLINE
  5
241
100
AcDbEntity
  8
ALL_ASSEMBLY_MEMBERS
100
AcDbSpline
 62
7
  6
CONTINUOUS
 70
0
 71
3
 72
27
 73
23
 74
0
 42
0.0000001
 43
0.0000001
 44
0.0000000001
 40
0.0
 40
0.0
 40
0.0
 40
0.0
 40
0.0827930797
 40
0.1632389316
 40
0.2411256067
 40
0.3162696748
 40
0.3885191808
 40
0.4577592278
 40
0.5239190228
 40
0.555839561
 40
0.5869869013
 40
0.6469788426
 40
0.7040081112
 40
0.7582521114
 40
0.8099724296
 40
0.8595200918
 40
0.8836246341
 40
0.9073586369
 40
0.9307898036
 40
0.9539899105
 40
0.9770342135
 40
1.0
 40
1.0
 40
1.0
 40
1.0
 10
5.4103794924
 20
3.7698519551
 30
0.0
 10
5.4251120503
 20
3.7737686046
 30
0.0
 10
5.4540092716
 20
3.7820720908
 30
0.0
 10
5.4961311877
 20
3.796146156
 30
0.0
 10
5.536259555
 20
3.811609951
 30
0.0
 10
5.574211677
 20
3.8283924038
 30
0.0
 10
5.6098161754
 20
3.8464184984
 30
0.0
 10
5.6429104899
 20
3.8656073373
 30
0.0
 10
5.6685740607
 20
3.8826950072
 30
0.0
 10
5.6876746836
 20
3.8968915895
 30
0.0
 10
5.7053676804
 20
3.911052726
 30
0.0
 10
5.7257074925
 20
3.9292799292
 30
0.0
 10
5.7473912501
 20
3.9522300409
 30
0.0
 10
5.7659386959
 20
3.9758841173
 30
0.0
 10
5.781257745
 20
4.0001370563
 30
0.0
 10
5.7913617661
 20
4.0209566488
 30
0.0
 10
5.7976886487
 20
4.0377450892
 30
0.0
 10
5.8015450481
 20
4.0502976582
 30
0.0
 10
5.8045497259
 20
4.0629097252
 30
0.0
 10
5.8066981876
 20
4.0755672602
 30
0.0
 10
5.8079886286
 20
4.0882542436
 30
0.0
 10
5.8082759123
 20
4.0967286362
 30
0.0
 10
5.8082759123
 20
4.1009572159
 30
0.0
  0
SPLINE
  5
242
100
AcDbEntity
  8
ALL_ASSEMBLY_MEMBERS
100
AcDbSpline
 62
7
  6
CONTINUOUS
 70
0
 71
3
 72
39
 73
35
 74
0
 42
0.0000001
 43
0.0000001
 44
0.0000000001
 40
0.0
 40
0.0
 40
0.0
 40
0.0
 40
0.0202846655
 40
0.0407148498
 40
0.0614317531
 40
0.0825679175
 40
0.1042445873
 40
0.1265689104
 40
0.1496333317
 40
0.173514747
 40
0.1982750507
 40
0.223961859
 40
0.2506091275
 40
0.2782389348
 40
0.3068615337
 40
0.3364777915
 40
0.3670785507
 40
0.3986473771
 40
0.4311594572
 40
0.4645842856
 40
0.4988844892
 40
0.5340181083
 40
0.5699377546
 40
0.6065922156
 40
0.6439260595
 40
0.6818805677
 40
0.7203942169
 40
0.7594029291
 40
0.7988399125
 40
0.8386353386
 40
0.8787199947
 40
0.919026788
 40
0.9594829017
 40
1.0
 40
1.0
 40
1.0
 40
1.0
 10
5.8082759123
 20
4.6545922793
 30
0.0
 10
5.8082759123
 20
4.6607331283
 30
0.0
 10
5.8076678569
 20
4.673067307
 30
0.0
 10
5.80494042
 20
4.6914916335
 30
0.0
 10
5.8004025364
 20
4.7098217638
 30
0.0
 10
5.7940701282
 20
4.7280095858
 30
0.0
 10
5.7859596192
 20
4.7460102771
 30
0.0
 10
5.7760948896
 20
4.7637809374
 30
0.0
 10
5.7645010899
 20
4.7812790461
 30
0.0
 10
5.7512085844
 20
4.7984640325
 30
0.0
 10
5.7362503817
 20
4.8152958187
 30
0.0
 10
5.7196631549
 20
4.8317351381
 30
0.0
 10
5.7014875171
 20
4.8477441747
 30
0.0
 10
5.6817667603
 20
4.8632847731
 30
0.0
 10
5.6605488925
 20
4.8783214848
 30
0.0
 10
5.6378840249
 20
4.8928176258
 30
0.0
 10
5.6138271795
 20
4.9067403337
 30
0.0
 10
5.5884352107
 20
4.9200550084
 30
0.0
 10
5.5617696178
 20
4.9327315551
 30
0.0
 10
5.5338936763
 20
4.9447381372
 30
0.0
 10
5.5048747455
 20
4.9560475479
 30
0.0
 10
5.4747819994
 20
4.9666313493
 30
0.0
 10
5.4436879842
 20
4.9764653244
 30
0.0
 10
5.4116671093
 20
4.9855249201
 30
0.0
 10
5.3787964932
 20
4.9937890625
 30
0.0
 10
5.3451550161
 20
5.0012374936
 30
0.0
 10
5.3108234658
 20
5.0078524335
 30
0.0
 10
5.2758843251
 20
5.0136180191
 30
0.0
 10
5.2404219658
 20
5.0185199901
 30
0.0
 10
5.2045219808
 20
5.0225473545
 30
0.0
 10
5.1682695012
 20
5.0256895656
 30
0.0
 10
5.1317503406
 20
5.0279397094
 30
0.0
 10
5.0950561667
 20
5.0292912421
 30
0.0
 10
5.0705417976
 20
5.0295922793
 30
0.0
 10
5.0582759123
 20
5.0295922793
 30
0.0
  0
SPLINE
  5
243
100
AcDbEntity
  8
ALL_ASSEMBLY_MEMBERS
100
AcDbSpline
 62
7
  6
CONTINUOUS
 70
0
 71
3
 72
39
 73
35
 74
0
 42
0.0000001
 43
0.0000001
 44
0.0000000001
 40
0.0
 40
0.0
 40
0.0
 40
0.0
 40
0.0202846655
 40
0.0407148498
 40
0.0614317531
 40
0.0825679175
 40
0.1042445873
 40
0.1265689104
 40
0.1496333317
 40
0.173514747
 40
0.1982750507
 40
0.223961859
 40
0.2506091275
 40
0.2782389348
 40
0.3068615337
 40
0.3364777915
 40
0.3670785507
 40
0.3986473771
 40
0.4311594572
 40
0.4645842856
 40
0.4988844892
 40
0.5340181083
 40
0.5699377546
 40
0.6065922156
 40
0.6439260595
 40
0.6818805677
 40
0.7203942169
 40
0.7594029291
 40
0.7988399125
 40
0.8386353386
 40
0.8787199947
 40
0.919026788
 40
0.9594829017
 40
1.0
 40
1.0
 40
1.0
 40
1.0
 10
4.3082759123
 20
4.6545922793
 30
0.0
 10
4.3082759123
 20
4.6607331283
 30
0.0
 10
4.3088839676
 20
4.673067307
 30
0.0
 10
4.3116114045
 20
4.6914916335
 30
0.0
 10
4.3161492881
 20
4.7098217638
 30
0.0
 10
4.3224816963
 20
4.7280095858
 30
0.0
 10
4.3305922053
 20
4.7460102771
 30
0.0
 10
4.3404569349
 20
4.7637809374
 30
0.0
 10
4.3520507347
 20
4.7812790461
 30
0.0
 10
4.3653432401
 20
4.7984640325
 30
0.0
 10
4.3803014428
 20
4.8152958187
 30
0.0
 10
4.3968886696
 20
4.8317351381
 30
0.0
 10
4.4150643075
 20
4.8477441747
 30
0.0
 10
4.4347850643
 20
4.8632847731
 30
0.0
 10
4.4560029321
 20
4.8783214848
 30
0.0
 10
4.4786677996
 20
4.8928176258
 30
0.0
 10
4.5027246451
 20
4.9067403337
 30
0.0
 10
4.5281166138
 20
4.9200550084
 30
0.0
 10
4.5547822068
 20
4.9327315551
 30
0.0
 10
4.5826581482
 20
4.9447381372
 30
0.0
 10
4.611677079
 20
4.9560475479
 30
0.0
 10
4.6417698251
 20
4.9666313493
 30
0.0
 10
4.6728638403
 20
4.9764653244
 30
0.0
 10
4.7048847152
 20
4.9855249201
 30
0.0
 10
4.7377553314
 20
4.9937890625
 30
0.0
 10
4.7713968084
 20
5.0012374936
 30
0.0
 10
4.8057283587
 20
5.0078524335
 30
0.0
 10
4.8406674994
 20
5.0136180191
 30
0.0
 10
4.8761298587
 20
5.0185199901
 30
0.0
 10
4.9120298437
 20
5.0225473545
 30
0.0
 10
4.9482823233
 20
5.0256895656
 30
0.0
 10
4.9848014839
 20
5.0279397094
 30
0.0
 10
5.0214956578
 20
5.0292912421
 30
0.0
 10
5.0460100269
 20
5.0295922793
 30
0.0
 10
5.0582759123
 20
5.0295922793
 30
0.0
  0
SPLINE
  5
244
100
AcDbEntity
  8
ALL_ASSEMBLY_MEMBERS
100
AcDbSpline
 62
7
  6
CONTINUOUS
 70
0
 71
3
 72
39
 73
35
 74
0
 42
0.0000001
 43
0.0000001
 44
0.0000000001
 40
0.0
 40
0.0
 40
0.0
 40
0.0
 40
0.0405170983
 40
0.080973212
 40
0.1212800053
 40
0.1613646614
 40
0.2011600875
 40
0.2405970709
 40
0.2796057831
 40
0.3181194323
 40
0.3560739405
 40
0.3934077844
 40
0.4300622454
 40
0.4659818917
 40
0.5011155108
 40
0.5354157144
 40
0.5688405428
 40
0.6013526229
 40
0.6329214493
 40
0.6635222085
 40
0.6931384663
 40
0.7217610652
 40
0.7493908725
 40
0.776038141
 40
0.8017249493
 40
0.826485253
 40
0.8503666683
 40
0.8734310896
 40
0.8957554127
 40
0.9174320825
 40
0.9385682469
 40
0.9592851502
 40
0.9797153345
 40
1.0
 40
1.0
 40
1.0
 40
1.0
 10
5.0582759123
 20
4.2795922793
 30
0.0
 10
5.0705417976
 20
4.2795922793
 30
0.0
 10
5.0950561667
 20
4.2798933165
 30
0.0
 10
5.1317503406
 20
4.2812448492
 30
0.0
 10
5.1682695012
 20
4.2834949929
 30
0.0
 10
5.2045219808
 20
4.286637204
 30
0.0
 10
5.2404219658
 20
4.2906645685
 30
0.0
 10
5.2758843251
 20
4.2955665394
 30
0.0
 10
5.3108234658
 20
4.3013321251
 30
0.0
 10
5.3451550161
 20
4.3079470649
 30
0.0
 10
5.3787964932
 20
4.315395496
 30
0.0
 10
5.4116671093
 20
4.3236596384
 30
0.0
 10
5.4436879842
 20
4.3327192341
 30
0.0
 10
5.4747819994
 20
4.3425532093
 30
0.0
 10
5.5048747455
 20
4.3531370106
 30
0.0
 10
5.5338936763
 20
4.3644464214
 30
0.0
 10
5.5617696178
 20
4.3764530035
 30
0.0
 10
5.5884352107
 20
4.3891295502
 30
0.0
 10
5.6138271795
 20
4.4024442248
 30
0.0
 10
5.6378840249
 20
4.4163669328
 30
0.0
 10
5.6605488925
 20
4.4308630737
 30
0.0
 10
5.6817667603
 20
4.4458997855
 30
0.0
 10
5.7014875171
 20
4.4614403839
 30
0.0
 10
5.7196631549
 20
4.4774494205
 30
0.0
 10
5.7362503817
 20
4.4938887399
 30
0.0
 10
5.7512085844
 20
4.5107205261
 30
0.0
 10
5.7645010899
 20
4.5279055125
 30
0.0
 10
5.7760948896
 20
4.5454036211
 30
0.0
 10
5.7859596192
 20
4.5631742815
 30
0.0
 10
5.7940701282
 20
4.5811749727
 30
0.0
 10
5.8004025364
 20
4.5993627947
 30
0.0
 10
5.80494042
 20
4.6176929251
 30
0.0
 10
5.8076678569
 20
4.6361172516
 30
0.0
 10
5.8082759123
 20
4.6484514303
 30
0.0
 10
5.8082759123
 20
4.6545922793
 30
0.0
  0
SPLINE
  5
245
100
AcDbEntity
  8
ALL_ASSEMBLY_MEMBERS
100
AcDbSpline
 62
7
  6
CONTINUOUS
 70
0
 71
3
 72
39
 73
35
 74
0
 42
0.0000001
 43
0.0000001
 44
0.0000000001
 40
0.0
 40
0.0
 40
0.0
 40
0.0
 40
0.0405170983
 40
0.080973212
 40
0.1212800053
 40
0.1613646614
 40
0.2011600875
 40
0.2405970709
 40
0.2796057831
 40
0.3181194323
 40
0.3560739405
 40
0.3934077844
 40
0.4300622454
 40
0.4659818917
 40
0.5011155108
 40
0.5354157144
 40
0.5688405428
 40
0.6013526229
 40
0.6329214493
 40
0.6635222085
 40
0.6931384663
 40
0.7217610652
 40
0.7493908725
 40
0.776038141
 40
0.8017249493
 40
0.826485253
 40
0.8503666683
 40
0.8734310896
 40
0.8957554127
 40
0.9174320825
 40
0.9385682469
 40
0.9592851502
 40
0.9797153345
 40
1.0
 40
1.0
 40
1.0
 40
1.0
 10
5.0582759123
 20
4.2795922793
 30
0.0
 10
5.0460100269
 20
4.2795922793
 30
0.0
 10
5.0214956578
 20
4.2798933165
 30
0.0
 10
4.9848014839
 20
4.2812448492
 30
0.0
 10
4.9482823233
 20
4.2834949929
 30
0.0
 10
4.9120298437
 20
4.286637204
 30
0.0
 10
4.8761298587
 20
4.2906645685
 30
0.0
 10
4.8406674994
 20
4.2955665394
 30
0.0
 10
4.8057283587
 20
4.3013321251
 30
0.0
 10
4.7713968084
 20
4.3079470649
 30
0.0
 10
4.7377553314
 20
4.315395496
 30
0.0
 10
4.7048847152
 20
4.3236596384
 30
0.0
 10
4.6728638403
 20
4.3327192341
 30
0.0
 10
4.6417698251
 20
4.3425532093
 30
0.0
 10
4.611677079
 20
4.3531370106
 30
0.0
 10
4.5826581482
 20
4.3644464214
 30
0.0
 10
4.5547822068
 20
4.3764530035
 30
0.0
 10
4.5281166138
 20
4.3891295502
 30
0.0
 10
4.5027246451
 20
4.4024442248
 30
0.0
 10
4.4786677996
 20
4.4163669328
 30
0.0
 10
4.4560029321
 20
4.4308630737
 30
0.0
 10
4.4347850643
 20
4.4458997855
 30
0.0
 10
4.4150643075
 20
4.4614403839
 30
0.0
 10
4.3968886696
 20
4.4774494205
 30
0.0
 10
4.3803014428
 20
4.4938887399
 30
0.0
 10
4.3653432401
 20
4.5107205261
 30
0.0
 10
4.3520507347
 20
4.5279055125
 30
0.0
 10
4.3404569349
 20
4.5454036211
 30
0.0
 10
4.3305922053
 20
4.5631742815
 30
0.0
 10
4.3224816963
 20
4.5811749727
 30
0.0
 10
4.3161492881
 20
4.5993627947
 30
0.0
 10
4.3116114045
 20
4.6176929251
 30
0.0
 10
4.3088839676
 20
4.6361172516
 30
0.0
 10
4.3082759123
 20
4.6484514303
 30
0.0
 10
4.3082759123
 20
4.6545922793
 30
0.0
  0
ENDSEC
  0
SECTION
  2
OBJECTS
  0
DICTIONARY
  5
C
100
AcDbDictionary
280
0
281
1
  3
ACAD_GROUP
350
D
  3
ACAD_MLINESTYLE
350
17
  3
ACAD_LAYOUT
350
1A
  3
ACAD_PLOTSETTINGS
350
19
  3
ACAD_PLOTSTYLENAME
350
E
  0
DICTIONARY
  5
D
102
{ACAD_REACTORS
330
C
102
}
100
AcDbDictionary
280
0
281
1
  0
ACDBDICTIONARYWDFLT
  5
E
102
{ACAD_REACTORS
330
C
102
}
100
AcDbDictionary
281
1
  3
Normal
350
F
100
AcDbDictionaryWithDefault
340
F
  0
DICTIONARY
  5
17
102
{ACAD_REACTORS
330
C
102
}
100
AcDbDictionary
280
0
281
1
  3
Standard
350
18
  0
DICTIONARY
  5
19
102
{ACAD_REACTORS
330
C
102
}
100
AcDbDictionary
281
1
  0
DICTIONARY
  5
1A
102
{ACAD_REACTORS
330
C
102
}
100
AcDbDictionary
281
1
  3
Model
350
246
  3
Layout1
350
247
  0
ACDBPLACEHOLDER
  5
F
102
{ACAD_REACTORS
330
E
102
}
  0
MLINESTYLE
  5
18
102
{ACAD_REACTORS
330
17
102
}
100
AcDbMlineStyle
  2
STANDARD
 70
0
  3

 62
256
 51
90.0
 52
90.0
 71
2
 49
0.5
 62
256
  6
BYLAYER
 49
-0.5
 62
256
  6
BYLAYER
  0
LAYOUT
  5
246
102
{ACAD_REACTORS
330
1A
102
}
100
AcDbPlotSettings
  1

  2
none_device
  4
ANSI_A_(11.00_x_8.50_Inches)
  6

 40
0.0
 41
0.0
 42
0.0
 43
0.0
 44
279.4
 45
215.9
 46
0.0
 47
0.0
 48
0.0
 49
0.0
140
0.0
141
0.0
142
1.0
143
1.0
 70
1024
 72
0
 73
0
 74
0
  7

 75
0
147
1.0
148
0.0
149
0.0
100
AcDbLayout
  1
Model
 70
0
 71
0
 10
0.0
 20
0.0
 11
11.0
 21
8.5
 12
0.0
 22
0.0
 32
0.0
 14
0.0
 24
0.0
 34
0.0
 15
0.0
 25
0.0
 35
0.0
146
0.0
 13
0.0
 23
0.0
 33
0.0
 16
1.0
 26
0.0
 36
0.0
 17
0.0
 27
1.0
 37
0.0
 76
0
330
215
345
0
346
0
  0
LAYOUT
  5
247
102
{ACAD_REACTORS
330
1A
102
}
100
AcDbPlotSettings
  1

  2
none_device
  4
ANSI_A_(11.00_x_8.50_Inches)
  6

 40
0.0
 41
0.0
 42
0.0
 43
0.0
 44
279.4
 45
215.9
 46
0.0
 47
0.0
 48
0.0
 49
0.0
140
0.0
141
0.0
142
1.0
143
1.0
 70
0
 72
0
 73
0
 74
0
  7

 75
0
147
1.0
148
0.0
149
0.0
100
AcDbLayout
  1
Layout1
 70
0
 71
1
 10
0.0
 20
0.0
 11
11.0
 21
8.5
 12
0.0
 22
0.0
 32
0.0
 14
0.0
 24
0.0
 34
0.0
 15
0.0
 25
0.0
 35
0.0
146
0.0
 13
0.0
 23
0.0
 33
0.0
 16
1.0
 26
0.0
 36
0.0
 17
0.0
 27
1.0
 37
0.0
 76
0
330
216
345
0
346
0
  0
ENDSEC
  0
EOF
