  0
SECTION
  2
HEADER
  9
$ACADVER
  1
AC1015
  9
$DWGCODEPAGE
  3
ANSI_1252
  9
$EXTMAX
 10
11.6929133858
 20
8.2677165354
 30
0.0
  9
$EXTMIN
 10
0.0
 20
0.0
 30
0.0
  9
$LIMMIN
 10
0.0
 20
0.0
  9
$LIMMAX
 10
11.6929133858
 20
8.2677165354
  9
$VIEWCTR
 10
5.8464566929
 20
4.1338582677
  9
$VIEWSIZE
 40
8.2677165354
  9
$CLAYER
  8
0
  9
$LTSCALE
 40
0.6431102362
  9
$CELTYPE
  6
BYLAYER
  9
$DIMSCALE
 40
1.0
  9
$DIMASZ
 40
0.1875
  9
$DIMEXO
 40
0.0730807087
  9
$DIMDLI
 40
0.4443307087
  9
$DIMEXE
 40
0.2104724409
  9
$DIMCEN
 40
0.1052362205
  9
$DIMLFAC
 40
1.0
  9
$DIMBLK
  1
_CLOSED
  9
$DIMTXT
 40
0.15625
  9
$DIMTOL
 70
0
  9
$DIMLIM
 70
0
  9
$DIMTFAC
 40
1.0
  9
$PDMODE
 70
3
  9
$PDSIZE
 40
0.3125
  9
$HANDSEED
  5
277
  9
$TILEMODE
 70
1
  9
$MEASUREMENT
 70
0
  9
$INSUNITS
 70
1
  0
ENDSEC
  0
SECTION
  2
CLASSES
  0
CLASS
  1
ACDBDICTIONARYWDFLT
  2
AcDbDictionaryWithDefault
  3
AutoCAD 2000
 90
0
280
0
281
0
  0
CLASS
  1
ACDBPLACEHOLDER
  2
AcDbPlaceHolder
  3
AutoCAD 2000
 90
0
280
0
281
0
  0
CLASS
  1
LAYOUT
  2
AcDbLayout
  3
AutoCAD 2000
 90
0
280
0
281
0
  0
ENDSEC
  0
SECTION
  2
TABLES
  0
TABLE
  2
VPORT
  5
8
100
AcDbSymbolTable
 70
2
  0
VPORT
  5
1F4
100
AcDbSymbolTableRecord
100
AcDbViewportTableRecord
  2
*ACTIVE
 70
0
 10
0.0
 20
0.0
 11
1.0
 21
1.0
 12
5.8464566929
 22
4.1338582677
 13
0.0
 23
0.0
 14
1.0
 24
1.0
 15
0.0
 25
0.0
 16
0.0
 26
0.0
 36
1.0
 17
0.0
 27
0.0
 37
0.0
 40
8.2677165354
 41
1.4142857143
 42
50.0
 43
0.0
 44
0.0
 50
0.0
 51
0.0
 71
0
 72
100
 73
1
 74
1
 75
0
 76
0
 77
0
 78
0
  0
ENDTAB
  0
TABLE
  2
LTYPE
  5
5
100
AcDbSymbolTable
 70
6
  0
LTYPE
  5
14
100
AcDbSymbolTableRecord
100
AcDbLinetypeTableRecord
  2
BYBLOCK
 70
0
  3

 72
65
 73
0
 40
0.0
  0
LTYPE
  5
15
100
AcDbSymbolTableRecord
100
AcDbLinetypeTableRecord
  2
BYLAYER
 70
0
  3

 72
65
 73
0
 40
0.0
  0
LTYPE
  5
16
100
AcDbSymbolTableRecord
100
AcDbLinetypeTableRecord
  2
CONTINUOUS
 70
64
  3
Solid line
 72
65
 73
0
 40
0.0
  0
LTYPE
  5
1F5
100
AcDbSymbolTableRecord
100
AcDbLinetypeTableRecord
  2
CENTER
 70
64
  3
____ _ ____ _ ____ _ ____ _ ____ _ ____ _ ____
 72
65
 73
4
 40
0.6
 49
0.375
 74
0
 49
-0.075
 74
0
 49
0.075
 74
0
 49
-0.075
 74
0
  0
LTYPE
  5
1F6
100
AcDbSymbolTableRecord
100
AcDbLinetypeTableRecord
  2
HIDDEN
 70
64
  3
- - - - - - - - - - - - - - - - - - - -
 72
65
 73
2
 40
0.2
 49
0.1
 74
0
 49
-0.1
 74
0
  0
LTYPE
  5
1F7
100
AcDbSymbolTableRecord
100
AcDbLinetypeTableRecord
  2
PHANTOM
 70
64
  3
_____ _ _ _____ _ _ _____ _ _ _____
 72
65
 73
6
 40
0.8
 49
0.45
 74
0
 49
-0.05
 74
0
 49
0.1
 74
0
 49
-0.05
 74
0
 49
0.1
 74
0
 49
-0.05
 74
0
  0
LTYPE
  5
1F8
100
AcDbSymbolTableRecord
100
AcDbLinetypeTableRecord
  2
DOT
 70
64
  3
. . . . . . . . . . . . . . . . . . . .
 72
65
 73
2
 40
0.2
 49
0.1
 74
0
 49
-0.1
 74
0
  0
LTYPE
  5
1F9
100
AcDbSymbolTableRecord
100
AcDbLinetypeTableRecord
  2
DASHED
 70
64
  3
- - - - - - - - - - - - - - - - - - - -
 72
65
 73
2
 40
0.2
 49
0.1
 74
0
 49
-0.1
 74
0
  0
ENDTAB
  0
TABLE
  2
LAYER
  5
2
100
AcDbSymbolTable
 70
36
  0
LAYER
  5
10
100
AcDbSymbolTableRecord
100
AcDbLayerTableRecord
  2
0
 70
0
 62
7
  6
CONTINUOUS
370
-3
390
F
  0
LAYER
  5
1FA
100
AcDbSymbolTableRecord
100
AcDbLayerTableRecord
  2
DEFAULT_1
 70
0
 62
7
  6
CENTER
370
-3
390
F
  0
LAYER
  5
1FB
100
AcDbSymbolTableRecord
100
AcDbLayerTableRecord
  2
DEFAULT_2
 70
0
 62
8
  6
HIDDEN
370
-3
390
F
  0
LAYER
  5
1FC
100
AcDbSymbolTableRecord
100
AcDbLayerTableRecord
  2
DEFAULT_3
 70
0
 62
7
  6
PHANTOM
370
-3
390
F
  0
LAYER
  5
1FD
100
AcDbSymbolTableRecord
100
AcDbLayerTableRecord
  2
3_ALL_SYMBOLS
 70
0
 62
7
  6
CONTINUOUS
370
-3
390
F
  0
LAYER
  5
1FE
100
AcDbSymbolTableRecord
100
AcDbLayerTableRecord
  2
DEFAULT_COORDINATE_SYSTEM
 70
0
 62
7
  6
CONTINUOUS
370
-3
390
F
  0
LAYER
  5
1FF
100
AcDbSymbolTableRecord
100
AcDbLayerTableRecord
  2
DEFAULT_DATUM_AXES
 70
0
 62
7
  6
CONTINUOUS
370
-3
390
F
  0
LAYER
  5
200
100
AcDbSymbolTableRecord
100
AcDbLayerTableRecord
  2
DEFAULT_DATUM_CURVES
 70
0
 62
7
  6
CONTINUOUS
370
-3
390
F
  0
LAYER
  5
201
100
AcDbSymbolTableRecord
100
AcDbLayerTableRecord
  2
DEFAULT_DATUM_PLANES
 70
0
 62
7
  6
CONTINUOUS
370
-3
390
F
  0
ENDTAB
  0
TABLE
  2
STYLE
  5
3
100
AcDbSymbolTable
 70
1
  0
STYLE
  5
11
100
AcDbSymbolTableRecord
100
AcDbTextStyleTableRecord
  2
STANDARD
 70
0
 40
0.0
 41
0.8
 50
0.0
 71
0
 42
0.2
  3
txt
  4

  0
STYLE
  5
202
100
AcDbSymbolTableRecord
100
AcDbTextStyleTableRecord
  2
TEXTSTYLE_1
 70
0
 40
0.0
 41
0.8
 50
0.0
 71
0
 42
0.2
  3
gdt
  4

  0
ENDTAB
  0
TABLE
  2
VIEW
  5
6
100
AcDbSymbolTable
 70
0
  0
ENDTAB
  0
TABLE
  2
UCS
  5
7
100
AcDbSymbolTable
 70
0
  0
ENDTAB
  0
TABLE
  2
APPID
  5
9
100
AcDbSymbolTable
 70
1
  0
APPID
  5
203
100
AcDbSymbolTableRecord
100
AcDbRegAppTableRecord
  2
ACAD
 70
0
  0
ENDTAB
  0
TABLE
  2
BLOCK_RECORD
  5
1
100
AcDbSymbolTable
 70
0
  0
BLOCK_RECORD
  5
204
100
AcDbSymbolTableRecord
100
AcDbBlockTableRecord
  2
*Model_Space
  0
BLOCK_RECORD
  5
205
100
AcDbSymbolTableRecord
100
AcDbBlockTableRecord
  2
*Paper_Space
  0
ENDTAB
  0
TABLE
  2
DIMSTYLE
  5
A
100
AcDbSymbolTable
 70
1
100
AcDbDimStyleTable
 71
0
  0
DIMSTYLE
105
206
100
AcDbSymbolTableRecord
100
AcDbDimStyleTableRecord
  2
STANDARD
 70
0
  3

  4

 40
1.0
 41
0.1875
 42
0.0625
 43
0.38
 44
0.18
 45
0.0
 46
0.0
 47
0.01
 48
0.01
140
0.15625
141
0.09
142
0.0
143
25.4
144
1.0
145
0.0
146
1.0
147
0.09
 71
0.0
 72
0.0
 73
1
 74
1
 75
0
 76
0
 77
0
 78
4
170
0
171
2
172
0
173
0
174
0
175
0
176
0
177
0
178
0
270
2
271
2
272
2
273
2
274
2
275
0
280
0
281
0
282
0
283
1
284
4
285
0
286
0
287
3
288
0
340
11
  0
ENDTAB
  0
ENDSEC
  0
SECTION
  2
BLOCKS
  0
BLOCK
  5
20
100
AcDbEntity
  8
0
100
AcDbBlockBegin
  2
*Model_Space
 70
0
 10
0.0
 20
0.0
 30
0.0
  3
*Model_Space
  1

  0
ENDBLK
  5
21
100
AcDbEntity
  8
0
100
AcDbBlockEnd
  0
BLOCK
  5
1C
100
AcDbEntity
  8
0
100
AcDbBlockBegin
  2
*Paper_Space
 70
0
 10
0.0
 20
0.0
 30
0.0
  3
*Paper_Space
  1

  0
ENDBLK
  5
1D
100
AcDbEntity
  8
0
100
AcDbBlockEnd
  0
ENDSEC
  0
SECTION
  2
ENTITIES
  0
LINE
  5
207
100
AcDbEntity
  8
0
100
AcDbLine
 62
6
  6
CONTINUOUS
 10
5.3769989805
 20
2.6870114681
 11
6.1149989805
 21
2.6870114681
  0
LINE
  5
208
100
AcDbEntity
  8
0
100
AcDbLine
 62
6
  6
CONTINUOUS
 10
5.3374721481
 20
2.7363245737
 11
5.3755281719
 21
2.7143248496
  0
LINE
  5
209
100
AcDbEntity
  8
0
100
AcDbLine
 62
6
  6
CONTINUOUS
 10
5.3374721481
 20
2.8077545737
 11
5.3755281719
 21
2.7857548496
  0
LINE
  5
20A
100
AcDbEntity
  8
0
100
AcDbLine
 62
6
  6
CONTINUOUS
 10
5.3374721481
 20
2.8791845737
 11
5.3755281719
 21
2.8571848496
  0
LINE
  5
20B
100
AcDbEntity
  8
0
100
AcDbLine
 62
6
  6
CONTINUOUS
 10
5.3769989805
 20
2.6870114681
 11
5.3703718615
 21
2.6936385871
  0
LINE
  5
20C
100
AcDbEntity
  8
0
100
AcDbLine
 62
6
  6
CONTINUOUS
 10
5.3485211926
 20
2.9670114681
 11
6.1211078084
 21
2.9670114681
  0
LINE
  5
20D
100
AcDbEntity
  8
0
100
AcDbLine
 62
6
  6
CONTINUOUS
 10
5.3374721481
 20
2.9506145737
 11
5.3755281719
 21
2.9286148496
  0
LINE
  5
20E
100
AcDbEntity
  8
0
100
AcDbLine
 62
6
  6
CONTINUOUS
 10
5.3374721481
 20
2.7363245737
 11
5.3369989805
 21
2.7368714979
  0
LINE
  5
20F
100
AcDbEntity
  8
0
100
AcDbLine
 62
6
  6
CONTINUOUS
 10
5.3374721481
 20
2.8077545737
 11
5.3369989805
 21
2.8083014763
  0
LINE
  5
210
100
AcDbEntity
  8
0
100
AcDbLine
 62
6
  6
CONTINUOUS
 10
5.1810035828
 20
3.0470114681
 11
6.3109943782
 21
3.0470114681
  0
LINE
  5
211
100
AcDbEntity
  8
0
100
AcDbLine
 62
6
  6
CONTINUOUS
 10
5.3374721481
 20
2.8791845737
 11
5.3369989805
 21
2.8797314681
  0
LINE
  5
212
100
AcDbEntity
  8
0
100
AcDbLine
 62
6
  6
CONTINUOUS
 10
5.3761813433
 20
2.8568072239
 11
5.3756589805
 21
2.8574111067
  0
LINE
  5
213
100
AcDbEntity
  8
0
100
AcDbLine
 62
6
  6
CONTINUOUS
 10
5.3369989805
 20
2.9511614705
 11
5.3374721481
 21
2.9506145737
  0
LINE
  5
214
100
AcDbEntity
  8
0
100
AcDbLine
 62
6
  6
CONTINUOUS
 10
6.3109989805
 20
3.1470114681
 11
5.1809989805
 21
3.1470114681
  0
LINE
  5
215
100
AcDbEntity
  8
0
100
AcDbLine
 62
6
  6
CONTINUOUS
 10
6.154525813
 20
2.7820626396
 11
6.1164697892
 21
2.804062364
  0
LINE
  5
216
100
AcDbEntity
  8
0
100
AcDbLine
 62
6
  6
CONTINUOUS
 10
6.1441387906
 20
2.7166367164
 11
6.1164697892
 21
2.732632364
  0
LINE
  5
217
100
AcDbEntity
  8
0
100
AcDbLine
 62
9
  6
CONTINUOUS
 10
6.2109989805
 20
3.2470114681
 11
5.2809989805
 21
3.2470114681
  0
LINE
  5
218
100
AcDbEntity
  8
0
100
AcDbLine
 62
6
  6
CONTINUOUS
 10
6.154525813
 20
2.8534926396
 11
6.1164697892
 21
2.875492364
  0
LINE
  5
219
100
AcDbEntity
  8
0
100
AcDbLine
 62
6
  6
CONTINUOUS
 10
6.154525813
 20
2.9249226396
 11
6.1164697892
 21
2.946922364
  0
LINE
  5
21A
100
AcDbEntity
  8
0
100
AcDbLine
 62
6
  6
CONTINUOUS
 10
5.1809989805
 20
3.1470114681
 11
5.1809989805
 21
3.0470114681
  0
LINE
  5
21B
100
AcDbEntity
  8
0
100
AcDbLine
 62
6
  6
CONTINUOUS
 10
5.2809989805
 20
3.8969423176
 11
5.2809989805
 21
3.2470114681
  0
LINE
  5
21C
100
AcDbEntity
  8
0
100
AcDbLine
 62
6
  6
CONTINUOUS
 10
6.154525813
 20
2.7820626396
 11
6.1549989805
 21
2.7815157454
  0
LINE
  5
21D
100
AcDbEntity
  8
0
100
AcDbLine
 62
6
  6
CONTINUOUS
 10
6.154525813
 20
2.8534926396
 11
6.1549989805
 21
2.8529457678
  0
LINE
  5
21E
100
AcDbEntity
  8
0
100
AcDbLine
 62
6
  6
CONTINUOUS
 10
6.1163389805
 20
2.9466961067
 11
6.1158166177
 21
2.9472999895
  0
LINE
  5
21F
100
AcDbEntity
  8
0
100
AcDbLine
 62
6
  6
CONTINUOUS
 10
6.1549989805
 20
2.9243757459
 11
6.154525813
 21
2.9249226396
  0
LINE
  5
220
100
AcDbEntity
  8
0
100
AcDbLine
 62
6
  6
CONTINUOUS
 10
5.3369989805
 20
2.7368714681
 11
5.3369989805
 21
2.7458007452
  0
LINE
  5
221
100
AcDbEntity
  8
0
100
AcDbLine
 62
6
  6
CONTINUOUS
 10
5.3369989805
 20
2.8083014681
 11
5.3369989805
 21
2.8172307452
  0
LINE
  5
222
100
AcDbEntity
  8
0
100
AcDbLine
 62
6
  6
CONTINUOUS
 10
5.3369989805
 20
2.8797314681
 11
5.3369989805
 21
2.8886607452
  0
LINE
  5
223
100
AcDbEntity
  8
0
100
AcDbLine
 62
6
  6
CONTINUOUS
 10
5.3369989805
 20
2.9511614681
 11
5.3369989805
 21
2.9600907452
  0
LINE
  5
224
100
AcDbEntity
  8
0
100
AcDbLine
 62
6
  6
CONTINUOUS
 10
5.3756589805
 20
2.9288411067
 11
5.3756589805
 21
2.9112829899
  0
LINE
  5
225
100
AcDbEntity
  8
0
100
AcDbLine
 62
6
  6
CONTINUOUS
 10
5.3756589805
 20
2.8574111067
 11
5.3756589805
 21
2.8398529899
  0
LINE
  5
226
100
AcDbEntity
  8
0
100
AcDbLine
 62
6
  6
CONTINUOUS
 10
5.3756589805
 20
2.7859811067
 11
5.3756589805
 21
2.7684229899
  0
LINE
  5
227
100
AcDbEntity
  8
0
100
AcDbLine
 62
6
  6
CONTINUOUS
 10
5.3756589805
 20
2.7145511067
 11
5.3756589805
 21
2.6969929836
  0
LINE
  5
228
100
AcDbEntity
  8
0
100
AcDbLine
 62
6
  6
CONTINUOUS
 10
5.3809989805
 20
2.9670114681
 11
5.3809989805
 21
3.0470114681
  0
LINE
  5
229
100
AcDbEntity
  8
0
100
AcDbLine
 62
7
  6
CONTINUOUS
 10
5.2709989805
 20
3.9032918086
 11
6.2209989068
 21
3.9032918086
  0
LINE
  5
22A
100
AcDbEntity
  8
0
100
AcDbLine
 62
6
  6
CONTINUOUS
 10
6.1441387906
 20
2.7166367164
 11
6.1442685782
 21
2.7162810658
  0
LINE
  5
22B
100
AcDbEntity
  8
0
100
AcDbLine
 62
6
  6
CONTINUOUS
 10
5.3705092982
 20
2.6940156768
 11
5.3703717748
 21
2.6936386738
  0
LINE
  5
22C
100
AcDbEntity
  8
0
100
AcDbLine
 62
6
  6
CONTINUOUS
 10
6.1109989805
 20
2.9670114681
 11
6.1109989805
 21
3.0470114681
  0
LINE
  5
22D
100
AcDbEntity
  8
0
100
AcDbLine
 62
6
  6
CONTINUOUS
 10
6.1163389805
 20
2.7324061067
 11
6.1163389805
 21
2.7499642237
  0
LINE
  5
22E
100
AcDbEntity
  8
0
100
AcDbLine
 62
6
  6
CONTINUOUS
 10
6.1163389805
 20
2.8038361067
 11
6.1163389805
 21
2.8213942237
  0
LINE
  5
22F
100
AcDbEntity
  8
0
100
AcDbLine
 62
6
  6
CONTINUOUS
 10
6.1163389805
 20
2.8752661067
 11
6.1163389805
 21
2.8928242237
  0
LINE
  5
230
100
AcDbEntity
  8
0
100
AcDbLine
 62
6
  6
CONTINUOUS
 10
6.1163389805
 20
2.9466961067
 11
6.1163389805
 21
2.9642542302
  0
LINE
  5
231
100
AcDbEntity
  8
0
100
AcDbLine
 62
6
  6
CONTINUOUS
 10
6.1549989805
 20
2.7725864681
 11
6.1549989805
 21
2.7815157452
  0
LINE
  5
232
100
AcDbEntity
  8
0
100
AcDbLine
 62
6
  6
CONTINUOUS
 10
6.1549989805
 20
2.8440164681
 11
6.1549989805
 21
2.8529457452
  0
LINE
  5
233
100
AcDbEntity
  8
0
100
AcDbLine
 62
6
  6
CONTINUOUS
 10
6.1549989805
 20
2.9154464681
 11
6.1549989805
 21
2.9243757452
  0
LINE
  5
234
100
AcDbEntity
  8
0
100
AcDbLine
 62
6
  6
CONTINUOUS
 10
6.2109989805
 20
3.8969423176
 11
6.2109989805
 21
3.2470114681
  0
LINE
  5
235
100
AcDbEntity
  8
0
100
AcDbLine
 62
6
  6
CONTINUOUS
 10
5.3369989805
 20
2.9600907468
 11
5.3374721481
 21
2.9606376396
  0
LINE
  5
236
100
AcDbEntity
  8
0
100
AcDbLine
 62
6
  6
CONTINUOUS
 10
6.3109989805
 20
3.1470114681
 11
6.3109989805
 21
3.0470114681
  0
LINE
  5
237
100
AcDbEntity
  8
0
100
AcDbLine
 62
6
  6
CONTINUOUS
 10
5.3374721481
 20
2.8892076396
 11
5.3369989805
 21
2.8886608356
  0
LINE
  5
238
100
AcDbEntity
  8
0
100
AcDbLine
 62
6
  6
CONTINUOUS
 10
5.3374721481
 20
2.8177776396
 11
5.3369989805
 21
2.8172307453
  0
LINE
  5
239
100
AcDbEntity
  8
0
100
AcDbLine
 62
6
  6
CONTINUOUS
 10
5.3369989805
 20
2.745800743
 11
5.3374721481
 21
2.7463476396
  0
LINE
  5
23A
100
AcDbEntity
  8
0
100
AcDbLine
 62
6
  6
CONTINUOUS
 10
5.3484988181
 20
2.9670114681
 11
5.3374721481
 21
2.9606376396
  0
LINE
  5
23B
100
AcDbEntity
  8
0
100
AcDbLine
 62
6
  6
CONTINUOUS
 10
5.3761813433
 20
2.9115849895
 11
5.3374721481
 21
2.8892076396
  0
LINE
  5
23C
100
AcDbEntity
  8
0
100
AcDbLine
 62
6
  6
CONTINUOUS
 10
5.3761813433
 20
2.8401549895
 11
5.3374721481
 21
2.8177776396
  0
LINE
  5
23D
100
AcDbEntity
  8
0
100
AcDbLine
 62
6
  6
CONTINUOUS
 10
5.3761813433
 20
2.7687249895
 11
5.3374721481
 21
2.7463476396
  0
LINE
  5
23E
100
AcDbEntity
  8
0
100
AcDbLine
 62
6
  6
CONTINUOUS
 10
5.3761813433
 20
2.6972949895
 11
5.3705092982
 21
2.6940156768
  0
LINE
  5
23F
100
AcDbEntity
  8
0
100
AcDbLine
 62
6
  6
CONTINUOUS
 10
6.1549989805
 20
2.9154464682
 11
6.154525813
 21
2.9148995737
  0
LINE
  5
240
100
AcDbEntity
  8
0
100
AcDbLine
 62
6
  6
CONTINUOUS
 10
6.154525813
 20
2.8434695737
 11
6.1549989805
 21
2.8440164682
  0
LINE
  5
241
100
AcDbEntity
  8
0
100
AcDbLine
 62
6
  6
CONTINUOUS
 10
6.154525813
 20
2.7720395737
 11
6.1549989805
 21
2.7725864682
  0
LINE
  5
242
100
AcDbEntity
  8
0
100
AcDbLine
 62
6
  6
CONTINUOUS
 10
6.1149989805
 20
2.6870114681
 11
6.1442685022
 21
2.7162809898
  0
LINE
  5
243
100
AcDbEntity
  8
0
100
AcDbLine
 62
6
  6
CONTINUOUS
 10
6.1158166177
 20
2.9639522239
 11
6.1211080151
 21
2.9670114681
  0
LINE
  5
244
100
AcDbEntity
  8
0
100
AcDbLine
 62
6
  6
CONTINUOUS
 10
6.1158166177
 20
2.8925222239
 11
6.154525813
 21
2.9148995737
  0
LINE
  5
245
100
AcDbEntity
  8
0
100
AcDbLine
 62
6
  6
CONTINUOUS
 10
6.1158166177
 20
2.8210922239
 11
6.154525813
 21
2.8434695737
  0
LINE
  5
246
100
AcDbEntity
  8
0
100
AcDbLine
 62
6
  6
CONTINUOUS
 10
6.1158166177
 20
2.7496622239
 11
6.154525813
 21
2.7720395737
  0
ARC
  5
247
100
AcDbEntity
  8
0
100
AcDbCircle
 62
6
  6
CONTINUOUS
 10
5.520210961
 20
0.6722616699
 40
2.2973721513
100
AcDbArc
 50
92.737845028
 51
93.4838187281
  0
ARC
  5
248
100
AcDbEntity
  8
0
100
AcDbCircle
 62
6
  6
CONTINUOUS
 10
5.7459989805
 20
4.5470114681
 40
1.0
100
AcDbArc
 50
297.8572131516
 51
242.1425099033
  0
ARC
  5
249
100
AcDbEntity
  8
0
100
AcDbCircle
 62
9
  6
CONTINUOUS
 10
5.7459989805
 20
4.5470114681
 40
0.8699999967
100
AcDbArc
 50
302.3547504907
 51
237.6416880861
  0
ARC
  5
24A
100
AcDbEntity
  8
0
100
AcDbCircle
 62
7
  6
CONTINUOUS
 10
5.7459989805
 20
4.5470114681
 40
0.832
100
AcDbArc
 50
304.0878925627
 51
235.9121073485
  0
ARC
  5
24B
100
AcDbEntity
  8
0
100
AcDbCircle
 62
6
  6
CONTINUOUS
 10
5.7459989805
 20
4.5470114681
 40
0.8
100
AcDbArc
 50
305.5750773779
 51
306.4030991987
  0
ARC
  5
24C
100
AcDbEntity
  8
0
100
AcDbCircle
 62
6
  6
CONTINUOUS
 10
5.7459989805
 20
4.5470114681
 40
0.8
100
AcDbArc
 50
233.5969008013
 51
234.4249226221
  0
ARC
  5
24D
100
AcDbEntity
  8
0
100
AcDbCircle
 62
6
  6
CONTINUOUS
 10
5.7459989805
 20
4.5470114681
 40
0.8
100
AcDbArc
 50
306.4238142762
 51
233.5761813085
  0
ARC
  5
24E
100
AcDbEntity
  8
0
100
AcDbCircle
 62
6
  6
CONTINUOUS
 10
5.1809989805
 20
3.2470114681
 40
0.1
100
AcDbArc
 50
270.0
 51
360.0
  0
ARC
  5
24F
100
AcDbEntity
  8
0
100
AcDbCircle
 62
6
  6
CONTINUOUS
 10
6.3109989805
 20
3.2470114681
 40
0.1
100
AcDbArc
 50
180.0
 51
270.0
  0
ARC
  5
250
100
AcDbEntity
  8
0
100
AcDbCircle
 62
6
  6
CONTINUOUS
 10
5.3844362748
 20
2.6172331199
 40
0.0782539408
100
AcDbArc
 50
96.7813865445
 51
97.2081656203
  0
SPLINE
  5
251
100
AcDbEntity
  8
0
100
AcDbSpline
 62
6
  6
CONTINUOUS
 70
0
 71
3
 72
22
 73
18
 74
16
 42
0.0000001
 43
0.0000001
 44
0.0000000001
 12
0.0376510576
 22
0.0217653448
 32
0.0
 13
0.0434064923
 23
0.0026849212
 33
0.0
 40
0.0
 40
0.0
 40
0.0
 40
0.0
 40
0.0075239478
 40
0.0165025888
 40
0.0269773569
 40
0.0389738385
 40
0.0675906055
 40
0.1024308191
 40
0.1435096712
 40
0.190819704
 40
0.244343512
 40
0.3040579348
 40
0.3699362568
 40
0.4419471988
 40
0.6041770281
 40
0.7903375284
 40
1.0
 40
1.0
 40
1.0
 40
1.0
 10
5.3374727509
 20
2.9606376385
 30
0.0
 10
5.3375671791
 20
2.9606922257
 30
0.0
 10
5.3377817424
 20
2.9607990468
 30
0.0
 10
5.3381444474
 20
2.9609458527
 30
0.0
 10
5.3385761702
 20
2.9610929961
 30
0.0
 10
5.3392868371
 20
2.9613019667
 30
0.0
 10
5.3403511511
 20
2.9615568909
 30
0.0
 10
5.341838272
 20
2.9618494067
 30
0.0
 10
5.3436005908
 20
2.9621429273
 30
0.0
 10
5.3456367679
 20
2.9624372888
 30
0.0
 10
5.3479454824
 20
2.9627321727
 30
0.0
 10
5.350525258
 20
2.9630274415
 30
0.0
 10
5.3533745726
 20
2.9633230039
 30
0.0
 10
5.3577058487
 20
2.963733829
 30
0.0
 10
5.3637792535
 20
2.9642407668
 30
0.0
 10
5.3718477141
 20
2.9648292931
 30
0.0
 10
5.3775737868
 20
2.9652006344
 30
0.0
 10
5.3806073576
 20
2.9653882769
 30
0.0
 11
5.3374727509
 21
2.9606376385
 31
0.0
 11
5.3377643484
 21
2.9607860933
 31
0.0
 11
5.3381255031
 21
2.9609345485
 31
0.0
 11
5.3385561762
 21
2.9610830042
 31
0.0
 11
5.3390563291
 21
2.9612314606
 31
0.0
 11
5.3402649193
 21
2.9615283754
 31
0.0
 11
5.341750724
 21
2.9618252931
 31
0.0
 11
5.3435123738
 21
2.9621222114
 31
0.0
 11
5.3455483244
 21
2.9624191278
 31
0.0
 11
5.3478570316
 21
2.9627160395
 31
0.0
 11
5.350436951
 21
2.9630129439
 31
0.0
 11
5.3532865383
 21
2.9633098384
 31
0.0
 11
5.3564041508
 21
2.9636067216
 31
0.0
 11
5.3634344074
 21
2.9642004853
 31
0.0
 11
5.3715086181
 21
2.9647943115
 31
0.0
 11
5.3806073576
 21
2.9653882769
 31
0.0
  0
SPLINE
  5
252
100
AcDbEntity
  8
0
100
AcDbSpline
 62
6
  6
CONTINUOUS
 70
0
 71
3
 72
66
 73
62
 74
60
 42
0.0000001
 43
0.0000001
 44
0.0000000001
 12
0.0008519372
 22
0.7417159855
 32
0.0
 13
0.6420609227
 23
0.3713503743
 33
0.0
 40
0.0
 40
0.0
 40
0.0
 40
0.0
 40
0.0001884875
 40
0.0004032149
 40
0.0006624869
 40
0.0009768964
 40
0.0013523769
 40
0.0017923792
 40
0.0022990215
 40
0.0028736709
 40
0.0042302539
 40
0.0058668053
 40
0.0077849035
 40
0.0099847666
 40
0.0124660374
 40
0.0152280204
 40
0.0182698086
 40
0.0215903558
 40
0.0290615611
 40
0.037624525
 40
0.0472599883
 40
0.0579480277
 40
0.0696640268
 40
0.0823798227
 40
0.1106951057
 40
0.1426318144
 40
0.1778959902
 40
0.2161582552
 40
0.2570652694
 40
0.3002357123
 40
0.3452687659
 40
0.3917460495
 40
0.4392348489
 40
0.4872941945
 40
0.5354766872
 40
0.5833347036
 40
0.6304226819
 40
0.6763036082
 40
0.7205497994
 40
0.7627511096
 40
0.8025146407
 40
0.8394709687
 40
0.8732781809
 40
0.9036207086
 40
0.91740502
 40
0.9302204979
 40
0.9420373933
 40
0.9528302213
 40
0.9625739069
 40
0.9712450475
 40
0.9788262372
 40
0.9853020221
 40
0.9881208918
 40
0.9906585073
 40
0.9929144614
 40
0.9948887389
 40
0.9965818325
 40
0.9979951486
 40
0.9991319067
 40
0.9995987938
 40
1.0
 40
1.0
 40
1.0
 40
1.0
 10
5.3756593473
 20
2.8574111078
 30
0.0
 10
5.3756594008
 20
2.8574577092
 30
0.0
 10
5.3756807706
 20
2.8575580094
 30
0.0
 10
5.375769012
 20
2.857698581
 30
0.0
 10
5.3759091261
 20
2.8578357546
 30
0.0
 10
5.3761011495
 20
2.857971775
 30
0.0
 10
5.3763456754
 20
2.8581076395
 30
0.0
 10
5.376643203
 20
2.8582436059
 30
0.0
 10
5.3769939902
 20
2.8583797613
 30
0.0
 10
5.3775653103
 20
2.858572304
 30
0.0
 10
5.3784159801
 20
2.8588078288
 30
0.0
 10
5.3795999219
 20
2.8590784335
 30
0.0
 10
5.3809967443
 20
2.8593498367
 30
0.0
 10
5.3826055994
 20
2.8596219263
 30
0.0
 10
5.3844256234
 20
2.8598944585
 30
0.0
 10
5.3864558134
 20
2.8601673228
 30
0.0
 10
5.388695151
 20
2.8604404515
 30
0.0
 10
5.3920942681
 20
2.8608199432
 30
0.0
 10
5.3968567278
 20
2.861288299
 30
0.0
 10
5.4031800218
 20
2.8618320876
 30
0.0
 10
5.4103011589
 20
2.862376843
 30
0.0
 10
5.4182038252
 20
2.8629222551
 30
0.0
 10
5.4268696748
 20
2.8634681953
 30
0.0
 10
5.4398889162
 20
2.8642240994
 30
0.0
 10
5.4579054302
 20
2.8651567336
 30
0.0
 10
5.4814958306
 20
2.8662427504
 30
0.0
 10
5.5075477811
 20
2.8673304768
 30
0.0
 10
5.5358192328
 20
2.8684197476
 30
0.0
 10
5.5660467332
 20
2.869509908
 30
0.0
 10
5.5979492312
 20
2.8706008209
 30
0.0
 10
5.6312296658
 20
2.8716922277
 30
0.0
 10
5.6655783071
 20
2.8727839733
 30
0.0
 10
5.7006755249
 20
2.8738759668
 30
0.0
 10
5.7361945338
 20
2.8749680615
 30
0.0
 10
5.771804869
 20
2.8760602008
 30
0.0
 10
5.8071749342
 20
2.8771522515
 30
0.0
 10
5.8419756933
 20
2.8782441619
 30
0.0
 10
5.8758830313
 20
2.8793357548
 30
0.0
 10
5.9085815632
 20
2.8804269755
 30
0.0
 10
5.9397667841
 20
2.8815175727
 30
0.0
 10
5.969148538
 20
2.8826073671
 30
0.0
 10
5.9964534755
 20
2.8836960194
 30
0.0
 10
6.0214272369
 20
2.8847830709
 30
0.0
 10
6.0406731654
 20
2.885714358
 30
0.0
 10
6.0547313834
 20
2.8864675788
 30
0.0
 10
6.0642137814
 20
2.8870139678
 30
0.0
 10
6.0729552692
 20
2.8875600068
 30
0.0
 10
6.0809357242
 20
2.8881054877
 30
0.0
 10
6.0881364896
 20
2.8886502402
 30
0.0
 10
6.0945407886
 20
2.8891940955
 30
0.0
 10
6.1001339494
 20
2.8897366877
 30
0.0
 10
6.1042801516
 20
2.8902059829
 30
0.0
 10
6.1071806131
 20
2.8905877421
 30
0.0
 10
6.1090429303
 20
2.8908603881
 30
0.0
 10
6.1106940388
 20
2.8911325826
 30
0.0
 10
6.1121332538
 20
2.8914042173
 30
0.0
 10
6.1133602054
 20
2.8916749268
 30
0.0
 10
6.1143743316
 20
2.8919445731
 30
0.0
 10
6.1150830508
 20
2.8921804558
 30
0.0
 10
6.1155393303
 20
2.8923747472
 30
0.0
 10
6.1157307138
 20
2.8924725616
 30
0.0
 10
6.11581658
 20
2.8925222243
 30
0.0
 11
5.3756593473
 21
2.8574111078
 31
0.0
 11
5.3756864463
 21
2.8575482606
 31
0.0
 11
5.3757674094
 21
2.8576854134
 31
0.0
 11
5.3759022086
 21
2.8578225662
 31
0.0
 11
5.3760908157
 21
2.857959719
 31
0.0
 11
5.3763332025
 21
2.8580968718
 31
0.0
 11
5.376629341
 21
2.8582340246
 31
0.0
 11
5.376979203
 21
2.8583711774
 31
0.0
 11
5.3773827603
 21
2.8585083302
 31
0.0
 11
5.3783508486
 21
2.8587826357
 31
0.0
 11
5.379533306
 21
2.8590569413
 31
0.0
 11
5.3809292963
 21
2.8593312469
 31
0.0
 11
5.3825377486
 21
2.8596055525
 31
0.0
 11
5.3843575911
 21
2.8598798581
 31
0.0
 11
5.3863877518
 21
2.8601541637
 31
0.0
 11
5.3886271588
 21
2.8604284693
 31
0.0
 11
5.3910747404
 21
2.8607027749
 31
0.0
 11
5.3965890332
 21
2.8612513861
 31
0.0
 11
5.4029165863
 21
2.8617999973
 31
0.0
 11
5.4100422804
 21
2.8623486085
 31
0.0
 11
5.4179507697
 21
2.8628972197
 31
0.0
 11
5.4266233846
 21
2.8634458309
 31
0.0
 11
5.4360389306
 21
2.8639944421
 31
0.0
 11
5.4570121613
 21
2.8650916645
 31
0.0
 11
5.4806747191
 21
2.8661888869
 31
0.0
 11
5.5068077153
 21
2.8672861093
 31
0.0
 11
5.5351662492
 21
2.8683833317
 31
0.0
 11
5.5654878099
 21
2.8694805541
 31
0.0
 11
5.5974892341
 21
2.8705777765
 31
0.0
 11
5.6308729656
 21
2.8716749989
 31
0.0
 11
5.6653284666
 21
2.8727722212
 31
0.0
 11
5.7005345978
 21
2.8738694436
 31
0.0
 11
5.7361641155
 21
2.874966666
 31
0.0
 11
5.7718850167
 21
2.8760638884
 31
0.0
 11
5.8073651342
 21
2.8771611108
 31
0.0
 11
5.8422738242
 21
2.8782583332
 31
0.0
 11
5.8762867701
 21
2.8793555556
 31
0.0
 11
5.909086552
 21
2.880452778
 31
0.0
 11
5.9403687224
 21
2.8815500004
 31
0.0
 11
5.9698415718
 21
2.8826472228
 31
0.0
 11
5.9972307202
 21
2.8837444452
 31
0.0
 11
6.0222820695
 21
2.8848416676
 31
0.0
 11
6.0447608595
 21
2.88593889
 31
0.0
 11
6.0549701809
 21
2.8864875012
 31
0.0
 11
6.0644597871
 21
2.8870361123
 31
0.0
 11
6.0732073867
 21
2.8875847235
 31
0.0
 11
6.0811937843
 21
2.8881333347
 31
0.0
 11
6.0883999836
 21
2.8886819459
 31
0.0
 11
6.0948080704
 21
2.8892305571
 31
0.0
 11
6.1004043373
 21
2.8897791683
 31
0.0
 11
6.1051761002
 21
2.8903277795
 31
0.0
 11
6.1072488302
 21
2.8906020851
 31
0.0
 11
6.1091109259
 21
2.8908763907
 31
0.0
 11
6.1107615672
 21
2.8911506963
 31
0.0
 11
6.1122000003
 21
2.8914250019
 31
0.0
 11
6.113425471
 21
2.8916993075
 31
0.0
 11
6.1144372255
 21
2.8919736131
 31
0.0
 11
6.1152345096
 21
2.8922479187
 31
0.0
 11
6.1155524897
 21
2.8923850715
 31
0.0
 11
6.11581658
 21
2.8925222243
 31
0.0
  0
SPLINE
  5
253
100
AcDbEntity
  8
0
100
AcDbSpline
 62
6
  6
CONTINUOUS
 70
0
 71
3
 72
68
 73
64
 74
62
 42
0.0000001
 43
0.0000001
 44
0.0000000001
 12
-0.000153966
 22
0.741716566
 32
0.0
 13
0.6421056274
 23
0.3712732837
 33
0.0
 40
0.0
 40
0.0
 40
0.0
 40
0.0
 40
0.0001884344
 40
0.0004030093
 40
0.0006620842
 40
0.0009763165
 40
0.0013516974
 40
0.0017917301
 40
0.0022985744
 40
0.0028735587
 40
0.0042308324
 40
0.005867542
 40
0.007785274
 40
0.0099845729
 40
0.0124654145
 40
0.0152274389
 40
0.0182698704
 40
0.0215910552
 40
0.0290618965
 40
0.0376239753
 40
0.0472602743
 40
0.0579487886
 40
0.0696638877
 40
0.082379701
 40
0.0960679759
 40
0.1106955537
 40
0.1426326139
 40
0.1778962314
 40
0.2161594216
 40
0.2570657725
 40
0.3002368483
 40
0.3452698445
 40
0.391747214
 40
0.4392362418
 40
0.4872955662
 40
0.5354782099
 40
0.5833362093
 40
0.630424428
 40
0.6763049728
 40
0.7205517816
 40
0.7627524535
 40
0.8025164388
 40
0.839472565
 40
0.8732792285
 40
0.8889017807
 40
0.903622598
 40
0.9174063647
 40
0.9302210702
 40
0.9420387595
 40
0.9528318187
 40
0.9625742487
 40
0.9712457646
 40
0.9788277063
 40
0.9853023617
 40
0.9881205857
 40
0.9906582037
 40
0.9929145781
 40
0.9948893764
 40
0.9965827769
 40
0.997995894
 40
0.9991321192
 40
0.9995988244
 40
1.0
 40
1.0
 40
1.0
 40
1.0
 10
5.3756596772
 20
2.9288411064
 30
0.0
 10
5.3756596675
 20
2.9288876947
 30
0.0
 10
5.3756808678
 20
2.9289879776
 30
0.0
 10
5.3757688862
 20
2.9291285799
 30
0.0
 10
5.3759088096
 20
2.9292657686
 30
0.0
 10
5.376100688
 20
2.9294017955
 30
0.0
 10
5.3763451449
 20
2.9295376622
 30
0.0
 10
5.3766427096
 20
2.929673629
 30
0.0
 10
5.3769936521
 20
2.9298097738
 30
0.0
 10
5.3775653003
 20
2.9300022937
 30
0.0
 10
5.378416286
 20
2.9302377674
 30
0.0
 10
5.3796003423
 20
2.9305083995
 30
0.0
 10
5.3809969647
 20
2.9307798321
 30
0.0
 10
5.3826054758
 20
2.9310519416
 30
0.0
 10
5.3844252601
 20
2.9313244884
 30
0.0
 10
5.3864555141
 20
2.9315973557
 30
0.0
 10
5.3886951855
 20
2.9318704511
 30
0.0
 10
5.392094537
 20
2.9322498888
 30
0.0
 10
5.3968568395
 20
2.9327182972
 30
0.0
 10
5.4031800264
 20
2.9332621581
 30
0.0
 10
5.4103012766
 20
2.93380683
 30
0.0
 10
5.4182040462
 20
2.934352231
 30
0.0
 10
5.426869793
 20
2.9348982147
 30
0.0
 10
5.4362785179
 20
2.9354445834
 30
0.0
 10
5.4464084264
 20
2.9359912112
 30
0.0
 10
5.4612863486
 20
2.9367426231
 30
0.0
 10
5.4814961838
 20
2.93767265
 30
0.0
 10
5.507548297
 20
2.9387605568
 30
0.0
 10
5.5358196871
 20
2.9398497238
 30
0.0
 10
5.5660474094
 20
2.9409399602
 30
0.0
 10
5.5979498922
 20
2.9420308287
 30
0.0
 10
5.6312304942
 20
2.9431222585
 30
0.0
 10
5.6655792041
 20
2.944214003
 30
0.0
 10
5.7006764996
 20
2.9453059931
 30
0.0
 10
5.736195602
 20
2.9463980974
 30
0.0
 10
5.7718059704
 20
2.9474902315
 30
0.0
 10
5.8071761329
 20
2.9485822943
 30
0.0
 10
5.8419768585
 20
2.9496741878
 30
0.0
 10
5.875884318
 20
2.9507658161
 30
0.0
 10
5.9085827569
 20
2.951856992
 30
0.0
 10
5.9397680869
 20
2.9529476454
 30
0.0
 10
5.9691497541
 20
2.9540373823
 30
0.0
 10
5.9964546108
 20
2.9551261263
 30
0.0
 10
6.0177923041
 20
2.956054696
 30
0.0
 10
6.0336349899
 20
2.9568040687
 30
0.0
 10
6.0445312342
 20
2.9573509692
 30
0.0
 10
6.054732354
 20
2.9578976388
 30
0.0
 10
6.0642146213
 20
2.958444064
 30
0.0
 10
6.0729561759
 20
2.9589900569
 30
0.0
 10
6.0809365785
 20
2.9595354898
 30
0.0
 10
6.0881371759
 20
2.96008035
 30
0.0
 10
6.0945414458
 20
2.9606241749
 30
0.0
 10
6.1001346181
 20
2.9611666567
 30
0.0
 10
6.1042805589
 20
2.9616360277
 30
0.0
 10
6.1071805695
 20
2.9620178557
 30
0.0
 10
6.1090428311
 20
2.9622905002
 30
0.0
 10
6.1106941777
 20
2.9625626841
 30
0.0
 10
6.1121337109
 20
2.9628342968
 30
0.0
 10
6.1133608314
 20
2.9631049629
 30
0.0
 10
6.1143748598
 20
2.9633745786
 30
0.0
 10
6.1150833314
 20
2.963610494
 30
0.0
 10
6.115539412
 20
2.9638047811
 30
0.0
 10
6.1157307462
 20
2.9639025734
 30
0.0
 10
6.1158166119
 20
2.963952222
 30
0.0
 11
5.3756596772
 21
2.9288411064
 31
0.0
 11
5.3756865708
 21
2.9289782595
 31
0.0
 11
5.3757673109
 21
2.9291154126
 31
0.0
 11
5.3759019013
 21
2.9292525656
 31
0.0
 11
5.3760903456
 21
2.9293897187
 31
0.0
 11
5.3763326475
 21
2.9295268717
 31
0.0
 11
5.3766288107
 21
2.9296640248
 31
0.0
 11
5.3769788336
 21
2.9298011779
 31
0.0
 11
5.3773826532
 21
2.9299383309
 31
0.0
 11
5.3783512739
 21
2.9302126371
 31
0.0
 11
5.3795338518
 21
2.9304869432
 31
0.0
 11
5.3809295655
 21
2.9307612493
 31
0.0
 11
5.3825375935
 21
2.9310355554
 31
0.0
 11
5.3843571141
 21
2.9313098616
 31
0.0
 11
5.386387306
 21
2.9315841677
 31
0.0
 11
5.3886271941
 21
2.9318584738
 31
0.0
 11
5.3910752518
 21
2.9321327799
 31
0.0
 11
5.3965892741
 21
2.9326813922
 31
0.0
 11
5.4029161691
 21
2.9332300044
 31
0.0
 11
5.4100424858
 21
2.9337786167
 31
0.0
 11
5.4179513291
 21
2.9343272289
 31
0.0
 11
5.4266232764
 21
2.9348758412
 31
0.0
 11
5.4360388366
 21
2.9354244534
 31
0.0
 11
5.446176824
 21
2.9359730657
 31
0.0
 11
5.4570124616
 21
2.9365216779
 31
0.0
 11
5.4806752838
 21
2.9376189024
 31
0.0
 11
5.5068078692
 21
2.9387161269
 31
0.0
 11
5.5351670939
 21
2.9398133514
 31
0.0
 11
5.5654881666
 21
2.9409105759
 31
0.0
 11
5.5974900651
 21
2.9420078005
 31
0.0
 11
5.6308737587
 21
2.943105025
 31
0.0
 11
5.6653293284
 21
2.9442022495
 31
0.0
 11
5.7005356341
 21
2.945299474
 31
0.0
 11
5.7361651413
 21
2.9463966985
 31
0.0
 11
5.7718861596
 21
2.947493923
 31
0.0
 11
5.8073662695
 21
2.9485911475
 31
0.0
 11
5.8422751429
 21
2.949688372
 31
0.0
 11
5.8762878105
 21
2.9507855965
 31
0.0
 11
5.9090880554
 21
2.951882821
 31
0.0
 11
5.9403697566
 21
2.9529800454
 31
0.0
 11
5.9698429472
 21
2.95407727
 31
0.0
 11
5.9972319498
 21
2.9551744946
 31
0.0
 11
6.0222828951
 21
2.9562717187
 31
0.0
 11
6.0338574068
 21
2.9568203308
 31
0.0
 11
6.0447622898
 21
2.9573689431
 31
0.0
 11
6.0549712079
 21
2.9579175561
 31
0.0
 11
6.0644602415
 21
2.9584661695
 31
0.0
 11
6.0732084324
 21
2.959014782
 31
0.0
 11
6.081195003
 21
2.9595633924
 31
0.0
 11
6.0884002696
 21
2.9601120006
 31
0.0
 11
6.0948086369
 21
2.9606606102
 31
0.0
 11
6.1004054646
 21
2.9612092256
 31
0.0
 11
6.1051763833
 21
2.9617578505
 31
0.0
 11
6.1072486295
 21
2.9620321645
 31
0.0
 11
6.1091107263
 21
2.9623064768
 31
0.0
 11
6.1107616834
 21
2.9625807854
 31
0.0
 11
6.1122005104
 21
2.962855088
 31
0.0
 11
6.1134262171
 21
2.9631293827
 31
0.0
 11
6.1144378244
 21
2.9634036674
 31
0.0
 11
6.1152347005
 21
2.9636779446
 31
0.0
 11
6.1155525399
 21
2.9638150828
 31
0.0
 11
6.1158166119
 21
2.963952222
 31
0.0
  0
SPLINE
  5
254
100
AcDbEntity
  8
0
100
AcDbSpline
 62
6
  6
CONTINUOUS
 70
0
 71
3
 72
68
 73
64
 74
62
 42
0.0000001
 43
0.0000001
 44
0.0000000001
 12
0.6421479972
 22
0.3711994292
 32
0.0
 13
-0.0008449275
 23
0.7417158166
 33
0.0
 40
0.0
 40
0.0
 40
0.0
 40
0.0
 40
0.0004012673
 40
0.0008680162
 40
0.0020041027
 40
0.003416676
 40
0.0051095275
 40
0.0070843095
 40
0.0093410553
 40
0.0118791948
 40
0.0146978502
 40
0.021172211
 40
0.0287538635
 40
0.0374261722
 40
0.0471688175
 40
0.057961066
 40
0.0697792501
 40
0.082594614
 40
0.0963777797
 40
0.1110985256
 40
0.1267217757
 40
0.1605278359
 40
0.1974848182
 40
0.2372482924
 40
0.2794492471
 40
0.3236960447
 40
0.3695763948
 40
0.4166648143
 40
0.4645225795
 40
0.5127052822
 40
0.560764393
 40
0.6082535587
 40
0.6547304574
 40
0.699763799
 40
0.7429342756
 40
0.7838408023
 40
0.822104019
 40
0.8573669872
 40
0.8893048762
 40
0.903931777
 40
0.9176194766
 40
0.9303362599
 40
0.9420512513
 40
0.9527388059
 40
0.9623755299
 40
0.9709383628
 40
0.9784082627
 40
0.9817290209
 40
0.9847714748
 40
0.9875341178
 40
0.9900155845
 40
0.9922149048
 40
0.9941321954
 40
0.9957683336
 40
0.9971252337
 40
0.9977002038
 40
0.9982071964
 40
0.9986475212
 40
0.9990232417
 40
0.9993377624
 40
0.9995969933
 40
0.9998115874
 40
1.0
 40
1.0
 40
1.0
 40
1.0
 10
5.376182046
 20
2.9115849898
 30
0.0
 10
5.376267937
 20
2.9116346399
 30
0.0
 10
5.376459306
 20
2.911732436
 30
0.0
 10
5.3769153827
 20
2.9119267284
 30
0.0
 10
5.3776236809
 20
2.912162657
 30
0.0
 10
5.3786373754
 20
2.9124323425
 30
0.0
 10
5.3798642064
 20
2.9127030526
 30
0.0
 10
5.3813036957
 20
2.9129746405
 30
0.0
 10
5.3829552645
 20
2.9132468054
 30
0.0
 10
5.3848178591
 20
2.9135194304
 30
0.0
 10
5.3877180396
 20
2.9139012032
 30
0.0
 10
5.3918639344
 20
2.9143706251
 30
0.0
 10
5.3974571548
 20
2.9149131318
 30
0.0
 10
5.403861606
 20
2.9154568932
 30
0.0
 10
5.4110622494
 20
2.9160017518
 30
0.0
 10
5.419042619
 20
2.9165472584
 30
0.0
 10
5.427784258
 20
2.917093207
 30
0.0
 10
5.4372666602
 20
2.9176395988
 30
0.0
 10
5.4474677701
 20
2.9181863136
 30
0.0
 10
5.4583640167
 20
2.9187332128
 30
0.0
 10
5.4742067047
 20
2.9194825313
 30
0.0
 10
5.4955446216
 20
2.9204111786
 30
0.0
 10
5.5228494072
 20
2.9214998459
 30
0.0
 10
5.5522312164
 20
2.9225896337
 30
0.0
 10
5.5834164762
 20
2.9236802577
 30
0.0
 10
5.6161149215
 20
2.9247714375
 30
0.0
 10
5.6500223665
 20
2.9258630722
 30
0.0
 10
5.6848230229
 20
2.9269549493
 30
0.0
 10
5.7201931778
 20
2.9280470237
 30
0.0
 10
5.7558034367
 20
2.929139144
 30
0.0
 10
5.7913225211
 20
2.9302312595
 30
0.0
 10
5.8264196686
 20
2.9313232282
 30
0.0
 10
5.8607683676
 20
2.9324149983
 30
0.0
 10
5.8940487788
 20
2.9335063924
 30
0.0
 10
5.9259512291
 20
2.9345972902
 30
0.0
 10
5.9561788421
 20
2.935687511
 30
0.0
 10
5.9844501117
 20
2.9367766561
 30
0.0
 10
6.0105022633
 20
2.9378646212
 30
0.0
 10
6.0307119712
 20
2.9387945699
 30
0.0
 10
6.0455897814
 20
2.939546013
 30
0.0
 10
6.0557196136
 20
2.9400926855
 30
0.0
 10
6.06512841
 20
2.9406389836
 30
0.0
 10
6.0737941298
 20
2.9411849644
 30
0.0
 10
6.0816967324
 20
2.9417304346
 30
0.0
 10
6.0888180353
 20
2.9422750869
 30
0.0
 10
6.0951412873
 20
2.9428188521
 30
0.0
 10
6.0999034291
 20
2.9432873297
 30
0.0
 10
6.1033024423
 20
2.9436667862
 30
0.0
 10
6.1055421642
 20
2.9439398962
 30
0.0
 10
6.1075727365
 20
2.9442127371
 30
0.0
 10
6.1093928429
 20
2.9444852415
 30
0.0
 10
6.1110014053
 20
2.9447573519
 30
0.0
 10
6.1123977748
 20
2.9450288002
 30
0.0
 10
6.1135814746
 20
2.9452994554
 30
0.0
 10
6.1144322071
 20
2.9455349494
 30
0.0
 10
6.1150037939
 20
2.9457274635
 30
0.0
 10
6.1153548464
 20
2.9458636129
 30
0.0
 10
6.1156526257
 20
2.9459995704
 30
0.0
 10
6.1158973492
 20
2.9461354225
 30
0.0
 10
6.1160894797
 20
2.9462714267
 30
0.0
 10
6.1162295853
 20
2.9464085969
 30
0.0
 10
6.1163176657
 20
2.9465492189
 30
0.0
 10
6.1163388084
 20
2.9466495248
 30
0.0
 10
6.1163387553
 20
2.9466961077
 30
0.0
 11
5.376182046
 21
2.9115849898
 31
0.0
 11
5.3764461873
 21
2.9117221426
 31
0.0
 11
5.3767640556
 21
2.9118592954
 31
0.0
 11
5.3775608128
 21
2.912133601
 31
0.0
 11
5.3785719961
 21
2.9124079066
 31
0.0
 11
5.3797972826
 21
2.9126822122
 31
0.0
 11
5.3812360961
 21
2.9129565179
 31
0.0
 11
5.3828873324
 21
2.9132308235
 31
0.0
 11
5.3847498204
 21
2.9135051291
 31
0.0
 11
5.3868223896
 21
2.9137794347
 31
0.0
 11
5.391593088
 21
2.9143280459
 31
0.0
 11
5.3971896986
 21
2.9148766571
 31
0.0
 11
5.4035986534
 21
2.9154252683
 31
0.0
 11
5.4108040771
 21
2.9159738795
 31
0.0
 11
5.418790042
 21
2.9165224908
 31
0.0
 11
5.4275385972
 21
2.917071102
 31
0.0
 11
5.4370281165
 21
2.9176197132
 31
0.0
 11
5.4472365844
 21
2.9181683244
 31
0.0
 11
5.4581414101
 21
2.9187169356
 31
0.0
 11
5.4697164356
 21
2.9192655468
 31
0.0
 11
5.4947669236
 21
2.9203627693
 31
0.0
 11
5.5221565512
 21
2.9214599917
 31
0.0
 11
5.5516293513
 21
2.9225572141
 31
0.0
 11
5.5829112504
 21
2.9236544366
 31
0.0
 11
5.6157114744
 21
2.924751659
 31
0.0
 11
5.6497239847
 21
2.9258488814
 31
0.0
 11
5.6846329937
 21
2.9269461039
 31
0.0
 11
5.7201129163
 21
2.9280433263
 31
0.0
 11
5.7558339647
 21
2.9291405487
 31
0.0
 11
5.7914632998
 21
2.9302377712
 31
0.0
 11
5.8266696944
 21
2.9313349936
 31
0.0
 11
5.8611249016
 21
2.932432216
 31
0.0
 11
5.8945088388
 21
2.9335294385
 31
0.0
 11
5.9265102803
 21
2.9346266609
 31
0.0
 11
5.956831472
 21
2.9357238833
 31
0.0
 11
5.9851907055
 21
2.9368211058
 31
0.0
 11
6.011322799
 21
2.9379183282
 31
0.0
 11
6.0349862276
 21
2.9390155506
 31
0.0
 11
6.0458213583
 21
2.9395641619
 31
0.0
 11
6.0559589145
 21
2.9401127731
 31
0.0
 11
6.0653751919
 21
2.9406613843
 31
0.0
 11
6.0740470558
 21
2.9412099955
 31
0.0
 11
6.0819551827
 21
2.9417586067
 31
0.0
 11
6.0890818129
 21
2.9423072179
 31
0.0
 11
6.095409267
 21
2.9428558292
 31
0.0
 11
6.1009225855
 21
2.9434044404
 31
0.0
 11
6.1033703239
 21
2.943678746
 31
0.0
 11
6.1056102279
 21
2.9439530516
 31
0.0
 11
6.1076408821
 21
2.9442273572
 31
0.0
 11
6.109460871
 21
2.9445016628
 31
0.0
 11
6.1110689145
 21
2.9447759684
 31
0.0
 11
6.1124642941
 21
2.945050274
 31
0.0
 11
6.1136464366
 21
2.9453245796
 31
0.0
 11
6.114614769
 21
2.9455988852
 31
0.0
 11
6.1150185774
 21
2.945736038
 31
0.0
 11
6.1153687184
 21
2.9458731909
 31
0.0
 11
6.1156651203
 21
2.9460103437
 31
0.0
 11
6.1159077116
 21
2.9461474965
 31
0.0
 11
6.1160964206
 21
2.9462846493
 31
0.0
 11
6.1162311762
 21
2.9464218021
 31
0.0
 11
6.1163119446
 21
2.9465589549
 31
0.0
 11
6.1163387553
 21
2.9466961077
 31
0.0
  0
SPLINE
  5
255
100
AcDbEntity
  8
0
100
AcDbSpline
 62
6
  6
CONTINUOUS
 70
0
 71
3
 72
66
 73
62
 74
60
 42
0.0000001
 43
0.0000001
 44
0.0000000001
 12
0.6421908153
 22
0.3711254127
 32
0.0
 13
-0.0005779224
 23
0.7417161056
 33
0.0
 40
0.0
 40
0.0
 40
0.0
 40
0.0
 40
0.0004013481
 40
0.0008681842
 40
0.0020044145
 40
0.0034170068
 40
0.0051096547
 40
0.0070841983
 40
0.0093409334
 40
0.0118792052
 40
0.0146980413
 40
0.0211725285
 40
0.0287537488
 40
0.0374262108
 40
0.0471691409
 40
0.0579611091
 40
0.0697791786
 40
0.0825948336
 40
0.0963780308
 40
0.1267218296
 40
0.1605278089
 40
0.1974849936
 40
0.2372482274
 40
0.2794494257
 40
0.323696049
 40
0.3695764722
 40
0.4166648664
 40
0.4645226218
 40
0.5127053229
 40
0.5607644422
 40
0.6082535939
 40
0.6547304619
 40
0.6997639289
 40
0.742934193
 40
0.7838409592
 40
0.8221039119
 40
0.8573670448
 40
0.8893049695
 40
0.9176193243
 40
0.9303360979
 40
0.9420514534
 40
0.9527387809
 40
0.9623752767
 40
0.9709384947
 40
0.9784083859
 40
0.9817289709
 40
0.9847712651
 40
0.9875338562
 40
0.9900154723
 40
0.9922150688
 40
0.9941324122
 40
0.9957684395
 40
0.9971251629
 40
0.9977000502
 40
0.9982069794
 40
0.9986472711
 40
0.999022998
 40
0.9993375701
 40
0.9995968928
 40
0.9998115681
 40
1.0
 40
1.0
 40
1.0
 40
1.0
 10
5.3761819572
 20
2.8401549903
 30
0.0
 10
5.3762678712
 20
2.8402046405
 30
0.0
 10
5.3764592874
 20
2.8403024354
 30
0.0
 10
5.3769154503
 20
2.8404967216
 30
0.0
 10
5.3776238153
 20
2.8407326422
 30
0.0
 10
5.3786375
 20
2.8410023235
 30
0.0
 10
5.3798642189
 20
2.8412730548
 30
0.0
 10
5.3813035917
 20
2.8415446588
 30
0.0
 10
5.3829551334
 20
2.8418168122
 30
0.0
 10
5.3848178043
 20
2.8420894325
 30
0.0
 10
5.3877180962
 20
2.8424711925
 30
0.0
 10
5.3918639612
 20
2.8429406008
 30
0.0
 10
5.3974571389
 20
2.8434831606
 30
0.0
 10
5.4038615945
 20
2.8440268938
 30
0.0
 10
5.4110622785
 20
2.844571734
 30
0.0
 10
5.4190426194
 20
2.8451172667
 30
0.0
 10
5.4277842332
 20
2.8456632135
 30
0.0
 10
5.4372666875
 20
2.8462096076
 30
0.0
 10
5.45132498
 20
2.8469629311
 30
0.0
 10
5.470570646
 20
2.8478940653
 30
0.0
 10
5.4955446178
 20
2.848981253
 30
0.0
 10
5.5228493872
 20
2.850069816
 30
0.0
 10
5.5522312445
 20
2.8511596502
 30
0.0
 10
5.583416465
 20
2.8522502475
 30
0.0
 10
5.6161149461
 20
2.8533414434
 30
0.0
 10
5.6500223618
 20
2.8544330698
 30
0.0
 10
5.6848230289
 20
2.8555249501
 30
0.0
 10
5.7201931764
 20
2.8566170237
 30
0.0
 10
5.7558034362
 20
2.8577091442
 30
0.0
 10
5.7913225203
 20
2.8588012594
 30
0.0
 10
5.8264196605
 20
2.8598932272
 30
0.0
 10
5.8607683807
 20
2.8609850019
 30
0.0
 10
5.8940487648
 20
2.8620763846
 30
0.0
 10
5.9259512532
 20
2.8631673021
 30
0.0
 10
5.9561788111
 20
2.8642574919
 30
0.0
 10
5.984450111
 20
2.8653466923
 30
0.0
 10
6.0105022645
 20
2.8664345291
 30
0.0
 10
6.0340924803
 20
2.867520406
 30
0.0
 10
6.052109296
 20
2.8684531897
 30
0.0
 10
6.0651283946
 20
2.8692089758
 30
0.0
 10
6.0737941469
 20
2.8697549515
 30
0.0
 10
6.0816967268
 20
2.8703004299
 30
0.0
 10
6.0888180102
 20
2.8708451115
 30
0.0
 10
6.0951413025
 20
2.8713888376
 30
0.0
 10
6.0999034951
 20
2.8718573169
 30
0.0
 10
6.1033024222
 20
2.8722367857
 30
0.0
 10
6.1055420478
 20
2.8725099001
 30
0.0
 10
6.1075726038
 20
2.8727827472
 30
0.0
 10
6.1093928032
 20
2.8730552533
 30
0.0
 10
6.1110014903
 20
2.8733273365
 30
0.0
 10
6.1123979147
 20
2.8735987869
 30
0.0
 10
6.1135815544
 20
2.873869446
 30
0.0
 10
6.1144321903
 20
2.8741049471
 30
0.0
 10
6.1150036918
 20
2.8742974643
 30
0.0
 10
6.115354696
 20
2.8744336157
 30
0.0
 10
6.1156524494
 20
2.8745695761
 30
0.0
 10
6.1158971773
 20
2.8747054314
 30
0.0
 10
6.1160893493
 20
2.8748414401
 30
0.0
 10
6.1162295335
 20
2.8749786014
 30
0.0
 10
6.1163177434
 20
2.8751191964
 30
0.0
 10
6.11633895
 20
2.8752195196
 30
0.0
 10
6.1163389137
 20
2.8752661073
 30
0.0
 11
5.3761819572
 21
2.8401549903
 31
0.0
 11
5.376446166
 21
2.8402921431
 31
0.0
 11
5.3767641048
 21
2.8404292959
 31
0.0
 11
5.3775609748
 21
2.8407036015
 31
0.0
 11
5.3785721728
 21
2.8409779071
 31
0.0
 11
5.3797973045
 21
2.8412522127
 31
0.0
 11
5.3812359382
 21
2.8415265183
 31
0.0
 11
5.3828871664
 21
2.8418008239
 31
0.0
 11
5.3847497537
 21
2.8420751295
 31
0.0
 11
5.3868224582
 21
2.8423494351
 31
0.0
 11
5.3915932513
 21
2.8428980463
 31
0.0
 11
5.39718954
 21
2.8434466575
 31
0.0
 11
5.4035986092
 21
2.8439952687
 31
0.0
 11
5.4108042451
 21
2.8445438799
 31
0.0
 11
5.4187900019
 21
2.8450924911
 31
0.0
 11
5.4275384723
 21
2.8456411023
 31
0.0
 11
5.4370282083
 21
2.8461897135
 31
0.0
 11
5.4472367
 21
2.8467383247
 31
0.0
 11
5.4697164297
 21
2.8478355471
 31
0.0
 11
5.4947668586
 21
2.8489327695
 31
0.0
 11
5.5221566378
 21
2.8500299919
 31
0.0
 11
5.5516292607
 21
2.8511272143
 31
0.0
 11
5.582911342
 21
2.8522244368
 31
0.0
 11
5.6157114382
 21
2.8533216592
 31
0.0
 11
5.6497240041
 21
2.8544188816
 31
0.0
 11
5.6846329959
 21
2.855516104
 31
0.0
 11
5.7201129129
 21
2.8566133264
 31
0.0
 11
5.7558339617
 21
2.8577105488
 31
0.0
 11
5.7914633045
 21
2.8588077712
 31
0.0
 11
5.8266696904
 21
2.8599049936
 31
0.0
 11
5.8611248763
 21
2.861002216
 31
0.0
 11
5.894508908
 21
2.8620994384
 31
0.0
 11
5.9265101934
 21
2.8631966608
 31
0.0
 11
5.9568315641
 21
2.8642938832
 31
0.0
 11
5.9851906029
 21
2.8653911056
 31
0.0
 11
6.0113228199
 21
2.866488328
 31
0.0
 11
6.0349862759
 21
2.8675855504
 31
0.0
 11
6.0559588132
 21
2.8686827728
 31
0.0
 11
6.0653750837
 21
2.869231384
 31
0.0
 11
6.0740472186
 21
2.8697799952
 31
0.0
 11
6.081955177
 21
2.8703286064
 31
0.0
 11
6.0890816378
 21
2.8708772176
 31
0.0
 11
6.0954093789
 21
2.8714258288
 31
0.0
 11
6.1009226911
 21
2.87197444
 31
0.0
 11
6.1033703003
 21
2.8722487456
 31
0.0
 11
6.1056100851
 21
2.8725230512
 31
0.0
 11
6.1076407005
 21
2.8727973568
 31
0.0
 11
6.1094608017
 21
2.8730716624
 31
0.0
 11
6.111069053
 21
2.8733459681
 31
0.0
 11
6.1124644726
 21
2.8736202737
 31
0.0
 11
6.1136465306
 21
2.8738945793
 31
0.0
 11
6.1146147269
 21
2.8741688849
 31
0.0
 11
6.1150184705
 21
2.8743060377
 31
0.0
 11
6.115368561
 21
2.8744431905
 31
0.0
 11
6.1156649359
 21
2.8745803433
 31
0.0
 11
6.1159075327
 21
2.8747174961
 31
0.0
 11
6.1160962887
 21
2.8748546489
 31
0.0
 11
6.1162311416
 21
2.8749918017
 31
0.0
 11
6.1163120287
 21
2.8751289545
 31
0.0
 11
6.1163389137
 21
2.8752661073
 31
0.0
  0
SPLINE
  5
256
100
AcDbEntity
  8
0
100
AcDbSpline
 62
6
  6
CONTINUOUS
 70
0
 71
3
 72
17
 73
13
 74
11
 42
0.0000001
 43
0.0000001
 44
0.0000000001
 12
-0.3585619468
 22
-0.009966477
 32
0.0
 13
-0.3581040371
 23
-0.0206760487
 33
0.0
 40
0.0
 40
0.0
 40
0.0
 40
0.0
 40
0.3011032312
 40
0.4449394728
 40
0.58086201
 40
0.7064440414
 40
0.7646528575
 40
0.8194535259
 40
0.8706067352
 40
0.9178931492
 40
0.9610956627
 40
1.0
 40
1.0
 40
1.0
 40
1.0
 10
5.7459989805
 20
2.7636582452
 30
0.0
 10
5.7100109269
 20
2.7626579324
 30
0.0
 10
5.6568314195
 20
2.7611810921
 30
0.0
 10
5.5874094167
 20
2.7591454907
 30
0.0
 10
5.5389673539
 20
2.7576437209
 30
0.0
 10
5.5007615865
 20
2.7563644197
 30
0.0
 10
5.472252715
 20
2.7553296275
 30
0.0
 10
5.4526388479
 20
2.7545736649
 30
0.0
 10
5.4343319512
 20
2.7538181573
 30
0.0
 10
5.4174130471
 20
2.7530631945
 30
0.0
 10
5.4019602525
 20
2.7523090064
 30
0.0
 10
5.392157248
 20
2.7517788746
 30
0.0
 10
5.3875133146
 20
2.7515107452
 30
0.0
 11
5.7459989805
 21
2.7636582452
 31
0.0
 11
5.6380358253
 21
2.7606213439
 31
0.0
 11
5.5864640515
 21
2.7591029296
 31
0.0
 11
5.5377322302
 21
2.7575844664
 31
0.0
 11
5.4927115006
 21
2.7560660277
 31
0.0
 11
5.4718457807
 21
2.7553068147
 31
0.0
 11
5.4522034224
 21
2.7545476496
 31
0.0
 11
5.4338704566
 21
2.7537884645
 31
0.0
 11
5.4169258059
 21
2.753029107
 31
0.0
 11
5.4014476649
 21
2.7522696791
 31
0.0
 11
5.3875133146
 21
2.7515107452
 31
0.0
  0
LINE
  5
257
100
AcDbEntity
  8
0
100
AcDbLine
 62
6
  6
CONTINUOUS
 10
5.3372663411
 20
2.9596796651
 11
5.3369992723
 21
2.9600907473
  0
SPLINE
  5
258
100
AcDbEntity
  8
0
100
AcDbSpline
 62
6
  6
CONTINUOUS
 70
0
 71
3
 72
36
 73
32
 74
30
 42
0.0000001
 43
0.0000001
 44
0.0000000001
 12
-0.4089503317
 22
-0.011367057
 32
0.0
 13
-0.3542484135
 23
-0.2046402828
 33
0.0
 40
0.0
 40
0.0
 40
0.0
 40
0.0
 40
0.0950138962
 40
0.1892153932
 40
0.2816758948
 40
0.3715892762
 40
0.45815025
 40
0.5405651844
 40
0.6180926166
 40
0.6900340969
 40
0.7557377205
 40
0.7860644112
 40
0.8146140524
 40
0.841320939
 40
0.8661279417
 40
0.8889790183
 40
0.9098202645
 40
0.9286080981
 40
0.9453025162
 40
0.9598647589
 40
0.9722658171
 40
0.977649359
 40
0.9824850634
 40
0.9867709869
 40
0.990505845
 40
0.9936904763
 40
0.996328202
 40
0.9974440694
 40
0.9984263087
 40
0.9992771236
 40
1.0
 40
1.0
 40
1.0
 40
1.0
 10
5.7459989805
 20
2.8350882452
 30
0.0
 10
5.7330469924
 20
2.8347282358
 30
0.0
 10
5.7072537597
 20
2.8340112987
 30
0.0
 10
5.668856878
 20
2.8329343764
 30
0.0
 10
5.6311558237
 20
2.8318575804
 30
0.0
 10
5.5944971271
 20
2.8307811347
 30
0.0
 10
5.5592089336
 20
2.8297051452
 30
0.0
 10
5.5256106059
 20
2.8286296918
 30
0.0
 10
5.4940069744
 20
2.8275551021
 30
0.0
 10
5.4646836236
 20
2.8264816213
 30
0.0
 10
5.4417956589
 20
2.8255656115
 30
0.0
 10
5.4248228338
 20
2.8248264269
 30
0.0
 10
5.4131643485
 20
2.8242871497
 30
0.0
 10
5.4022594258
 20
2.8237480691
 30
0.0
 10
5.3921326102
 20
2.8232093242
 30
0.0
 10
5.3828068818
 20
2.8226710202
 30
0.0
 10
5.3743034385
 20
2.8221331603
 30
0.0
 10
5.3666413713
 20
2.8215959957
 30
0.0
 10
5.3598377977
 20
2.8210599641
 30
0.0
 10
5.353908153
 20
2.8205251383
 30
0.0
 10
5.3495210912
 20
2.8200621912
 30
0.0
 10
5.3464593896
 20
2.8196854505
 30
0.0
 10
5.3444995861
 20
2.819416721
 30
0.0
 10
5.3427668938
 20
2.8191484671
 30
0.0
 10
5.3412622423
 20
2.818880858
 30
0.0
 10
5.3399863317
 20
2.8186140247
 30
0.0
 10
5.339068558
 20
2.8183818351
 30
0.0
 10
5.3384511436
 20
2.8181919374
 30
0.0
 10
5.3380718811
 20
2.8180577395
 30
0.0
 10
5.3377499038
 20
2.8179237862
 30
0.0
 10
5.3375580003
 20
2.8178269505
 30
0.0
 10
5.337472641
 20
2.8177776406
 30
0.0
 11
5.7459989805
 21
2.8350882452
 31
0.0
 11
5.7071430615
 21
2.8340065856
 31
0.0
 11
5.6686196467
 21
2.8329243899
 31
0.0
 11
5.6308087638
 21
2.8318425398
 31
0.0
 11
5.5940403678
 21
2.8307606821
 31
0.0
 11
5.5586440882
 21
2.8296787498
 31
0.0
 11
5.5249448189
 21
2.8285968456
 31
0.0
 11
5.493246162
 21
2.8275149502
 31
0.0
 11
5.4638341991
 21
2.8264330383
 31
0.0
 11
5.4369760857
 21
2.8253511078
 31
0.0
 11
5.4245809848
 21
2.8248101377
 31
0.0
 11
5.4129136249
 21
2.8242691664
 31
0.0
 11
5.4020010171
 21
2.8237281955
 31
0.0
 11
5.391866695
 21
2.823187227
 31
0.0
 11
5.3825337953
 21
2.822646263
 31
0.0
 11
5.3740246469
 21
2.8221053051
 31
0.0
 11
5.3663574482
 21
2.8215643517
 31
0.0
 11
5.3595490801
 21
2.8210234006
 31
0.0
 11
5.3536161564
 21
2.8204824494
 31
0.0
 11
5.348571703
 21
2.8199414964
 31
0.0
 11
5.3463859229
 21
2.8196710186
 31
0.0
 11
5.3444261735
 21
2.8194005398
 31
0.0
 11
5.3426937544
 21
2.8191300597
 31
0.0
 11
5.3411899241
 21
2.8188595782
 31
0.0
 11
5.3399154514
 21
2.8185890953
 31
0.0
 11
5.3388707847
 21
2.8183186113
 31
0.0
 11
5.338434767
 21
2.8181833689
 31
0.0
 11
5.3380563669
 21
2.8180481263
 31
0.0
 11
5.3377356398
 21
2.8179128835
 31
0.0
 11
5.337472641
 21
2.8177776406
 31
0.0
  0
SPLINE
  5
259
100
AcDbEntity
  8
0
100
AcDbSpline
 62
6
  6
CONTINUOUS
 70
0
 71
3
 72
17
 73
13
 74
11
 42
0.0000001
 43
0.0000001
 44
0.0000000001
 12
0.3581040371
 22
0.0206760487
 32
0.0
 13
0.3585619468
 23
0.009966477
 33
0.0
 40
0.0
 40
0.0
 40
0.0
 40
0.0
 40
0.0389043373
 40
0.0821068508
 40
0.1293932648
 40
0.1805464741
 40
0.2353471425
 40
0.2935559586
 40
0.41913799
 40
0.5550605272
 40
0.6988967688
 40
1.0
 40
1.0
 40
1.0
 40
1.0
 10
5.3875133146
 20
2.8140114681
 30
0.0
 10
5.392157248
 20
2.8142795974
 30
0.0
 10
5.4019602525
 20
2.8148097293
 30
0.0
 10
5.4174130471
 20
2.8155639173
 30
0.0
 10
5.4343319512
 20
2.8163188801
 30
0.0
 10
5.4526388479
 20
2.8170743877
 30
0.0
 10
5.472252715
 20
2.8178303503
 30
0.0
 10
5.5007615865
 20
2.8188651425
 30
0.0
 10
5.5389673539
 20
2.8201444437
 30
0.0
 10
5.5874094167
 20
2.8216462135
 30
0.0
 10
5.6568314195
 20
2.8236818149
 30
0.0
 10
5.7100109269
 20
2.8251586552
 30
0.0
 10
5.7459989805
 20
2.8261589681
 30
0.0
 11
5.3875133146
 21
2.8140114681
 31
0.0
 11
5.4014476649
 21
2.8147704019
 31
0.0
 11
5.4169258059
 21
2.8155298299
 31
0.0
 11
5.4338704566
 21
2.8162891873
 31
0.0
 11
5.4522034224
 21
2.8170483724
 31
0.0
 11
5.4718457807
 21
2.8178075375
 31
0.0
 11
5.4927115006
 21
2.8185667505
 31
0.0
 11
5.5377322302
 21
2.8200851892
 31
0.0
 11
5.5864640515
 21
2.8216036524
 31
0.0
 11
5.6380358253
 21
2.8231220667
 31
0.0
 11
5.7459989805
 21
2.8261589681
 31
0.0
  0
SPLINE
  5
25A
100
AcDbEntity
  8
0
100
AcDbSpline
 62
6
  6
CONTINUOUS
 70
0
 71
3
 72
36
 73
32
 74
30
 42
0.0000001
 43
0.0000001
 44
0.0000000001
 12
-0.4089503911
 22
-0.0113670587
 32
0.0
 13
-0.3542472302
 23
-0.2046424499
 33
0.0
 40
0.0
 40
0.0
 40
0.0
 40
0.0
 40
0.0950143907
 40
0.189217569
 40
0.2816797177
 40
0.3715926751
 40
0.4581523109
 40
0.5405667259
 40
0.6180941787
 40
0.6900358237
 40
0.7557395854
 40
0.7860663066
 40
0.8146159921
 40
0.8413228755
 40
0.8661298456
 40
0.888980924
 40
0.9098221625
 40
0.9286098906
 40
0.9453041673
 40
0.9598662271
 40
0.9722669001
 40
0.9776502128
 40
0.9824856904
 40
0.9867714095
 40
0.9905061081
 40
0.9936906356
 40
0.9963282953
 40
0.9974441379
 40
0.9984263549
 40
0.9992771476
 40
1.0
 40
1.0
 40
1.0
 40
1.0
 10
5.7459989805
 20
2.9065182452
 30
0.0
 10
5.7330469231
 20
2.9061582339
 30
0.0
 10
5.70725339
 20
2.9054412886
 30
0.0
 10
5.6688559816
 20
2.904364351
 30
0.0
 10
5.6311545261
 20
2.9032875423
 30
0.0
 10
5.5944958398
 20
2.9022110973
 30
0.0
 10
5.5592079522
 20
2.9011351142
 30
0.0
 10
5.5256098701
 20
2.9000596675
 30
0.0
 10
5.4940062795
 20
2.8989850778
 30
0.0
 10
5.4646828805
 20
2.897911593
 30
0.0
 10
5.4417948672
 20
2.8969955788
 30
0.0
 10
5.4248220107
 20
2.8962563894
 30
0.0
 10
5.413163514
 20
2.8957171102
 30
0.0
 10
5.4022585888
 20
2.8951780269
 30
0.0
 10
5.3921317765
 20
2.894639278
 30
0.0
 10
5.3828060523
 20
2.8941009703
 30
0.0
 10
5.3743026232
 20
2.8935631062
 30
0.0
 10
5.3666405901
 20
2.8930259354
 30
0.0
 10
5.3598370746
 20
2.8924899003
 30
0.0
 10
5.3539075256
 20
2.8919550808
 30
0.0
 10
5.3495205721
 20
2.8914921365
 30
0.0
 10
5.3464589851
 20
2.8911154004
 30
0.0
 10
5.3444992715
 20
2.8908466761
 30
0.0
 10
5.3427666595
 20
2.8905784278
 30
0.0
 10
5.3412620716
 20
2.8903108249
 30
0.0
 10
5.339986205
 20
2.8900439994
 30
0.0
 10
5.3390684568
 20
2.8898118173
 30
0.0
 10
5.3384510565
 20
2.8896219255
 30
0.0
 10
5.3380718025
 20
2.8894877317
 30
0.0
 10
5.3377498336
 20
2.8893537825
 30
0.0
 10
5.3375579358
 20
2.8892569493
 30
0.0
 10
5.3374725796
 20
2.8892076406
 30
0.0
 11
5.7459989805
 21
2.9065182452
 31
0.0
 11
5.7071428536
 21
2.9054365798
 31
0.0
 11
5.6686187457
 21
2.9043543642
 31
0.0
 11
5.6308071838
 21
2.9032724937
 31
0.0
 11
5.5940389558
 21
2.9021906404
 31
0.0
 11
5.5586432183
 21
2.9011087226
 31
0.0
 11
5.5249441565
 21
2.9000268237
 31
0.0
 11
5.4932454867
 21
2.8989449263
 31
0.0
 11
5.4638334522
 21
2.8978630096
 31
0.0
 11
5.4369752786
 21
2.8967810733
 31
0.0
 11
5.4245801636
 21
2.8962401004
 31
0.0
 11
5.412912784
 21
2.8956991263
 31
0.0
 11
5.402000176
 21
2.8951581526
 31
0.0
 11
5.391865866
 21
2.8946171809
 31
0.0
 11
5.3825329644
 21
2.8940762126
 31
0.0
 11
5.3740238183
 21
2.8935352492
 31
0.0
 11
5.3663566621
 21
2.8929942907
 31
0.0
 11
5.3595483512
 21
2.892453337
 31
0.0
 11
5.3536155016
 21
2.8919123877
 31
0.0
 11
5.3485712053
 21
2.8913714413
 31
0.0
 11
5.3463855188
 21
2.8911009684
 31
0.0
 11
5.3444258619
 21
2.8908304953
 31
0.0
 11
5.3426935262
 21
2.8905600216
 31
0.0
 11
5.3411897607
 21
2.8902895472
 31
0.0
 11
5.3399153296
 21
2.8900190719
 31
0.0
 11
5.3388706886
 21
2.8897485957
 31
0.0
 11
5.3384346802
 21
2.8896133572
 31
0.0
 11
5.3380562884
 21
2.8894781185
 31
0.0
 11
5.3377355694
 21
2.8893428797
 31
0.0
 11
5.3374725796
 21
2.8892076406
 31
0.0
  0
LINE
  5
25B
100
AcDbEntity
  8
0
100
AcDbLine
 62
6
  6
CONTINUOUS
 10
6.1547309991
 20
2.9158580253
 11
6.1549986323
 21
2.9154464672
  0
SPLINE
  5
25C
100
AcDbEntity
  8
0
100
AcDbSpline
 62
6
  6
CONTINUOUS
 70
0
 71
3
 72
40
 73
36
 74
34
 42
0.0000001
 43
0.0000001
 44
0.0000000001
 12
-0.0003093029
 22
0.409860627
 32
0.0
 13
0.4097025061
 23
0.0113879642
 33
0.0
 40
0.0
 40
0.0
 40
0.0
 40
0.0
 40
0.0003485281
 40
0.000756616
 40
0.001263354
 40
0.0018896601
 40
0.0026466006
 40
0.0035402356
 40
0.0045740919
 40
0.0057503458
 40
0.008534895
 40
0.0119005426
 40
0.0158498901
 40
0.0203837963
 40
0.0255020424
 40
0.0312025525
 40
0.037482154
 40
0.0443374326
 40
0.0597605323
 40
0.077440963
 40
0.097336423
 40
0.1193989575
 40
0.1435793515
 40
0.1698189471
 40
0.198053318
 40
0.2282173255
 40
0.294037413
 40
0.3666484552
 40
0.4453507604
 40
0.5293907805
 40
0.6179626095
 40
0.7102067307
 40
0.8052370558
 40
0.9021689993
 40
1.0
 40
1.0
 40
1.0
 40
1.0
 10
5.3369994491
 20
2.7368714973
 30
0.0
 10
5.3369994131
 20
2.7369191133
 30
0.0
 10
5.3370245299
 20
2.7370231445
 30
0.0
 10
5.3371260665
 20
2.7371658222
 30
0.0
 10
5.337285864
 20
2.7373047055
 30
0.0
 10
5.337504952
 20
2.737442602
 30
0.0
 10
5.3377841844
 20
2.7375805154
 30
0.0
 10
5.3381241762
 20
2.7377186468
 30
0.0
 10
5.3385251508
 20
2.7378570396
 30
0.0
 10
5.3391789306
 20
2.7380530013
 30
0.0
 10
5.3401513469
 20
2.738292498
 30
0.0
 10
5.3415036357
 20
2.7385676932
 30
0.0
 10
5.3430989182
 20
2.7388437368
 30
0.0
 10
5.3449365389
 20
2.7391204956
 30
0.0
 10
5.3470157102
 20
2.7393976724
 30
0.0
 10
5.3493352049
 20
2.739675186
 30
0.0
 10
5.3518935051
 20
2.7399529799
 30
0.0
 10
5.355776006
 20
2.7403389693
 30
0.0
 10
5.3612145318
 20
2.7408154717
 30
0.0
 10
5.3684342088
 20
2.7413685349
 30
0.0
 10
5.3765632464
 20
2.7419225539
 30
0.0
 10
5.3855820893
 20
2.742477395
 30
0.0
 10
5.3954691266
 20
2.7430326929
 30
0.0
 10
5.4062005543
 20
2.7435883955
 30
0.0
 10
5.4177504577
 20
2.7441444824
 30
0.0
 10
5.4347040261
 20
2.7449085885
 30
0.0
 10
5.4577181978
 20
2.7458543754
 30
0.0
 10
5.4873624248
 20
2.7469608525
 30
0.0
 10
5.5194974039
 20
2.7480686949
 30
0.0
 10
5.5538141152
 20
2.7491775454
 30
0.0
 10
5.5899818
 20
2.7502871015
 30
0.0
 10
5.6276516402
 20
2.751397178
 30
0.0
 10
5.6664641079
 20
2.7525076557
 30
0.0
 10
5.7060401562
 20
2.7536182901
 30
0.0
 10
5.7326384451
 20
2.7543576028
 30
0.0
 10
5.7459989805
 20
2.7547289681
 30
0.0
 11
5.3369994491
 21
2.7368714973
 31
0.0
 11
5.3370301264
 21
2.7370110123
 31
0.0
 11
5.3371223828
 21
2.7371505273
 31
0.0
 11
5.3372762384
 21
2.7372900422
 31
0.0
 11
5.3374917137
 21
2.737429557
 31
0.0
 11
5.3377688142
 21
2.7375690717
 31
0.0
 11
5.338107468
 21
2.7377085862
 31
0.0
 11
5.3385075791
 21
2.7378481006
 31
0.0
 11
5.3389690512
 21
2.7379876148
 31
0.0
 11
5.3400756936
 21
2.7382666426
 31
0.0
 11
5.3414266257
 21
2.7385456697
 31
0.0
 11
5.3430210778
 21
2.7388246957
 31
0.0
 11
5.3448582803
 21
2.7391037207
 31
0.0
 11
5.3469374092
 21
2.7393827446
 31
0.0
 11
5.3492571037
 21
2.7396617674
 31
0.0
 11
5.3518156968
 21
2.7399407892
 31
0.0
 11
5.3546115178
 21
2.7402198103
 31
0.0
 11
5.3609081611
 21
2.7407778504
 31
0.0
 11
5.368133157
 21
2.7413358889
 31
0.0
 11
5.3762684081
 21
2.7418939269
 31
0.0
 11
5.3852937396
 21
2.7424519655
 31
0.0
 11
5.3951886105
 21
2.7430100056
 31
0.0
 11
5.4059287029
 21
2.7435680464
 31
0.0
 11
5.4174874002
 21
2.7441260864
 31
0.0
 11
5.4298378421
 21
2.7446841239
 31
0.0
 11
5.4567918157
 21
2.7458001944
 31
0.0
 11
5.4865312967
 21
2.7469162687
 31
0.0
 11
5.5187689684
 21
2.7480323441
 31
0.0
 11
5.553195587
 21
2.7491484286
 31
0.0
 11
5.5894805406
 21
2.7502645575
 31
0.0
 11
5.6272713073
 21
2.7513806512
 31
0.0
 11
5.6662045139
 21
2.7524967072
 31
0.0
 11
5.7059174242
 21
2.7536130815
 31
0.0
 11
5.7459989805
 21
2.7547289681
 31
0.0
  0
SPLINE
  5
25D
100
AcDbEntity
  8
0
100
AcDbSpline
 62
6
  6
CONTINUOUS
 70
0
 71
3
 72
36
 73
32
 74
30
 42
0.0000001
 43
0.0000001
 44
0.0000000001
 12
0.4089503441
 22
0.0113670574
 32
0.0
 13
0.3542489082
 23
0.2046394511
 33
0.0
 40
0.0
 40
0.0
 40
0.0
 40
0.0
 40
0.0950137604
 40
0.1892157688
 40
0.2816778739
 40
0.3715925117
 40
0.4581543415
 40
0.5405695969
 40
0.6180969952
 40
0.6900379272
 40
0.7557408517
 40
0.786067015
 40
0.8146162029
 40
0.8413225819
 40
0.8661290232
 40
0.8889796009
 40
0.9098204949
 40
0.9286080902
 40
0.945302329
 40
0.9598644577
 40
0.9722655862
 40
0.9776491914
 40
0.9824849519
 40
0.9867709048
 40
0.9905057646
 40
0.9936904119
 40
0.9963281625
 40
0.9974440427
 40
0.9984262936
 40
0.9992771178
 40
1.0
 40
1.0
 40
1.0
 40
1.0
 10
5.7459989805
 20
2.7547289681
 30
0.0
 10
5.7589509505
 20
2.755088977
 30
0.0
 10
5.7847442353
 20
2.7558059154
 30
0.0
 10
5.8231413879
 20
2.7568828457
 30
0.0
 10
5.8608429028
 20
2.7579596548
 30
0.0
 10
5.897502107
 20
2.7590361169
 30
0.0
 10
5.9327906332
 20
2.7601121173
 30
0.0
 10
5.9663891175
 20
2.7611875808
 30
0.0
 10
5.9979927144
 20
2.7622621702
 30
0.0
 10
6.0273158911
 20
2.7633356534
 30
0.0
 10
6.0502036146
 20
2.7642516548
 30
0.0
 10
6.0671762111
 20
2.7649908365
 30
0.0
 10
6.078834494
 20
2.7655301052
 30
0.0
 10
6.0897392096
 20
2.7660691773
 30
0.0
 10
6.0998658118
 20
2.7666079142
 30
0.0
 10
6.109191348
 20
2.76714621
 30
0.0
 10
6.1176946433
 20
2.7676840605
 30
0.0
 10
6.1253566061
 20
2.7682212167
 30
0.0
 10
6.1321601077
 20
2.7687572423
 30
0.0
 10
6.1380897218
 20
2.7692920698
 30
0.0
 10
6.1424767866
 20
2.7697550153
 30
0.0
 10
6.1455385143
 20
2.7701317561
 30
0.0
 10
6.1474983383
 20
2.7704004864
 30
0.0
 10
6.1492310426
 20
2.7706687411
 30
0.0
 10
6.1507357001
 20
2.7709363532
 30
0.0
 10
6.1520116165
 20
2.7712031873
 30
0.0
 10
6.1529293977
 20
2.7714353772
 30
0.0
 10
6.1535468191
 20
2.7716252751
 30
0.0
 10
6.1539260864
 20
2.7717594733
 30
0.0
 10
6.1542480675
 20
2.7718934267
 30
0.0
 10
6.1544399733
 20
2.7719902626
 30
0.0
 10
6.1545253334
 20
2.7720395727
 30
0.0
 11
5.7459989805
 21
2.7547289681
 31
0.0
 11
5.7848548452
 21
2.7558106262
 31
0.0
 11
5.8233784703
 21
2.756892828
 31
0.0
 11
5.86119001
 21
2.7579746972
 31
0.0
 11
5.8979589209
 21
2.7590565712
 31
0.0
 11
5.9333555515
 21
2.7601385158
 31
0.0
 11
5.967054953
 21
2.761220428
 31
0.0
 11
5.9987535968
 21
2.7623023261
 31
0.0
 11
6.0281653363
 21
2.7633842361
 31
0.0
 11
6.0550231646
 21
2.7644661598
 31
0.0
 11
6.06741805
 21
2.7650071245
 31
0.0
 11
6.079085225
 21
2.7655480889
 31
0.0
 11
6.0899976257
 21
2.7660890515
 31
0.0
 11
6.1001317185
 21
2.7666300108
 31
0.0
 11
6.1094644146
 21
2.7671709654
 31
0.0
 11
6.1179734195
 21
2.7677119143
 31
0.0
 11
6.1256405212
 21
2.76825286
 31
0.0
 11
6.1324488164
 21
2.7687938059
 31
0.0
 11
6.1383816936
 21
2.7693347552
 31
0.0
 11
6.1434261759
 21
2.7698757092
 31
0.0
 11
6.145611982
 21
2.7701461881
 31
0.0
 11
6.1475717545
 21
2.7704166682
 31
0.0
 11
6.1493041856
 21
2.7706871496
 31
0.0
 11
6.1508080165
 21
2.7709576323
 31
0.0
 11
6.1520824957
 21
2.7712281161
 31
0.0
 11
6.1531271728
 21
2.7714986009
 31
0.0
 11
6.1535631959
 21
2.7716338436
 31
0.0
 11
6.1539416009
 21
2.7717690865
 31
0.0
 11
6.154262332
 21
2.7719043295
 31
0.0
 11
6.1545253334
 21
2.7720395727
 31
0.0
  0
SPLINE
  5
25E
100
AcDbEntity
  8
0
100
AcDbSpline
 62
6
  6
CONTINUOUS
 70
0
 71
3
 72
28
 73
24
 74
22
 42
0.0000001
 43
0.0000001
 44
0.0000000001
 12
-0.0000469446
 22
0.0511613279
 32
0.0
 13
0.0510762857
 23
0.0029490194
 33
0.0
 40
0.0
 40
0.0
 40
0.0
 40
0.0
 40
0.0017610399
 40
0.0036546245
 40
0.0057892577
 40
0.0082417306
 40
0.0142786155
 40
0.0220065329
 40
0.031529544
 40
0.0429007506
 40
0.0561495178
 40
0.0712929527
 40
0.0883412716
 40
0.1073005452
 40
0.1509628421
 40
0.2022841041
 40
0.2612315799
 40
0.3277607795
 40
0.401822603
 40
0.4833650893
 40
0.572322547
 40
0.7720326817
 40
1.0
 40
1.0
 40
1.0
 40
1.0
 10
5.3369990968
 20
2.8083014749
 30
0.0
 10
5.3369990693
 20
2.8083315072
 30
0.0
 10
5.3370082102
 20
2.8083941349
 30
0.0
 10
5.3370482252
 20
2.8084853859
 30
0.0
 10
5.337113464
 20
2.8085754015
 30
0.0
 10
5.3372426675
 20
2.8087032459
 30
0.0
 10
5.3374739423
 20
2.8088584176
 30
0.0
 10
5.337830893
 20
2.8090335317
 30
0.0
 10
5.3382868223
 20
2.8092092945
 30
0.0
 10
5.3388419677
 20
2.8093856228
 30
0.0
 10
5.3394968129
 20
2.8095624102
 30
0.0
 10
5.3402513397
 20
2.809739527
 30
0.0
 10
5.3411055127
 20
2.8099169092
 30
0.0
 10
5.3424413246
 20
2.8101655136
 30
0.0
 10
5.3443606032
 20
2.8104711286
 30
0.0
 10
5.3469620173
 20
2.8108240702
 30
0.0
 10
5.3499563865
 20
2.8111778419
 30
0.0
 10
5.3533408353
 20
2.8115323087
 30
0.0
 10
5.3571124433
 20
2.8118872566
 30
0.0
 10
5.3612680228
 20
2.812242603
 30
0.0
 10
5.3675622431
 20
2.8127359439
 30
0.0
 10
5.3763519358
 20
2.813344709
 30
0.0
 10
5.3836320733
 20
2.8137873747
 30
0.0
 10
5.3875133146
 20
2.8140114681
 30
0.0
 11
5.3369990968
 21
2.8083014749
 31
0.0
 11
5.3370116216
 21
2.8083906972
 31
0.0
 11
5.3370493672
 21
2.8084799199
 31
0.0
 11
5.3371123453
 21
2.8085691428
 31
0.0
 11
5.3372005632
 21
2.808658366
 31
0.0
 11
5.3374526509
 21
2.808836813
 31
0.0
 11
5.3378054604
 21
2.8090152603
 31
0.0
 11
5.338258815
 21
2.8091937072
 31
0.0
 11
5.3388125379
 21
2.8093721531
 31
0.0
 11
5.3394664524
 21
2.8095505974
 31
0.0
 11
5.3402203816
 21
2.8097290393
 31
0.0
 11
5.3410741488
 21
2.8099074784
 31
0.0
 11
5.3420275773
 21
2.8100859139
 31
0.0
 11
5.3442327107
 21
2.8104427718
 31
0.0
 11
5.3468340145
 21
2.810799613
 31
0.0
 11
5.3498286615
 21
2.8111564522
 31
0.0
 11
5.3532136267
 21
2.811513307
 31
0.0
 11
5.3569858848
 21
2.811870195
 31
0.0
 11
5.3611424106
 21
2.8122271339
 31
0.0
 11
5.3656795714
 21
2.8125841261
 31
0.0
 11
5.3758720388
 21
2.8132980507
 31
0.0
 11
5.3875133146
 21
2.8140114681
 31
0.0
  0
SPLINE
  5
25F
100
AcDbEntity
  8
0
100
AcDbSpline
 62
6
  6
CONTINUOUS
 70
0
 71
3
 72
9
 73
5
 74
3
 42
0.0000001
 43
0.0000001
 44
0.0000000001
 12
0.0000000011
 22
-0.0000885562
 32
0.0
 13
0.0000236892
 23
-0.0000853289
 33
0.0
 40
0.0
 40
0.0
 40
0.0
 40
0.0
 40
0.7456102022
 40
1.0
 40
1.0
 40
1.0
 40
1.0
 10
5.3369989805
 20
2.8172307453
 30
0.0
 10
5.3369989808
 20
2.8172087358
 30
0.0
 10
5.3370021362
 20
2.8171791007
 30
0.0
 10
5.3370091285
 20
2.8171504165
 30
0.0
 10
5.3370111373
 20
2.8171431809
 30
0.0
 11
5.3369989805
 21
2.8172307453
 31
0.0
 11
5.3370058192
 21
2.817165072
 31
0.0
 11
5.3370111373
 21
2.8171431809
 31
0.0
  0
SPLINE
  5
260
100
AcDbEntity
  8
0
100
AcDbSpline
 62
6
  6
CONTINUOUS
 70
0
 71
3
 72
40
 73
36
 74
34
 42
0.0000001
 43
0.0000001
 44
0.0000000001
 12
-0.0000051673
 22
0.4098608809
 32
0.0
 13
0.4097026432
 23
0.011387968
 33
0.0
 40
0.0
 40
0.0
 40
0.0
 40
0.0
 40
0.0003486223
 40
0.0007570714
 40
0.0012643107
 40
0.001891038
 40
0.0026481266
 40
0.0035416288
 40
0.004575139
 40
0.0057509115
 40
0.0085344237
 40
0.0118995057
 40
0.0158493964
 40
0.0203844767
 40
0.0255031144
 40
0.0312030699
 40
0.0374817511
 40
0.0443363348
 40
0.059760573
 40
0.077441389
 40
0.0973356607
 40
0.1193992886
 40
0.1435811486
 40
0.1698206293
 40
0.1980562627
 40
0.2282227008
 40
0.2940451311
 40
0.3666586842
 40
0.4453619875
 40
0.5294019492
 40
0.6179730833
 40
0.7102137634
 40
0.8052406857
 40
0.9021722949
 40
1.0
 40
1.0
 40
1.0
 40
1.0
 10
5.3369989805
 20
2.8797314681
 30
0.0
 10
5.3369989799
 20
2.879779097
 30
0.0
 10
5.3370242663
 20
2.8798831644
 30
0.0
 10
5.33712608
 20
2.8800257962
 30
0.0
 10
5.3372861226
 20
2.8801646551
 30
0.0
 10
5.3375053853
 20
2.8803025419
 30
0.0
 10
5.3377846757
 20
2.8804404679
 30
0.0
 10
5.338124614
 20
2.8805786103
 30
0.0
 10
5.3385254469
 20
2.8807170114
 30
0.0
 10
5.3391789577
 20
2.8809129843
 30
0.0
 10
5.3401510757
 20
2.8811525066
 30
0.0
 10
5.3415032152
 20
2.8814277173
 30
0.0
 10
5.3430986636
 20
2.8817037321
 30
0.0
 10
5.344936583
 20
2.8819804446
 30
0.0
 10
5.347015893
 20
2.8822576277
 30
0.0
 10
5.3493352374
 20
2.8825351589
 30
0.0
 10
5.3518932389
 20
2.8828129644
 30
0.0
 10
5.355775672
 20
2.883198993
 30
0.0
 10
5.36121432
 20
2.883675423
 30
0.0
 10
5.3684340444
 20
2.8842284918
 30
0.0
 10
5.3765631199
 20
2.8847825807
 30
0.0
 10
5.3855821554
 20
2.8853373935
 30
0.0
 10
5.3954695307
 20
2.8858926856
 30
0.0
 10
5.4062013165
 20
2.8864484483
 30
0.0
 10
5.4177517126
 20
2.8870045485
 30
0.0
 10
5.4347061122
 20
2.8877686517
 30
0.0
 10
5.4577212845
 20
2.8887145141
 30
0.0
 10
5.4873663217
 20
2.8898209865
 30
0.0
 10
5.5195017829
 20
2.8909288377
 30
0.0
 10
5.5538185393
 20
2.8920376873
 30
0.0
 10
5.5899856637
 20
2.8931472144
 30
0.0
 10
5.6276544871
 20
2.8942572609
 30
0.0
 10
5.6664659874
 20
2.895367709
 30
0.0
 10
5.7060410886
 20
2.8964783155
 30
0.0
 10
5.7326388907
 20
2.8972176151
 30
0.0
 10
5.7459989805
 20
2.8975889681
 30
0.0
 11
5.3369989805
 21
2.8797314681
 31
0.0
 11
5.3370298339
 21
2.8798709839
 31
0.0
 11
5.3371223572
 21
2.8800104997
 31
0.0
 11
5.3372764894
 21
2.8801500154
 31
0.0
 11
5.33749217
 21
2.880289531
 31
0.0
 11
5.337769338
 21
2.8804290465
 31
0.0
 11
5.3381079328
 21
2.8805685619
 31
0.0
 11
5.3385078935
 21
2.880708077
 31
0.0
 11
5.3389691594
 21
2.880847592
 31
0.0
 11
5.3400753637
 21
2.8811266211
 31
0.0
 11
5.3414260593
 21
2.8814056489
 31
0.0
 11
5.3430207379
 21
2.8816846752
 31
0.0
 11
5.3448584278
 21
2.8819637001
 31
0.0
 11
5.3469377194
 21
2.8822427236
 31
0.0
 11
5.3492571858
 21
2.882521746
 31
0.0
 11
5.3518154003
 21
2.8828007676
 31
0.0
 11
5.3546109361
 21
2.8830797885
 31
0.0
 11
5.3609080499
 21
2.8836378293
 31
0.0
 11
5.3681332064
 21
2.8841958705
 31
0.0
 11
5.3762679717
 21
2.8847539148
 31
0.0
 11
5.3852937545
 21
2.8853119646
 31
0.0
 11
5.3951892296
 21
2.8858700205
 31
0.0
 11
5.4059292775
 21
2.8864280804
 31
0.0
 11
5.4174884957
 21
2.8869861421
 31
0.0
 11
5.4298399379
 21
2.8875442036
 31
0.0
 11
5.4567948797
 21
2.8886603188
 31
0.0
 11
5.4865353996
 21
2.8897764152
 31
0.0
 11
5.5187734914
 21
2.8908924927
 31
0.0
 11
5.5532000977
 21
2.8920085719
 31
0.0
 11
5.5894847791
 21
2.8931246839
 31
0.0
 11
5.6272741487
 21
2.8942407339
 31
0.0
 11
5.6662059743
 21
2.8953567488
 31
0.0
 11
5.705918761
 21
2.8964731185
 31
0.0
 11
5.7459989805
 21
2.8975889681
 31
0.0
  0
SPLINE
  5
261
100
AcDbEntity
  8
0
100
AcDbSpline
 62
6
  6
CONTINUOUS
 70
0
 71
3
 72
9
 73
5
 74
3
 42
0.0000001
 43
0.0000001
 44
0.0000000001
 12
-0.0000000056
 22
-0.0000887584
 32
0.0
 13
0.0000237816
 23
-0.0000855131
 33
0.0
 40
0.0
 40
0.0
 40
0.0
 40
0.0
 40
0.7455947934
 40
1.0
 40
1.0
 40
1.0
 40
1.0
 10
5.3369989845
 20
2.8886608355
 30
0.0
 10
5.3369989831
 20
2.8886387763
 30
0.0
 10
5.33700215
 20
2.8886090729
 30
0.0
 10
5.3370091696
 20
2.8885803259
 30
0.0
 10
5.3370111863
 20
2.8885730742
 30
0.0
 11
5.3369989845
 21
2.8886608355
 31
0.0
 11
5.3370058473
 21
2.8885950145
 31
0.0
 11
5.3370111863
 21
2.8885730742
 31
0.0
  0
SPLINE
  5
262
100
AcDbEntity
  8
0
100
AcDbSpline
 62
6
  6
CONTINUOUS
 70
0
 71
3
 72
36
 73
32
 74
30
 42
0.0000001
 43
0.0000001
 44
0.0000000001
 12
0.4089503174
 22
0.0113670566
 32
0.0
 13
0.3542474146
 23
0.2046419834
 33
0.0
 40
0.0
 40
0.0
 40
0.0
 40
0.0
 40
0.0950144043
 40
0.1892192799
 40
0.2816841173
 40
0.3715998923
 40
0.458162353
 40
0.540577539
 40
0.6181043714
 40
0.6900438024
 40
0.7557450095
 40
0.7860700139
 40
0.8146183357
 40
0.8413239481
 40
0.866129685
 40
0.8889798454
 40
0.9098206204
 40
0.928608193
 40
0.9453025345
 40
0.9598648101
 40
0.97226584
 40
0.9776493646
 40
0.9824850648
 40
0.9867710081
 40
0.9905059035
 40
0.9936905398
 40
0.9963282474
 40
0.9974441018
 40
0.9984263281
 40
0.9992771316
 40
1.0
 40
1.0
 40
1.0
 40
1.0
 10
5.7459989805
 20
2.8261589681
 30
0.0
 10
5.7589510374
 20
2.8265189794
 30
0.0
 10
5.7847447991
 20
2.827235931
 30
0.0
 10
5.8231428003
 20
2.8283128855
 30
0.0
 10
5.860845231
 20
2.8293897221
 30
0.0
 10
5.8975050462
 20
2.8304662051
 30
0.0
 10
5.9327938016
 20
2.8315422147
 30
0.0
 10
5.9663922828
 20
2.8326176877
 30
0.0
 10
5.9979955865
 20
2.8336922673
 30
0.0
 10
6.0273182449
 20
2.8347657487
 30
0.0
 10
6.0502053706
 20
2.8356817239
 30
0.0
 10
6.0671774556
 20
2.836420895
 30
0.0
 10
6.0788353575
 20
2.8369601457
 30
0.0
 10
6.089739754
 20
2.8374992021
 30
0.0
 10
6.0998660982
 20
2.8380379293
 30
0.0
 10
6.1091914647
 20
2.8385762175
 30
0.0
 10
6.1176946834
 20
2.8391140633
 30
0.0
 10
6.1253566401
 20
2.8396512225
 30
0.0
 10
6.132160172
 20
2.8401872517
 30
0.0
 10
6.138089807
 20
2.8407220729
 30
0.0
 10
6.1424768669
 20
2.8411850213
 30
0.0
 10
6.1455385614
 20
2.8415617627
 30
0.0
 10
6.1474983645
 20
2.8418304928
 30
0.0
 10
6.149231064
 20
2.8420987472
 30
0.0
 10
6.1507357244
 20
2.8423663541
 30
0.0
 10
6.1520116383
 20
2.8426331876
 30
0.0
 10
6.1529294082
 20
2.8428653778
 30
0.0
 10
6.1535468162
 20
2.8430552759
 30
0.0
 10
6.1539260732
 20
2.8431894739
 30
0.0
 10
6.1542480456
 20
2.8433234273
 30
0.0
 10
6.1544399462
 20
2.843420263
 30
0.0
 10
6.1545253043
 20
2.8434695727
 30
0.0
 11
5.7459989805
 21
2.8261589681
 31
0.0
 11
5.7848551059
 21
2.8272406334
 31
0.0
 11
5.8233799011
 21
2.8283228685
 31
0.0
 11
5.8611925556
 21
2.8294047712
 31
0.0
 11
5.8979619291
 21
2.8304866614
 31
0.0
 11
5.9333588153
 21
2.8315686177
 31
0.0
 11
5.967058186
 21
2.8326505356
 31
0.0
 11
5.9987565962
 21
2.8337324306
 31
0.0
 11
6.0281677197
 21
2.8348143291
 31
0.0
 11
6.0550248439
 21
2.8358962298
 31
0.0
 11
6.0674192547
 21
2.8364371797
 31
0.0
 11
6.0790860748
 21
2.8369781287
 31
0.0
 11
6.0899981615
 21
2.8375190765
 31
0.0
 11
6.1001319658
 21
2.8380600234
 31
0.0
 11
6.1094644908
 21
2.83860097
 31
0.0
 11
6.1179734464
 21
2.8391419169
 31
0.0
 11
6.1256405382
 21
2.8396828644
 31
0.0
 11
6.1324488748
 21
2.8402238131
 31
0.0
 11
6.1383818119
 21
2.8407647635
 31
0.0
 11
6.1434262535
 21
2.8413057165
 31
0.0
 11
6.1456120263
 21
2.8415761943
 31
0.0
 11
6.1475717739
 21
2.8418466733
 31
0.0
 11
6.1493042011
 21
2.8421171535
 31
0.0
 11
6.1508080469
 21
2.8423876351
 31
0.0
 11
6.1520825216
 21
2.8426581181
 31
0.0
 11
6.1531271806
 21
2.8429286022
 31
0.0
 11
6.1535631927
 21
2.8430638446
 31
0.0
 11
6.1539415871
 21
2.8431990871
 31
0.0
 11
6.1542623092
 21
2.8433343298
 31
0.0
 11
6.1545253043
 21
2.8434695727
 31
0.0
  0
SPLINE
  5
263
100
AcDbEntity
  8
0
100
AcDbSpline
 62
6
  6
CONTINUOUS
 70
0
 71
3
 72
40
 73
36
 74
34
 42
0.0000001
 43
0.0000001
 44
0.0000000001
 12
0.4097022501
 22
0.0113879571
 32
0.0
 13
0.0004790487
 23
0.4098602077
 33
0.0
 40
0.0
 40
0.0
 40
0.0
 40
0.0
 40
0.0978262258
 40
0.1947633041
 40
0.2897929577
 40
0.3820326126
 40
0.4706044006
 40
0.5546448601
 40
0.6333490187
 40
0.7059615685
 40
0.7717821459
 40
0.8019473197
 40
0.8301833123
 40
0.8564212986
 40
0.8806018636
 40
0.9026666915
 40
0.9225606144
 40
0.9402402868
 40
0.955665777
 40
0.9625210767
 40
0.968799442
 40
0.9744985263
 40
0.9796162795
 40
0.9841510016
 40
0.988101553
 40
0.9914677495
 40
0.9942514242
 40
0.9954269079
 40
0.9964599865
 40
0.9973529931
 40
0.9981096005
 40
0.9987359371
 40
0.9992429418
 40
0.9996513386
 40
1.0
 40
1.0
 40
1.0
 40
1.0
 10
5.7459989805
 20
2.9065182452
 30
0.0
 10
5.7593588555
 20
2.9068895922
 30
0.0
 10
5.7859571769
 20
2.9076289067
 30
0.0
 10
5.825533158
 20
2.9087395376
 30
0.0
 10
5.864345601
 20
2.9098500135
 30
0.0
 10
5.9020147103
 20
2.9109600752
 30
0.0
 10
5.9381818175
 20
2.9120695938
 30
0.0
 10
5.9724988142
 20
2.913178475
 30
0.0
 10
6.0046342929
 20
2.914286312
 30
0.0
 10
6.0342790275
 20
2.9153928005
 30
0.0
 10
6.0572936155
 20
2.9163386323
 30
0.0
 10
6.0742476208
 20
2.9171027521
 30
0.0
 10
6.0857976806
 20
2.9176587905
 30
0.0
 10
6.0965291233
 20
2.9182145615
 30
0.0
 10
6.1064162697
 20
2.9187698856
 30
0.0
 10
6.1154352397
 20
2.9193246329
 30
0.0
 10
6.1235642673
 20
2.9198787274
 30
0.0
 10
6.1307839459
 20
2.9204318698
 30
0.0
 10
6.136222704
 20
2.9209082699
 30
0.0
 10
6.1401053634
 20
2.9212942664
 30
0.0
 10
6.1426632966
 20
2.9215720835
 30
0.0
 10
6.1449823523
 20
2.9218496266
 30
0.0
 10
6.147061367
 20
2.9221268244
 30
0.0
 10
6.1488992007
 20
2.9224035588
 30
0.0
 10
6.1504948441
 20
2.9226795671
 30
0.0
 10
6.1518472669
 20
2.9229547049
 30
0.0
 10
6.1528195259
 20
2.9231942242
 30
0.0
 10
6.153472951
 20
2.9233902168
 30
0.0
 10
6.1538736086
 20
2.9235286167
 30
0.0
 10
6.1542133393
 20
2.9236667593
 30
0.0
 10
6.1544924207
 20
2.9238046876
 30
0.0
 10
6.1547115008
 20
2.9239425802
 30
0.0
 10
6.1548714137
 20
2.9240814481
 30
0.0
 10
6.1549731593
 20
2.9242240765
 30
0.0
 10
6.1549984979
 20
2.9243281107
 30
0.0
 10
6.1549985536
 20
2.9243757449
 30
0.0
 11
5.7459989805
 21
2.9065182452
 31
0.0
 11
5.7860785555
 21
2.907634077
 31
0.0
 11
5.8257935447
 21
2.9087505087
 31
0.0
 11
5.8647264519
 21
2.9098665565
 31
0.0
 11
5.9025153652
 21
2.9109825963
 31
0.0
 11
5.9388002796
 21
2.9120987155
 31
0.0
 11
5.9732270564
 21
2.9132148121
 31
0.0
 11
6.0054654677
 21
2.9143308997
 31
0.0
 11
6.0352055476
 21
2.9154469946
 31
0.0
 11
6.0621597043
 21
2.9165630892
 31
0.0
 11
6.0745106165
 21
2.9171211358
 31
0.0
 11
6.0860699717
 21
2.9176791825
 31
0.0
 11
6.0968093966
 21
2.9182372293
 31
0.0
 11
6.1067043311
 21
2.9187952762
 31
0.0
 11
6.1157305982
 21
2.9193533232
 31
0.0
 11
6.1238652122
 21
2.9199113701
 31
0.0
 11
6.1310898911
 21
2.9204694169
 31
0.0
 11
6.1373875135
 21
2.9210274637
 31
0.0
 11
6.1401833412
 21
2.9213064872
 31
0.0
 11
6.1427414228
 21
2.9215855106
 31
0.0
 11
6.1450605271
 21
2.921864534
 31
0.0
 11
6.1471394509
 21
2.9221435574
 31
0.0
 11
6.1489769908
 21
2.9224225809
 31
0.0
 11
6.1505719432
 21
2.9227016043
 31
0.0
 11
6.1519231049
 21
2.9229806277
 31
0.0
 11
6.1530293781
 21
2.9232596512
 31
0.0
 11
6.1534905208
 21
2.9233991629
 31
0.0
 11
6.153890295
 21
2.9235386746
 31
0.0
 11
6.1542286711
 21
2.9236781863
 31
0.0
 11
6.15450562
 21
2.923817698
 31
0.0
 11
6.154721112
 21
2.9239572097
 31
0.0
 11
6.1548751179
 21
2.9240967215
 31
0.0
 11
6.1549676082
 21
2.9242362332
 31
0.0
 11
6.1549985536
 21
2.9243757449
 31
0.0
  0
SPLINE
  5
264
100
AcDbEntity
  8
0
100
AcDbSpline
 62
6
  6
CONTINUOUS
 70
0
 71
3
 72
9
 73
5
 74
3
 42
0.0000001
 43
0.0000001
 44
0.0000000001
 12
-0.0000000071
 22
0.0000885968
 32
0.0
 13
-0.0000237138
 23
0.0000853642
 33
0.0
 40
0.0
 40
0.0
 40
0.0
 40
0.0
 40
0.7456053327
 40
1.0
 40
1.0
 40
1.0
 40
1.0
 10
6.15499898
 20
2.7725864683
 30
0.0
 10
6.1549989783
 20
2.7726084877
 30
0.0
 10
6.1549958182
 20
2.7726381362
 30
0.0
 10
6.1549888183
 20
2.7726668325
 30
0.0
 10
6.1549868074
 20
2.7726740712
 30
0.0
 11
6.15499898
 21
2.7725864683
 31
0.0
 11
6.1549921313
 21
2.7726521705
 31
0.0
 11
6.1549868074
 21
2.7726740712
 31
0.0
  0
SPLINE
  5
265
100
AcDbEntity
  8
0
100
AcDbSpline
 62
6
  6
CONTINUOUS
 70
0
 71
3
 72
40
 73
36
 74
34
 42
0.0000001
 43
0.0000001
 44
0.0000000001
 12
-0.0000316154
 22
-0.4098608704
 32
0.0
 13
-0.409702634
 23
-0.0113879678
 33
0.0
 40
0.0
 40
0.0
 40
0.0
 40
0.0
 40
0.0003486273
 40
0.0007570831
 40
0.0012643246
 40
0.001891048
 40
0.0026481276
 40
0.0035416175
 40
0.0045751137
 40
0.0057508728
 40
0.0085343677
 40
0.011899459
 40
0.0158493885
 40
0.0203844823
 40
0.0255031106
 40
0.0312030461
 40
0.037481709
 40
0.0443362885
 40
0.0597605553
 40
0.0774412506
 40
0.0973351998
 40
0.1193982413
 40
0.1435790043
 40
0.1698171387
 40
0.1980515267
 40
0.2282163937
 40
0.2940358727
 40
0.3666473251
 40
0.4453497556
 40
0.5293896539
 40
0.6179622982
 40
0.7102052222
 40
0.8052365155
 40
0.9021717344
 40
1.0
 40
1.0
 40
1.0
 40
1.0
 10
6.1549989801
 20
2.7815157453
 30
0.0
 10
6.1549989764
 20
2.7814681158
 30
0.0
 10
6.1549736828
 20
2.7813640492
 30
0.0
 10
6.1548718656
 20
2.7812214184
 30
0.0
 10
6.1547118223
 20
2.7810825593
 30
0.0
 10
6.1544925616
 20
2.7809446722
 30
0.0
 10
6.1542132751
 20
2.780806746
 30
0.0
 10
6.1538733421
 20
2.7806686034
 30
0.0
 10
6.153472515
 20
2.7805302022
 30
0.0
 10
6.1528190107
 20
2.7803342289
 30
0.0
 10
6.1518468959
 20
2.780094706
 30
0.0
 10
6.150494752
 20
2.7798194953
 30
0.0
 10
6.1488992947
 20
2.7795434828
 30
0.0
 10
6.1470613696
 20
2.7792667694
 30
0.0
 10
6.1449820619
 20
2.7789895858
 30
0.0
 10
6.1426627242
 20
2.7787120542
 30
0.0
 10
6.1401047286
 20
2.7784342484
 30
0.0
 10
6.1362222948
 20
2.7780482197
 30
0.0
 10
6.1307836597
 20
2.777571794
 30
0.0
 10
6.1235639922
 20
2.7770187277
 30
0.0
 10
6.1154350573
 20
2.7764646461
 30
0.0
 10
6.1064162955
 20
2.77590985
 30
0.0
 10
6.0965293342
 20
2.7753545738
 30
0.0
 10
6.0857980522
 20
2.7747988303
 30
0.0
 10
6.0742482243
 20
2.7742427603
 30
0.0
 10
6.0572946129
 20
2.7734786796
 30
0.0
 10
6.0342803457
 20
2.7725328436
 30
0.0
 10
6.0046361186
 20
2.7714263847
 30
0.0
 10
5.972501073
 20
2.7703185426
 30
0.0
 10
5.9381842395
 20
2.7692096737
 30
0.0
 10
5.902016612
 20
2.7681001302
 30
0.0
 10
5.86434668
 20
2.7669900444
 30
0.0
 10
5.8255337843
 20
2.7658795558
 30
0.0
 10
5.7859575176
 20
2.7647689155
 30
0.0
 10
5.7593591465
 20
2.7640296003
 30
0.0
 10
5.7459989805
 20
2.7636582452
 30
0.0
 11
6.1549989801
 21
2.7815157453
 31
0.0
 11
6.1549681168
 21
2.7813762296
 31
0.0
 11
6.1548755884
 21
2.7812367139
 31
0.0
 11
6.1547214549
 21
2.7810971983
 31
0.0
 11
6.1545057763
 21
2.7809576827
 31
0.0
 11
6.1542286123
 21
2.7808181672
 31
0.0
 11
6.153890023
 21
2.7806786519
 31
0.0
 11
6.1534900683
 21
2.7805391368
 31
0.0
 11
6.1530288082
 21
2.7803996218
 31
0.0
 11
6.1519226113
 21
2.7801205927
 31
0.0
 11
6.1505719118
 21
2.7798415648
 31
0.0
 11
6.1489772171
 21
2.7795625383
 31
0.0
 11
6.1471395217
 21
2.7792835133
 31
0.0
 11
6.1450602341
 21
2.7790044897
 31
0.0
 11
6.142740776
 21
2.7787254671
 31
0.0
 11
6.1401825691
 21
2.7784464455
 31
0.0
 11
6.1373870351
 21
2.7781674248
 31
0.0
 11
6.1310899095
 21
2.777609385
 31
0.0
 11
6.1238648026
 21
2.7770513469
 31
0.0
 11
6.1157301695
 21
2.7764933099
 31
0.0
 11
6.1067046269
 21
2.7759352735
 31
0.0
 11
6.0968096012
 21
2.7753772371
 31
0.0
 11
6.0860701049
 21
2.7748192002
 31
0.0
 11
6.0745113968
 21
2.7742611623
 31
0.0
 11
6.0621605985
 21
2.7737031231
 31
0.0
 11
6.0352068665
 21
2.7725870429
 31
0.0
 11
6.0054672082
 21
2.7714709641
 31
0.0
 11
5.973229475
 21
2.7703548896
 31
0.0
 11
5.9388028958
 21
2.7692387989
 31
0.0
 11
5.9025175967
 21
2.768122663
 31
0.0
 11
5.8647273089
 21
2.7670065812
 31
0.0
 11
5.8257936934
 21
2.7658905131
 31
0.0
 11
5.7860794288
 21
2.7647741011
 31
0.0
 11
5.7459989805
 21
2.7636582452
 31
0.0
  0
SPLINE
  5
266
100
AcDbEntity
  8
0
100
AcDbSpline
 62
6
  6
CONTINUOUS
 70
0
 71
3
 72
9
 73
5
 74
3
 42
0.0000001
 43
0.0000001
 44
0.0000000001
 12
0.0000000068
 22
0.0000884802
 32
0.0
 13
-0.0000236452
 23
0.0000852622
 33
0.0
 40
0.0
 40
0.0
 40
0.0
 40
0.0
 40
0.7456187961
 40
1.0
 40
1.0
 40
1.0
 40
1.0
 10
6.1549989801
 20
2.8440164682
 30
0.0
 10
6.1549989818
 20
2.844038459
 30
0.0
 10
6.1549958343
 20
2.8440680688
 30
0.0
 10
6.1549888555
 20
2.8440967302
 30
0.0
 10
6.1549868505
 20
2.8441039599
 30
0.0
 11
6.1549989801
 21
2.8440164682
 31
0.0
 11
6.1549921581
 21
2.844082087
 31
0.0
 11
6.1549868505
 21
2.8441039599
 31
0.0
  0
SPLINE
  5
267
100
AcDbEntity
  8
0
100
AcDbSpline
 62
6
  6
CONTINUOUS
 70
0
 71
3
 72
40
 73
36
 74
34
 42
0.0000001
 43
0.0000001
 44
0.0000000001
 12
-0.000015109
 22
-0.4098608936
 32
0.0
 13
-0.4097026562
 23
-0.0113879684
 33
0.0
 40
0.0
 40
0.0
 40
0.0
 40
0.0
 40
0.0003486197
 40
0.0007570562
 40
0.0012642671
 40
0.0018909512
 40
0.0026479854
 40
0.003541426
 40
0.0045748713
 40
0.0057505798
 40
0.0085339829
 40
0.0118990077
 40
0.0158488925
 40
0.0203838987
 40
0.0255024076
 40
0.0312022126
 40
0.0374807548
 40
0.0443352444
 40
0.0597594195
 40
0.0774399724
 40
0.0973339186
 40
0.119397296
 40
0.1435785666
 40
0.1698171994
 40
0.1980519429
 40
0.2282170206
 40
0.2940364371
 40
0.3666473787
 40
0.4453495274
 40
0.5293894872
 40
0.6179621831
 40
0.7102051203
 40
0.805236444
 40
0.9021716929
 40
1.0
 40
1.0
 40
1.0
 40
1.0
 10
6.1549989796
 20
2.8529457677
 30
0.0
 10
6.1549989779
 20
2.8528981392
 30
0.0
 10
6.1549736914
 20
2.8527940751
 30
0.0
 10
6.1548718872
 20
2.8526514445
 30
0.0
 10
6.1547118592
 20
2.8525125861
 30
0.0
 10
6.1544926164
 20
2.8523747
 30
0.0
 10
6.1542133497
 20
2.8522367749
 30
0.0
 10
6.1538734377
 20
2.8520986335
 30
0.0
 10
6.1534726319
 20
2.8519602334
 30
0.0
 10
6.1528191549
 20
2.8517642609
 30
0.0
 10
6.1518470691
 20
2.8515247391
 30
0.0
 10
6.1504949529
 20
2.8512495307
 30
0.0
 10
6.1488995224
 20
2.8509735224
 30
0.0
 10
6.147061632
 20
2.8506968092
 30
0.0
 10
6.1449823706
 20
2.850419626
 30
0.0
 10
6.1426630837
 20
2.8501420946
 30
0.0
 10
6.1401051348
 20
2.8498642889
 30
0.0
 10
6.1362227424
 20
2.8494782596
 30
0.0
 10
6.1307841512
 20
2.8490018366
 30
0.0
 10
6.1235645162
 20
2.8484487644
 30
0.0
 10
6.1154355553
 20
2.8478946759
 30
0.0
 10
6.1064166783
 20
2.847339874
 30
0.0
 10
6.0965295334
 20
2.8467845872
 30
0.0
 10
6.0857980652
 20
2.8462288325
 30
0.0
 10
6.0742480915
 20
2.8456727531
 30
0.0
 10
6.0572944104
 20
2.8449086701
 30
0.0
 10
6.0342801913
 20
2.8439628382
 30
0.0
 10
6.0046360794
 20
2.8428563828
 30
0.0
 10
5.9725011318
 20
2.8417485449
 30
0.0
 10
5.9381843196
 20
2.8406396762
 30
0.0
 10
5.9020166728
 20
2.8395301319
 30
0.0
 10
5.8643467259
 20
2.8384200458
 30
0.0
 10
5.8255338179
 20
2.8373095567
 30
0.0
 10
5.7859575352
 20
2.836198916
 30
0.0
 10
5.7593591529
 20
2.8354596005
 30
0.0
 10
5.7459989805
 20
2.8350882452
 30
0.0
 11
6.1549989796
 21
2.8529457677
 31
0.0
 11
6.1549681243
 21
2.8528062534
 31
0.0
 11
6.1548756082
 21
2.8526667391
 31
0.0
 11
6.1547214903
 21
2.8525272248
 31
0.0
 11
6.1545058299
 21
2.8523877106
 31
0.0
 11
6.1542286862
 21
2.8522481964
 31
0.0
 11
6.1538901182
 21
2.8521086823
 31
0.0
 11
6.1534901852
 21
2.8519691683
 31
0.0
 11
6.1530289464
 21
2.8518296545
 31
0.0
 11
6.1519227877
 21
2.8515506274
 31
0.0
 11
6.1505721156
 21
2.8512716013
 31
0.0
 11
6.1489774391
 21
2.8509925764
 31
0.0
 11
6.1471397797
 21
2.8507135526
 31
0.0
 11
6.1450605412
 21
2.8504345299
 31
0.0
 11
6.1427411368
 21
2.850155508
 31
0.0
 11
6.1401829794
 21
2.8498764869
 31
0.0
 11
6.1373874823
 21
2.8495974663
 31
0.0
 11
6.1310903942
 21
2.8490394261
 31
0.0
 11
6.1238653456
 21
2.8484813858
 31
0.0
 11
6.1157307136
 21
2.8479233439
 31
0.0
 11
6.1067050331
 21
2.8473652987
 31
0.0
 11
6.0968097992
 21
2.8468072504
 31
0.0
 11
6.0860700984
 21
2.8462492015
 31
0.0
 11
6.0745112443
 21
2.8456911548
 31
0.0
 11
6.062160359
 21
2.8451331117
 31
0.0
 11
6.035206651
 21
2.8440170344
 31
0.0
 11
6.0054672004
 21
2.8429009635
 31
0.0
 11
5.9732295808
 21
2.8417848933
 31
0.0
 11
5.9388029746
 21
2.8406688014
 31
0.0
 11
5.9025176524
 21
2.8395526646
 31
0.0
 11
5.864727357
 21
2.8384365826
 31
0.0
 11
5.825793727
 21
2.8373205141
 31
0.0
 11
5.786079448
 21
2.8362041016
 31
0.0
 11
5.7459989805
 21
2.8350882452
 31
0.0
  0
SPLINE
  5
268
100
AcDbEntity
  8
0
100
AcDbSpline
 62
6
  6
CONTINUOUS
 70
0
 71
3
 72
39
 73
35
 74
33
 42
0.0000001
 43
0.0000001
 44
0.0000000001
 12
-0.3378496018
 22
-0.0095391031
 32
0.0
 13
-0.0003292743
 23
-0.3379840817
 33
0.0
 40
0.0
 40
0.0
 40
0.0
 40
0.0
 40
0.1028801182
 40
0.2034338238
 40
0.3008000509
 40
0.3942626419
 40
0.4831325591
 40
0.5667298507
 40
0.6444175615
 40
0.715608505
 40
0.7797681598
 40
0.8364073439
 40
0.8617735303
 40
0.8851062388
 40
0.9063589705
 40
0.925494995
 40
0.9424815003
 40
0.9572864092
 40
0.9638619097
 40
0.9698832289
 40
0.9753488078
 40
0.9802573632
 40
0.9846080323
 40
0.9884006228
 40
0.9916360807
 40
0.9943177502
 40
0.9954536135
 40
0.9964550312
 40
0.9973247497
 40
0.9980670046
 40
0.9986886732
 40
0.9992015443
 40
0.9996266033
 40
1.0
 40
1.0
 40
1.0
 40
1.0
 10
5.6741503206
 20
2.9670114681
 30
0.0
 10
5.6625643183
 20
2.96668434
 30
0.0
 10
5.6396544456
 20
2.9660325181
 30
0.0
 10
5.6057802445
 20
2.9650460223
 30
0.0
 10
5.5729674923
 20
2.9640596785
 30
0.0
 10
5.5414716522
 20
2.9630738273
 30
0.0
 10
5.5115278167
 20
2.9620884758
 30
0.0
 10
5.4833621923
 20
2.9611037753
 30
0.0
 10
5.4571895694
 20
2.9601199947
 30
0.0
 10
5.4332084281
 20
2.9591374886
 30
0.0
 10
5.4116007554
 20
2.9581567417
 30
0.0
 10
5.3951550345
 20
2.9573136636
 30
0.0
 10
5.3833071377
 20
2.9566305125
 30
0.0
 10
5.3754416792
 20
2.9561375849
 30
0.0
 10
5.3682795909
 20
2.9556450752
 30
0.0
 10
5.3618342723
 20
2.955153226
 30
0.0
 10
5.3561176651
 20
2.9546622508
 30
0.0
 10
5.3518157586
 20
2.954239271
 30
0.0
 10
5.3487476804
 20
2.9538965516
 30
0.0
 10
5.3467276987
 20
2.953649956
 30
0.0
 10
5.3448970104
 20
2.9534035977
 30
0.0
 10
5.3432563623
 20
2.9531575379
 30
0.0
 10
5.3418064871
 20
2.9529118763
 30
0.0
 10
5.340547993
 20
2.9526668292
 30
0.0
 10
5.3394815052
 20
2.9524225107
 30
0.0
 10
5.3387153439
 20
2.9522098639
 30
0.0
 10
5.3382008714
 20
2.9520360195
 30
0.0
 10
5.3378850323
 20
2.9519130893
 30
0.0
 10
5.337617176
 20
2.9517903281
 30
0.0
 10
5.3373970596
 20
2.9516676559
 30
0.0
 10
5.3372242254
 20
2.9515448378
 30
0.0
 10
5.337098134
 20
2.9514209731
 30
0.0
 10
5.3370187633
 20
2.9512940481
 30
0.0
 10
5.3369995702
 20
2.9512035387
 30
0.0
 10
5.3369995292
 20
2.9511614714
 30
0.0
 11
5.6741503206
 21
2.9670114681
 31
0.0
 11
5.6393925674
 21
2.9660211372
 31
0.0
 11
5.6054214498
 21
2.9650301804
 31
0.0
 11
5.5725281137
 21
2.9640395272
 31
0.0
 11
5.5409547649
 21
2.9630489865
 31
0.0
 11
5.5109344735
 21
2.9620583582
 31
0.0
 11
5.4826972783
 21
2.9610677138
 31
0.0
 11
5.4564587498
 21
2.9600770922
 31
0.0
 11
5.4324177335
 21
2.9590864717
 31
0.0
 11
5.4107554202
 21
2.9580958455
 31
0.0
 11
5.3916379173
 21
2.9571052198
 31
0.0
 11
5.3830788659
 21
2.9566099075
 31
0.0
 11
5.3752083483
 21
2.9561145953
 31
0.0
 11
5.3680423575
 21
2.9556192831
 31
0.0
 11
5.3615936768
 21
2.9551239707
 31
0.0
 11
5.3558739119
 21
2.9546286582
 31
0.0
 11
5.350894661
 21
2.9541333457
 31
0.0
 11
5.3486860874
 21
2.9538856895
 31
0.0
 11
5.3466661014
 21
2.9536380333
 31
0.0
 11
5.3448354982
 21
2.9533903771
 31
0.0
 11
5.3431950729
 21
2.9531427209
 31
0.0
 11
5.3417456206
 21
2.9528950647
 31
0.0
 11
5.3404879365
 21
2.9526474086
 31
0.0
 11
5.3394228156
 21
2.9523997524
 31
0.0
 11
5.3385509448
 21
2.9521520962
 31
0.0
 11
5.3381875596
 21
2.9520282681
 31
0.0
 11
5.3378725611
 21
2.95190444
 31
0.0
 11
5.3376059643
 21
2.9517806119
 31
0.0
 11
5.3373877841
 21
2.9516567838
 31
0.0
 11
5.3372180355
 21
2.9515329557
 31
0.0
 11
5.3370967335
 21
2.9514091276
 31
0.0
 11
5.3370238931
 21
2.9512852995
 31
0.0
 11
5.3369995292
 21
2.9511614714
 31
0.0
  0
SPLINE
  5
269
100
AcDbEntity
  8
0
100
AcDbSpline
 62
6
  6
CONTINUOUS
 70
0
 71
3
 72
38
 73
34
 74
32
 42
0.0000001
 43
0.0000001
 44
0.0000000001
 12
-0.2815146442
 22
-0.2821505763
 32
0.0
 13
-0.3985026335
 23
-0.0074225113
 33
0.0
 40
0.0
 40
0.0
 40
0.0
 40
0.0
 40
0.0003644063
 40
0.0008538139
 40
0.0014776429
 40
0.0022403557
 40
0.0031442005
 40
0.0041903981
 40
0.0067122579
 40
0.0098088735
 40
0.0134808789
 40
0.0177279792
 40
0.0225493956
 40
0.0279436103
 40
0.0339075113
 40
0.0475302595
 40
0.0633889518
 40
0.0814521627
 40
0.1016773308
 40
0.1240180946
 40
0.1484266435
 40
0.1748450615
 40
0.2032107539
 40
0.2334603928
 40
0.2993191832
 40
0.3718007142
 40
0.450214869
 40
0.5338160985
 40
0.6218026354
 40
0.7133163893
 40
0.8074675051
 40
0.9033659513
 40
1.0
 40
1.0
 40
1.0
 40
1.0
 10
6.1442682507
 20
2.7162810667
 30
0.0
 10
6.1442340555
 20
2.7162467942
 30
0.0
 10
6.1441397694
 20
2.7161812721
 30
0.0
 10
6.1439625995
 20
2.716096372
 30
0.0
 10
6.1437281352
 20
2.7160107927
 30
0.0
 10
6.1434361305
 20
2.7159248549
 30
0.0
 10
6.1430861063
 20
2.7158385432
 30
0.0
 10
6.1425048167
 20
2.715715368
 30
0.0
 10
6.1416318597
 20
2.7155654789
 30
0.0
 10
6.1404094976
 20
2.7153935181
 30
0.0
 10
6.1389561094
 20
2.7152208312
 30
0.0
 10
6.137272288
 20
2.7150475131
 30
0.0
 10
6.1353586402
 20
2.7148737999
 30
0.0
 10
6.1332161032
 20
2.7146997688
 30
0.0
 10
6.129906119
 20
2.7144564604
 30
0.0
 10
6.1252063917
 20
2.7141567739
 30
0.0
 10
6.1188992377
 20
2.7138096107
 30
0.0
 10
6.1117137929
 20
2.7134614828
 30
0.0
 10
6.1036663131
 20
2.7131124114
 30
0.0
 10
6.094775127
 20
2.7127625953
 30
0.0
 10
6.0850605664
 20
2.7124122066
 30
0.0
 10
6.0745450914
 20
2.7120612639
 30
0.0
 10
6.0632532022
 20
2.7117097814
 30
0.0
 10
6.0467229593
 20
2.7112267835
 30
0.0
 10
6.0243325359
 20
2.7106278754
 30
0.0
 10
5.9955436788
 20
2.7099256059
 30
0.0
 10
5.9643970131
 20
2.7092212681
 30
0.0
 10
5.931189946
 20
2.7085150747
 30
0.0
 10
5.8962421655
 20
2.7078071865
 30
0.0
 10
5.8598925127
 20
2.7070977166
 30
0.0
 10
5.8224915409
 20
2.7063867257
 30
0.0
 10
5.7844102066
 20
2.7056743547
 30
0.0
 10
5.7588352881
 20
2.7051988775
 30
0.0
 10
5.7459989805
 20
2.7049597884
 30
0.0
 11
6.1442682507
 21
2.7162810667
 31
0.0
 11
6.1441521002
 21
2.716193864
 31
0.0
 11
6.1439776228
 21
2.7161066422
 31
0.0
 11
6.1437447898
 21
2.7160194013
 31
0.0
 11
6.1434535869
 21
2.7159321414
 31
0.0
 11
6.1431040726
 21
2.7158448625
 31
0.0
 11
6.1426963283
 21
2.7157575644
 31
0.0
 11
6.1417064764
 21
2.7155829112
 31
0.0
 11
6.1404846837
 21
2.7154081816
 31
0.0
 11
6.1390316029
 21
2.7152333758
 31
0.0
 11
6.1373478866
 21
2.7150584937
 31
0.0
 11
6.1354341873
 21
2.7148835353
 31
0.0
 11
6.1332913425
 21
2.7147085005
 31
0.0
 11
6.1309207588
 21
2.7145333893
 31
0.0
 11
6.1255024378
 21
2.7141829368
 31
0.0
 11
6.1191913508
 21
2.7138321768
 31
0.0
 11
6.1120004299
 21
2.7134811077
 31
0.0
 11
6.103946911
 21
2.7131297271
 31
0.0
 11
6.0950494618
 21
2.7127780322
 31
0.0
 11
6.0853272742
 21
2.7124260201
 31
0.0
 11
6.0748035353
 21
2.7120736905
 31
0.0
 11
6.0635032727
 21
2.7117210435
 31
0.0
 11
6.0514517888
 21
2.7113680794
 31
0.0
 11
6.0252118548
 21
2.710661201
 31
0.0
 11
5.9963314444
 21
2.7099530548
 31
0.0
 11
5.9650858298
 21
2.7092436361
 31
0.0
 11
5.9317723214
 21
2.7085329284
 31
0.0
 11
5.8967106022
 21
2.707820901
 31
0.0
 11
5.8602427802
 21
2.7071075967
 31
0.0
 11
5.8227236092
 21
2.7063930171
 31
0.0
 11
5.7845079061
 21
2.7056769122
 31
0.0
 11
5.7459989805
 21
2.7049597884
 31
0.0
  0
SPLINE
  5
26A
100
AcDbEntity
  8
0
100
AcDbSpline
 62
6
  6
CONTINUOUS
 70
0
 71
3
 72
23
 73
19
 74
17
 42
0.0000001
 43
0.0000001
 44
0.0000000001
 12
-0.3709086248
 22
-0.0069085452
 32
0.0
 13
-0.368375119
 23
-0.0438258792
 33
0.0
 40
0.0
 40
0.0
 40
0.0
 40
0.0
 40
0.1777924807
 40
0.3497623026
 40
0.5107887875
 40
0.5856642747
 40
0.6560154385
 40
0.7213055071
 40
0.7810323238
 40
0.834734709
 40
0.881993343
 40
0.922441199
 40
0.9400077793
 40
0.955754741
 40
0.9696536332
 40
0.9816765433
 40
0.9917974364
 40
1.0
 40
1.0
 40
1.0
 40
1.0
 10
5.7459989805
 20
2.7049597884
 30
0.0
 10
5.7240173923
 20
2.7045503593
 30
0.0
 10
5.6807741511
 20
2.7037424864
 30
0.0
 10
5.6176230346
 20
2.7025199524
 30
0.0
 10
5.5671973222
 20
2.7014768035
 30
0.0
 10
5.5293362875
 20
2.7006277213
 30
0.0
 10
5.5033117011
 20
2.700005863
 30
0.0
 10
5.4791609425
 20
2.699383645
 30
0.0
 10
5.4570696774
 20
2.6987612366
 30
0.0
 10
5.4372090893
 20
2.6981391594
 30
0.0
 10
5.4197337926
 20
2.6975176464
 30
0.0
 10
5.4067269704
 20
2.6969793495
 30
0.0
 10
5.3976163649
 20
2.6965399247
 30
0.0
 10
5.3917865813
 20
2.6962262091
 30
0.0
 10
5.3866434025
 20
2.6959129426
 30
0.0
 10
5.382197307
 20
2.6956005219
 30
0.0
 10
5.3784575914
 20
2.695289175
 30
0.0
 10
5.3762031482
 20
2.6950594181
 30
0.0
 10
5.3751959414
 20
2.69493959
 30
0.0
 11
5.7459989805
 21
2.7049597884
 31
0.0
 11
5.6800544035
 21
2.7037214777
 31
0.0
 11
5.6162703465
 21
2.702479185
 31
0.0
 11
5.5565468782
 21
2.7012328429
 31
0.0
 11
5.5287771222
 21
2.7006081719
 31
0.0
 11
5.502686244
 21
2.699982488
 31
0.0
 11
5.4784735035
 21
2.6993557741
 31
0.0
 11
5.4563253639
 21
2.6987280304
 31
0.0
 11
5.4364131564
 21
2.6980992509
 31
0.0
 11
5.4188927981
 21
2.6974694239
 31
0.0
 11
5.4039010055
 21
2.6968385474
 31
0.0
 11
5.397391937
 21
2.6965227172
 31
0.0
 11
5.3915587982
 21
2.696206625
 31
0.0
 11
5.3864123993
 21
2.6958902683
 31
0.0
 11
5.3819634774
 21
2.6955736448
 31
0.0
 11
5.3782222967
 21
2.6952567522
 31
0.0
 11
5.3751959414
 21
2.69493959
 31
0.0
  0
SPLINE
  5
26B
100
AcDbEntity
  8
0
100
AcDbSpline
 62
6
  6
CONTINUOUS
 70
0
 71
3
 72
14
 73
10
 74
8
 42
0.0000001
 43
0.0000001
 44
0.0000000001
 12
-0.0041762224
 22
-0.0005289403
 32
0.0
 13
-0.0036433279
 23
-0.0021087374
 33
0.0
 40
0.0
 40
0.0
 40
0.0
 40
0.0
 40
0.3643231
 40
0.5177269914
 40
0.6519720146
 40
0.767110549
 40
0.8632639284
 40
0.9407074534
 40
1.0
 40
1.0
 40
1.0
 40
1.0
 10
5.3746173909
 20
2.6948686064
 30
0.0
 10
5.3741102261
 20
2.6948043714
 30
0.0
 10
5.3733903185
 20
2.6947057858
 30
0.0
 10
5.3724877585
 20
2.6945560386
 30
0.0
 10
5.3719324399
 20
2.6944504667
 30
0.0
 10
5.3714590684
 20
2.6943452017
 30
0.0
 10
5.371067465
 20
2.6942403759
 30
0.0
 10
5.3707575922
 20
2.6941361827
 30
0.0
 10
5.3705817839
 20
2.6940573538
 30
0.0
 10
5.3705097765
 20
2.6940156763
 30
0.0
 11
5.3746173909
 21
2.6948686064
 31
0.0
 11
5.3730986118
 21
2.6946555564
 31
0.0
 11
5.3724616993
 21
2.6945489858
 31
0.0
 11
5.3719067288
 21
2.6944423848
 31
0.0
 11
5.3714339183
 21
2.6943357533
 31
0.0
 11
5.3710434588
 21
2.6942290914
 31
0.0
 11
5.3707354067
 21
2.694122399
 31
0.0
 11
5.3705097765
 21
2.6940156763
 31
0.0
  0
LINE
  5
26C
100
AcDbEntity
  8
0
100
AcDbLine
 62
6
  6
CONTINUOUS
 10
5.3761816144
 20
2.6972949882
 11
5.3769557073
 21
2.6976427331
  0
SPLINE
  5
26D
100
AcDbEntity
  8
0
100
AcDbSpline
 62
6
  6
CONTINUOUS
 70
0
 71
3
 72
63
 73
59
 74
57
 42
0.0000001
 43
0.0000001
 44
0.0000000001
 12
0.6954724858
 22
0.2553461993
 32
0.0
 13
0.0007599205
 23
0.7408664404
 33
0.0
 40
0.0
 40
0.0
 40
0.0
 40
0.0
 40
0.0011981749
 40
0.0026691092
 40
0.0044152247
 40
0.0064374834
 40
0.0087360876
 40
0.0113108068
 40
0.0172860701
 40
0.0243529347
 40
0.0324958342
 40
0.0416983754
 40
0.0519416726
 40
0.0632013404
 40
0.0754520164
 40
0.1028178554
 40
0.1337892207
 40
0.1680875145
 40
0.2053991138
 40
0.2453851858
 40
0.2876818131
 40
0.3319027651
 40
0.3776462307
 40
0.4244942209
 40
0.4720204659
 40
0.519791224
 40
0.5673714511
 40
0.61432689
 40
0.6602301822
 40
0.7046622916
 40
0.7472186718
 40
0.7875118753
 40
0.8251738292
 40
0.8598635925
 40
0.891263407
 40
0.9190903516
 40
0.9315830191
 40
0.9430914989
 40
0.9535889022
 40
0.963051089
 40
0.9714590172
 40
0.9787945396
 40
0.9820547289
 40
0.9850410612
 40
0.9877525921
 40
0.9901885217
 40
0.9923482615
 40
0.9942315604
 40
0.9958387401
 40
0.997171279
 40
0.9977358587
 40
0.9982337427
 40
0.9986663038
 40
0.9990356606
 40
0.9993452517
 40
0.9996009631
 40
0.9998132405
 40
1.0
 40
1.0
 40
1.0
 40
1.0
 10
5.3769557073
 20
2.6976427331
 30
0.0
 10
5.3772334732
 20
2.6977447163
 30
0.0
 10
5.3778633044
 20
2.697941533
 30
0.0
 10
5.3789206577
 20
2.698208842
 30
0.0
 10
5.3801866748
 20
2.6984771947
 30
0.0
 10
5.3816607171
 20
2.6987463171
 30
0.0
 10
5.3833422403
 20
2.6990159862
 30
0.0
 10
5.3859944972
 20
2.6993951154
 30
0.0
 10
5.3898234164
 20
2.6998601315
 30
0.0
 10
5.3950277595
 20
2.7003966653
 30
0.0
 10
5.4010326057
 20
2.7009346951
 30
0.0
 10
5.4078245176
 20
2.7014738652
 30
0.0
 10
5.4153882409
 20
2.7020136739
 30
0.0
 10
5.4237063972
 20
2.7025541435
 30
0.0
 10
5.4362482481
 20
2.7033032792
 30
0.0
 10
5.4536560054
 20
2.7042270799
 30
0.0
 10
5.4765076739
 20
2.7053021138
 30
0.0
 10
5.5018178637
 20
2.7063789052
 30
0.0
 10
5.5293560456
 20
2.7074572674
 30
0.0
 10
5.558870825
 20
2.7085366073
 30
0.0
 10
5.5900929507
 20
2.709616669
 30
0.0
 10
5.6227376858
 20
2.7106972931
 30
0.0
 10
5.6565069858
 20
2.7117782464
 30
0.0
 10
5.6910929432
 20
2.7128594826
 30
0.0
 10
5.7261797878
 20
2.7139408366
 30
0.0
 10
5.7614475451
 20
2.7150222605
 30
0.0
 10
5.7965742744
 20
2.716103626
 30
0.0
 10
5.8312396059
 20
2.7171848822
 30
0.0
 10
5.865127116
 20
2.7182658816
 30
0.0
 10
5.8979276981
 20
2.7193465423
 30
0.0
 10
5.9293420755
 20
2.7204267037
 30
0.0
 10
5.9590835182
 20
2.7215061204
 30
0.0
 10
5.9868809338
 20
2.7225846501
 30
0.0
 10
6.0124803751
 20
2.7236616434
 30
0.0
 10
6.0356487273
 20
2.7247369569
 30
0.0
 10
6.0533363175
 20
2.7256604538
 30
0.0
 10
6.066113692
 20
2.7264089613
 30
0.0
 10
6.0746161801
 20
2.7269495092
 30
0.0
 10
6.0823686687
 20
2.7274895101
 30
0.0
 10
6.0893534798
 20
2.7280288768
 30
0.0
 10
6.0955549275
 20
2.7285672983
 30
0.0
 10
6.1002252133
 20
2.7290310303
 30
0.0
 10
6.1035583123
 20
2.7294067566
 30
0.0
 10
6.10575401
 20
2.7296771836
 30
0.0
 10
6.1077445058
 20
2.7299473489
 30
0.0
 10
6.1095288601
 20
2.7302171877
 30
0.0
 10
6.1111061504
 20
2.7304865897
 30
0.0
 10
6.1124755913
 20
2.7307553203
 30
0.0
 10
6.1136363678
 20
2.7310232477
 30
0.0
 10
6.1144703655
 20
2.7312564315
 30
0.0
 10
6.115030426
 20
2.7314470615
 30
0.0
 10
6.1153743094
 20
2.7315818773
 30
0.0
 10
6.115665969
 20
2.7317165117
 30
0.0
 10
6.1159056644
 20
2.731851055
 30
0.0
 10
6.1160938846
 20
2.7319857681
 30
0.0
 10
6.116231201
 20
2.7321216368
 30
0.0
 10
6.1163175926
 20
2.7322608352
 30
0.0
 10
6.1163384586
 20
2.7323599843
 30
0.0
 10
6.1163385059
 20
2.7324061056
 30
0.0
 11
5.3769557073
 21
2.6976427331
 31
0.0
 11
5.3778008282
 21
2.6979143223
 31
0.0
 11
5.3788562098
 21
2.6981859113
 31
0.0
 11
5.3801210187
 21
2.6984575001
 31
0.0
 11
5.3815944216
 21
2.6987290889
 31
0.0
 11
5.3832755851
 21
2.6990006776
 31
0.0
 11
5.3851636761
 21
2.6992722663
 31
0.0
 11
5.3895571001
 21
2.6998154438
 31
0.0
 11
5.394764453
 21
2.7003586215
 31
0.0
 11
5.4007727543
 21
2.7009017992
 31
0.0
 11
5.4075689399
 21
2.701444977
 31
0.0
 11
5.415138395
 21
2.7019881547
 31
0.0
 11
5.4234626063
 21
2.7025313324
 31
0.0
 11
5.4325224575
 21
2.7030745101
 31
0.0
 11
5.4527677741
 21
2.7041608655
 31
0.0
 11
5.4756877003
 21
2.7052472209
 31
0.0
 11
5.5010749359
 21
2.7063335763
 31
0.0
 11
5.5286965073
 21
2.7074199316
 31
0.0
 11
5.5583009361
 21
2.708506287
 31
0.0
 11
5.5896182679
 21
2.7095926424
 31
0.0
 11
5.6223620881
 21
2.7106789978
 31
0.0
 11
5.6562344882
 21
2.7117653532
 31
0.0
 11
5.6909256047
 21
2.7128517086
 31
0.0
 11
5.7261194605
 21
2.713938064
 31
0.0
 11
5.7614945538
 21
2.7150244194
 31
0.0
 11
5.7967284222
 21
2.7161107748
 31
0.0
 11
5.8314991827
 21
2.7171971302
 31
0.0
 11
5.8654900537
 21
2.7182834855
 31
0.0
 11
5.8983903991
 21
2.7193698409
 31
0.0
 11
5.9299002883
 21
2.7204561963
 31
0.0
 11
5.9597324126
 21
2.7215425517
 31
0.0
 11
5.9876137489
 21
2.7226289071
 31
0.0
 11
6.0132912736
 21
2.7237152625
 31
0.0
 11
6.0365289751
 21
2.7248016179
 31
0.0
 11
6.0571163929
 21
2.7258879733
 31
0.0
 11
6.0663558432
 21
2.726431151
 31
0.0
 11
6.0748647746
 21
2.7269743287
 31
0.0
 11
6.0826229608
 21
2.7275175064
 31
0.0
 11
6.0896121058
 21
2.7280606841
 31
0.0
 11
6.0958175334
 21
2.7286038618
 31
0.0
 11
6.1012249659
 21
2.7291470395
 31
0.0
 11
6.1036250145
 21
2.7294186283
 31
0.0
 11
6.1058207565
 21
2.7296902172
 31
0.0
 11
6.1078111965
 21
2.729961806
 31
0.0
 11
6.1095953433
 21
2.7302333948
 31
0.0
 11
6.1111722054
 21
2.7305049837
 31
0.0
 11
6.1125407916
 21
2.7307765725
 31
0.0
 11
6.1137001106
 21
2.7310481614
 31
0.0
 11
6.1146492525
 21
2.7313197502
 31
0.0
 11
6.1150448743
 21
2.7314555447
 31
0.0
 11
6.1153878347
 21
2.7315913391
 31
0.0
 11
6.1156781122
 21
2.7317271335
 31
0.0
 11
6.1159156853
 21
2.7318629279
 31
0.0
 11
6.1161005327
 21
2.7319987224
 31
0.0
 11
6.1162326329
 21
2.7321345168
 31
0.0
 11
6.1163119644
 21
2.7322703112
 31
0.0
 11
6.1163385059
 21
2.7324061056
 31
0.0
  0
SPLINE
  5
26E
100
AcDbEntity
  8
0
100
AcDbSpline
 62
6
  6
CONTINUOUS
 70
0
 71
3
 72
22
 73
18
 74
16
 42
0.0000001
 43
0.0000001
 44
0.0000000001
 12
0.0394894307
 22
0.0228118946
 32
0.0
 13
0.0455123672
 23
0.0029020871
 33
0.0
 40
0.0
 40
0.0
 40
0.0
 40
0.0
 40
0.0076965599
 40
0.0168423572
 40
0.0274770076
 40
0.0396246882
 40
0.0685127356
 40
0.1035799782
 40
0.1448547127
 40
0.192333464
 40
0.2459936656
 40
0.3058066354
 40
0.3717400118
 40
0.443759036
 40
0.6058584556
 40
0.7915037237
 40
1.0
 40
1.0
 40
1.0
 40
1.0
 10
5.3761819152
 20
2.7687249918
 30
0.0
 10
5.3762832261
 20
2.7687835162
 30
0.0
 10
5.3765126731
 20
2.7688981609
 30
0.0
 10
5.3768996257
 20
2.7690560293
 30
0.0
 10
5.3773586918
 20
2.769214238
 30
0.0
 10
5.3781115977
 20
2.7694386482
 30
0.0
 10
5.3792362382
 20
2.7697126112
 30
0.0
 10
5.3808049059
 20
2.770027181
 30
0.0
 10
5.3826607704
 20
2.7703427055
 30
0.0
 10
5.3848025643
 20
2.7706590804
 30
0.0
 10
5.387228769
 20
2.7709760221
 30
0.0
 10
5.389937569
 20
2.7712933969
 30
0.0
 10
5.3929271302
 20
2.771611128
 30
0.0
 10
5.3974670201
 20
2.772052717
 30
0.0
 10
5.4038250023
 20
2.772597503
 30
0.0
 10
5.4122571666
 20
2.7732299839
 30
0.0
 10
5.4182354837
 20
2.7736294152
 30
0.0
 10
5.4213985367
 20
2.7738311067
 30
0.0
 11
5.3761819152
 21
2.7687249918
 31
0.0
 11
5.3764945462
 21
2.7688845628
 31
0.0
 11
5.3768799074
 21
2.7690441331
 31
0.0
 11
5.3773378965
 21
2.7692037024
 31
0.0
 11
5.3778684111
 21
2.7693632703
 31
0.0
 11
5.3791466081
 21
2.7696824
 31
0.0
 11
5.3807136799
 21
2.7700015191
 31
0.0
 11
5.3825687601
 21
2.770320625
 31
0.0
 11
5.3847103768
 21
2.7706397237
 31
0.0
 11
5.3871366452
 21
2.7709588275
 31
0.0
 11
5.3898456723
 21
2.7712779488
 31
0.0
 11
5.3928355653
 21
2.7715970998
 31
0.0
 11
5.3961044313
 21
2.7719162929
 31
0.0
 11
5.4034693169
 21
2.7725547957
 31
0.0
 11
5.4119115289
 21
2.7731931895
 31
0.0
 11
5.4213985367
 21
2.7738311067
 31
0.0
  0
SPLINE
  5
26F
100
AcDbEntity
  8
0
100
AcDbSpline
 62
6
  6
CONTINUOUS
 70
0
 71
3
 72
22
 73
18
 74
16
 42
0.0000001
 43
0.0000001
 44
0.0000000001
 12
0.0436470883
 22
0.0252172454
 32
0.0
 13
0.0503243009
 23
0.0029056017
 33
0.0
 40
0.0
 40
0.0
 40
0.0
 40
0.0
 40
0.0071176211
 40
0.015724399
 40
0.0258617261
 40
0.0375535537
 40
0.065650652
 40
0.100080408
 40
0.1408636938
 40
0.1880012877
 40
0.2414702319
 40
0.3012364812
 40
0.3672626402
 40
0.4395091643
 40
0.6024748304
 40
0.7895471117
 40
1.0
 40
1.0
 40
1.0
 40
1.0
 10
5.3374721975
 20
2.7463476401
 30
0.0
 10
5.337575752
 20
2.746407469
 30
0.0
 10
5.3378134774
 20
2.7465240857
 30
0.0
 10
5.338218038
 20
2.7466833683
 30
0.0
 10
5.3387041021
 20
2.7468431032
 30
0.0
 10
5.3395117325
 20
2.7470706464
 30
0.0
 10
5.3407283432
 20
2.7473476838
 30
0.0
 10
5.3424351446
 20
2.7476653655
 30
0.0
 10
5.3444663225
 20
2.7479841854
 30
0.0
 10
5.3468205555
 20
2.748303927
 30
0.0
 10
5.349496234
 20
2.7486242705
 30
0.0
 10
5.3524912366
 20
2.7489450844
 30
0.0
 10
5.3558033352
 20
2.7492662734
 30
0.0
 10
5.3608452442
 20
2.7497130446
 30
0.0
 10
5.3679195316
 20
2.7502640224
 30
0.0
 10
5.3773156595
 20
2.7509033753
 30
0.0
 10
5.3839830165
 20
2.7513069145
 30
0.0
 10
5.3875133146
 20
2.7515107452
 30
0.0
 11
5.3374721975
 21
2.7463476401
 31
0.0
 11
5.3377926553
 21
2.746508991
 31
0.0
 11
5.338195387
 21
2.7466703423
 31
0.0
 11
5.3386802482
 21
2.7468316934
 31
0.0
 11
5.3392470945
 21
2.746993044
 31
0.0
 11
5.3406261641
 21
2.747315742
 31
0.0
 11
5.3423314402
 21
2.7476384326
 31
0.0
 11
5.3443617668
 21
2.7479611127
 31
0.0
 11
5.3467158734
 21
2.7482837802
 31
0.0
 11
5.3493917584
 21
2.748606444
 31
0.0
 11
5.3523871326
 21
2.7489291166
 31
0.0
 11
5.3556997061
 21
2.749251811
 31
0.0
 11
5.3593271891
 21
2.7495745397
 31
0.0
 11
5.367516574
 21
2.7502201223
 31
0.0
 11
5.3769244138
 21
2.7508656502
 31
0.0
 11
5.3875133146
 21
2.7515107452
 31
0.0
  0
SPLINE
  5
270
100
AcDbEntity
  8
0
100
AcDbSpline
 62
6
  6
CONTINUOUS
 70
0
 71
3
 72
66
 73
62
 74
60
 42
0.0000001
 43
0.0000001
 44
0.0000000001
 12
-0.0004282348
 22
0.7417161809
 32
0.0
 13
0.6421883919
 23
0.3711295538
 33
0.0
 40
0.0
 40
0.0
 40
0.0
 40
0.0
 40
0.0001884414
 40
0.0004031411
 40
0.0006624818
 40
0.0009770596
 40
0.0013527799
 40
0.0017930547
 40
0.00229996
 40
0.0028748197
 40
0.0042314919
 40
0.0058674985
 40
0.0077848822
 40
0.0099845648
 40
0.0124662014
 40
0.0152287639
 40
0.0182710076
 40
0.0215915471
 40
0.0290614721
 40
0.0376247731
 40
0.0472611946
 40
0.0579484792
 40
0.0696639392
 40
0.082380689
 40
0.1106950253
 40
0.1426329322
 40
0.1778961144
 40
0.2161590077
 40
0.2570658229
 40
0.3002360554
 40
0.3452695406
 40
0.3917464096
 40
0.4392355579
 40
0.4872946814
 40
0.5354773827
 40
0.5833351396
 40
0.6304235307
 40
0.676303963
 40
0.7205505752
 40
0.7627517888
 40
0.8025150115
 40
0.8394722052
 40
0.8732781799
 40
0.9036219824
 40
0.9174051761
 40
0.9302208304
 40
0.9420389068
 40
0.9528308751
 40
0.9625737957
 40
0.9712462592
 40
0.9788274956
 40
0.9853019702
 40
0.9881207979
 40
0.990659066
 40
0.992915807
 40
0.9948903683
 40
0.9965830227
 40
0.9979956087
 40
0.9991318268
 40
0.9995986568
 40
1.0
 40
1.0
 40
1.0
 40
1.0
 10
5.3756590127
 20
2.7145511062
 30
0.0
 10
5.3756589858
 20
2.7145976962
 30
0.0
 10
5.375680226
 20
2.7146980218
 30
0.0
 10
5.3757684685
 20
2.7148386079
 30
0.0
 10
5.3759086671
 20
2.7149757702
 30
0.0
 10
5.3761008436
 20
2.7151117797
 30
0.0
 10
5.3763455656
 20
2.7152476361
 30
0.0
 10
5.3766433058
 20
2.7153835972
 30
0.0
 10
5.3769942915
 20
2.7155197492
 30
0.0
 10
5.3775657659
 20
2.7157122676
 30
0.0
 10
5.3784163757
 20
2.715947771
 30
0.0
 10
5.3796000073
 20
2.7162184313
 30
0.0
 10
5.3809964587
 20
2.7164898797
 30
0.0
 10
5.3826051839
 20
2.7167619549
 30
0.0
 10
5.3844254022
 20
2.7170344642
 30
0.0
 10
5.3864559433
 20
2.7173073125
 30
0.0
 10
5.3886955376
 20
2.7175804282
 30
0.0
 10
5.3920944486
 20
2.7179599011
 30
0.0
 10
5.3968566592
 20
2.7184283769
 30
0.0
 10
5.4031799624
 20
2.7189720961
 30
0.0
 10
5.4103012365
 20
2.7195167852
 30
0.0
 10
5.4182038128
 20
2.7200622662
 30
0.0
 10
5.4268695747
 20
2.7206082335
 30
0.0
 10
5.4398886878
 20
2.721364026
 30
0.0
 10
5.4579054882
 20
2.7222968065
 30
0.0
 10
5.4814957062
 20
2.7233826862
 30
0.0
 10
5.5075478521
 20
2.7244705186
 30
0.0
 10
5.5358191604
 20
2.725559724
 30
0.0
 10
5.566046707
 20
2.7266499095
 30
0.0
 10
5.597949203
 20
2.7277408299
 30
0.0
 10
5.6312295829
 20
2.728832211
 30
0.0
 10
5.6655783058
 20
2.7299239862
 30
0.0
 10
5.7006754452
 20
2.7310159541
 30
0.0
 10
5.7361945283
 20
2.7321080692
 30
0.0
 10
5.7718047883
 20
2.7332001897
 30
0.0
 10
5.8071749342
 20
2.7342922632
 30
0.0
 10
5.8419756019
 20
2.7353841438
 30
0.0
 10
5.8758830151
 20
2.7364757696
 30
0.0
 10
5.9085814984
 20
2.7375669665
 30
0.0
 10
5.9397667161
 20
2.7386575627
 30
0.0
 10
5.9691485756
 20
2.7397473979
 30
0.0
 10
5.9964533424
 20
2.74083596
 30
0.0
 10
6.0214273153
 20
2.7419231483
 30
0.0
 10
6.0406729795
 20
2.7428542821
 30
0.0
 10
6.0547312714
 20
2.7436076058
 30
0.0
 10
6.0642137261
 20
2.7441540001
 30
0.0
 10
6.0729553411
 20
2.7446999465
 30
0.0
 10
6.0809356811
 20
2.7452454791
 30
0.0
 10
6.0881363629
 20
2.7457903198
 30
0.0
 10
6.0945408202
 20
2.7463340536
 30
0.0
 10
6.1001339992
 20
2.7468766112
 30
0.0
 10
6.1042798626
 20
2.7473460206
 30
0.0
 10
6.1071801482
 20
2.7477277811
 30
0.0
 10
6.1090428175
 20
2.7480004016
 30
0.0
 10
6.110694364
 20
2.7482725556
 30
0.0
 10
6.1121337447
 20
2.7485441578
 30
0.0
 10
6.1133604682
 20
2.7488148887
 30
0.0
 10
6.1143741497
 20
2.7490845703
 30
0.0
 10
6.1150825081
 20
2.7493204914
 30
0.0
 10
6.1155386647
 20
2.749514778
 30
0.0
 10
6.1157300778
 20
2.7496125729
 30
0.0
 10
6.1158159904
 20
2.749662223
 30
0.0
 11
5.3756590127
 21
2.7145511062
 31
0.0
 11
5.3756859345
 21
2.714688259
 31
0.0
 11
5.3757668571
 21
2.7148254118
 31
0.0
 11
5.375901729
 21
2.7149625646
 31
0.0
 11
5.3760904903
 21
2.7150997174
 31
0.0
 11
5.3763330814
 21
2.7152368702
 31
0.0
 11
5.3766294425
 21
2.715374023
 31
0.0
 11
5.3769795139
 21
2.7155111758
 31
0.0
 11
5.3773832359
 21
2.7156483286
 31
0.0
 11
5.3783513926
 21
2.7159226342
 31
0.0
 11
5.3795334349
 21
2.7161969398
 31
0.0
 11
5.3809288849
 21
2.7164712454
 31
0.0
 11
5.382537201
 21
2.716745551
 31
0.0
 11
5.3843573174
 21
2.7170198566
 31
0.0
 11
5.3863879113
 21
2.7172941622
 31
0.0
 11
5.3886276582
 21
2.7175684678
 31
0.0
 11
5.3910752335
 21
2.7178427734
 31
0.0
 11
5.3965885708
 21
2.7183913846
 31
0.0
 11
5.4029163734
 21
2.7189399958
 31
0.0
 11
5.4100427787
 21
2.719488607
 31
0.0
 11
5.4179507048
 21
2.7200372182
 31
0.0
 11
5.4266229171
 21
2.7205858294
 31
0.0
 11
5.4360391696
 21
2.7211344406
 31
0.0
 11
5.4570116923
 21
2.722231663
 31
0.0
 11
5.4806751344
 21
2.7233288854
 31
0.0
 11
5.506807387
 21
2.7244261078
 31
0.0
 11
5.5351663807
 21
2.7255233302
 31
0.0
 11
5.5654877868
 21
2.7266205526
 31
0.0
 11
5.5974890475
 21
2.727717775
 31
0.0
 11
5.6308730915
 21
2.7288149974
 31
0.0
 11
5.665328277
 21
2.7299122198
 31
0.0
 11
5.7005346591
 21
2.7310094422
 31
0.0
 11
5.7361640038
 21
2.7321066646
 31
0.0
 11
5.7718850515
 21
2.733203887
 31
0.0
 11
5.8073649683
 21
2.7343011094
 31
0.0
 11
5.8422739566
 21
2.7353983318
 31
0.0
 11
5.8762865281
 21
2.7364955542
 31
0.0
 11
5.9090866148
 21
2.7375927766
 31
0.0
 11
5.9403687064
 21
2.738689999
 31
0.0
 11
5.96984132
 21
2.7397872214
 31
0.0
 11
5.9972311049
 21
2.7408844438
 31
0.0
 11
6.0222815296
 21
2.7419816662
 31
0.0
 11
6.0447612612
 21
2.7430788886
 31
0.0
 11
6.0549697499
 21
2.7436274998
 31
0.0
 11
6.064459485
 21
2.744176111
 31
0.0
 11
6.0732079603
 21
2.7447247222
 31
0.0
 11
6.0811937169
 21
2.7452733334
 31
0.0
 11
6.0883993454
 21
2.7458219446
 31
0.0
 11
6.0948084156
 21
2.7463705558
 31
0.0
 11
6.100404716
 21
2.746919167
 31
0.0
 11
6.1051754995
 21
2.7474677782
 31
0.0
 11
6.1072481977
 21
2.7477420838
 31
0.0
 11
6.1091107822
 21
2.7480163894
 31
0.0
 11
6.1107620147
 21
2.748290695
 31
0.0
 11
6.1122006617
 21
2.7485650006
 31
0.0
 11
6.1134257983
 21
2.7488393062
 31
0.0
 11
6.1144369914
 21
2.7491136118
 31
0.0
 11
6.1152338519
 21
2.7493879174
 31
0.0
 11
6.1155517857
 21
2.7495250702
 31
0.0
 11
6.1158159904
 21
2.749662223
 31
0.0
  0
SPLINE
  5
271
100
AcDbEntity
  8
0
100
AcDbSpline
 62
6
  6
CONTINUOUS
 70
0
 71
3
 72
51
 73
47
 74
45
 42
0.0000001
 43
0.0000001
 44
0.0000000001
 12
0.6947010776
 22
0.0442974766
 32
0.0
 13
0.0000162669
 23
0.6961119547
 33
0.0
 40
0.0
 40
0.0
 40
0.0
 40
0.0
 40
0.0227188416
 40
0.0484625551
 40
0.0770402225
 40
0.1082569499
 40
0.1419097051
 40
0.1777672734
 40
0.2155872705
 40
0.2551110223
 40
0.3381916879
 40
0.4247563703
 40
0.5124572419
 40
0.5559896469
 40
0.5989155383
 40
0.6409425103
 40
0.6817863339
 40
0.721168156
 40
0.7588224322
 40
0.7944914848
 40
0.8279357291
 40
0.8589257534
 40
0.8872545794
 40
0.9127275155
 40
0.935176183
 40
0.9452169352
 40
0.9544466511
 40
0.9628508002
 40
0.9704150075
 40
0.9771260861
 40
0.9829750941
 40
0.9855740379
 40
0.987954808
 40
0.9901166871
 40
0.9920591056
 40
0.9937818376
 40
0.995285507
 40
0.9965714533
 40
0.9976420749
 40
0.9985018749
 40
0.9988555253
 40
0.9991607309
 40
0.9994206992
 40
0.9996406631
 40
0.9998292588
 40
1.0
 40
1.0
 40
1.0
 40
1.0
 10
5.4213985367
 20
2.7738311067
 30
0.0
 10
5.4266594713
 20
2.7741665691
 30
0.0
 10
5.4378853824
 20
2.7748261311
 30
0.0
 10
5.4557375221
 20
2.7757550044
 30
0.0
 10
5.4755638137
 20
2.7766852616
 30
0.0
 10
5.4972270647
 20
2.777616726
 30
0.0
 10
5.5205809311
 20
2.7785489262
 30
0.0
 10
5.5454681078
 20
2.7794819109
 30
0.0
 10
5.5717184623
 20
2.7804152816
 30
0.0
 10
5.6089213857
 20
2.7816813994
 30
0.0
 10
5.6574312429
 20
2.78324557
 30
0.0
 10
5.7171165227
 20
2.7850950759
 30
0.0
 10
5.7676301438
 20
2.7866404561
 30
0.0
 10
5.8080222665
 20
2.7878893972
 30
0.0
 10
5.8378210012
 20
2.788823717
 30
0.0
 10
5.8669955764
 20
2.789757932
 30
0.0
 10
5.8953473722
 20
2.7906918937
 30
0.0
 10
5.9226839788
 20
2.791625649
 30
0.0
 10
5.9488191338
 20
2.7925589563
 30
0.0
 10
5.9735756429
 20
2.7934918811
 30
0.0
 10
5.9967846677
 20
2.7944240342
 30
0.0
 10
6.0182890476
 20
2.7953554694
 30
0.0
 10
6.0379419859
 20
2.7962854751
 30
0.0
 10
6.0556106332
 20
2.7972141078
 30
0.0
 10
6.069036531
 20
2.7980123651
 30
0.0
 10
6.0786953278
 20
2.7986593324
 30
0.0
 10
6.0850999375
 20
2.7991259937
 30
0.0
 10
6.0909282756
 20
2.7995921562
 30
0.0
 10
6.0961702114
 20
2.8000576583
 30
0.0
 10
6.1008167118
 20
2.8005224935
 30
0.0
 10
6.1043115001
 20
2.8009229636
 30
0.0
 10
6.106803193
 20
2.8012473127
 30
0.0
 10
6.1084438348
 20
2.8014807262
 30
0.0
 10
6.1099304973
 20
2.801713917
 30
0.0
 10
6.1112624564
 20
2.8019468397
 30
0.0
 10
6.1124391782
 20
2.8021794258
 30
0.0
 10
6.1134603247
 20
2.8024115376
 30
0.0
 10
6.1143259993
 20
2.8026428974
 30
0.0
 10
6.1150361689
 20
2.8028734065
 30
0.0
 10
6.1155273745
 20
2.8030753168
 30
0.0
 10
6.1158384801
 20
2.8032414836
 30
0.0
 10
6.1160174854
 20
2.8033579297
 30
0.0
 10
6.1161580737
 20
2.8034746573
 30
0.0
 10
6.1162604389
 20
2.8035924717
 30
0.0
 10
6.1163240547
 20
2.8037126259
 30
0.0
 10
6.1163389795
 20
2.8037964883
 30
0.0
 10
6.1163389805
 20
2.8038361066
 30
0.0
 11
5.4213985367
 21
2.7738311067
 31
0.0
 11
5.4371855929
 21
2.7747684262
 31
0.0
 11
5.4550815346
 21
2.7757064191
 31
0.0
 11
5.4749526761
 21
2.7766441656
 31
0.0
 11
5.4966627779
 21
2.7775817317
 31
0.0
 11
5.5200700912
 21
2.7785193637
 31
0.0
 11
5.5450133544
 21
2.7794570441
 31
0.0
 11
5.5713236033
 21
2.7803947069
 31
0.0
 11
5.5988205771
 21
2.7813323567
 31
0.0
 11
5.6566236091
 21
2.7832076691
 31
0.0
 11
5.7168531316
 21
2.7850829817
 31
0.0
 11
5.7778739472
 21
2.7869582941
 31
0.0
 11
5.8081628646
 21
2.7878959504
 31
0.0
 11
5.8380293756
 21
2.7888336066
 31
0.0
 11
5.8672698231
 21
2.7897712629
 31
0.0
 11
5.8956862313
 21
2.7907089191
 31
0.0
 11
5.9230843483
 21
2.7916465754
 31
0.0
 11
5.9492791636
 21
2.7925842316
 31
0.0
 11
5.9740911066
 21
2.7935218879
 31
0.0
 11
5.9973531548
 21
2.7944595441
 31
0.0
 11
6.0189052938
 21
2.7953972004
 31
0.0
 11
6.0386030236
 21
2.7963348566
 31
0.0
 11
6.0563102303
 21
2.7972725129
 31
0.0
 11
6.0719088596
 21
2.7982101691
 31
0.0
 11
6.0788826059
 21
2.7986789973
 31
0.0
 11
6.0852903934
 21
2.7991478254
 31
0.0
 11
6.0911218062
 21
2.7996166535
 31
0.0
 11
6.0963664283
 21
2.8000854816
 31
0.0
 11
6.1010145059
 21
2.8005543098
 31
0.0
 11
6.1050589883
 21
2.8010231379
 31
0.0
 11
6.1068528932
 21
2.801257552
 31
0.0
 11
6.1084935136
 21
2.801491966
 31
0.0
 11
6.1099800545
 21
2.8017263801
 31
0.0
 11
6.1113117206
 21
2.8019607941
 31
0.0
 11
6.112487801
 21
2.8021952082
 31
0.0
 11
6.113507937
 21
2.8024296223
 31
0.0
 11
6.1143718619
 21
2.8026640363
 31
0.0
 11
6.1150793087
 21
2.8028984504
 31
0.0
 11
6.1156300108
 21
2.8031328645
 31
0.0
 11
6.1158464992
 21
2.8032500715
 31
0.0
 11
6.1160237013
 21
2.8033672785
 31
0.0
 11
6.1161615839
 21
2.8034844855
 31
0.0
 11
6.1162601135
 21
2.8036016926
 31
0.0
 11
6.1163192568
 21
2.8037188996
 31
0.0
 11
6.1163389805
 21
2.8038361066
 31
0.0
  0
SPLINE
  5
272
100
AcDbEntity
  8
0
100
AcDbSpline
 62
6
  6
CONTINUOUS
 70
0
 71
3
 72
28
 73
24
 74
22
 42
0.0000001
 43
0.0000001
 44
0.0000000001
 12
-0.0000058192
 22
0.04643699
 32
0.0
 13
0.046342872
 23
0.0029550441
 33
0.0
 40
0.0
 40
0.0
 40
0.0
 40
0.0
 40
0.0019369959
 40
0.0039952485
 40
0.0062766448
 40
0.0088565544
 40
0.0150968522
 40
0.0229762139
 40
0.0326133391
 40
0.0440709251
 40
0.0573846813
 40
0.0725761001
 40
0.0896585814
 40
0.1086406159
 40
0.1523205297
 40
0.2036221199
 40
0.2625168163
 40
0.3289659666
 40
0.4029253634
 40
0.4843471405
 40
0.5731597901
 40
0.7724996251
 40
1.0
 40
1.0
 40
1.0
 40
1.0
 10
5.3756589734
 20
2.7859811062
 30
0.0
 10
5.3756589696
 20
2.7860110889
 30
0.0
 10
5.3756671741
 20
2.7860731837
 30
0.0
 10
5.3757032329
 20
2.7861642374
 30
0.0
 10
5.3757622566
 20
2.7862543207
 30
0.0
 10
5.3758785544
 20
2.786381577
 30
0.0
 10
5.3760875052
 20
2.7865369661
 30
0.0
 10
5.3764112148
 20
2.7867125247
 30
0.0
 10
5.3768242947
 20
2.7868885456
 30
0.0
 10
5.3773270719
 20
2.7870649996
 30
0.0
 10
5.3779200242
 20
2.7872418611
 30
0.0
 10
5.3786031925
 20
2.7874190192
 30
0.0
 10
5.3793765813
 20
2.7875964256
 30
0.0
 10
5.3805857464
 20
2.7878449779
 30
0.0
 10
5.3823234545
 20
2.7881505589
 30
0.0
 10
5.3846791588
 20
2.7885035441
 30
0.0
 10
5.3873905997
 20
2.7888573551
 30
0.0
 10
5.3904552607
 20
2.7892118564
 30
0.0
 10
5.3938706355
 20
2.7895668414
 30
0.0
 10
5.3976338148
 20
2.7899222067
 30
0.0
 10
5.4033331884
 20
2.7904155436
 30
0.0
 10
5.4112919144
 20
2.7910243206
 30
0.0
 10
5.4178841965
 20
2.7914670154
 30
0.0
 10
5.4213985367
 20
2.7916911067
 30
0.0
 11
5.3756589734
 21
2.7859811062
 31
0.0
 11
5.3756703917
 21
2.7860703267
 31
0.0
 11
5.3757046698
 21
2.7861595476
 31
0.0
 11
5.3757617936
 21
2.7862487688
 31
0.0
 11
5.3758417459
 21
2.78633799
 31
0.0
 11
5.3760700681
 21
2.7865164328
 31
0.0
 11
5.3763894997
 21
2.7866948754
 31
0.0
 11
5.3767999042
 21
2.7868733171
 31
0.0
 11
5.3773011451
 21
2.7870517575
 31
0.0
 11
5.3778930857
 21
2.787230196
 31
0.0
 11
5.3785755896
 21
2.787408632
 31
0.0
 11
5.3793485201
 21
2.7875870648
 31
0.0
 11
5.3802117407
 21
2.787765494
 31
0.0
 11
5.3822084682
 21
2.7881223396
 31
0.0
 11
5.3845638834
 21
2.7884791755
 31
0.0
 11
5.3872753958
 21
2.7888360186
 31
0.0
 11
5.3903403887
 21
2.7891928862
 31
0.0
 11
5.3937562451
 21
2.7895497953
 31
0.0
 11
5.3975203387
 21
2.7899067631
 31
0.0
 11
5.401629049
 21
2.7902637799
 31
0.0
 11
5.410858218
 21
2.79097772
 31
0.0
 11
5.4213985367
 21
2.7916911067
 31
0.0
  0
SPLINE
  5
273
100
AcDbEntity
  8
0
100
AcDbSpline
 62
6
  6
CONTINUOUS
 70
0
 71
3
 72
41
 73
37
 74
35
 42
0.0000001
 43
0.0000001
 44
0.0000000001
 12
0.6938707033
 22
0.0442445279
 32
0.0
 13
0.6020171174
 23
0.3478354807
 33
0.0
 40
0.0
 40
0.0
 40
0.0
 40
0.0
 40
0.0222578744
 40
0.0474270485
 40
0.0753279077
 40
0.1057772163
 40
0.138585149
 40
0.1735355436
 40
0.2489406631
 40
0.3300297213
 40
0.4146913879
 40
0.5007207351
 40
0.5858771232
 40
0.6679427224
 40
0.7071436152
 40
0.7447805674
 40
0.7806068318
 40
0.8143905164
 40
0.845910057
 40
0.8749619518
 40
0.9013558552
 40
0.9249221354
 40
0.9455071667
 40
0.9546398992
 40
0.9629804653
 40
0.9705149111
 40
0.9772308876
 40
0.9831198474
 40
0.988174315
 40
0.9923877981
 40
0.9941779424
 40
0.9957572967
 40
0.9971267534
 40
0.9982879246
 40
0.9992437642
 40
1.0
 40
1.0
 40
1.0
 40
1.0
 10
5.4213985367
 20
2.7916911067
 30
0.0
 10
5.4265465657
 20
2.7920193697
 30
0.0
 10
5.4375194086
 20
2.7926651879
 30
0.0
 10
5.4549537237
 20
2.7935756488
 30
0.0
 10
5.4742887453
 20
2.7944874136
 30
0.0
 10
5.4953958512
 20
2.7954002979
 30
0.0
 10
5.5181381345
 20
2.7963139124
 30
0.0
 10
5.5512941248
 20
2.7975648605
 30
0.0
 10
5.5956365886
 20
2.7991069808
 30
0.0
 10
5.6514975293
 20
2.8009180532
 30
0.0
 10
5.7098219069
 20
2.8027310521
 30
0.0
 10
5.7690893434
 20
2.8045448332
 30
0.0
 10
5.8277548459
 20
2.8063582109
 30
0.0
 10
5.875570896
 20
2.8078901753
 30
0.0
 10
5.9123775067
 20
2.8091293871
 30
0.0
 10
5.9384725149
 20
2.8100442559
 30
0.0
 10
5.9633112392
 20
2.8109587683
 30
0.0
 10
5.9867312043
 20
2.8118726904
 30
0.0
 10
6.0085798994
 20
2.8127859763
 30
0.0
 10
6.0287143772
 20
2.813698241
 30
0.0
 10
6.0470036258
 20
2.814609193
 30
0.0
 10
6.06332799
 20
2.8155183255
 30
0.0
 10
6.0756524573
 20
2.8163014549
 30
0.0
 10
6.084449986
 20
2.8169369466
 30
0.0
 10
6.0902277919
 20
2.8173939018
 30
0.0
 10
6.095443629
 20
2.8178502675
 30
0.0
 10
6.1000889296
 20
2.818306016
 30
0.0
 10
6.1041565301
 20
2.8187606057
 30
0.0
 10
6.1076401386
 20
2.8192137821
 30
0.0
 10
6.1101730505
 20
2.819607495
 30
0.0
 10
6.1119008715
 20
2.8199294578
 30
0.0
 10
6.1129754445
 20
2.8201572453
 30
0.0
 10
6.1139006644
 20
2.8203844553
 30
0.0
 10
6.1146767526
 20
2.8206109006
 30
0.0
 10
6.115303721
 20
2.8208362853
 30
0.0
 10
6.1156644964
 20
2.8210045409
 30
0.0
 10
6.115816252
 20
2.8210922228
 30
0.0
 11
5.4213985367
 21
2.7916911067
 31
0.0
 11
5.4368467107
 21
2.7926095577
 31
0.0
 11
5.4543221781
 21
2.7935286679
 31
0.0
 11
5.4736993095
 21
2.7944475521
 31
0.0
 11
5.494850159
 21
2.7953662508
 31
0.0
 11
5.5176423448
 21
2.7962850064
 31
0.0
 11
5.541925275
 21
2.797203814
 31
0.0
 11
5.5943207254
 21
2.7990413864
 31
0.0
 11
5.6506703636
 21
2.8008789552
 31
0.0
 11
5.709505229
 21
2.8027165253
 31
0.0
 11
5.7692914716
 21
2.8045540949
 31
0.0
 11
5.8284704738
 21
2.8063916647
 31
0.0
 11
5.8854994378
 21
2.8082292345
 31
0.0
 11
5.9127395399
 21
2.8091480193
 31
0.0
 11
5.9388916215
 21
2.8100668042
 31
0.0
 11
5.9637839522
 21
2.8109855891
 31
0.0
 11
5.9872550927
 21
2.811904374
 31
0.0
 11
6.009150727
 21
2.8128231589
 31
0.0
 11
6.0293290185
 21
2.8137419437
 31
0.0
 11
6.047657154
 21
2.8146607286
 31
0.0
 11
6.0640165345
 21
2.8155795135
 31
0.0
 11
6.0782993717
 21
2.8164982984
 31
0.0
 11
6.0846325372
 21
2.8169576908
 31
0.0
 11
6.0904133402
 21
2.8174170832
 31
0.0
 11
6.0956317069
 21
2.8178764757
 31
0.0
 11
6.1002785374
 21
2.8183358681
 31
0.0
 11
6.1043471597
 21
2.8187952606
 31
0.0
 11
6.1078312736
 21
2.819254653
 31
0.0
 11
6.1107245801
 21
2.8197140454
 31
0.0
 11
6.111947853
 21
2.8199437417
 31
0.0
 11
6.113021654
 21
2.8201734379
 31
0.0
 11
6.1139456887
 21
2.8204031341
 31
0.0
 11
6.1147196628
 21
2.8206328303
 31
0.0
 11
6.115343282
 21
2.8208625265
 31
0.0
 11
6.115816252
 21
2.8210922228
 31
0.0
  0
SPLINE
  5
274
100
AcDbEntity
  8
0
100
AcDbSpline
 62
6
  6
CONTINUOUS
 70
0
 71
3
 72
36
 73
32
 74
30
 42
0.0000001
 43
0.0000001
 44
0.0000000001
 12
-0.3541876051
 22
-0.204745147
 32
0.0
 13
-0.4089501497
 23
-0.011367052
 33
0.0
 40
0.0
 40
0.0
 40
0.0
 40
0.0
 40
0.0007224833
 40
0.001572874
 40
0.0025547196
 40
0.0036702861
 40
0.006307937
 40
0.0094934388
 40
0.01322912
 40
0.0175149676
 40
0.0223500221
 40
0.0277327695
 40
0.0401335344
 40
0.0546973385
 40
0.0713911123
 40
0.090178154
 40
0.1110204925
 40
0.1338710509
 40
0.1586764552
 40
0.185383001
 40
0.2139322816
 40
0.2442572079
 40
0.3099600607
 40
0.3819002811
 40
0.4594286718
 40
0.5418442552
 40
0.628405319
 40
0.7183179129
 40
0.8107811728
 40
0.904987436
 40
1.0
 40
1.0
 40
1.0
 40
1.0
 10
6.1545251023
 20
2.9148995738
 30
0.0
 10
6.1544398041
 20
2.9148502655
 30
0.0
 10
6.1542480256
 20
2.9147534289
 30
0.0
 10
6.1539262268
 20
2.9146194759
 30
0.0
 10
6.1535471256
 20
2.9144852792
 30
0.0
 10
6.1529298251
 20
2.9142953676
 30
0.0
 10
6.1520119829
 20
2.9140631679
 30
0.0
 10
6.1507358346
 20
2.9137963946
 30
0.0
 10
6.1492309563
 20
2.9135288103
 30
0.0
 10
6.1474982546
 20
2.9132605371
 30
0.0
 10
6.1455386628
 20
2.9129917961
 30
0.0
 10
6.1424772054
 20
2.9126150221
 30
0.0
 10
6.1380900809
 20
2.9121520639
 30
0.0
 10
6.132160346
 20
2.9116173244
 30
0.0
 10
6.1253567638
 20
2.9110812287
 30
0.0
 10
6.1176947487
 20
2.9105440354
 30
0.0
 10
6.1091913351
 20
2.9100062354
 30
0.0
 10
6.0998657515
 20
2.9094679223
 30
0.0
 10
6.0897392767
 20
2.9089291618
 30
0.0
 10
6.0788346713
 20
2.9083901147
 30
0.0
 10
6.0671765265
 20
2.9078508675
 30
0.0
 10
6.0502041052
 20
2.9071116577
 30
0.0
 10
6.0273166663
 20
2.9061957048
 30
0.0
 10
5.9979934766
 20
2.9051221825
 30
0.0
 10
5.9663898109
 20
2.9040476126
 30
0.0
 10
5.9327912675
 20
2.9029721344
 30
0.0
 10
5.8975030962
 20
2.9018961473
 30
0.0
 10
5.8608441351
 20
2.9008196912
 30
0.0
 10
5.8231421794
 20
2.8997428673
 30
0.0
 10
5.7847444706
 20
2.8986659226
 30
0.0
 10
5.7589507813
 20
2.8979489723
 30
0.0
 10
5.7459989805
 20
2.8975889681
 30
0.0
 11
6.1545251023
 21
2.9148995738
 31
0.0
 11
6.1542622825
 21
2.9147643347
 31
0.0
 11
6.1539417424
 21
2.9146290956
 31
0.0
 11
6.1535635123
 21
2.9144938565
 31
0.0
 11
6.1531276227
 21
2.9143586173
 31
0.0
 11
6.1520829866
 21
2.9140881391
 31
0.0
 11
6.1508081495
 21
2.9138176609
 31
0.0
 11
6.1493039771
 21
2.9135471827
 31
0.0
 11
6.1475715899
 21
2.9132767044
 31
0.0
 11
6.1456121097
 21
2.9130062262
 31
0.0
 11
6.1434266582
 21
2.912735748
 31
0.0
 11
6.1383823282
 21
2.9121947916
 31
0.0
 11
6.1324487662
 21
2.9116538352
 31
0.0
 11
6.1256406659
 21
2.9111128788
 31
0.0
 11
6.1179737957
 21
2.9105719223
 31
0.0
 11
6.1094642032
 21
2.9100309658
 31
0.0
 11
6.1001315195
 21
2.9094900093
 31
0.0
 11
6.0899978562
 21
2.9089490529
 31
0.0
 11
6.0790853921
 21
2.9084080966
 31
0.0
 11
6.0674181844
 21
2.9078671405
 31
0.0
 11
6.055023811
 21
2.9073261842
 31
0.0
 11
6.0281660245
 21
2.90624427
 31
0.0
 11
5.9987545904
 21
2.905162357
 31
0.0
 11
5.9670555558
 21
2.9040804509
 31
0.0
 11
5.9333560363
 21
2.9029985309
 31
0.0
 11
5.8979597358
 21
2.9019165956
 31
0.0
 11
5.8611916781
 21
2.900834746
 31
0.0
 11
5.8233796842
 21
2.8997528622
 31
0.0
 11
5.7848543374
 21
2.8986706123
 31
0.0
 11
5.7459989805
 21
2.8975889681
 31
0.0
  0
ENDSEC
  0
SECTION
  2
OBJECTS
  0
DICTIONARY
  5
C
100
AcDbDictionary
280
0
281
1
  3
ACAD_GROUP
350
D
  3
ACAD_MLINESTYLE
350
17
  3
ACAD_LAYOUT
350
1A
  3
ACAD_PLOTSETTINGS
350
19
  3
ACAD_PLOTSTYLENAME
350
E
  0
DICTIONARY
  5
D
102
{ACAD_REACTORS
330
C
102
}
100
AcDbDictionary
280
0
281
1
  0
ACDBDICTIONARYWDFLT
  5
E
102
{ACAD_REACTORS
330
C
102
}
100
AcDbDictionary
281
1
  3
Normal
350
F
100
AcDbDictionaryWithDefault
340
F
  0
DICTIONARY
  5
17
102
{ACAD_REACTORS
330
C
102
}
100
AcDbDictionary
280
0
281
1
  3
Standard
350
18
  0
DICTIONARY
  5
19
102
{ACAD_REACTORS
330
C
102
}
100
AcDbDictionary
281
1
  0
DICTIONARY
  5
1A
102
{ACAD_REACTORS
330
C
102
}
100
AcDbDictionary
281
1
  3
Model
350
275
  3
Layout1
350
276
  0
ACDBPLACEHOLDER
  5
F
102
{ACAD_REACTORS
330
E
102
}
  0
MLINESTYLE
  5
18
102
{ACAD_REACTORS
330
17
102
}
100
AcDbMlineStyle
  2
STANDARD
 70
0
  3

 62
256
 51
90.0
 52
90.0
 71
2
 49
0.5
 62
256
  6
BYLAYER
 49
-0.5
 62
256
  6
BYLAYER
  0
LAYOUT
  5
275
102
{ACAD_REACTORS
330
1A
102
}
100
AcDbPlotSettings
  1

  2
none_device
  4
ISO_A4_(297.00_x_210.00_MM)
  6

 40
0.0
 41
0.0
 42
0.0
 43
0.0
 44
297.0
 45
210.0
 46
0.0
 47
0.0
 48
0.0
 49
0.0
140
0.0
141
0.0
142
1.0
143
1.0
 70
1024
 72
0
 73
0
 74
0
  7

 75
0
147
1.0
148
0.0
149
0.0
100
AcDbLayout
  1
Model
 70
0
 71
0
 10
0.0
 20
0.0
 11
11.6929133858
 21
8.2677165354
 12
0.0
 22
0.0
 32
0.0
 14
0.0
 24
0.0
 34
0.0
 15
0.0
 25
0.0
 35
0.0
146
0.0
 13
0.0
 23
0.0
 33
0.0
 16
1.0
 26
0.0
 36
0.0
 17
0.0
 27
1.0
 37
0.0
 76
0
330
204
345
0
346
0
  0
LAYOUT
  5
276
102
{ACAD_REACTORS
330
1A
102
}
100
AcDbPlotSettings
  1

  2
none_device
  4
ISO_A4_(297.00_x_210.00_MM)
  6

 40
0.0
 41
0.0
 42
0.0
 43
0.0
 44
297.0
 45
210.0
 46
0.0
 47
0.0
 48
0.0
 49
0.0
140
0.0
141
0.0
142
1.0
143
1.0
 70
0
 72
0
 73
0
 74
0
  7

 75
0
147
1.0
148
0.0
149
0.0
100
AcDbLayout
  1
Layout1
 70
0
 71
1
 10
0.0
 20
0.0
 11
11.6929133858
 21
8.2677165354
 12
0.0
 22
0.0
 32
0.0
 14
0.0
 24
0.0
 34
0.0
 15
0.0
 25
0.0
 35
0.0
146
0.0
 13
0.0
 23
0.0
 33
0.0
 16
1.0
 26
0.0
 36
0.0
 17
0.0
 27
1.0
 37
0.0
 76
0
330
205
345
0
346
0
  0
ENDSEC
  0
EOF
