  0
SECTION
  2
HEADER
  9
$ACADVER
  1
AC1015
  9
$DWGCODEPAGE
  3
ANSI_1252
  9
$EXTMAX
 10
11.6929133858
 20
8.2677165354
 30
0.0
  9
$EXTMIN
 10
0.0
 20
0.0
 30
0.0
  9
$LIMMIN
 10
0.0
 20
0.0
  9
$LIMMAX
 10
11.6929133858
 20
8.2677165354
  9
$VIEWCTR
 10
5.8464566929
 20
4.1338582677
  9
$VIEWSIZE
 40
8.2677165354
  9
$CLAYER
  8
0
  9
$LTSCALE
 40
0.6431102362
  9
$CELTYPE
  6
BYLAYER
  9
$DIMSCALE
 40
1.0
  9
$DIMASZ
 40
0.1875
  9
$DIMEXO
 40
0.0730807087
  9
$DIMDLI
 40
0.4443307087
  9
$DIMEXE
 40
0.2104724409
  9
$DIMCEN
 40
0.1052362205
  9
$DIMLFAC
 40
1.0
  9
$DIMBLK
  1
_CLOSED
  9
$DIMTXT
 40
0.15625
  9
$DIMTOL
 70
0
  9
$DIMLIM
 70
0
  9
$DIMTFAC
 40
1.0
  9
$PDMODE
 70
3
  9
$PDSIZE
 40
0.3125
  9
$HANDSEED
  5
28C
  9
$TILEMODE
 70
1
  9
$MEASUREMENT
 70
0
  9
$INSUNITS
 70
1
  0
ENDSEC
  0
SECTION
  2
CLASSES
  0
CLASS
  1
ACDBDICTIONARYWDFLT
  2
AcDbDictionaryWithDefault
  3
AutoCAD 2000
 90
0
280
0
281
0
  0
CLASS
  1
ACDBPLACEHOLDER
  2
AcDbPlaceHolder
  3
AutoCAD 2000
 90
0
280
0
281
0
  0
CLASS
  1
LAYOUT
  2
AcDbLayout
  3
AutoCAD 2000
 90
0
280
0
281
0
  0
ENDSEC
  0
SECTION
  2
TABLES
  0
TABLE
  2
VPORT
  5
8
100
AcDbSymbolTable
 70
2
  0
VPORT
  5
1F4
100
AcDbSymbolTableRecord
100
AcDbViewportTableRecord
  2
*ACTIVE
 70
0
 10
0.0
 20
0.0
 11
1.0
 21
1.0
 12
5.8464566929
 22
4.1338582677
 13
0.0
 23
0.0
 14
1.0
 24
1.0
 15
0.0
 25
0.0
 16
0.0
 26
0.0
 36
1.0
 17
0.0
 27
0.0
 37
0.0
 40
8.2677165354
 41
1.4142857143
 42
50.0
 43
0.0
 44
0.0
 50
0.0
 51
0.0
 71
0
 72
100
 73
1
 74
1
 75
0
 76
0
 77
0
 78
0
  0
ENDTAB
  0
TABLE
  2
LTYPE
  5
5
100
AcDbSymbolTable
 70
6
  0
LTYPE
  5
14
100
AcDbSymbolTableRecord
100
AcDbLinetypeTableRecord
  2
BYBLOCK
 70
0
  3

 72
65
 73
0
 40
0.0
  0
LTYPE
  5
15
100
AcDbSymbolTableRecord
100
AcDbLinetypeTableRecord
  2
BYLAYER
 70
0
  3

 72
65
 73
0
 40
0.0
  0
LTYPE
  5
16
100
AcDbSymbolTableRecord
100
AcDbLinetypeTableRecord
  2
CONTINUOUS
 70
64
  3
Solid line
 72
65
 73
0
 40
0.0
  0
LTYPE
  5
1F5
100
AcDbSymbolTableRecord
100
AcDbLinetypeTableRecord
  2
CENTER
 70
64
  3
____ _ ____ _ ____ _ ____ _ ____ _ ____ _ ____
 72
65
 73
4
 40
0.6
 49
0.375
 74
0
 49
-0.075
 74
0
 49
0.075
 74
0
 49
-0.075
 74
0
  0
LTYPE
  5
1F6
100
AcDbSymbolTableRecord
100
AcDbLinetypeTableRecord
  2
HIDDEN
 70
64
  3
- - - - - - - - - - - - - - - - - - - -
 72
65
 73
2
 40
0.2
 49
0.1
 74
0
 49
-0.1
 74
0
  0
LTYPE
  5
1F7
100
AcDbSymbolTableRecord
100
AcDbLinetypeTableRecord
  2
PHANTOM
 70
64
  3
_____ _ _ _____ _ _ _____ _ _ _____
 72
65
 73
6
 40
0.8
 49
0.45
 74
0
 49
-0.05
 74
0
 49
0.1
 74
0
 49
-0.05
 74
0
 49
0.1
 74
0
 49
-0.05
 74
0
  0
LTYPE
  5
1F8
100
AcDbSymbolTableRecord
100
AcDbLinetypeTableRecord
  2
DOT
 70
64
  3
. . . . . . . . . . . . . . . . . . . .
 72
65
 73
2
 40
0.2
 49
0.1
 74
0
 49
-0.1
 74
0
  0
LTYPE
  5
1F9
100
AcDbSymbolTableRecord
100
AcDbLinetypeTableRecord
  2
DASHED
 70
64
  3
- - - - - - - - - - - - - - - - - - - -
 72
65
 73
2
 40
0.2
 49
0.1
 74
0
 49
-0.1
 74
0
  0
ENDTAB
  0
TABLE
  2
LAYER
  5
2
100
AcDbSymbolTable
 70
36
  0
LAYER
  5
10
100
AcDbSymbolTableRecord
100
AcDbLayerTableRecord
  2
0
 70
0
 62
7
  6
CONTINUOUS
370
-3
390
F
  0
LAYER
  5
1FA
100
AcDbSymbolTableRecord
100
AcDbLayerTableRecord
  2
DEFAULT_1
 70
0
 62
7
  6
CENTER
370
-3
390
F
  0
LAYER
  5
1FB
100
AcDbSymbolTableRecord
100
AcDbLayerTableRecord
  2
DEFAULT_2
 70
0
 62
8
  6
HIDDEN
370
-3
390
F
  0
LAYER
  5
1FC
100
AcDbSymbolTableRecord
100
AcDbLayerTableRecord
  2
DEFAULT_3
 70
0
 62
7
  6
PHANTOM
370
-3
390
F
  0
LAYER
  5
1FD
100
AcDbSymbolTableRecord
100
AcDbLayerTableRecord
  2
3_ALL_SYMBOLS
 70
0
 62
7
  6
CONTINUOUS
370
-3
390
F
  0
LAYER
  5
1FE
100
AcDbSymbolTableRecord
100
AcDbLayerTableRecord
  2
DEFAULT_COORDINATE_SYSTEM
 70
0
 62
7
  6
CONTINUOUS
370
-3
390
F
  0
LAYER
  5
1FF
100
AcDbSymbolTableRecord
100
AcDbLayerTableRecord
  2
DEFAULT_DATUM_AXES
 70
0
 62
7
  6
CONTINUOUS
370
-3
390
F
  0
LAYER
  5
200
100
AcDbSymbolTableRecord
100
AcDbLayerTableRecord
  2
DEFAULT_DATUM_CURVES
 70
0
 62
7
  6
CONTINUOUS
370
-3
390
F
  0
LAYER
  5
201
100
AcDbSymbolTableRecord
100
AcDbLayerTableRecord
  2
DEFAULT_DATUM_PLANES
 70
0
 62
7
  6
CONTINUOUS
370
-3
390
F
  0
ENDTAB
  0
TABLE
  2
STYLE
  5
3
100
AcDbSymbolTable
 70
1
  0
STYLE
  5
11
100
AcDbSymbolTableRecord
100
AcDbTextStyleTableRecord
  2
STANDARD
 70
0
 40
0.0
 41
0.8
 50
0.0
 71
0
 42
0.2
  3
txt
  4

  0
STYLE
  5
202
100
AcDbSymbolTableRecord
100
AcDbTextStyleTableRecord
  2
TEXTSTYLE_1
 70
0
 40
0.0
 41
0.8
 50
0.0
 71
0
 42
0.2
  3
gdt
  4

  0
ENDTAB
  0
TABLE
  2
VIEW
  5
6
100
AcDbSymbolTable
 70
0
  0
ENDTAB
  0
TABLE
  2
UCS
  5
7
100
AcDbSymbolTable
 70
0
  0
ENDTAB
  0
TABLE
  2
APPID
  5
9
100
AcDbSymbolTable
 70
1
  0
APPID
  5
203
100
AcDbSymbolTableRecord
100
AcDbRegAppTableRecord
  2
ACAD
 70
0
  0
ENDTAB
  0
TABLE
  2
BLOCK_RECORD
  5
1
100
AcDbSymbolTable
 70
0
  0
BLOCK_RECORD
  5
204
100
AcDbSymbolTableRecord
100
AcDbBlockTableRecord
  2
*Model_Space
  0
BLOCK_RECORD
  5
205
100
AcDbSymbolTableRecord
100
AcDbBlockTableRecord
  2
*Paper_Space
  0
ENDTAB
  0
TABLE
  2
DIMSTYLE
  5
A
100
AcDbSymbolTable
 70
1
100
AcDbDimStyleTable
 71
0
  0
DIMSTYLE
105
206
100
AcDbSymbolTableRecord
100
AcDbDimStyleTableRecord
  2
STANDARD
 70
0
  3

  4

 40
1.0
 41
0.1875
 42
0.0625
 43
0.38
 44
0.18
 45
0.0
 46
0.0
 47
0.01
 48
0.01
140
0.15625
141
0.09
142
0.0
143
25.4
144
1.0
145
0.0
146
1.0
147
0.09
 71
0.0
 72
0.0
 73
1
 74
1
 75
0
 76
0
 77
0
 78
4
170
0
171
2
172
0
173
0
174
0
175
0
176
0
177
0
178
0
270
2
271
2
272
2
273
2
274
2
275
0
280
0
281
0
282
0
283
1
284
4
285
0
286
0
287
3
288
0
340
11
  0
ENDTAB
  0
ENDSEC
  0
SECTION
  2
BLOCKS
  0
BLOCK
  5
20
100
AcDbEntity
  8
0
100
AcDbBlockBegin
  2
*Model_Space
 70
0
 10
0.0
 20
0.0
 30
0.0
  3
*Model_Space
  1

  0
ENDBLK
  5
21
100
AcDbEntity
  8
0
100
AcDbBlockEnd
  0
BLOCK
  5
1C
100
AcDbEntity
  8
0
100
AcDbBlockBegin
  2
*Paper_Space
 70
0
 10
0.0
 20
0.0
 30
0.0
  3
*Paper_Space
  1

  0
ENDBLK
  5
1D
100
AcDbEntity
  8
0
100
AcDbBlockEnd
  0
ENDSEC
  0
SECTION
  2
ENTITIES
  0
LINE
  5
207
100
AcDbEntity
  8
0
100
AcDbLine
 62
6
  6
CONTINUOUS
 10
4.9713609534
 20
2.701262087
 11
5.0094169772
 21
2.679262363
  0
LINE
  5
208
100
AcDbEntity
  8
0
100
AcDbLine
 62
6
  6
CONTINUOUS
 10
4.9713609534
 20
2.772692087
 11
5.0094169772
 21
2.750692363
  0
LINE
  5
209
100
AcDbEntity
  8
0
100
AcDbLine
 62
6
  6
CONTINUOUS
 10
5.0108877859
 20
2.6340914814
 11
4.9929394655
 21
2.6520398018
  0
LINE
  5
20A
100
AcDbEntity
  8
0
100
AcDbLine
 62
6
  6
CONTINUOUS
 10
4.9713609534
 20
2.701262087
 11
4.9708877859
 21
2.7018089814
  0
LINE
  5
20B
100
AcDbEntity
  8
0
100
AcDbLine
 62
6
  6
CONTINUOUS
 10
5.7488877859
 20
2.6340914814
 11
5.0108877859
 21
2.6340914814
  0
LINE
  5
20C
100
AcDbEntity
  8
0
100
AcDbLine
 62
6
  6
CONTINUOUS
 10
5.7502277859
 20
2.6354314814
 11
5.6549156596
 21
2.6354314814
  0
LINE
  5
20D
100
AcDbEntity
  8
0
100
AcDbLine
 62
6
  6
CONTINUOUS
 10
5.7875147789
 20
2.6740914814
 11
5.7888877859
 21
2.6740914814
  0
LINE
  5
20E
100
AcDbEntity
  8
0
100
AcDbLine
 62
6
  6
CONTINUOUS
 10
4.9713609534
 20
2.844122087
 11
5.0094169772
 21
2.822122363
  0
LINE
  5
20F
100
AcDbEntity
  8
0
100
AcDbLine
 62
6
  6
CONTINUOUS
 10
4.9738878516
 20
2.9140914814
 11
5.0094169772
 21
2.893552363
  0
LINE
  5
210
100
AcDbEntity
  8
0
100
AcDbLine
 62
6
  6
CONTINUOUS
 10
4.9713609534
 20
2.772692087
 11
4.9708877859
 21
2.7732389814
  0
LINE
  5
211
100
AcDbEntity
  8
0
100
AcDbLine
 62
6
  6
CONTINUOUS
 10
4.9713609534
 20
2.844122087
 11
4.9708877859
 21
2.8446689814
  0
LINE
  5
212
100
AcDbEntity
  8
0
100
AcDbLine
 62
6
  6
CONTINUOUS
 10
4.9738880754
 20
2.9140914814
 11
5.7502360344
 21
2.9140914814
  0
LINE
  5
213
100
AcDbEntity
  8
0
100
AcDbLine
 62
6
  6
CONTINUOUS
 10
5.7884146183
 20
2.675570153
 11
5.7503585946
 21
2.6975698773
  0
LINE
  5
214
100
AcDbEntity
  8
0
100
AcDbLine
 62
6
  6
CONTINUOUS
 10
5.7884146183
 20
2.747000153
 11
5.7503585946
 21
2.7689998773
  0
LINE
  5
215
100
AcDbEntity
  8
0
100
AcDbLine
 62
6
  6
CONTINUOUS
 10
4.8148877859
 20
2.9940914814
 11
5.9448877859
 21
2.9940914814
  0
LINE
  5
216
100
AcDbEntity
  8
0
100
AcDbLine
 62
6
  6
CONTINUOUS
 10
5.7884146183
 20
2.818430153
 11
5.7503585946
 21
2.8404298773
  0
LINE
  5
217
100
AcDbEntity
  8
0
100
AcDbLine
 62
6
  6
CONTINUOUS
 10
5.7884146183
 20
2.889860153
 11
5.7503585946
 21
2.9118598773
  0
LINE
  5
218
100
AcDbEntity
  8
0
100
AcDbLine
 62
6
  6
CONTINUOUS
 10
4.8148877859
 20
3.0940914814
 11
4.8148877859
 21
2.9940914814
  0
LINE
  5
219
100
AcDbEntity
  8
0
100
AcDbLine
 62
6
  6
CONTINUOUS
 10
5.9448877859
 20
3.0940914814
 11
4.8148877859
 21
3.0940914814
  0
LINE
  5
21A
100
AcDbEntity
  8
0
100
AcDbLine
 62
9
  6
CONTINUOUS
 10
5.8448877859
 20
3.1940914814
 11
4.9148877859
 21
3.1940914814
  0
LINE
  5
21B
100
AcDbEntity
  8
0
100
AcDbLine
 62
6
  6
CONTINUOUS
 10
4.9148877859
 20
3.8445797728
 11
4.9148877859
 21
3.1940914814
  0
LINE
  5
21C
100
AcDbEntity
  8
0
100
AcDbLine
 62
6
  6
CONTINUOUS
 10
4.9708877859
 20
2.7018089814
 11
4.9708877859
 21
2.7107382586
  0
LINE
  5
21D
100
AcDbEntity
  8
0
100
AcDbLine
 62
6
  6
CONTINUOUS
 10
4.9708877859
 20
2.7732389814
 11
4.9708877859
 21
2.7821682586
  0
LINE
  5
21E
100
AcDbEntity
  8
0
100
AcDbLine
 62
6
  6
CONTINUOUS
 10
4.9708877859
 20
2.8446689814
 11
4.9708877859
 21
2.8535982586
  0
LINE
  5
21F
100
AcDbEntity
  8
0
100
AcDbLine
 62
6
  6
CONTINUOUS
 10
5.0095477859
 20
2.89377862
 11
5.0095477859
 21
2.8762205033
  0
LINE
  5
220
100
AcDbEntity
  8
0
100
AcDbLine
 62
6
  6
CONTINUOUS
 10
5.0095477859
 20
2.82234862
 11
5.0095477859
 21
2.8047905033
  0
LINE
  5
221
100
AcDbEntity
  8
0
100
AcDbLine
 62
6
  6
CONTINUOUS
 10
5.0095477859
 20
2.75091862
 11
5.0095477859
 21
2.7333605033
  0
LINE
  5
222
100
AcDbEntity
  8
0
100
AcDbLine
 62
6
  6
CONTINUOUS
 10
5.0095477859
 20
2.67948862
 11
5.0095477859
 21
2.6619305033
  0
LINE
  5
223
100
AcDbEntity
  8
0
100
AcDbLine
 62
6
  6
CONTINUOUS
 10
5.0148877859
 20
2.9940914814
 11
5.0148877859
 21
2.9140914814
  0
LINE
  5
224
100
AcDbEntity
  8
0
100
AcDbLine
 62
6
  6
CONTINUOUS
 10
5.7884146183
 20
2.747000153
 11
5.7888877859
 21
2.7464532586
  0
LINE
  5
225
100
AcDbEntity
  8
0
100
AcDbLine
 62
6
  6
CONTINUOUS
 10
5.7884146183
 20
2.818430153
 11
5.7888877859
 21
2.8178832586
  0
LINE
  5
226
100
AcDbEntity
  8
0
100
AcDbLine
 62
6
  6
CONTINUOUS
 10
5.7888877859
 20
2.8893132722
 11
5.7884146183
 21
2.889860153
  0
LINE
  5
227
100
AcDbEntity
  8
0
100
AcDbLine
 62
6
  6
CONTINUOUS
 10
6.8898877859
 20
3.4940914814
 11
6.9198877859
 21
3.4940914814
  0
LINE
  5
228
100
AcDbEntity
  8
0
100
AcDbLine
 62
6
  6
CONTINUOUS
 10
4.993072929
 20
2.6524058993
 11
4.9929394655
 21
2.6520398018
  0
LINE
  5
229
100
AcDbEntity
  8
0
100
AcDbLine
 62
7
  6
CONTINUOUS
 10
4.9048877859
 20
3.8503718219
 11
5.8548877859
 21
3.8503718219
  0
LINE
  5
22A
100
AcDbEntity
  8
0
100
AcDbLine
 62
6
  6
CONTINUOUS
 10
6.4418717215
 20
3.9015914814
 11
6.6398877859
 21
3.9015914814
  0
LINE
  5
22B
100
AcDbEntity
  8
0
100
AcDbLine
 62
6
  6
CONTINUOUS
 10
6.6072377253
 20
3.908864298
 11
6.6398877859
 21
3.908864298
  0
LINE
  5
22C
100
AcDbEntity
  8
0
100
AcDbLine
 62
6
  6
CONTINUOUS
 10
6.9198877859
 20
3.9440914814
 11
6.9298877859
 21
3.9440914814
  0
LINE
  5
22D
100
AcDbEntity
  8
0
100
AcDbLine
 62
6
  6
CONTINUOUS
 10
5.7448877859
 20
2.9940914814
 11
5.7448877859
 21
2.9140914814
  0
LINE
  5
22E
100
AcDbEntity
  8
0
100
AcDbLine
 62
6
  6
CONTINUOUS
 10
5.7502277859
 20
2.6354314814
 11
5.7502277859
 21
2.643471737
  0
LINE
  5
22F
100
AcDbEntity
  8
0
100
AcDbLine
 62
6
  6
CONTINUOUS
 10
5.7502277859
 20
2.69734362
 11
5.7502277859
 21
2.714901737
  0
LINE
  5
230
100
AcDbEntity
  8
0
100
AcDbLine
 62
6
  6
CONTINUOUS
 10
5.7502277859
 20
2.76877362
 11
5.7502277859
 21
2.786331737
  0
LINE
  5
231
100
AcDbEntity
  8
0
100
AcDbLine
 62
6
  6
CONTINUOUS
 10
5.7502277859
 20
2.84020362
 11
5.7502277859
 21
2.857761737
  0
LINE
  5
232
100
AcDbEntity
  8
0
100
AcDbLine
 62
6
  6
CONTINUOUS
 10
5.7502277859
 20
2.91163362
 11
5.7502277859
 21
2.9140914814
  0
LINE
  5
233
100
AcDbEntity
  8
0
100
AcDbLine
 62
6
  6
CONTINUOUS
 10
5.7888877859
 20
2.8178832586
 11
5.7888877859
 21
2.8089539814
  0
LINE
  5
234
100
AcDbEntity
  8
0
100
AcDbLine
 62
6
  6
CONTINUOUS
 10
5.7888877859
 20
2.7464532586
 11
5.7888877859
 21
2.7375239814
  0
LINE
  5
235
100
AcDbEntity
  8
0
100
AcDbLine
 62
6
  6
CONTINUOUS
 10
5.7888877859
 20
2.6740914814
 11
5.7888877859
 21
2.6750232586
  0
LINE
  5
236
100
AcDbEntity
  8
0
100
AcDbLine
 62
6
  6
CONTINUOUS
 10
5.7888877859
 20
2.8803839814
 11
5.7888877859
 21
2.8893132586
  0
LINE
  5
237
100
AcDbEntity
  8
0
100
AcDbLine
 62
6
  6
CONTINUOUS
 10
5.8448877859
 20
3.8444730994
 11
5.8448877859
 21
3.1940914814
  0
LINE
  5
238
100
AcDbEntity
  8
0
100
AcDbLine
 62
6
  6
CONTINUOUS
 10
5.9448877859
 20
3.0940914814
 11
5.9448877859
 21
2.9940914814
  0
LINE
  5
239
100
AcDbEntity
  8
0
100
AcDbLine
 62
6
  6
CONTINUOUS
 10
5.9608352878
 20
3.9440914814
 11
5.9608352878
 21
5.0440914814
  0
LINE
  5
23A
100
AcDbEntity
  8
0
100
AcDbLine
 62
6
  6
CONTINUOUS
 10
4.9708877859
 20
2.8535982586
 11
4.9713609534
 21
2.854145153
  0
LINE
  5
23B
100
AcDbEntity
  8
0
100
AcDbLine
 62
6
  6
CONTINUOUS
 10
4.9713609534
 20
2.782715153
 11
4.9708877859
 21
2.7821682586
  0
LINE
  5
23C
100
AcDbEntity
  8
0
100
AcDbLine
 62
6
  6
CONTINUOUS
 10
4.9713609534
 20
2.711285153
 11
4.9708877859
 21
2.7107382586
  0
LINE
  5
23D
100
AcDbEntity
  8
0
100
AcDbLine
 62
6
  6
CONTINUOUS
 10
6.6072377253
 20
4.4868186648
 11
6.6398877859
 21
4.4868186648
  0
LINE
  5
23E
100
AcDbEntity
  8
0
100
AcDbLine
 62
6
  6
CONTINUOUS
 10
6.6072377253
 20
4.501364298
 11
6.6398877859
 21
4.501364298
  0
LINE
  5
23F
100
AcDbEntity
  8
0
100
AcDbLine
 62
6
  6
CONTINUOUS
 10
6.4198877847
 20
3.944091483
 11
6.4198877847
 21
5.0440914798
  0
LINE
  5
240
100
AcDbEntity
  8
0
100
AcDbLine
 62
6
  6
CONTINUOUS
 10
5.0100701487
 20
2.8765225028
 11
4.9713609534
 21
2.854145153
  0
LINE
  5
241
100
AcDbEntity
  8
0
100
AcDbLine
 62
6
  6
CONTINUOUS
 10
5.0100701487
 20
2.8050925028
 11
4.9713609534
 21
2.782715153
  0
LINE
  5
242
100
AcDbEntity
  8
0
100
AcDbLine
 62
9
  6
CONTINUOUS
 10
6.6072377253
 20
3.9015914814
 11
6.6072377253
 21
3.908864298
  0
LINE
  5
243
100
AcDbEntity
  8
0
100
AcDbLine
 62
9
  6
CONTINUOUS
 10
6.6072377253
 20
4.4868186648
 11
6.6072377253
 21
4.501364298
  0
LINE
  5
244
100
AcDbEntity
  8
0
100
AcDbLine
 62
9
  6
CONTINUOUS
 10
6.6072377253
 20
5.0793186648
 11
6.6072377253
 21
5.0865914814
  0
LINE
  5
245
100
AcDbEntity
  8
0
100
AcDbLine
 62
6
  6
CONTINUOUS
 10
5.7888877859
 20
2.8803839802
 11
5.7884146183
 21
2.879837087
  0
LINE
  5
246
100
AcDbEntity
  8
0
100
AcDbLine
 62
6
  6
CONTINUOUS
 10
5.7884146183
 20
2.808407087
 11
5.7888877859
 21
2.8089539814
  0
LINE
  5
247
100
AcDbEntity
  8
0
100
AcDbLine
 62
6
  6
CONTINUOUS
 10
5.0100701487
 20
2.7336625028
 11
4.9713609534
 21
2.711285153
  0
LINE
  5
248
100
AcDbEntity
  8
0
100
AcDbLine
 62
6
  6
CONTINUOUS
 10
5.0100701487
 20
2.6622325028
 11
4.993072929
 21
2.6524058993
  0
LINE
  5
249
100
AcDbEntity
  8
0
100
AcDbLine
 62
9
  6
CONTINUOUS
 10
6.6398877859
 20
3.7917062954
 11
6.6398877859
 21
5.1964766674
  0
LINE
  5
24A
100
AcDbEntity
  8
0
100
AcDbLine
 62
6
  6
CONTINUOUS
 10
5.7884146183
 20
2.736977087
 11
5.7888877859
 21
2.7375239814
  0
LINE
  5
24B
100
AcDbEntity
  8
0
100
AcDbLine
 62
6
  6
CONTINUOUS
 10
6.9198877859
 20
5.0440914814
 11
6.9298877859
 21
5.0440914814
  0
LINE
  5
24C
100
AcDbEntity
  8
0
100
AcDbLine
 62
9
  6
CONTINUOUS
 10
6.7598877859
 20
3.6240914916
 11
6.7598877859
 21
5.3640914712
  0
LINE
  5
24D
100
AcDbEntity
  8
0
100
AcDbLine
 62
6
  6
CONTINUOUS
 10
5.7488877859
 20
2.6340914814
 11
5.7502277859
 21
2.6354314814
  0
LINE
  5
24E
100
AcDbEntity
  8
0
100
AcDbLine
 62
6
  6
CONTINUOUS
 10
5.7699654977
 20
2.6551691932
 11
5.7888877859
 21
2.6740914814
  0
LINE
  5
24F
100
AcDbEntity
  8
0
100
AcDbLine
 62
6
  6
CONTINUOUS
 10
5.7497054231
 20
2.8574597372
 11
5.7884146183
 21
2.879837087
  0
LINE
  5
250
100
AcDbEntity
  8
0
100
AcDbLine
 62
6
  6
CONTINUOUS
 10
5.7497054231
 20
2.7860297372
 11
5.7884146183
 21
2.808407087
  0
LINE
  5
251
100
AcDbEntity
  8
0
100
AcDbLine
 62
6
  6
CONTINUOUS
 10
6.6072377253
 20
5.0793186648
 11
6.6398877859
 21
5.0793186648
  0
LINE
  5
252
100
AcDbEntity
  8
0
100
AcDbLine
 62
6
  6
CONTINUOUS
 10
6.4418717215
 20
5.0865914814
 11
6.6398877859
 21
5.0865914814
  0
LINE
  5
253
100
AcDbEntity
  8
0
100
AcDbLine
 62
9
  6
CONTINUOUS
 10
6.8898877859
 20
3.4940914814
 11
6.8898877859
 21
5.4940914814
  0
LINE
  5
254
100
AcDbEntity
  8
0
100
AcDbLine
 62
6
  6
CONTINUOUS
 10
6.9198877859
 20
3.4940914814
 11
6.9198877859
 21
5.4940914814
  0
LINE
  5
255
100
AcDbEntity
  8
0
100
AcDbLine
 62
6
  6
CONTINUOUS
 10
6.9298877859
 20
5.0440914814
 11
6.9298877859
 21
3.9440914814
  0
LINE
  5
256
100
AcDbEntity
  8
0
100
AcDbLine
 62
6
  6
CONTINUOUS
 10
5.7699668327
 20
2.6551705287
 11
5.7681063561
 21
2.6538078179
  0
LINE
  5
257
100
AcDbEntity
  8
0
100
AcDbLine
 62
6
  6
CONTINUOUS
 10
5.7497054231
 20
2.7145997372
 11
5.7884146183
 21
2.736977087
  0
LINE
  5
258
100
AcDbEntity
  8
0
100
AcDbLine
 62
6
  6
CONTINUOUS
 10
5.7497054231
 20
2.6431697372
 11
5.7681063561
 21
2.6538078179
  0
LINE
  5
259
100
AcDbEntity
  8
0
100
AcDbLine
 62
6
  6
CONTINUOUS
 10
6.8898877859
 20
5.4940914814
 11
6.9198877859
 21
5.4940914814
  0
ARC
  5
25A
100
AcDbEntity
  8
0
100
AcDbCircle
 62
6
  6
CONTINUOUS
 10
4.8148877859
 20
3.1940914814
 40
0.1
100
AcDbArc
 50
270.0
 51
360.0
  0
ARC
  5
25B
100
AcDbEntity
  8
0
100
AcDbCircle
 62
6
  6
CONTINUOUS
 10
5.3798877859
 20
4.4940914814
 40
0.8
100
AcDbArc
 50
305.5963958844
 51
316.5674634422
  0
ARC
  5
25C
100
AcDbEntity
  8
0
100
AcDbCircle
 62
6
  6
CONTINUOUS
 10
5.3798877859
 20
4.4940914814
 40
0.8
100
AcDbArc
 50
43.4325365578
 51
234.4011481161
  0
ARC
  5
25D
100
AcDbEntity
  8
0
100
AcDbCircle
 62
6
  6
CONTINUOUS
 10
6.1903615368
 20
3.7837240876
 40
0.28
100
AcDbArc
 50
34.9415649482
 51
145.0584354592
  0
ARC
  5
25E
100
AcDbEntity
  8
0
100
AcDbCircle
 62
6
  6
CONTINUOUS
 10
6.6072377253
 20
4.0140914814
 40
0.2
100
AcDbArc
 50
200.4873146156
 51
214.2883577694
  0
ARC
  5
25F
100
AcDbEntity
  8
0
100
AcDbCircle
 62
6
  6
CONTINUOUS
 10
6.8898877859
 20
3.6240914814
 40
0.13
100
AcDbArc
 50
179.9999988175
 51
270.0
  0
ARC
  5
260
100
AcDbEntity
  8
0
100
AcDbCircle
 62
6
  6
CONTINUOUS
 10
6.7698877859
 20
3.7917062954
 40
0.13
100
AcDbArc
 50
180.0
 51
265.5882742142
  0
ARC
  5
261
100
AcDbEntity
  8
0
100
AcDbCircle
 62
6
  6
CONTINUOUS
 10
5.9448877859
 20
3.1940914814
 40
0.1
100
AcDbArc
 50
180.0
 51
270.0
  0
ARC
  5
262
100
AcDbEntity
  8
0
100
AcDbCircle
 62
6
  6
CONTINUOUS
 10
6.1903615368
 20
5.2044588752
 40
0.28
100
AcDbArc
 50
214.9415645408
 51
325.0584350464
  0
ARC
  5
263
100
AcDbEntity
  8
0
100
AcDbCircle
 62
6
  6
CONTINUOUS
 10
6.6072377253
 20
4.9740914814
 40
0.2
100
AcDbArc
 50
145.7116422304
 51
159.512685391
  0
ARC
  5
264
100
AcDbEntity
  8
0
100
AcDbCircle
 62
6
  6
CONTINUOUS
 10
6.8898877859
 20
5.3640914814
 40
0.13
100
AcDbArc
 50
90.0
 51
180.0000011825
  0
ARC
  5
265
100
AcDbEntity
  8
0
100
AcDbCircle
 62
6
  6
CONTINUOUS
 10
6.7698877859
 20
5.1964766674
 40
0.13
100
AcDbArc
 50
94.4117257858
 51
180.0
  0
LINE
  5
266
100
AcDbEntity
  8
0
100
AcDbLine
 62
6
  6
CONTINUOUS
 10
5.010070468
 20
2.8931747361
 11
5.0095478919
 21
2.8937786207
  0
LINE
  5
267
100
AcDbEntity
  8
0
100
AcDbLine
 62
6
  6
CONTINUOUS
 10
5.7888864235
 20
2.6750231396
 11
5.7888526262
 21
2.675169552
  0
LINE
  5
268
100
AcDbEntity
  8
0
100
AcDbLine
 62
6
  6
CONTINUOUS
 10
5.7888526262
 20
2.675169552
 11
5.7884140567
 21
2.6755701513
  0
LINE
  5
269
100
AcDbEntity
  8
0
100
AcDbLine
 62
6
  6
CONTINUOUS
 10
5.0100702696
 20
2.805092502
 11
5.010514711
 21
2.805310307
  0
SPLINE
  5
26A
100
AcDbEntity
  8
0
100
AcDbSpline
 62
6
  6
CONTINUOUS
 70
0
 71
3
 72
63
 73
59
 74
57
 42
0.0000001
 43
0.0000001
 44
0.0000000001
 12
0.6821481046
 22
0.2899700758
 32
0.0
 13
0.0004547311
 23
0.7412209352
 33
0.0
 40
0.0
 40
0.0
 40
0.0
 40
0.0
 40
0.0010735645
 40
0.0024195137
 40
0.0040415469
 40
0.0059412732
 40
0.0081192705
 40
0.010575553
 40
0.0163211205
 40
0.0231686862
 40
0.0311032371
 40
0.0401088037
 40
0.0501670123
 40
0.0612537584
 40
0.0733438067
 40
0.1004262012
 40
0.1311650771
 40
0.1652821144
 40
0.2024627389
 40
0.2423671718
 40
0.2846291809
 40
0.3288602324
 40
0.3746553039
 40
0.4215928053
 40
0.4692425331
 40
0.5171662798
 40
0.5649243942
 40
0.6120776983
 40
0.6581939219
 40
0.7028486595
 40
0.7456327632
 40
0.7861531468
 40
0.8240375978
 40
0.8589400522
 40
0.8905385117
 40
0.9185465815
 40
0.931121635
 40
0.9427066442
 40
0.9532749808
 40
0.96280138
 40
0.9712662847
 40
0.9786520432
 40
0.9819349201
 40
0.9849419103
 40
0.9876720015
 40
0.9901244818
 40
0.9922988501
 40
0.9941949417
 40
0.9958131626
 40
0.9971549666
 40
0.9977233594
 40
0.9982244949
 40
0.9986597628
 40
0.9990313009
 40
0.9993425734
 40
0.9995995065
 40
0.9998126235
 40
1.0
 40
1.0
 40
1.0
 40
1.0
 10
5.010514711
 20
2.805310307
 30
0.0
 10
5.010758821
 20
2.8054140742
 30
0.0
 10
5.011323685
 20
2.8056128989
 30
0.0
 10
5.012286029
 20
2.8058804952
 30
0.0
 10
5.0134586387
 20
2.8061493582
 30
0.0
 10
5.0148409733
 20
2.8064191561
 30
0.0
 10
5.0164326724
 20
2.806689602
 30
0.0
 10
5.0189688578
 20
2.8070709949
 30
0.0
 10
5.0226581853
 20
2.8075379629
 30
0.0
 10
5.0277015976
 20
2.808076013
 30
0.0
 10
5.0335542406
 20
2.8086157069
 30
0.0
 10
5.0402029387
 20
2.8091566686
 30
0.0
 10
5.0476326914
 20
2.8096983238
 30
0.0
 10
5.0558263041
 20
2.8102406888
 30
0.0
 10
5.068221252
 20
2.8109932397
 30
0.0
 10
5.0854697704
 20
2.8119207734
 30
0.0
 10
5.1081597691
 20
2.8129995115
 30
0.0
 10
5.1333472163
 20
2.8140800846
 30
0.0
 10
5.1608010454
 20
2.8151623197
 30
0.0
 10
5.1902686889
 20
2.8162455593
 30
0.0
 10
5.2214793809
 20
2.817329566
 30
0.0
 10
5.2541463075
 20
2.8184141488
 30
0.0
 10
5.2879690245
 20
2.8194990796
 30
0.0
 10
5.3226368183
 20
2.8205843063
 30
0.0
 10
5.3578308001
 20
2.8216696568
 30
0.0
 10
5.3932276266
 20
2.8227550865
 30
0.0
 10
5.428501744
 20
2.8238404603
 30
0.0
 10
5.4633290605
 20
2.8249257321
 30
0.0
 10
5.4973892445
 20
2.8260107409
 30
0.0
 10
5.5303693631
 20
2.827095428
 30
0.0
 10
5.5619661403
 20
2.8281795928
 30
0.0
 10
5.5918891541
 20
2.8292630395
 30
0.0
 10
5.6198635021
 20
2.830345573
 30
0.0
 10
5.6456317784
 20
2.8314265748
 30
0.0
 10
5.6689575844
 20
2.8325059075
 30
0.0
 10
5.6867678197
 20
2.8334327917
 30
0.0
 10
5.6996353212
 20
2.834184071
 30
0.0
 10
5.7081986653
 20
2.8347266598
 30
0.0
 10
5.7160071656
 20
2.835268654
 30
0.0
 10
5.7230427911
 20
2.8358100243
 30
0.0
 10
5.7292895636
 20
2.8363504791
 30
0.0
 10
5.7339941829
 20
2.8368159582
 30
0.0
 10
5.7373520092
 20
2.8371930529
 30
0.0
 10
5.7395640594
 20
2.8374644868
 30
0.0
 10
5.7415692922
 20
2.8377356653
 30
0.0
 10
5.743366795
 20
2.8380065163
 30
0.0
 10
5.7449557096
 20
2.8382769313
 30
0.0
 10
5.7463353165
 20
2.8385466715
 30
0.0
 10
5.7475048349
 20
2.8388156119
 30
0.0
 10
5.7483452179
 20
2.8390496256
 30
0.0
 10
5.748909594
 20
2.8392409756
 30
0.0
 10
5.749256064
 20
2.8393762922
 30
0.0
 10
5.7495498783
 20
2.8395114249
 30
0.0
 10
5.7497913088
 20
2.8396464632
 30
0.0
 10
5.7499808612
 20
2.8397816681
 30
0.0
 10
5.7501191267
 20
2.8399180312
 30
0.0
 10
5.7502061102
 20
2.8400577542
 30
0.0
 10
5.7502270996
 20
2.8401573236
 30
0.0
 10
5.750227128
 20
2.8402036193
 30
0.0
 11
5.010514711
 21
2.805310307
 31
0.0
 11
5.0112623091
 21
2.805582911
 31
0.0
 11
5.0122219884
 21
2.805855515
 31
0.0
 11
5.013392961
 21
2.806128119
 31
0.0
 11
5.0147744389
 21
2.806400723
 31
0.0
 11
5.0163656339
 21
2.806673327
 31
0.0
 11
5.0181657582
 21
2.806945931
 31
0.0
 11
5.0223894507
 21
2.807491139
 31
0.0
 11
5.0274356431
 21
2.808036347
 31
0.0
 11
5.0332915738
 21
2.808581555
 31
0.0
 11
5.0399443866
 21
2.8091267631
 31
0.0
 11
5.0473797806
 21
2.8096719711
 31
0.0
 11
5.0555794046
 21
2.8102171791
 31
0.0
 11
5.0645242026
 21
2.8107623871
 31
0.0
 11
5.0845686068
 21
2.8118528031
 31
0.0
 11
5.1073268017
 21
2.8129432191
 31
0.0
 11
5.1325915488
 21
2.8140336351
 31
0.0
 11
5.1601290309
 21
2.8151240511
 31
0.0
 11
5.1896869311
 21
2.8162144671
 31
0.0
 11
5.2209934389
 21
2.8173048831
 31
0.0
 11
5.253760288
 21
2.8183952991
 31
0.0
 11
5.2876870415
 21
2.8194857151
 31
0.0
 11
5.3224610147
 21
2.8205761312
 31
0.0
 11
5.3577631607
 21
2.8216665472
 31
0.0
 11
5.3932685117
 21
2.8227569632
 31
0.0
 11
5.4286510344
 21
2.8238473792
 31
0.0
 11
5.4635850433
 21
2.8249377952
 31
0.0
 11
5.4977499636
 21
2.8260282112
 31
0.0
 11
5.5308310299
 21
2.8271186272
 31
0.0
 11
5.562524757
 21
2.8282090432
 31
0.0
 11
5.5925395188
 21
2.8292994592
 31
0.0
 11
5.6205990931
 21
2.8303898752
 31
0.0
 11
5.6464465376
 21
2.8314802913
 31
0.0
 11
5.669842585
 21
2.8325707073
 31
0.0
 11
5.6905741001
 21
2.8336611233
 31
0.0
 11
5.6998790357
 21
2.8342063313
 31
0.0
 11
5.7084487631
 21
2.8347515393
 31
0.0
 11
5.7162632407
 21
2.8352967473
 31
0.0
 11
5.7233033287
 21
2.8358419553
 31
0.0
 11
5.7295539618
 21
2.8363871633
 31
0.0
 11
5.7350012251
 21
2.8369323713
 31
0.0
 11
5.7374192447
 21
2.8372049753
 31
0.0
 11
5.7396313556
 21
2.8374775793
 31
0.0
 11
5.7416365112
 21
2.8377501833
 31
0.0
 11
5.743433785
 21
2.8380227873
 31
0.0
 11
5.7450222509
 21
2.8382953913
 31
0.0
 11
5.7464009826
 21
2.8385679953
 31
0.0
 11
5.7475690537
 21
2.8388405993
 31
0.0
 11
5.7485255385
 21
2.8391132033
 31
0.0
 11
5.7489241855
 21
2.8392495053
 31
0.0
 11
5.7492697264
 21
2.8393858073
 31
0.0
 11
5.7495621502
 21
2.8395221093
 31
0.0
 11
5.749801446
 21
2.8396584113
 31
0.0
 11
5.7499876026
 21
2.8397947133
 31
0.0
 11
5.7501206092
 21
2.8399310153
 31
0.0
 11
5.7502004547
 21
2.8400673173
 31
0.0
 11
5.750227128
 21
2.8402036193
 31
0.0
  0
SPLINE
  5
26B
100
AcDbEntity
  8
0
100
AcDbSpline
 62
6
  6
CONTINUOUS
 70
0
 71
3
 72
40
 73
36
 74
34
 42
0.0000001
 43
0.0000001
 44
0.0000000001
 12
0.0004127623
 22
0.4506767099
 32
0.0
 13
0.4504545001
 23
0.0141566414
 33
0.0
 40
0.0
 40
0.0
 40
0.0
 40
0.0
 40
0.0003611943
 40
0.0007876487
 40
0.0013209723
 40
0.0019828149
 40
0.0027843949
 40
0.0037319081
 40
0.0048290181
 40
0.0060780182
 40
0.0090369562
 40
0.0126159784
 40
0.016816472
 40
0.0216371694
 40
0.0270758298
 40
0.0331296466
 40
0.0397954604
 40
0.0470695563
 40
0.063418983
 40
0.0821268271
 40
0.1031397375
 40
0.1263937143
 40
0.1518144719
 40
0.1793264848
 40
0.2088442647
 40
0.2402739892
 40
0.3084808008
 40
0.3830978895
 40
0.4631991318
 40
0.5477881591
 40
0.6358135993
 40
0.7261770412
 40
0.8177493233
 40
0.909426499
 40
1.0
 40
1.0
 40
1.0
 40
1.0
 10
5.0095478919
 20
2.8937786207
 30
0.0
 10
5.0095479416
 20
2.8938328814
 30
0.0
 10
5.0095779515
 20
2.8939518785
 30
0.0
 10
5.0096974853
 20
2.894113933
 30
0.0
 10
5.0098848333
 20
2.8942716779
 30
0.0
 10
5.0101414834
 20
2.8944283872
 30
0.0
 10
5.010468408
 20
2.8945852022
 30
0.0
 10
5.0108663572
 20
2.8947422934
 30
0.0
 10
5.0113356163
 20
2.8948996965
 30
0.0
 10
5.0121009183
 20
2.8951226459
 30
0.0
 10
5.0132391633
 20
2.8953950841
 30
0.0
 10
5.0148219405
 20
2.8957080242
 30
0.0
 10
5.016688815
 20
2.8960219441
 30
0.0
 10
5.0188382448
 20
2.8963367082
 30
0.0
 10
5.0212686235
 20
2.8966520046
 30
0.0
 10
5.023978196
 20
2.8969676993
 30
0.0
 10
5.0269651436
 20
2.8972837025
 30
0.0
 10
5.0314942119
 20
2.8977225668
 30
0.0
 10
5.0378305499
 20
2.8982642504
 30
0.0
 10
5.0462303004
 20
2.898893404
 30
0.0
 10
5.0556697954
 20
2.8995235333
 30
0.0
 10
5.0661196888
 20
2.9001544865
 30
0.0
 10
5.0775474883
 20
2.9007861363
 30
0.0
 10
5.0899175672
 20
2.9014181769
 30
0.0
 10
5.1031914203
 20
2.9020505731
 30
0.0
 10
5.1225743296
 20
2.9029180262
 30
0.0
 10
5.1487297622
 20
2.9039913839
 30
0.0
 10
5.1821952434
 20
2.9052492419
 30
0.0
 10
5.2181233112
 20
2.9065084866
 30
0.0
 10
5.2560667775
 20
2.9077687995
 30
0.0
 10
5.2955526767
 20
2.909029816
 30
0.0
 10
5.3360881438
 20
2.9102912251
 30
0.0
 10
5.3771724461
 20
2.9115529273
 30
0.0
 10
5.4182883197
 20
2.9128146122
 30
0.0
 10
5.4456538637
 20
2.9136640759
 30
0.0
 10
5.4592536107
 20
2.9140914814
 30
0.0
 11
5.0095478919
 21
2.8937786207
 31
0.0
 11
5.0095841424
 21
2.893937315
 31
0.0
 11
5.0096925599
 21
2.8940960092
 31
0.0
 11
5.0098730798
 21
2.8942547034
 31
0.0
 11
5.0101256376
 21
2.8944133976
 31
0.0
 11
5.0104501684
 21
2.8945720919
 31
0.0
 11
5.0108466078
 21
2.8947307861
 31
0.0
 11
5.0113148911
 21
2.8948894803
 31
0.0
 11
5.0118549536
 21
2.8950481745
 31
0.0
 11
5.0131501576
 21
2.895365563
 31
0.0
 11
5.0147316055
 21
2.8956829514
 31
0.0
 11
5.0165978748
 21
2.8960003399
 31
0.0
 11
5.0187471434
 21
2.8963177283
 31
0.0
 11
5.0211775859
 21
2.8966351168
 31
0.0
 11
5.0238873773
 21
2.8969525052
 31
0.0
 11
5.0268746924
 21
2.8972698937
 31
0.0
 11
5.0301375591
 21
2.8975872821
 31
0.0
 11
5.0374784742
 21
2.898222059
 31
0.0
 11
5.0458857375
 21
2.8988568359
 31
0.0
 11
5.0553344723
 21
2.8994916128
 31
0.0
 11
5.0657952605
 21
2.9001263897
 31
0.0
 11
5.0772342095
 21
2.9007611666
 31
0.0
 11
5.0896169786
 21
2.9013959435
 31
0.0
 11
5.1029048067
 21
2.9020307205
 31
0.0
 11
5.1170552268
 21
2.9026654974
 31
0.0
 11
5.1477682332
 21
2.9039350506
 31
0.0
 11
5.1813724582
 21
2.9052046057
 31
0.0
 11
5.217449907
 21
2.9064741594
 31
0.0
 11
5.2555510825
 21
2.9077437056
 31
0.0
 11
5.2952017949
 21
2.9090132804
 31
0.0
 11
5.3359067175
 21
2.9102828259
 31
0.0
 11
5.3771567008
 21
2.9115522788
 31
0.0
 11
5.4184539665
 21
2.9128221554
 31
0.0
 11
5.4592536107
 21
2.9140914814
 31
0.0
  0
LINE
  5
26C
100
AcDbEntity
  8
0
100
AcDbLine
 62
6
  6
CONTINUOUS
 10
5.0100704469
 20
2.7336625017
 11
5.0109264858
 21
2.7340398824
  0
SPLINE
  5
26D
100
AcDbEntity
  8
0
100
AcDbSpline
 62
6
  6
CONTINUOUS
 70
0
 71
3
 72
63
 73
59
 74
57
 42
0.0000001
 43
0.0000001
 44
0.0000000001
 12
0.6978561129
 22
0.2484982838
 32
0.0
 13
0.000087932
 23
0.7407796863
 33
0.0
 40
0.0
 40
0.0
 40
0.0
 40
0.0
 40
0.0012267042
 40
0.0027261471
 40
0.0045005125
 40
0.0065506341
 40
0.0088766345
 40
0.0114782284
 40
0.0175055667
 40
0.0246222393
 40
0.0328124471
 40
0.0420595623
 40
0.0523448086
 40
0.0636437686
 40
0.0759308294
 40
0.1033608172
 40
0.1343847308
 40
0.1687241542
 40
0.2060651532
 40
0.2460698208
 40
0.2883740269
 40
0.3325926668
 40
0.3783243077
 40
0.4251518925
 40
0.4726501068
 40
0.5203861088
 40
0.5679259661
 40
0.6148364999
 40
0.660691628
 40
0.705073042
 40
0.747578141
 40
0.7878194359
 40
0.8254313321
 40
0.8600727301
 40
0.8914274684
 40
0.9192138897
 40
0.9316876662
 40
0.9431782556
 40
0.953660051
 40
0.9631080762
 40
0.9715024376
 40
0.9788264135
 40
0.9820819852
 40
0.9850640399
 40
0.9877712988
 40
0.990203138
 40
0.9923591665
 40
0.9942393294
 40
0.9958441409
 40
0.9971751581
 40
0.997739121
 40
0.9982363779
 40
0.9986683176
 40
0.9990370877
 40
0.9993461572
 40
0.9996014433
 40
0.9998134185
 40
1.0
 40
1.0
 40
1.0
 40
1.0
 10
5.0109264858
 20
2.7340398824
 30
0.0
 10
5.0112118401
 20
2.7341414937
 30
0.0
 10
5.0118564068
 20
2.7343378749
 30
0.0
 10
5.0129353483
 20
2.7346050989
 30
0.0
 10
5.0142225729
 20
2.7348733222
 30
0.0
 10
5.0157174169
 20
2.7351422827
 30
0.0
 10
5.0174192987
 20
2.7354117695
 30
0.0
 10
5.0200978293
 20
2.7357903932
 30
0.0
 10
5.0239583574
 20
2.7362549683
 30
0.0
 10
5.0291991486
 20
2.7367911425
 30
0.0
 10
5.0352384401
 20
2.7373287838
 30
0.0
 10
5.0420627284
 20
2.7378675512
 30
0.0
 10
5.0496567323
 20
2.7384069365
 30
0.0
 10
5.0580030399
 20
2.7389469661
 30
0.0
 10
5.0705780436
 20
2.7396953305
 30
0.0
 10
5.0880216433
 20
2.7406182776
 30
0.0
 10
5.1109096712
 20
2.7416924713
 30
0.0
 10
5.1362473336
 20
2.7427683859
 30
0.0
 10
5.1638043293
 20
2.7438458801
 30
0.0
 10
5.1933293973
 20
2.7449243138
 30
0.0
 10
5.2245537727
 20
2.7460034883
 30
0.0
 10
5.2571930737
 20
2.7470832015
 30
0.0
 10
5.2909498929
 20
2.7481632503
 30
0.0
 10
5.3255169196
 20
2.7492435767
 30
0.0
 10
5.3605791095
 20
2.7503240174
 30
0.0
 10
5.3958172588
 20
2.751404529
 30
0.0
 10
5.4309102279
 20
2.7524849788
 30
0.0
 10
5.465538541
 20
2.7535653234
 30
0.0
 10
5.4993865734
 20
2.7546453976
 30
0.0
 10
5.5321462293
 20
2.7557251592
 30
0.0
 10
5.5635189191
 20
2.7568043797
 30
0.0
 10
5.5932190255
 20
2.7578829096
 30
0.0
 10
5.6209760544
 20
2.7589604988
 30
0.0
 10
5.6465370524
 20
2.7600365888
 30
0.0
 10
5.6696696004
 20
2.7611110021
 30
0.0
 10
5.68732931
 20
2.7620336961
 30
0.0
 10
5.7000860923
 20
2.7627815719
 30
0.0
 10
5.7085746407
 20
2.7633216977
 30
0.0
 10
5.7163144494
 20
2.763861216
 30
0.0
 10
5.72328774
 20
2.7644000852
 30
0.0
 10
5.7294787548
 20
2.7649380905
 30
0.0
 10
5.7341411437
 20
2.7654014617
 30
0.0
 10
5.7374688067
 20
2.7657768266
 30
0.0
 10
5.7396609973
 20
2.766047003
 30
0.0
 10
5.7416481354
 20
2.7663169451
 30
0.0
 10
5.7434292936
 20
2.7665865618
 30
0.0
 10
5.74500369
 20
2.766855747
 30
0.0
 10
5.7463706867
 20
2.7671242638
 30
0.0
 10
5.7475295838
 20
2.7673919912
 30
0.0
 10
5.7483623857
 20
2.7676249346
 30
0.0
 10
5.7489217139
 20
2.7678153814
 30
0.0
 10
5.7492651015
 20
2.7679500822
 30
0.0
 10
5.7495562732
 20
2.7680846034
 30
0.0
 10
5.7497955053
 20
2.7682190353
 30
0.0
 10
5.7499833047
 20
2.768353641
 30
0.0
 10
5.7501202588
 20
2.7684894077
 30
0.0
 10
5.7502063492
 20
2.7686285079
 30
0.0
 10
5.7502270632
 20
2.7687275479
 30
0.0
 10
5.7502270687
 20
2.7687736199
 30
0.0
 11
5.0109264858
 21
2.7340398824
 31
0.0
 11
5.0117937417
 21
2.7343112398
 31
0.0
 11
5.0128708424
 21
2.7345825971
 31
0.0
 11
5.0141569408
 21
2.7348539544
 31
0.0
 11
5.0156511897
 21
2.7351253117
 31
0.0
 11
5.0173527419
 21
2.7353966691
 31
0.0
 11
5.0192607502
 21
2.7356680264
 31
0.0
 11
5.0236925736
 21
2.736210741
 31
0.0
 11
5.0289364508
 21
2.7367534557
 31
0.0
 11
5.0349792684
 21
2.7372961703
 31
0.0
 11
5.0418078107
 21
2.737838885
 31
0.0
 11
5.0494075587
 21
2.7383815996
 31
0.0
 11
5.0577599854
 21
2.7389243143
 31
0.0
 11
5.0668457962
 21
2.7394670289
 31
0.0
 11
5.0871363627
 21
2.7405524582
 31
0.0
 11
5.1100926012
 21
2.7416378875
 31
0.0
 11
5.1355073807
 21
2.7427233168
 31
0.0
 11
5.1631475302
 21
2.7438087461
 31
0.0
 11
5.1927622909
 21
2.7448941754
 31
0.0
 11
5.2240815845
 21
2.7459796047
 31
0.0
 11
5.2568198662
 21
2.747065034
 31
0.0
 11
5.2906795439
 21
2.7481504633
 31
0.0
 11
5.3253514818
 21
2.7492358926
 31
0.0
 11
5.3605204484
 21
2.7503213219
 31
0.0
 11
5.3958656467
 21
2.7514067511
 31
0.0
 11
5.4310654763
 21
2.7524921804
 31
0.0
 11
5.4657988912
 21
2.7535776097
 31
0.0
 11
5.4997500925
 21
2.754663039
 31
0.0
 11
5.5326090201
 21
2.7557484683
 31
0.0
 11
5.56407722
 21
2.7568338976
 31
0.0
 11
5.5938673863
 21
2.7579193269
 31
0.0
 11
5.6217083645
 21
2.7590047562
 31
0.0
 11
5.6473470427
 21
2.7600901855
 31
0.0
 11
5.6705486204
 21
2.7611756148
 31
0.0
 11
5.6911035983
 21
2.7622610441
 31
0.0
 11
5.7003279671
 21
2.7628037587
 31
0.0
 11
5.7088226433
 21
2.7633464734
 31
0.0
 11
5.7165683547
 21
2.763889188
 31
0.0
 11
5.7235461864
 21
2.7644319027
 31
0.0
 11
5.7297408306
 21
2.7649746173
 31
0.0
 11
5.7351390708
 21
2.765517332
 31
0.0
 11
5.7375354171
 21
2.7657886893
 31
0.0
 11
5.7397277327
 21
2.7660600466
 31
0.0
 11
5.7417147719
 21
2.766331404
 31
0.0
 11
5.7434956741
 21
2.7666027613
 31
0.0
 11
5.7450695954
 21
2.7668741186
 31
0.0
 11
5.7464356918
 21
2.7671454759
 31
0.0
 11
5.7475931194
 21
2.7674168332
 31
0.0
 11
5.7485410343
 21
2.7676881906
 31
0.0
 11
5.7489361608
 21
2.7678238692
 31
0.0
 11
5.7492786207
 21
2.7679595479
 31
0.0
 11
5.7495684024
 21
2.7680952266
 31
0.0
 11
5.749805504
 21
2.7682309052
 31
0.0
 11
5.7499899235
 21
2.7683665839
 31
0.0
 11
5.7501216588
 21
2.7685022625
 31
0.0
 11
5.7502007078
 21
2.7686379412
 31
0.0
 11
5.7502270687
 21
2.7687736199
 31
0.0
  0
SPLINE
  5
26E
100
AcDbEntity
  8
0
100
AcDbSpline
 62
6
  6
CONTINUOUS
 70
0
 71
3
 72
67
 73
63
 74
61
 42
0.0000001
 43
0.0000001
 44
0.0000000001
 12
-0.00085324
 22
0.7417158572
 32
0.0
 13
0.64218912
 23
0.3711283809
 33
0.0
 40
0.0
 40
0.0
 40
0.0
 40
0.0
 40
0.0001884108
 40
0.0004029918
 40
0.000662195
 40
0.0009766939
 40
0.0013524027
 40
0.0017927257
 40
0.0022997247
 40
0.0028747073
 40
0.0042316422
 40
0.0058678123
 40
0.0077851125
 40
0.0099844009
 40
0.0124658257
 40
0.015228461
 40
0.0182709291
 40
0.021591711
 40
0.0290616362
 40
0.0376244245
 40
0.04726115
 40
0.0579487268
 40
0.0696637139
 40
0.082380483
 40
0.0960681811
 40
0.1106950918
 40
0.1426329677
 40
0.1778959575
 40
0.2161591354
 40
0.2570657001
 40
0.3002361311
 40
0.3452694998
 40
0.391746387
 40
0.4392355482
 40
0.4872946598
 40
0.5354773613
 40
0.5833351202
 40
0.6304235309
 40
0.676303913
 40
0.7205506151
 40
0.7627517107
 40
0.8025150355
 40
0.8394721557
 40
0.8732781579
 40
0.9036220007
 40
0.9174051867
 40
0.930220778
 40
0.9420388766
 40
0.9528308908
 40
0.9625737762
 40
0.971246214
 40
0.9788274883
 40
0.985301967
 40
0.9881207866
 40
0.9906590447
 40
0.9929157774
 40
0.994890336
 40
0.996582996
 40
0.9979955924
 40
0.9991318209
 40
0.9995986547
 40
1.0
 40
1.0
 40
1.0
 40
1.0
 10
5.00954805
 20
2.822348619
 30
0.0
 10
5.0095479964
 20
2.8223952014
 30
0.0
 10
5.0095691327
 20
2.8224955037
 30
0.0
 10
5.0096571906
 20
2.8226361264
 30
0.0
 10
5.0097972687
 20
2.8227733034
 30
0.0
 10
5.0099893824
 20
2.8229093065
 30
0.0
 10
5.0102340962
 20
2.823045158
 30
0.0
 10
5.0105318741
 20
2.8231811148
 30
0.0
 10
5.0108829313
 20
2.8233172637
 30
0.0
 10
5.0114545322
 20
2.8235097776
 30
0.0
 10
5.0123052855
 20
2.8237452702
 30
0.0
 10
5.0134890049
 20
2.8240159244
 30
0.0
 10
5.014885377
 20
2.8242873718
 30
0.0
 10
5.0164939229
 20
2.824559485
 30
0.0
 10
5.0183140088
 20
2.8248319917
 30
0.0
 10
5.0203445726
 20
2.8251048313
 30
0.0
 10
5.0225843022
 20
2.8253779407
 30
0.0
 10
5.0259833315
 20
2.8257573959
 30
0.0
 10
5.0307454749
 20
2.8262258717
 30
0.0
 10
5.0370687225
 20
2.8267696418
 30
0.0
 10
5.0441900208
 20
2.8273142923
 30
0.0
 10
5.0520926289
 20
2.8278597614
 30
0.0
 10
5.0607583501
 20
2.8284057428
 30
0.0
 10
5.0701671422
 20
2.8289520413
 30
0.0
 10
5.0802969736
 20
2.8294987138
 30
0.0
 10
5.0951747837
 20
2.830250156
 30
0.0
 10
5.1153844975
 20
2.8311801064
 30
0.0
 10
5.1414366434
 20
2.832268069
 30
0.0
 10
5.16970792
 20
2.8333572172
 30
0.0
 10
5.1999355237
 20
2.8344474345
 30
0.0
 10
5.2318379808
 20
2.8355383355
 30
0.0
 10
5.265118387
 20
2.8366297273
 30
0.0
 10
5.299467091
 20
2.8377214985
 30
0.0
 10
5.3345642371
 20
2.8388134669
 30
0.0
 10
5.3700833226
 20
2.8399055824
 30
0.0
 10
5.4056935823
 20
2.8409977027
 30
0.0
 10
5.4410637356
 20
2.8420897768
 30
0.0
 10
5.4758643985
 20
2.8431816554
 30
0.0
 10
5.5097718282
 20
2.8442732856
 30
0.0
 10
5.5424702942
 20
2.8453644753
 30
0.0
 10
5.5736555318
 20
2.8464550804
 30
0.0
 10
5.6030373711
 20
2.8475449072
 30
0.0
 10
5.6303421532
 20
2.8486334755
 30
0.0
 10
5.6553161262
 20
2.8497206616
 30
0.0
 10
5.6745618064
 20
2.850651795
 30
0.0
 10
5.6886200918
 20
2.8514051174
 30
0.0
 10
5.6981025347
 20
2.8519515156
 30
0.0
 10
5.7068441515
 20
2.8524974607
 30
0.0
 10
5.7148245005
 20
2.8530429897
 30
0.0
 10
5.7220251788
 20
2.853587833
 30
0.0
 10
5.7284296305
 20
2.8541315698
 30
0.0
 10
5.7340228143
 20
2.854674123
 30
0.0
 10
5.7381686863
 20
2.8551435331
 30
0.0
 10
5.7410689685
 20
2.8555252943
 30
0.0
 10
5.7429316313
 20
2.8557979149
 30
0.0
 10
5.7445831726
 20
2.8560700692
 30
0.0
 10
5.7460225519
 20
2.8563416718
 30
0.0
 10
5.7472492789
 20
2.8566124026
 30
0.0
 10
5.7482629672
 20
2.8568820839
 30
0.0
 10
5.7489713323
 20
2.8571180047
 30
0.0
 10
5.7494274933
 20
2.8573122912
 30
0.0
 10
5.749618908
 20
2.8574100862
 30
0.0
 10
5.7497048212
 20
2.8574597364
 30
0.0
 11
5.00954805
 21
2.822348619
 31
0.0
 11
5.0095748539
 21
2.8224857718
 31
0.0
 11
5.0096556031
 21
2.8226229246
 31
0.0
 11
5.0097903294
 21
2.8227600774
 31
0.0
 11
5.0099790184
 21
2.8228972302
 31
0.0
 11
5.0102215998
 21
2.823034383
 31
0.0
 11
5.0105180003
 21
2.8231715358
 31
0.0
 11
5.0108681464
 21
2.8233086886
 31
0.0
 11
5.0112719646
 21
2.8234458414
 31
0.0
 11
5.012240324
 21
2.823720147
 31
0.0
 11
5.0134224908
 21
2.8239944526
 31
0.0
 11
5.0148178778
 21
2.8242687582
 31
0.0
 11
5.0164258974
 21
2.8245430638
 31
0.0
 11
5.018245855
 21
2.8248173694
 31
0.0
 11
5.0202765035
 21
2.825091675
 31
0.0
 11
5.0225164183
 21
2.8253659806
 31
0.0
 11
5.0249641745
 21
2.8256402862
 31
0.0
 11
5.0304775123
 21
2.8261888974
 31
0.0
 11
5.0368049335
 21
2.8267375086
 31
0.0
 11
5.0439315654
 21
2.8272861198
 31
0.0
 11
5.0518397093
 21
2.8278347311
 31
0.0
 11
5.0605115706
 21
2.8283833423
 31
0.0
 11
5.0699278381
 21
2.8289319535
 31
0.0
 11
5.0800653939
 21
2.8294805647
 31
0.0
 11
5.0909005327
 21
2.8300291759
 31
0.0
 11
5.1145639531
 21
2.8311263983
 31
0.0
 11
5.1406960645
 21
2.8322236207
 31
0.0
 11
5.1690552711
 21
2.8333208432
 31
0.0
 11
5.199376493
 21
2.8344180656
 31
0.0
 11
5.2313779029
 21
2.835515288
 31
0.0
 11
5.2647618625
 21
2.8366125104
 31
0.0
 11
5.2992170634
 21
2.8377097328
 31
0.0
 11
5.3344234571
 21
2.8388069553
 31
0.0
 11
5.3700527951
 21
2.8399041777
 31
0.0
 11
5.4057738451
 21
2.8410014001
 31
0.0
 11
5.4412537654
 21
2.8420986225
 31
0.0
 11
5.4761627704
 21
2.8431958449
 31
0.0
 11
5.5101753066
 21
2.8442930674
 31
0.0
 11
5.542975462
 21
2.8453902898
 31
0.0
 11
5.5742574677
 21
2.8464875122
 31
0.0
 11
5.6037301589
 21
2.8475847346
 31
0.0
 11
5.6311198908
 21
2.848681957
 31
0.0
 11
5.6561703373
 21
2.8497791795
 31
0.0
 11
5.6786501002
 21
2.8508764019
 31
0.0
 11
5.6888585838
 21
2.8514250131
 31
0.0
 11
5.6983482727
 21
2.8519736243
 31
0.0
 11
5.707096765
 21
2.8525222355
 31
0.0
 11
5.7150825562
 21
2.8530708467
 31
0.0
 11
5.722288159
 21
2.8536194579
 31
0.0
 11
5.7286972104
 21
2.8541680691
 31
0.0
 11
5.7342935394
 21
2.8547166803
 31
0.0
 11
5.7390643263
 21
2.8552652916
 31
0.0
 11
5.7411370184
 21
2.8555395972
 31
0.0
 11
5.7429995956
 21
2.8558139028
 31
0.0
 11
5.744650822
 21
2.8560882084
 31
0.0
 11
5.746089467
 21
2.856362514
 31
0.0
 11
5.7473146079
 21
2.8566368196
 31
0.0
 11
5.7483258091
 21
2.8569111252
 31
0.0
 11
5.7491226777
 21
2.8571854308
 31
0.0
 11
5.7494406147
 21
2.8573225836
 31
0.0
 11
5.7497048212
 21
2.8574597364
 31
0.0
  0
LINE
  5
26F
100
AcDbEntity
  8
0
100
AcDbLine
 62
6
  6
CONTINUOUS
 10
5.7884142781
 20
2.889860152
 11
5.7874614939
 21
2.8902629547
  0
LINE
  5
270
100
AcDbEntity
  8
0
100
AcDbLine
 62
6
  6
CONTINUOUS
 10
5.7884142169
 20
2.879837088
 11
5.7872951993
 21
2.8793804137
  0
SPLINE
  5
271
100
AcDbEntity
  8
0
100
AcDbSpline
 62
6
  6
CONTINUOUS
 70
0
 71
3
 72
62
 73
58
 74
56
 42
0.0000001
 43
0.0000001
 44
0.0000000001
 12
-0.779827132
 22
-0.2458644548
 32
0.0
 13
-0.2188139468
 23
-0.7878452529
 33
0.0
 40
0.0
 40
0.0
 40
0.0
 40
0.0
 40
0.0012355522
 40
0.0027442713
 40
0.0045276566
 40
0.006586145
 40
0.0089196122
 40
0.0115276111
 40
0.0175640805
 40
0.0246842341
 40
0.0328722243
 40
0.0421115561
 40
0.0523829404
 40
0.0636620261
 40
0.0759237655
 40
0.1032866423
 40
0.1342232466
 40
0.1684567861
 40
0.2056772551
 40
0.2455483957
 40
0.287710819
 40
0.331782069
 40
0.3773648544
 40
0.4240461177
 40
0.4714041235
 40
0.5190103429
 40
0.5664343632
 40
0.613247053
 40
0.6590251723
 40
0.7033549229
 40
0.7458347502
 40
0.7860819044
 40
0.8237309731
 40
0.8584433641
 40
0.8899050232
 40
0.9043271036
 40
0.9178319505
 40
0.9303906551
 40
0.941974687
 40
0.9525567582
 40
0.9621147939
 40
0.9706282887
 40
0.9780772955
 40
0.9844467122
 40
0.9872231856
 40
0.9897258395
 40
0.9919536218
 40
0.993905737
 40
0.9955822464
 40
0.9969844628
 40
0.9975835534
 40
0.9981153031
 40
0.9985805633
 40
0.9989806459
 40
0.9993176677
 40
0.9995952436
 40
1.0
 40
1.0
 40
1.0
 40
1.0
 10
5.7872951993
 20
2.8793804137
 30
0.0
 10
5.786974027
 20
2.8792791543
 30
0.0
 10
5.7862515052
 20
2.8790835098
 30
0.0
 10
5.7850463403
 20
2.8788171287
 30
0.0
 10
5.7836125021
 20
2.8785497423
 30
0.0
 10
5.7819507567
 20
2.8782816143
 30
0.0
 10
5.7800617969
 20
2.8780129641
 30
0.0
 10
5.7770934993
 20
2.8776356474
 30
0.0
 10
5.772821453
 20
2.8771725992
 30
0.0
 10
5.7670283218
 20
2.8766380515
 30
0.0
 10
5.7603591437
 20
2.8761020605
 30
0.0
 10
5.7528287555
 20
2.8755649848
 30
0.0
 10
5.7444540061
 20
2.8750272781
 30
0.0
 10
5.7352539923
 20
2.8744889251
 30
0.0
 10
5.7213999215
 20
2.87374302
 30
0.0
 10
5.7021899157
 20
2.8728230069
 30
0.0
 10
5.6769921774
 20
2.8717521691
 30
0.0
 10
5.6491055878
 20
2.8706795792
 30
0.0
 10
5.6187822625
 20
2.8696054868
 30
0.0
 10
5.5862966535
 20
2.8685303998
 30
0.0
 10
5.5519428887
 20
2.8674546291
 30
0.0
 10
5.5160316747
 20
2.8663782935
 30
0.0
 10
5.4788883034
 20
2.8653016325
 30
0.0
 10
5.4408487506
 20
2.8642247008
 30
0.0
 10
5.4022574862
 20
2.8631476414
 30
0.0
 10
5.3634637029
 20
2.862070523
 30
0.0
 10
5.3248186045
 20
2.8609934487
 30
0.0
 10
5.2866719567
 20
2.8599164972
 30
0.0
 10
5.2493690048
 20
2.8588397694
 30
0.0
 10
5.213247493
 20
2.8577634073
 30
0.0
 10
5.1786341563
 20
2.856687496
 30
0.0
 10
5.1458425744
 20
2.8556123246
 30
0.0
 10
5.1151692217
 20
2.8545380626
 30
0.0
 10
5.086891938
 20
2.8534650964
 30
0.0
 10
5.0649440666
 20
2.85254798
 30
0.0
 10
5.0487743045
 20
2.8518072151
 30
0.0
 10
5.0377528722
 20
2.8512680526
 30
0.0
 10
5.0275059366
 20
2.8507292381
 30
0.0
 10
5.0180567816
 20
2.8501908274
 30
0.0
 10
5.0094268886
 20
2.8496528187
 30
0.0
 10
5.0016356253
 20
2.8491154796
 30
0.0
 10
4.9947004472
 20
2.8485792302
 30
0.0
 10
4.9886371886
 20
2.8480441645
 30
0.0
 10
4.9841376151
 20
2.847581374
 30
0.0
 10
4.9809850492
 20
2.8472050591
 30
0.0
 10
4.9789566679
 20
2.8469361904
 30
0.0
 10
4.9771550991
 20
2.8466677286
 30
0.0
 10
4.9755813811
 20
2.8463998191
 30
0.0
 10
4.9742363063
 20
2.8461325589
 30
0.0
 10
4.973260709
 20
2.8459004148
 30
0.0
 10
4.9725966759
 20
2.8457109795
 30
0.0
 10
4.9721828155
 20
2.8455766572
 30
0.0
 10
4.9718261712
 20
2.8454424628
 30
0.0
 10
4.9715269958
 20
2.845308796
 30
0.0
 10
4.9712837531
 20
2.8451744324
 30
0.0
 10
4.971059621
 20
2.8450139773
 30
0.0
 10
4.9709294524
 20
2.8448627127
 30
0.0
 10
4.9708999303
 20
2.8447564176
 30
0.0
 11
5.7872951993
 21
2.8793804137
 31
0.0
 11
5.7863218152
 21
2.8791099144
 31
0.0
 11
5.7851182067
 21
2.8788394151
 31
0.0
 11
5.7836852994
 21
2.8785689158
 31
0.0
 11
5.782024019
 21
2.8782984165
 31
0.0
 11
5.7801352912
 21
2.8780279172
 31
0.0
 11
5.7780200416
 21
2.877757418
 31
0.0
 11
5.7731139566
 21
2.8772164194
 31
0.0
 11
5.7673172309
 21
2.8766754208
 31
0.0
 11
5.7606440733
 21
2.8761344222
 31
0.0
 11
5.7531087702
 21
2.8755934236
 31
0.0
 11
5.7447276384
 21
2.875052425
 31
0.0
 11
5.735520981
 21
2.8745114264
 31
0.0
 11
5.7255095652
 21
2.8739704278
 31
0.0
 11
5.7031620158
 21
2.8728884307
 31
0.0
 11
5.6778893197
 21
2.8718064334
 31
0.0
 11
5.6499185962
 21
2.8707244362
 31
0.0
 11
5.6195038786
 21
2.869642439
 31
0.0
 11
5.5869205138
 21
2.8685604417
 31
0.0
 11
5.5524626658
 21
2.8674784445
 31
0.0
 11
5.5164432968
 21
2.8663964473
 31
0.0
 11
5.4791874559
 21
2.8653144502
 31
0.0
 11
5.4410330558
 21
2.864232453
 31
0.0
 11
5.4023250862
 21
2.8631504558
 31
0.0
 11
5.3634140817
 21
2.8620684586
 31
0.0
 11
5.3246521131
 21
2.8609864614
 31
0.0
 11
5.2863902068
 21
2.8599044642
 31
0.0
 11
5.2489745807
 21
2.8588224671
 31
0.0
 11
5.2127437494
 21
2.8577404699
 31
0.0
 11
5.1780262436
 21
2.8566584726
 31
0.0
 11
5.145135257
 21
2.8555764756
 31
0.0
 11
5.1143698682
 21
2.8544944789
 31
0.0
 11
5.0860073149
 21
2.8534124806
 31
0.0
 11
5.0603049119
 21
2.8523304828
 31
0.0
 11
5.0485248655
 21
2.8517894868
 31
0.0
 11
5.037495655
 21
2.8512484922
 31
0.0
 11
5.0272410747
 21
2.8507074947
 31
0.0
 11
5.0177846543
 21
2.8501664903
 31
0.0
 11
5.0091489718
 21
2.8496254776
 31
0.0
 11
5.0013524273
 21
2.8490844689
 31
0.0
 11
4.9944122749
 21
2.8485434805
 31
0.0
 11
4.9883455362
 21
2.8480025257
 31
0.0
 11
4.9831656426
 21
2.8474615773
 31
0.0
 11
4.9809115828
 21
2.8471910871
 31
0.0
 11
4.9788832034
 21
2.8469205762
 31
0.0
 11
4.9770818209
 21
2.8466500371
 31
0.0
 11
4.9755087404
 21
2.8463794629
 31
0.0
 11
4.9741648873
 21
2.8461088618
 31
0.0
 11
4.9730507312
 21
2.8458382608
 31
0.0
 11
4.9725799279
 21
2.8457029691
 31
0.0
 11
4.9721667148
 21
2.8455676879
 31
0.0
 11
4.9718111473
 21
2.8454324207
 31
0.0
 11
4.9715132807
 21
2.845297171
 31
0.0
 11
4.9712731704
 21
2.8451619424
 31
0.0
 11
4.9710908717
 21
2.8450267383
 31
0.0
 11
4.9708999303
 21
2.8447564176
 31
0.0
  0
SPLINE
  5
272
100
AcDbEntity
  8
0
100
AcDbSpline
 62
6
  6
CONTINUOUS
 70
0
 71
3
 72
9
 73
5
 74
3
 42
0.0000001
 43
0.0000001
 44
0.0000000001
 12
-0.0000236638
 22
-0.0000852023
 32
0.0
 13
0.0
 23
-0.0000884274
 33
0.0
 40
0.0
 40
0.0
 40
0.0
 40
0.0
 40
0.2544097467
 40
1.0
 40
1.0
 40
1.0
 40
1.0
 10
4.9708999303
 20
2.8447564176
 30
0.0
 10
4.9708979235
 20
2.8447491922
 30
0.0
 10
4.9708909385
 20
2.8447205503
 30
0.0
 10
4.9708877859
 20
2.8446909583
 30
0.0
 10
4.9708877859
 20
2.8446689814
 30
0.0
 11
4.9708999303
 21
2.8447564176
 31
0.0
 11
4.9708946175
 21
2.8447345571
 31
0.0
 11
4.9708877859
 21
2.8446689814
 31
0.0
  0
SPLINE
  5
273
100
AcDbEntity
  8
0
100
AcDbSpline
 62
6
  6
CONTINUOUS
 70
0
 71
3
 72
63
 73
59
 74
57
 42
0.0000001
 43
0.0000001
 44
0.0000000001
 12
-0.0000597728
 22
0.7399372977
 32
0.0
 13
0.7119399737
 23
0.2016151831
 33
0.0
 40
0.0
 40
0.0
 40
0.0
 40
0.0
 40
0.000185375
 40
0.0003956392
 40
0.0006484397
 40
0.0009541452
 40
0.0013186381
 40
0.0017453776
 40
0.0022365096
 40
0.0027933959
 40
0.0041073487
 40
0.0056912616
 40
0.0075467541
 40
0.0096744047
 40
0.0120742231
 40
0.0147458833
 40
0.0176887874
 40
0.020901575
 40
0.0281293918
 40
0.0364140808
 40
0.0457396049
 40
0.056086304
 40
0.0674299388
 40
0.0797458185
 40
0.1071862632
 40
0.1381606803
 40
0.1723947713
 40
0.2095809186
 40
0.2493865108
 40
0.2914554463
 40
0.3354095966
 40
0.3808561491
 40
0.4273865071
 40
0.4745841906
 40
0.5220254053
 40
0.5692851417
 40
0.6159390225
 40
0.6615694042
 40
0.7057662886
 40
0.7481341383
 40
0.7882929813
 40
0.8258824641
 40
0.8605673824
 40
0.8920352019
 40
0.9200074143
 40
0.9326021265
 40
0.944232654
 40
0.9548729345
 40
0.9644980775
 40
0.9730886132
 40
0.9806270198
 40
0.9870964387
 40
0.9899262459
 40
0.9924849018
 40
0.9947717585
 40
0.9967864233
 40
0.9985289198
 40
1.0
 40
1.0
 40
1.0
 40
1.0
 10
5.0095484918
 20
2.7509186198
 30
0.0
 10
5.0095484881
 20
2.7509643418
 30
0.0
 10
5.0095688365
 20
2.7510625484
 30
0.0
 10
5.0096536016
 20
2.7512006463
 30
0.0
 10
5.0097885537
 20
2.75133546
 30
0.0
 10
5.0099736343
 20
2.7514691115
 30
0.0
 10
5.0102094143
 20
2.7516025796
 30
0.0
 10
5.0104963919
 20
2.7517361297
 30
0.0
 10
5.0108348369
 20
2.7518698497
 30
0.0
 10
5.0113860459
 20
2.7520588917
 30
0.0
 10
5.0122067628
 20
2.7522901416
 30
0.0
 10
5.013348864
 20
2.7525559266
 30
0.0
 10
5.014696041
 20
2.7528224916
 30
0.0
 10
5.0162476425
 20
2.7530897168
 30
0.0
 10
5.0180030781
 20
2.7533573689
 30
0.0
 10
5.0199616053
 20
2.7536253416
 30
0.0
 10
5.0221222997
 20
2.7538935405
 30
0.0
 10
5.025402233
 20
2.7542661723
 30
0.0
 10
5.0299979794
 20
2.7547261763
 30
0.0
 10
5.0361009532
 20
2.7552602657
 30
0.0
 10
5.0429757148
 20
2.7557951931
 30
0.0
 10
5.0506069293
 20
2.7563307822
 30
0.0
 10
5.0589773047
 20
2.7568669753
 30
0.0
 10
5.0715590469
 20
2.7576094479
 30
0.0
 10
5.0889805865
 20
2.7585254928
 30
0.0
 10
5.1118072346
 20
2.7595920902
 30
0.0
 10
5.1370399033
 20
2.7606603657
 30
0.0
 10
5.1644524547
 20
2.7617301174
 30
0.0
 10
5.1937987645
 20
2.7628008185
 30
0.0
 10
5.2248153914
 20
2.7638721983
 30
0.0
 10
5.2572241073
 20
2.7649441254
 30
0.0
 10
5.2907337821
 20
2.7660163648
 30
0.0
 10
5.3250438494
 20
2.7670888793
 30
0.0
 10
5.3598461237
 20
2.7681615059
 30
0.0
 10
5.3948283784
 20
2.7692342023
 30
0.0
 10
5.4296764454
 20
2.7703068417
 30
0.0
 10
5.4640776682
 20
2.7713793805
 30
0.0
 10
5.4977230866
 20
2.7724516674
 30
0.0
 10
5.5303108335
 20
2.7735236432
 30
0.0
 10
5.5615483096
 20
2.7745951259
 30
0.0
 10
5.5911551208
 20
2.7756659212
 30
0.0
 10
5.6188656904
 20
2.7767358581
 30
0.0
 10
5.644431011
 20
2.7778043492
 30
0.0
 10
5.6676220783
 20
2.778871278
 30
0.0
 10
5.6853656875
 20
2.7797869423
 30
0.0
 10
5.6982186196
 20
2.7805287204
 30
0.0
 10
5.7068013519
 20
2.7810650197
 30
0.0
 10
5.7146501438
 20
2.7816007617
 30
0.0
 10
5.7217472623
 20
2.7821359848
 30
0.0
 10
5.7280770044
 20
2.782670272
 30
0.0
 10
5.7336253816
 20
2.7832033313
 30
0.0
 10
5.7377529622
 20
2.7836640584
 30
0.0
 10
5.7406536621
 20
2.7840384906
 30
0.0
 10
5.7425277739
 20
2.7843063552
 30
0.0
 10
5.7441986264
 20
2.7845738343
 30
0.0
 10
5.7456654212
 20
2.7848407984
 30
0.0
 10
5.7469273305
 20
2.7851070667
 30
0.0
 10
5.7476964709
 20
2.7853000117
 30
0.0
 10
5.7480455778
 20
2.7853988757
 30
0.0
 11
5.0095484918
 21
2.7509186198
 31
0.0
 11
5.0095744433
 21
2.7510533084
 31
0.0
 11
5.0096523205
 21
2.7511879969
 31
0.0
 11
5.0097821247
 21
2.7513226854
 31
0.0
 11
5.0099638574
 21
2.7514573739
 31
0.0
 11
5.0101975198
 21
2.7515920624
 31
0.0
 11
5.0104831133
 21
2.751726751
 31
0.0
 11
5.010820639
 21
2.7518614395
 31
0.0
 11
5.0112100658
 21
2.751996128
 31
0.0
 11
5.0121442456
 21
2.752265505
 31
0.0
 11
5.0132848644
 21
2.752534882
 31
0.0
 11
5.0146311268
 21
2.752804259
 31
0.0
 11
5.0161822376
 21
2.753073636
 31
0.0
 11
5.0179374015
 21
2.753343013
 31
0.0
 11
5.0198958233
 21
2.75361239
 31
0.0
 11
5.0220566618
 21
2.7538817669
 31
0.0
 11
5.0244186118
 21
2.7541511439
 31
0.0
 11
5.0297395377
 21
2.7546898979
 31
0.0
 11
5.0358459677
 21
2.7552286519
 31
0.0
 11
5.0427252066
 21
2.7557674059
 31
0.0
 11
5.0503621353
 21
2.7563061599
 31
0.0
 11
5.0587384057
 21
2.7568449139
 31
0.0
 11
5.0678354451
 21
2.7573836679
 31
0.0
 11
5.0881110427
 21
2.7584611759
 31
0.0
 11
5.1110048266
 21
2.7595386839
 31
0.0
 11
5.1363129802
 21
2.7606161919
 31
0.0
 11
5.1638072918
 21
2.7616936999
 31
0.0
 11
5.1932412182
 21
2.7627712079
 31
0.0
 11
5.2243509383
 21
2.7638487159
 31
0.0
 11
5.2568563996
 21
2.7649262239
 31
0.0
 11
5.2904667315
 21
2.7660037318
 31
0.0
 11
5.324879414
 21
2.7670812398
 31
0.0
 11
5.3597861141
 21
2.7681587478
 31
0.0
 11
5.3948730974
 21
2.7692362558
 31
0.0
 11
5.4298257346
 21
2.7703137638
 31
0.0
 11
5.4643298608
 21
2.7713912718
 31
0.0
 11
5.4980762845
 21
2.7724687798
 31
0.0
 11
5.530761452
 21
2.7735462878
 31
0.0
 11
5.5620924815
 21
2.7746237958
 31
0.0
 11
5.5917879649
 21
2.7757013038
 31
0.0
 11
5.6195809462
 21
2.7767788118
 31
0.0
 11
5.6452229819
 21
2.7778563198
 31
0.0
 11
5.6684822504
 21
2.7789338277
 31
0.0
 11
5.6891518675
 21
2.7800113357
 31
0.0
 11
5.6984555789
 21
2.7805500897
 31
0.0
 11
5.7070445596
 21
2.7810888437
 31
0.0
 11
5.7148992451
 21
2.7816275977
 31
0.0
 11
5.7220008409
 21
2.7821663517
 31
0.0
 11
5.7283344259
 21
2.7827051057
 31
0.0
 11
5.733886295
 21
2.7832438597
 31
0.0
 11
5.7386428455
 21
2.7837826137
 31
0.0
 11
5.7407193254
 21
2.7840519907
 31
0.0
 11
5.7425933084
 21
2.7843213677
 31
0.0
 11
5.7442638598
 21
2.7845907447
 31
0.0
 11
5.745730045
 21
2.7848601217
 31
0.0
 11
5.7469909292
 21
2.7851294987
 31
0.0
 11
5.7480455778
 21
2.7853988757
 31
0.0
  0
LINE
  5
274
100
AcDbEntity
  8
0
100
AcDbLine
 62
6
  6
CONTINUOUS
 10
5.7480455778
 20
2.7853988757
 11
5.7497048601
 21
2.7860297381
  0
LINE
  5
275
100
AcDbEntity
  8
0
100
AcDbLine
 62
6
  6
CONTINUOUS
 10
5.7875147789
 20
2.6740914814
 11
5.7887501436
 21
2.6747294969
  0
LINE
  5
276
100
AcDbEntity
  8
0
100
AcDbLine
 62
6
  6
CONTINUOUS
 10
5.7887501436
 20
2.6747294969
 11
5.7888864235
 21
2.6750231396
  0
SPLINE
  5
277
100
AcDbEntity
  8
0
100
AcDbSpline
 62
6
  6
CONTINUOUS
 70
0
 71
3
 72
9
 73
5
 74
3
 42
0.0000001
 43
0.0000001
 44
0.0000000001
 12
0.0
 22
0.0000887201
 32
0.0
 13
0.0000238076
 23
0.0000854661
 33
0.0
 40
0.0
 40
0.0
 40
0.0
 40
0.0
 40
0.745565415
 40
1.0
 40
1.0
 40
1.0
 40
1.0
 10
4.9708877859
 20
2.7018089814
 30
0.0
 10
4.9708877859
 20
2.7018310303
 30
0.0
 10
4.9708909587
 20
2.7018607209
 30
0.0
 10
4.9708979866
 20
2.7018894527
 30
0.0
 10
4.9709000058
 20
2.7018967012
 30
0.0
 11
4.9708877859
 21
2.7018089814
 31
0.0
 11
4.9708946599
 21
2.7018747699
 31
0.0
 11
4.9709000058
 21
2.7018967012
 31
0.0
  0
SPLINE
  5
278
100
AcDbEntity
  8
0
100
AcDbSpline
 62
6
  6
CONTINUOUS
 70
0
 71
3
 72
67
 73
63
 74
61
 42
0.0000001
 43
0.0000001
 44
0.0000000001
 12
0.2197415253
 22
0.788842868
 32
0.0
 13
0.7091820763
 23
0.4094144491
 33
0.0
 40
0.0
 40
0.0
 40
0.0
 40
0.0
 40
0.0004107331
 40
0.0006935422
 40
0.0010374732
 40
0.0014461857
 40
0.0019218155
 40
0.0024656838
 40
0.0030786467
 40
0.0045138775
 40
0.0062304356
 40
0.0082295548
 40
0.0105110725
 40
0.0130741697
 40
0.0159177847
 40
0.0224415414
 40
0.0300712163
 40
0.0387898161
 40
0.048576841
 40
0.0594113815
 40
0.0712690726
 40
0.0841213023
 40
0.0979391117
 40
0.1126916501
 40
0.1448585577
 40
0.1803262483
 40
0.2187639024
 40
0.2598158304
 40
0.303100331
 40
0.3482158158
 40
0.3947452322
 40
0.4422561395
 40
0.4903077411
 40
0.5384530983
 40
0.5862448308
 40
0.6332386198
 40
0.6789986065
 40
0.7231007779
 40
0.7651350286
 40
0.804712715
 40
0.8414660262
 40
0.875053833
 40
0.890562749
 40
0.9051664153
 40
0.9188300823
 40
0.9315236551
 40
0.9432179357
 40
0.9538846125
 40
0.9635005238
 40
0.9720446359
 40
0.9794964619
 40
0.9858404017
 40
0.9885935002
 40
0.9910656985
 40
0.9932559807
 40
0.9951636401
 40
0.9967889774
 40
0.998133665
 40
0.9987018304
 40
0.999201412
 40
0.9996335379
 40
1.0
 40
1.0
 40
1.0
 40
1.0
 10
4.9709000058
 20
2.7018967012
 30
0.0
 10
4.9709300908
 20
2.7020047025
 30
0.0
 10
4.9710636854
 20
2.7021580383
 30
0.0
 10
4.9712929249
 20
2.7023203292
 30
0.0
 10
4.9715421995
 20
2.7024564432
 30
0.0
 10
4.9718488582
 20
2.7025918446
 30
0.0
 10
4.972214523
 20
2.7027277948
 30
0.0
 10
4.9726389198
 20
2.7028638759
 30
0.0
 10
4.9733200452
 20
2.7030558214
 30
0.0
 10
4.9743208312
 20
2.7032910153
 30
0.0
 10
4.975700692
 20
2.703561762
 30
0.0
 10
4.9773151907
 20
2.7038331585
 30
0.0
 10
4.9791634377
 20
2.7041051439
 30
0.0
 10
4.9812443278
 20
2.7043775428
 30
0.0
 10
4.9844785294
 20
2.7047588133
 30
0.0
 10
4.9890945489
 20
2.7052276986
 30
0.0
 10
4.9953142267
 20
2.7057697735
 30
0.0
 10
5.0024274801
 20
2.7063131162
 30
0.0
 10
5.0104176817
 20
2.7068575509
 30
0.0
 10
5.0192664667
 20
2.7074025987
 30
0.0
 10
5.0289533353
 20
2.7079480941
 30
0.0
 10
5.0394556726
 20
2.7084940175
 30
0.0
 10
5.0507491552
 20
2.7090402558
 30
0.0
 10
5.0673109649
 20
2.709790624
 30
0.0
 10
5.0897801589
 20
2.7107196965
 30
0.0
 10
5.1187131649
 20
2.7118067098
 30
0.0
 10
5.1500729375
 20
2.7128950685
 30
0.0
 10
5.1835675365
 20
2.7139843581
 30
0.0
 10
5.2188857951
 20
2.7150743231
 30
0.0
 10
5.2556998458
 20
2.7161647962
 30
0.0
 10
5.29366801
 20
2.7172555927
 30
0.0
 10
5.3324379281
 20
2.7183466484
 30
0.0
 10
5.3716491003
 20
2.7194378161
 30
0.0
 10
5.4109369547
 20
2.7205290165
 30
0.0
 10
5.4499359607
 20
2.7216201247
 30
0.0
 10
5.4882836063
 20
2.7227110478
 30
0.0
 10
5.5256237459
 20
2.7238016816
 30
0.0
 10
5.5616095545
 20
2.7248918547
 30
0.0
 10
5.5959070601
 20
2.7259814758
 30
0.0
 10
5.6281975954
 20
2.7270702085
 30
0.0
 10
5.6581812362
 20
2.7281578577
 30
0.0
 10
5.6815964632
 20
2.7290857933
 30
0.0
 10
5.6989679391
 20
2.7298346484
 30
0.0
 10
5.7109045773
 20
2.7303810322
 30
0.0
 10
5.7220718966
 20
2.7309272204
 30
0.0
 10
5.7324440751
 20
2.7314730824
 30
0.0
 10
5.7419970038
 20
2.732018505
 30
0.0
 10
5.7507084001
 20
2.7325634938
 30
0.0
 10
5.7585581291
 20
2.7331077906
 30
0.0
 10
5.7655281022
 20
2.7336509197
 30
0.0
 10
5.7716019887
 20
2.734192767
 30
0.0
 10
5.7760950351
 20
2.7346618189
 30
0.0
 10
5.779229878
 20
2.7350435826
 30
0.0
 10
5.7812357101
 20
2.735315877
 30
0.0
 10
5.783008473
 20
2.7355877085
 30
0.0
 10
5.7845471685
 20
2.7358589018
 30
0.0
 10
5.7858510313
 20
2.7361293309
 30
0.0
 10
5.7867882498
 20
2.7363646883
 30
0.0
 10
5.7874181163
 20
2.7365572152
 30
0.0
 10
5.7878044549
 20
2.7366931933
 30
0.0
 10
5.7881319846
 20
2.7368288995
 30
0.0
 10
5.7883270095
 20
2.7369270759
 30
0.0
 10
5.7884136389
 20
2.7369770876
 30
0.0
 11
4.9709000058
 21
2.7018967012
 31
0.0
 11
4.9710952188
 21
2.7021705923
 31
0.0
 11
4.9712819437
 21
2.7023075808
 31
0.0
 11
4.971528007
 21
2.702444593
 31
0.0
 11
4.9718333532
 21
2.7025816254
 31
0.0
 11
4.972197927
 21
2.7027186743
 31
0.0
 11
4.972621673
 21
2.7028557362
 31
0.0
 11
4.9731045357
 21
2.7029928074
 31
0.0
 11
4.9742473898
 21
2.7032669634
 31
0.0
 11
4.975626046
 21
2.7035411136
 31
0.0
 11
4.9772399649
 21
2.7038152331
 31
0.0
 11
4.9790880326
 21
2.7040893207
 31
0.0
 11
4.9811689236
 21
2.7043633841
 31
0.0
 11
4.9834813119
 21
2.7046374309
 31
0.0
 11
4.9887952767
 21
2.7051855054
 31
0.0
 11
4.9950189536
 21
2.7057336013
 31
0.0
 11
5.0021373416
 21
2.7062817291
 31
0.0
 11
5.0101329433
 21
2.7068298707
 31
0.0
 11
5.0189881499
 21
2.7073780078
 31
0.0
 11
5.0286826563
 21
2.7079261324
 31
0.0
 11
5.0391927678
 21
2.7084742496
 31
0.0
 11
5.0504945695
 21
2.7090223652
 31
0.0
 11
5.0625626417
 21
2.7095704835
 31
0.0
 11
5.0888805581
 21
2.7106667308
 31
0.0
 11
5.1179035347
 21
2.7117629915
 31
0.0
 11
5.1493601459
 21
2.7128592551
 31
0.0
 11
5.1829587426
 21
2.7139555086
 31
0.0
 11
5.2183864649
 21
2.7150517421
 31
0.0
 11
5.2553142266
 21
2.7161479691
 31
0.0
 11
5.2934003182
 21
2.7172442122
 31
0.0
 11
5.3322904555
 21
2.7183404756
 31
0.0
 11
5.3716235284
 21
2.7194367542
 31
0.0
 11
5.4110334053
 21
2.720533036
 31
0.0
 11
5.4501535945
 21
2.7216293064
 31
0.0
 11
5.4886201058
 21
2.7227255567
 31
0.0
 11
5.5260758641
 21
2.7238217943
 31
0.0
 11
5.5621734727
 21
2.724918026
 31
0.0
 11
5.5965768897
 21
2.7260142559
 31
0.0
 11
5.6289675984
 21
2.7271104894
 31
0.0
 11
5.6590440652
 21
2.7282067282
 31
0.0
 11
5.6865264899
 21
2.7293029667
 31
0.0
 11
5.6992145495
 21
2.7298510845
 31
0.0
 11
5.7111605869
 21
2.7303992009
 31
0.0
 11
5.7223360149
 21
2.7309473169
 31
0.0
 11
5.7327160269
 21
2.7314954378
 31
0.0
 11
5.7422765033
 21
2.7320435694
 31
0.0
 11
5.7509939823
 21
2.7325917154
 31
0.0
 11
5.7588491278
 21
2.7331398635
 31
0.0
 11
5.7658241998
 21
2.7336879957
 31
0.0
 11
5.7719016628
 21
2.7342360961
 31
0.0
 11
5.7770675743
 21
2.7347841883
 31
0.0
 11
5.7793053031
 21
2.7350582493
 31
0.0
 11
5.78131109
 21
2.7353323301
 31
0.0
 11
5.7830835921
 21
2.7356064379
 31
0.0
 11
5.7846214875
 21
2.7358805794
 31
0.0
 11
5.785923895
 21
2.7361547433
 31
0.0
 11
5.7869903528
 21
2.7364289018
 31
0.0
 11
5.7874349615
 21
2.73656597
 31
0.0
 11
5.7878204159
 21
2.736703026
 31
0.0
 11
5.7881466602
 21
2.7368400664
 31
0.0
 11
5.7884136389
 21
2.7369770876
 31
0.0
  0
SPLINE
  5
279
100
AcDbEntity
  8
0
100
AcDbSpline
 62
6
  6
CONTINUOUS
 70
0
 71
3
 72
9
 73
5
 74
3
 42
0.0000001
 43
0.0000001
 44
0.0000000001
 12
0.0
 22
-0.0000887203
 32
0.0
 13
-0.0000238078
 23
-0.0000854663
 33
0.0
 40
0.0
 40
0.0
 40
0.0
 40
0.0
 40
0.7455653542
 40
1.0
 40
1.0
 40
1.0
 40
1.0
 10
5.7888877859
 20
2.7464532586
 30
0.0
 10
5.7888877859
 20
2.7464312097
 30
0.0
 10
5.788884613
 20
2.746401519
 30
0.0
 10
5.788877585
 20
2.7463727871
 30
0.0
 10
5.7888755659
 20
2.7463655386
 30
0.0
 11
5.7888877859
 21
2.7464532586
 31
0.0
 11
5.7888809118
 21
2.7463874699
 31
0.0
 11
5.7888755659
 21
2.7463655386
 31
0.0
  0
SPLINE
  5
27A
100
AcDbEntity
  8
0
100
AcDbSpline
 62
6
  6
CONTINUOUS
 70
0
 71
3
 72
67
 73
63
 74
61
 42
0.0000001
 43
0.0000001
 44
0.0000000001
 12
-0.2197427697
 22
-0.7888425206
 32
0.0
 13
-0.7091821212
 23
-0.4094143696
 33
0.0
 40
0.0
 40
0.0
 40
0.0
 40
0.0
 40
0.0004107337
 40
0.0006935434
 40
0.001037475
 40
0.0014461881
 40
0.0019218184
 40
0.0024656871
 40
0.0030786501
 40
0.0045138803
 40
0.006230436
 40
0.0082295505
 40
0.0105110616
 40
0.0130741509
 40
0.0159177576
 40
0.0224414994
 40
0.0300711606
 40
0.0387897384
 40
0.0485767428
 40
0.0594112726
 40
0.0712689466
 40
0.0841211589
 40
0.097938962
 40
0.1126914937
 40
0.1448583934
 40
0.1803261009
 40
0.2187638071
 40
0.2598158103
 40
0.3031003635
 40
0.3482158667
 40
0.3947452804
 40
0.4422561805
 40
0.4903077799
 40
0.5384531383
 40
0.5862448731
 40
0.6332386635
 40
0.6789986565
 40
0.723100845
 40
0.7651351221
 40
0.8047128071
 40
0.8414660673
 40
0.8750538416
 40
0.8905627529
 40
0.9051664176
 40
0.9188300834
 40
0.931523655
 40
0.9432179343
 40
0.9538846102
 40
0.9635005211
 40
0.9720446329
 40
0.9794964587
 40
0.9858403993
 40
0.9885934983
 40
0.9910656971
 40
0.9932559797
 40
0.9951636392
 40
0.9967889767
 40
0.9981336645
 40
0.99870183
 40
0.9992014118
 40
0.9996335378
 40
1.0
 40
1.0
 40
1.0
 40
1.0
 10
5.7888755659
 20
2.7463655386
 30
0.0
 10
5.7888454806
 20
2.7462575372
 30
0.0
 10
5.7887118855
 20
2.7461042014
 30
0.0
 10
5.7884826454
 20
2.7459419104
 30
0.0
 10
5.7882333703
 20
2.7458057964
 30
0.0
 10
5.787926711
 20
2.745670395
 30
0.0
 10
5.7875610458
 20
2.7455344447
 30
0.0
 10
5.7871366487
 20
2.7453983637
 30
0.0
 10
5.7864555233
 20
2.7452064182
 30
0.0
 10
5.7854547382
 20
2.7449712244
 30
0.0
 10
5.7840748795
 20
2.744700478
 30
0.0
 10
5.7824603845
 20
2.7444290818
 30
0.0
 10
5.7806121427
 20
2.7441570968
 30
0.0
 10
5.7785312588
 20
2.7438846986
 30
0.0
 10
5.7752970657
 20
2.7435034288
 30
0.0
 10
5.7706810563
 20
2.7430345446
 30
0.0
 10
5.7644613922
 20
2.7424924708
 30
0.0
 10
5.7573481541
 20
2.7419491282
 30
0.0
 10
5.7493579671
 20
2.7414046937
 30
0.0
 10
5.7405091953
 20
2.7408596468
 30
0.0
 10
5.730822339
 20
2.7403141515
 30
0.0
 10
5.7203200129
 20
2.739768228
 30
0.0
 10
5.7090265386
 20
2.73922199
 30
0.0
 10
5.6924647347
 20
2.7384716215
 30
0.0
 10
5.6699955401
 20
2.7375425484
 30
0.0
 10
5.6410625175
 20
2.7364555342
 30
0.0
 10
5.6097027056
 20
2.7353671739
 30
0.0
 10
5.5762080575
 20
2.7342778826
 30
0.0
 10
5.540889759
 20
2.7331879164
 30
0.0
 10
5.5040756898
 20
2.7320974427
 30
0.0
 10
5.4661075232
 20
2.7310066462
 30
0.0
 10
5.4273376085
 20
2.7299155906
 30
0.0
 10
5.3881264386
 20
2.728824423
 30
0.0
 10
5.3488385839
 20
2.7277332225
 30
0.0
 10
5.3098395765
 20
2.7266421144
 30
0.0
 10
5.2714919282
 20
2.7255511911
 30
0.0
 10
5.2341517819
 20
2.7244605571
 30
0.0
 10
5.1981659598
 20
2.7233703836
 30
0.0
 10
5.1638684427
 20
2.7222807618
 30
0.0
 10
5.1315779145
 20
2.7211920295
 30
0.0
 10
5.1015942969
 20
2.7201043809
 30
0.0
 10
5.0781790939
 20
2.719176446
 30
0.0
 10
5.0608076287
 20
2.7184275914
 30
0.0
 10
5.0488709925
 20
2.7178812077
 30
0.0
 10
5.0377036744
 20
2.7173350196
 30
0.0
 10
5.0273314969
 20
2.7167891576
 30
0.0
 10
5.0177785691
 20
2.716243735
 30
0.0
 10
5.0090671736
 20
2.7156987463
 30
0.0
 10
5.0012174449
 20
2.7151544496
 30
0.0
 10
4.9942474721
 20
2.7146113206
 30
0.0
 10
4.9881735855
 20
2.7140694732
 30
0.0
 10
4.9836805388
 20
2.7136004214
 30
0.0
 10
4.9805456955
 20
2.7132186577
 30
0.0
 10
4.978539863
 20
2.7129463632
 30
0.0
 10
4.9767670998
 20
2.7126745317
 30
0.0
 10
4.9752284041
 20
2.7124033383
 30
0.0
 10
4.9739245412
 20
2.7121329091
 30
0.0
 10
4.9729873225
 20
2.7118975517
 30
0.0
 10
4.9723574559
 20
2.7117050249
 30
0.0
 10
4.9719711172
 20
2.7115690468
 30
0.0
 10
4.9716435874
 20
2.7114333405
 30
0.0
 10
4.9714485625
 20
2.7113351641
 30
0.0
 10
4.971361933
 20
2.7112851524
 30
0.0
 11
5.7888755659
 21
2.7463655386
 31
0.0
 11
5.7886803521
 21
2.7460916474
 31
0.0
 11
5.7884936266
 21
2.7459546589
 31
0.0
 11
5.7882475628
 21
2.7458176466
 31
0.0
 11
5.787942216
 21
2.7456806142
 31
0.0
 11
5.7875776418
 21
2.7455435653
 31
0.0
 11
5.7871538955
 21
2.7454065034
 31
0.0
 11
5.7866710327
 21
2.7452694322
 31
0.0
 11
5.7855281791
 21
2.7449952762
 31
0.0
 11
5.7841495249
 21
2.7447211262
 31
0.0
 11
5.7825356098
 21
2.7444470071
 31
0.0
 11
5.7806875475
 21
2.7441729201
 31
0.0
 11
5.7786066629
 21
2.7438988573
 31
0.0
 11
5.7762942813
 21
2.7436248111
 31
0.0
 11
5.7709803288
 21
2.7430767377
 31
0.0
 11
5.764756663
 21
2.7425286427
 31
0.0
 11
5.7576382931
 21
2.7419805155
 31
0.0
 11
5.7496427081
 21
2.7414323743
 31
0.0
 11
5.7407875103
 21
2.7408842375
 31
0.0
 11
5.7310930178
 21
2.7403361132
 31
0.0
 11
5.7205829207
 21
2.7397879961
 31
0.0
 11
5.7092811242
 21
2.7392398806
 31
0.0
 11
5.6972130576
 21
2.7386917622
 31
0.0
 11
5.6708951476
 21
2.7375955144
 31
0.0
 11
5.6418721572
 21
2.7364992528
 31
0.0
 11
5.6104155035
 21
2.7354029876
 31
0.0
 11
5.5768168452
 21
2.7343067319
 31
0.0
 11
5.5413890798
 21
2.7332104971
 31
0.0
 11
5.5044613032
 21
2.7321142696
 31
0.0
 11
5.4663752138
 21
2.7310180267
 31
0.0
 11
5.4274850824
 21
2.7299217635
 31
0.0
 11
5.3881520114
 21
2.7288254849
 31
0.0
 11
5.3487421336
 21
2.7277292031
 31
0.0
 11
5.3096219425
 21
2.7266329326
 31
0.0
 11
5.27115543
 21
2.7255366822
 31
0.0
 11
5.2336996666
 21
2.7244404445
 31
0.0
 11
5.1976020441
 21
2.7233442123
 31
0.0
 11
5.1631986055
 21
2.7222479815
 31
0.0
 11
5.1308078979
 21
2.721151748
 31
0.0
 11
5.1007314729
 21
2.7200555106
 31
0.0
 11
5.0732490749
 21
2.718959273
 31
0.0
 11
5.0605610191
 21
2.7184111553
 31
0.0
 11
5.0486149831
 21
2.717863039
 31
0.0
 11
5.037439556
 21
2.7173149231
 31
0.0
 11
5.0270595451
 21
2.7167668023
 31
0.0
 11
5.0174990698
 21
2.7162186706
 31
0.0
 11
5.0087815915
 21
2.7156705247
 31
0.0
 11
5.0009264463
 21
2.7151223767
 31
0.0
 11
4.9939513745
 21
2.7145742445
 31
0.0
 11
4.9878739117
 21
2.7140261441
 31
0.0
 11
4.9827079995
 21
2.7134780519
 31
0.0
 11
4.9804702704
 21
2.7132039909
 31
0.0
 11
4.9784644831
 21
2.7129299101
 31
0.0
 11
4.9766919807
 21
2.7126558022
 31
0.0
 11
4.9751540852
 21
2.7123816607
 31
0.0
 11
4.9738516775
 21
2.7121074967
 31
0.0
 11
4.9727852194
 21
2.7118333383
 31
0.0
 11
4.9723406107
 21
2.7116962701
 31
0.0
 11
4.9719551562
 21
2.711559214
 31
0.0
 11
4.9716289118
 21
2.7114221736
 31
0.0
 11
4.971361933
 21
2.7112851524
 31
0.0
  0
SPLINE
  5
27B
100
AcDbEntity
  8
0
100
AcDbSpline
 62
6
  6
CONTINUOUS
 70
0
 71
3
 72
9
 73
5
 74
3
 42
0.0000001
 43
0.0000001
 44
0.0000000001
 12
0.0
 22
-0.0000887014
 32
0.0
 13
-0.0000237989
 23
-0.0000854491
 33
0.0
 40
0.0
 40
0.0
 40
0.0
 40
0.0
 40
0.7455667436
 40
1.0
 40
1.0
 40
1.0
 40
1.0
 10
5.7888877859
 20
2.8178832586
 30
0.0
 10
5.7888877859
 20
2.8178612143
 30
0.0
 10
5.7888846142
 20
2.81783153
 30
0.0
 10
5.7888775889
 20
2.817802804
 30
0.0
 10
5.7888755705
 20
2.8177955569
 30
0.0
 11
5.7888877859
 21
2.8178832586
 31
0.0
 11
5.7888809144
 21
2.8178174837
 31
0.0
 11
5.7888755705
 21
2.8177955569
 31
0.0
  0
SPLINE
  5
27C
100
AcDbEntity
  8
0
100
AcDbSpline
 62
6
  6
CONTINUOUS
 70
0
 71
3
 72
67
 73
63
 74
61
 42
0.0000001
 43
0.0000001
 44
0.0000000001
 12
-0.2197075341
 22
-0.7888523502
 32
0.0
 13
-0.7091820227
 23
-0.4094145695
 33
0.0
 40
0.0
 40
0.0
 40
0.0
 40
0.0
 40
0.000410728
 40
0.0006935358
 40
0.0010374665
 40
0.0014461793
 40
0.0019218094
 40
0.0024656776
 40
0.0030786394
 40
0.0045138628
 40
0.0062304028
 40
0.0082294956
 40
0.010510986
 40
0.0130740511
 40
0.0159176248
 40
0.0224412548
 40
0.0300707057
 40
0.0387889888
 40
0.0485757095
 40
0.0594100371
 40
0.0712674729
 40
0.0841194712
 40
0.0979371854
 40
0.1126896367
 40
0.1448564888
 40
0.1803244322
 40
0.2187626301
 40
0.2598154011
 40
0.3031010091
 40
0.3482171041
 40
0.3947459672
 40
0.4422560032
 40
0.4903069664
 40
0.5384518576
 40
0.5862432753
 40
0.633236967
 40
0.6789970437
 40
0.7230996722
 40
0.7651348022
 40
0.8047131769
 40
0.8414664283
 40
0.8750539803
 40
0.8905627731
 40
0.9051663584
 40
0.9188300023
 40
0.931523589
 40
0.9432178967
 40
0.9538845909
 40
0.9635005069
 40
0.9720446184
 40
0.9794964455
 40
0.9858403893
 40
0.9885934902
 40
0.991065691
 40
0.9932559756
 40
0.9951636369
 40
0.9967889757
 40
0.9981336642
 40
0.9987018299
 40
0.9992014117
 40
0.9996335378
 40
1.0
 40
1.0
 40
1.0
 40
1.0
 10
5.7888755705
 20
2.8177955569
 30
0.0
 10
5.7888454905
 20
2.8176875557
 30
0.0
 10
5.7887118984
 20
2.8175342181
 30
0.0
 10
5.7884826615
 20
2.8173719272
 30
0.0
 10
5.7882333876
 20
2.8172358124
 30
0.0
 10
5.7879267292
 20
2.8171004102
 30
0.0
 10
5.7875610645
 20
2.8169644591
 30
0.0
 10
5.7871366683
 20
2.8168283771
 30
0.0
 10
5.7864555456
 20
2.8166364306
 30
0.0
 10
5.7854547674
 20
2.8164012355
 30
0.0
 10
5.7840749213
 20
2.8161304872
 30
0.0
 10
5.7824604426
 20
2.8158590898
 30
0.0
 10
5.780612219
 20
2.8155871058
 30
0.0
 10
5.7785313562
 20
2.8153147094
 30
0.0
 10
5.775297209
 20
2.8149334441
 30
0.0
 10
5.7706812961
 20
2.8144645683
 30
0.0
 10
5.7644618001
 20
2.8139225035
 30
0.0
 10
5.7573487772
 20
2.8133791693
 30
0.0
 10
5.7493588029
 20
2.8128347442
 30
0.0
 10
5.7405102282
 20
2.8122897104
 30
0.0
 10
5.7308235505
 20
2.8117442179
 30
0.0
 10
5.7203213721
 20
2.8111982942
 30
0.0
 10
5.7090280022
 20
2.8106520597
 30
0.0
 10
5.6924662574
 20
2.8099016874
 30
0.0
 10
5.6699970333
 20
2.8089726062
 30
0.0
 10
5.6410638248
 20
2.8078855813
 30
0.0
 10
5.6097036045
 20
2.8067972041
 30
0.0
 10
5.5762083245
 20
2.8057078906
 30
0.0
 10
5.5408893666
 20
2.804617905
 30
0.0
 10
5.5040749977
 20
2.8035274224
 30
0.0
 10
5.466107055
 20
2.8024366324
 30
0.0
 10
5.4273376991
 20
2.8013455936
 30
0.0
 10
5.3881270654
 20
2.8002544402
 30
0.0
 10
5.3488395975
 20
2.7991632509
 30
0.0
 10
5.3098408304
 20
2.7980721494
 30
0.0
 10
5.271493272
 20
2.7969812301
 30
0.0
 10
5.2341530091
 20
2.7958905934
 30
0.0
 10
5.1981668107
 20
2.7948004109
 30
0.0
 10
5.1638687521
 20
2.7937107704
 30
0.0
 10
5.1315778048
 20
2.7926220271
 30
0.0
 10
5.1015940617
 20
2.7915343711
 30
0.0
 10
5.0781789536
 20
2.7906064409
 30
0.0
 10
5.0608076027
 20
2.7898575906
 30
0.0
 10
5.0488710263
 20
2.7893112092
 30
0.0
 10
5.0377037314
 20
2.7887650221
 30
0.0
 10
5.0273315478
 20
2.78821916
 30
0.0
 10
5.017778603
 20
2.787673737
 30
0.0
 10
5.0090671932
 20
2.7871287479
 30
0.0
 10
5.0012174581
 20
2.7865844509
 30
0.0
 10
4.9942474835
 20
2.7860413216
 30
0.0
 10
4.9881735957
 20
2.7854994741
 30
0.0
 10
4.9836805471
 20
2.7850304222
 30
0.0
 10
4.9805457018
 20
2.7846486583
 30
0.0
 10
4.9785398677
 20
2.7843763638
 30
0.0
 10
4.9767671028
 20
2.7841045322
 30
0.0
 10
4.9752284057
 20
2.7838333388
 30
0.0
 10
4.9739245418
 20
2.7835629095
 30
0.0
 10
4.9729873225
 20
2.783327552
 30
0.0
 10
4.9723574556
 20
2.783135025
 30
0.0
 10
4.9719711168
 20
2.7829990469
 30
0.0
 10
4.971643587
 20
2.7828633406
 30
0.0
 10
4.9714485621
 20
2.7827651641
 30
0.0
 10
4.9713619326
 20
2.7827151524
 30
0.0
 11
5.7888755705
 21
2.8177955569
 31
0.0
 11
5.7886803659
 21
2.8175216649
 31
0.0
 11
5.7884936428
 21
2.8173846758
 31
0.0
 11
5.7882475802
 21
2.8172476628
 31
0.0
 11
5.7879422342
 21
2.8171106295
 31
0.0
 11
5.7875776604
 21
2.8169735796
 31
0.0
 11
5.7871539149
 21
2.8168365168
 31
0.0
 11
5.7866710533
 21
2.8166994446
 31
0.0
 11
5.7855282059
 21
2.8164252868
 31
0.0
 11
5.784149565
 21
2.8161511354
 31
0.0
 11
5.7825356681
 21
2.8158770156
 31
0.0
 11
5.7806876228
 21
2.815602929
 31
0.0
 11
5.778606758
 21
2.8153288678
 31
0.0
 11
5.7762944033
 21
2.8150548242
 31
0.0
 11
5.7709805419
 21
2.8145067583
 31
0.0
 11
5.764757048
 21
2.8139586732
 31
0.0
 11
5.7576389191
 21
2.8134105573
 31
0.0
 11
5.7496435661
 21
2.8128624271
 31
0.0
 11
5.7407885335
 21
2.8123142991
 31
0.0
 11
5.7310942359
 21
2.81176618
 31
0.0
 11
5.720584314
 21
2.8112180653
 31
0.0
 11
5.7092825901
 21
2.8106699499
 31
0.0
 11
5.6972145892
 21
2.8101218304
 31
0.0
 11
5.670896718
 21
2.8090255763
 31
0.0
 11
5.6418735343
 21
2.8079293029
 31
0.0
 11
5.6104164777
 21
2.8068330208
 31
0.0
 11
5.5768171904
 21
2.805736743
 31
0.0
 11
5.5413885612
 21
2.8046404818
 31
0.0
 11
5.5044602994
 21
2.8035442403
 31
0.0
 11
5.46637466
 21
2.8024480106
 31
0.0
 11
5.4274852352
 21
2.8013517678
 31
0.0
 11
5.3881526842
 21
2.8002555036
 31
0.0
 11
5.3487431882
 21
2.7991592326
 31
0.0
 11
5.309623256
 21
2.7980629696
 31
0.0
 11
5.2711568236
 21
2.7969667225
 31
0.0
 11
5.233700991
 21
2.7958704839
 31
0.0
 11
5.1976030076
 21
2.7947742424
 31
0.0
 11
5.1631988704
 21
2.7936779893
 31
0.0
 11
5.1308075977
 21
2.7925817379
 31
0.0
 11
5.1007311794
 21
2.7914854992
 31
0.0
 11
5.0732489628
 21
2.7903892688
 31
0.0
 11
5.0605610037
 21
2.789841155
 31
0.0
 11
5.0486150324
 21
2.7892930413
 31
0.0
 11
5.0374396232
 21
2.7887449262
 31
0.0
 11
5.0270595996
 21
2.7881968049
 31
0.0
 11
5.017499101
 21
2.7876486725
 31
0.0
 11
5.0087816075
 21
2.787100526
 31
0.0
 11
5.000926458
 21
2.7865523778
 31
0.0
 11
4.9939513864
 21
2.7860042455
 31
0.0
 11
4.9878739224
 21
2.7854561451
 31
0.0
 11
4.9827080075
 21
2.7849080527
 31
0.0
 11
4.9804702767
 21
2.7846339916
 31
0.0
 11
4.9784644878
 21
2.7843599107
 31
0.0
 11
4.9766919837
 21
2.7840858027
 31
0.0
 11
4.9751540866
 21
2.7838116611
 31
0.0
 11
4.9738516779
 21
2.783537497
 31
0.0
 11
4.9727852193
 21
2.7832633385
 31
0.0
 11
4.9723406104
 21
2.7831262702
 31
0.0
 11
4.9719551558
 21
2.7829892141
 31
0.0
 11
4.9716289114
 21
2.7828521736
 31
0.0
 11
4.9713619326
 21
2.7827151524
 31
0.0
  0
SPLINE
  5
27D
100
AcDbEntity
  8
0
100
AcDbSpline
 62
6
  6
CONTINUOUS
 70
0
 71
3
 72
9
 73
5
 74
3
 42
0.0000001
 43
0.0000001
 44
0.0000000001
 12
0.0
 22
0.0000886471
 32
0.0
 13
0.0000237714
 23
0.0000854004
 33
0.0
 40
0.0
 40
0.0
 40
0.0
 40
0.0
 40
0.7455717585
 40
1.0
 40
1.0
 40
1.0
 40
1.0
 10
4.9708877859
 20
2.7732389814
 30
0.0
 10
4.9708877859
 20
2.7732610123
 30
0.0
 10
4.9708909536
 20
2.7732906783
 30
0.0
 10
4.9708979708
 20
2.7733193878
 30
0.0
 10
4.9708999868
 20
2.7733266305
 30
0.0
 11
4.9708877859
 21
2.7732389814
 31
0.0
 11
4.9708946492
 21
2.7733047169
 31
0.0
 11
4.9708999868
 21
2.7733266305
 31
0.0
  0
SPLINE
  5
27E
100
AcDbEntity
  8
0
100
AcDbSpline
 62
6
  6
CONTINUOUS
 70
0
 71
3
 72
67
 73
63
 74
61
 42
0.0000001
 43
0.0000001
 44
0.0000000001
 12
0.219588391
 22
0.7888855971
 32
0.0
 13
0.709176065
 23
0.4094250305
 33
0.0
 40
0.0
 40
0.0
 40
0.0
 40
0.0
 40
0.0004106988
 40
0.0006934885
 40
0.0010374015
 40
0.001446098
 40
0.0019217141
 40
0.0024655709
 40
0.0030785242
 40
0.0045137412
 40
0.0062302907
 40
0.0082294264
 40
0.0105110138
 40
0.0130742144
 40
0.0159179461
 40
0.0224418931
 40
0.0300716939
 40
0.0387906162
 40
0.0485779561
 40
0.0594126093
 40
0.0712705431
 40
0.0841230543
 40
0.0979409337
 40
0.1126935363
 40
0.144860464
 40
0.1803275805
 40
0.2187643766
 40
0.2598155865
 40
0.3031000736
 40
0.3482159424
 40
0.3947454854
 40
0.4422564238
 40
0.4903081318
 40
0.5384535643
 40
0.5862454078
 40
0.6332392953
 40
0.6789991637
 40
0.7231012428
 40
0.7651361685
 40
0.8047149343
 40
0.8414688814
 40
0.8750570139
 40
0.8905657899
 40
0.9051694
 40
0.9188329155
 40
0.931526142
 40
0.9432201488
 40
0.953886624
 40
0.9635021159
 40
0.9720458313
 40
0.9794974477
 40
0.9858410717
 40
0.9885939969
 40
0.9910660401
 40
0.9932562065
 40
0.9951638019
 40
0.9967890879
 40
0.99813373
 40
0.9987018755
 40
0.9992014395
 40
0.9996335503
 40
1.0
 40
1.0
 40
1.0
 40
1.0
 10
4.9708999868
 20
2.7733266305
 30
0.0
 10
4.9709300484
 20
2.7734346286
 30
0.0
 10
4.9710636193
 20
2.7735879716
 30
0.0
 10
4.9712928346
 20
2.773750262
 30
0.0
 10
4.971542092
 20
2.7738863778
 30
0.0
 10
4.9718487358
 20
2.7740217807
 30
0.0
 10
4.9722143879
 20
2.7741577332
 30
0.0
 10
4.9726387739
 20
2.7742938168
 30
0.0
 10
4.9733198881
 20
2.7744857671
 30
0.0
 10
4.9743206637
 20
2.7747209677
 30
0.0
 10
4.9757005207
 20
2.7749917259
 30
0.0
 10
4.9773150389
 20
2.7752631356
 30
0.0
 10
4.9791633372
 20
2.7755351299
 30
0.0
 10
4.9812443061
 20
2.7758075384
 30
0.0
 10
4.9844786194
 20
2.7761888198
 30
0.0
 10
4.9890947568
 20
2.7766577178
 30
0.0
 10
4.9953146086
 20
2.7771998136
 30
0.0
 10
5.0024280718
 20
2.7777431559
 30
0.0
 10
5.0104184792
 20
2.778287594
 30
0.0
 10
5.0192674472
 20
2.7788326612
 30
0.0
 10
5.0289544908
 20
2.7793781584
 30
0.0
 10
5.0394569918
 20
2.7799240794
 30
0.0
 10
5.0507505888
 20
2.7804703249
 30
0.0
 10
5.0673124425
 20
2.7812206897
 30
0.0
 10
5.0897815057
 20
2.7821497464
 30
0.0
 10
5.1187141295
 20
2.7832367453
 30
0.0
 10
5.1500733188
 20
2.7843250817
 30
0.0
 10
5.1835674877
 20
2.7854143563
 30
0.0
 10
5.2188856551
 20
2.7865043184
 30
0.0
 10
5.2556998452
 20
2.7875947965
 30
0.0
 10
5.2936681612
 20
2.788685597
 30
0.0
 10
5.3324381553
 20
2.7897766548
 30
0.0
 10
5.3716493896
 20
2.790867824
 30
0.0
 10
5.4109373279
 20
2.7919590271
 30
0.0
 10
5.4499364157
 20
2.793050137
 30
0.0
 10
5.4882840901
 20
2.7941410626
 30
0.0
 10
5.5256242029
 20
2.7952316943
 30
0.0
 10
5.5616101419
 20
2.7963218723
 30
0.0
 10
5.5959081044
 20
2.7974115119
 30
0.0
 10
5.6281992952
 20
2.7985002639
 30
0.0
 10
5.6581834954
 20
2.799587948
 30
0.0
 10
5.681598949
 20
2.8005158905
 30
0.0
 10
5.6989704612
 20
2.8012647644
 30
0.0
 10
5.7109070057
 20
2.8018111467
 30
0.0
 10
5.7220741749
 20
2.8023573321
 30
0.0
 10
5.7324461433
 20
2.8029031987
 30
0.0
 10
5.7419988485
 20
2.8034486182
 30
0.0
 10
5.750710002
 20
2.80399359
 30
0.0
 10
5.7585594536
 20
2.8045378865
 30
0.0
 10
5.7655291464
 20
2.8050810165
 30
0.0
 10
5.7716027829
 20
2.805622841
 30
0.0
 10
5.7760956391
 20
2.8060918827
 30
0.0
 10
5.7792303064
 20
2.806473636
 30
0.0
 10
5.7812360176
 20
2.8067459211
 30
0.0
 10
5.7830086895
 20
2.807017744
 30
0.0
 10
5.7845473235
 20
2.8072889235
 30
0.0
 10
5.7858511435
 20
2.8075593439
 30
0.0
 10
5.7867883306
 20
2.807794696
 30
0.0
 10
5.7874181745
 20
2.8079872196
 30
0.0
 10
5.7878044985
 20
2.8081231958
 30
0.0
 10
5.7881320156
 20
2.8082589007
 30
0.0
 10
5.7883270325
 20
2.8083570763
 30
0.0
 10
5.7884136583
 20
2.8084070875
 30
0.0
 11
4.9708999868
 21
2.7733266305
 31
0.0
 11
4.9710951495
 21
2.7736005231
 31
0.0
 11
4.9712818539
 21
2.7737375127
 31
0.0
 11
4.9715278994
 21
2.7738745265
 31
0.0
 11
4.9718332305
 21
2.7740115607
 31
0.0
 11
4.9721977915
 21
2.774148612
 31
0.0
 11
4.9726215266
 21
2.7742856766
 31
0.0
 11
4.9731043804
 21
2.774422751
 31
0.0
 11
4.9742472211
 21
2.7746969149
 31
0.0
 11
4.9756258683
 21
2.7749710751
 31
0.0
 11
4.9772397991
 21
2.775245206
 31
0.0
 11
4.979087923
 21
2.7755193048
 31
0.0
 11
4.9811688983
 21
2.7757933789
 31
0.0
 11
4.9834813819
 21
2.7760674357
 31
0.0
 11
4.9887955021
 21
2.7766155265
 31
0.0
 11
4.9950192822
 21
2.7771636332
 31
0.0
 11
5.0021379351
 21
2.7777117703
 31
0.0
 11
5.0101337957
 21
2.7782599203
 31
0.0
 11
5.0189890951
 21
2.7788080653
 31
0.0
 11
5.0286838013
 21
2.7793561959
 31
0.0
 11
5.0391941445
 21
2.7799043166
 31
0.0
 11
5.0504960048
 21
2.7804524334
 31
0.0
 11
5.0625641308
 21
2.781000551
 31
0.0
 11
5.0888820669
 21
2.7820967896
 31
0.0
 11
5.1179045767
 21
2.7831930298
 31
0.0
 11
5.149360489
 21
2.7842892674
 31
0.0
 11
5.1829585016
 21
2.785385501
 31
0.0
 11
5.2183862164
 21
2.7864817342
 31
0.0
 11
5.2553142961
 21
2.7875779712
 31
0.0
 11
5.2934004954
 21
2.7886742173
 31
0.0
 11
5.3322906622
 21
2.7897704814
 31
0.0
 11
5.3716238263
 21
2.7908667624
 31
0.0
 11
5.4110337688
 21
2.7919630461
 31
0.0
 11
5.4501540529
 21
2.7930593192
 31
0.0
 11
5.4886206489
 21
2.7941555727
 31
0.0
 11
5.5260763141
 21
2.7952518072
 31
0.0
 11
5.5621738508
 21
2.7963480377
 31
0.0
 11
5.5965778238
 21
2.7974442875
 31
0.0
 11
5.6289694192
 21
2.7985405525
 31
0.0
 11
5.6590464092
 21
2.7996368193
 31
0.0
 11
5.6865291029
 21
2.8007330756
 31
0.0
 11
5.6992170489
 21
2.8012811981
 31
0.0
 11
5.7111630413
 21
2.801829317
 31
0.0
 11
5.7223383462
 21
2.8023774334
 31
0.0
 11
5.7327180754
 21
2.8029255523
 31
0.0
 11
5.7422783284
 21
2.8034736795
 31
0.0
 11
5.7509956433
 21
2.8040218191
 31
0.0
 11
5.758850446
 21
2.8045699604
 31
0.0
 11
5.7658251934
 21
2.8051180847
 31
0.0
 11
5.7719024856
 21
2.8056661748
 31
0.0
 11
5.7770681394
 21
2.8062142508
 31
0.0
 11
5.7793057266
 21
2.8064883021
 31
0.0
 11
5.7813113868
 21
2.8067623724
 31
0.0
 11
5.7830837949
 21
2.8070364696
 31
0.0
 11
5.7846216391
 21
2.8073106006
 31
0.0
 11
5.7859240055
 21
2.8075847562
 31
0.0
 11
5.7869904267
 21
2.8078589085
 31
0.0
 11
5.7874350191
 21
2.8079959744
 31
0.0
 11
5.7878204588
 21
2.8081330286
 31
0.0
 11
5.7881466904
 21
2.8082700675
 31
0.0
 11
5.7884136583
 21
2.8084070875
 31
0.0
  0
SPLINE
  5
27F
100
AcDbEntity
  8
0
100
AcDbSpline
 62
6
  6
CONTINUOUS
 70
0
 71
3
 72
59
 73
55
 74
53
 42
0.0000001
 43
0.0000001
 44
0.0000000001
 12
-0.7827073252
 22
-0.1387138373
 32
0.0
 13
-0.6884573946
 23
-0.3973646958
 33
0.0
 40
0.0
 40
0.0
 40
0.0
 40
0.0
 40
0.0013204717
 40
0.0029064463
 40
0.0047576355
 40
0.0068734484
 40
0.0118957681
 40
0.0179661187
 40
0.0250727554
 40
0.0332011868
 40
0.0423366517
 40
0.0524616315
 40
0.0635541262
 40
0.0755916711
 40
0.1024033662
 40
0.1326727514
 40
0.1661480884
 40
0.2025473989
 40
0.2415609549
 40
0.2828571656
 40
0.3260806943
 40
0.3708592121
 40
0.416804688
 40
0.5105847045
 40
0.5575946062
 40
0.6041294472
 40
0.6497743215
 40
0.6941214205
 40
0.7367721479
 40
0.7773413243
 40
0.8154609385
 40
0.85078052
 40
0.8829757861
 40
0.8978072308
 40
0.9117485948
 40
0.9247661256
 40
0.9368299491
 40
0.9479124715
 40
0.9579863265
 40
0.9670277336
 40
0.9750164694
 40
0.9819326444
 40
0.9849829784
 40
0.9877594044
 40
0.9902605428
 40
0.9924850817
 40
0.9944318167
 40
0.996099726
 40
0.9974884176
 40
0.9985988041
 40
0.9990503869
 40
0.9994335998
 40
0.9997494893
 40
1.0
 40
1.0
 40
1.0
 40
1.0
 10
5.7875147789
 20
2.6740914814
 30
0.0
 10
5.7871702646
 20
2.6740304255
 30
0.0
 10
5.7864091691
 20
2.6739118619
 30
0.0
 10
5.7851590307
 20
2.6737490968
 30
0.0
 10
5.7836967073
 20
2.6735856586
 30
0.0
 10
5.7813261009
 20
2.6733536265
 30
0.0
 10
5.7778375643
 20
2.6730701931
 30
0.0
 10
5.773026288
 20
2.672744179
 30
0.0
 10
5.76739046
 20
2.6724168625
 30
0.0
 10
5.7609413729
 20
2.6720883459
 30
0.0
 10
5.7536916441
 20
2.6717590251
 30
0.0
 10
5.7456558396
 20
2.6714290416
 30
0.0
 10
5.7368505141
 20
2.6710984196
 30
0.0
 10
5.7236254712
 20
2.6706402946
 30
0.0
 10
5.7053199404
 20
2.6700741947
 30
0.0
 10
5.6813344432
 20
2.6694140331
 30
0.0
 10
5.6548077246
 20
2.6687517338
 30
0.0
 10
5.625963471
 20
2.6680874971
 30
0.0
 10
5.5950464646
 20
2.6674215585
 30
0.0
 10
5.5623208968
 20
2.6667541191
 30
0.0
 10
5.5280675254
 20
2.6660852425
 30
0.0
 10
5.4925820475
 20
2.6654150286
 30
0.0
 10
5.4437027025
 20
2.6645135988
 30
0.0
 10
5.3942318491
 20
2.6636212133
 30
0.0
 10
5.3446049324
 20
2.6627219576
 30
0.0
 10
5.3077303367
 20
2.6620459009
 30
0.0
 10
5.2715614377
 20
2.6613688223
 30
0.0
 10
5.2364219068
 20
2.6606908067
 30
0.0
 10
5.2026275489
 20
2.6600119263
 30
0.0
 10
5.170483639
 20
2.6593322553
 30
0.0
 10
5.1402827176
 20
2.6586520136
 30
0.0
 10
5.112301229
 20
2.6579712891
 30
0.0
 10
5.0904898306
 20
2.6573892432
 30
0.0
 10
5.0743420894
 20
2.6569187029
 30
0.0
 10
5.0632743033
 20
2.6565753842
 30
0.0
 10
5.0529402287
 20
2.6562319148
 30
0.0
 10
5.0433641075
 20
2.6558883436
 30
0.0
 10
5.0345685069
 20
2.6555447848
 30
0.0
 10
5.0265744143
 20
2.6552012583
 30
0.0
 10
5.019400896
 20
2.6548579245
 30
0.0
 10
5.0130651169
 20
2.6545150008
 30
0.0
 10
5.0083166839
 20
2.6542189183
 30
0.0
 10
5.0049487628
 20
2.6539784931
 30
0.0
 10
5.0027488752
 20
2.6538058869
 30
0.0
 10
5.0007685255
 20
2.653633413
 30
0.0
 10
4.9990089177
 20
2.6534611397
 30
0.0
 10
4.9974712537
 20
2.6532891611
 30
0.0
 10
4.9961565347
 20
2.6531177537
 30
0.0
 10
4.995065599
 20
2.6529469679
 30
0.0
 10
4.9942977634
 20
2.6527976004
 30
0.0
 10
4.9937972562
 20
2.6526741313
 30
0.0
 10
4.9935045318
 20
2.6525882774
 30
0.0
 10
4.9932677304
 20
2.6525028212
 30
0.0
 10
4.9931313332
 20
2.6524390805
 30
0.0
 10
4.9930738446
 20
2.6524058992
 30
0.0
 11
5.7875147789
 21
2.6740914814
 31
0.0
 11
5.786478155
 21
2.6739266413
 31
0.0
 11
5.7852282983
 21
2.6737616672
 31
0.0
 11
5.7837660711
 21
2.6735965748
 31
0.0
 11
5.7820923356
 21
2.6734313795
 31
0.0
 11
5.7781137889
 21
2.673100743
 31
0.0
 11
5.7732998002
 21
2.6727698749
 31
0.0
 11
5.7676604165
 21
2.6724388025
 31
0.0
 11
5.7612075939
 21
2.6721074938
 31
0.0
 11
5.7539533507
 21
2.6717759161
 31
0.0
 11
5.7459118093
 21
2.6714440511
 31
0.0
 11
5.7371005994
 21
2.6711119052
 31
0.0
 11
5.7275376834
 21
2.6707794869
 31
0.0
 11
5.7062353582
 21
2.6701138511
 31
0.0
 11
5.6821833434
 21
2.6694471296
 31
0.0
 11
5.6555820474
 21
2.6687793033
 31
0.0
 11
5.6266558255
 21
2.6681103701
 31
0.0
 11
5.5956510352
 21
2.6674403269
 31
0.0
 11
5.5628313761
 21
2.6667691686
 31
0.0
 11
5.5284794003
 21
2.6660968867
 31
0.0
 11
5.4928911505
 21
2.6654234725
 31
0.0
 11
5.4563751403
 21
2.6647489174
 31
0.0
 11
5.3818413064
 21
2.6633963529
 31
0.0
 11
5.3444791014
 21
2.6627183405
 31
0.0
 11
5.307494608
 21
2.662039177
 31
0.0
 11
5.2712176958
 21
2.6613588606
 31
0.0
 11
5.2359725994
 21
2.6606773847
 31
0.0
 11
5.2020762412
 21
2.6599947361
 31
0.0
 11
5.1698348941
 21
2.6593108958
 31
0.0
 11
5.1395412068
 21
2.6586258577
 31
0.0
 11
5.1114739197
 21
2.6579396237
 31
0.0
 11
5.0858910099
 21
2.6572521942
 31
0.0
 11
5.0741064604
 21
2.6569080304
 31
0.0
 11
5.06302977
 21
2.6565635662
 31
0.0
 11
5.0526878284
 21
2.6562188004
 31
0.0
 11
5.043104458
 21
2.65587373
 31
0.0
 11
5.0343016902
 21
2.6555283504
 31
0.0
 11
5.0263014083
 21
2.6551826573
 31
0.0
 11
5.0191226916
 21
2.6548366542
 31
0.0
 11
5.0127818635
 21
2.6544903518
 31
0.0
 11
5.0072951047
 21
2.6541437608
 31
0.0
 11
5.0048765906
 21
2.6539703567
 31
0.0
 11
5.0026764275
 21
2.6537968746
 31
0.0
 11
5.0006958532
 21
2.6536233094
 31
0.0
 11
4.9989361059
 21
2.6534496562
 31
0.0
 11
4.9973984234
 21
2.65327591
 31
0.0
 11
4.9960840425
 21
2.6531020658
 31
0.0
 11
4.9949939563
 21
2.6529281254
 31
0.0
 11
4.9941286303
 21
2.6527541053
 31
0.0
 11
4.9937803762
 21
2.652667071
 31
0.0
 11
4.9934884609
 21
2.6525800238
 31
0.0
 11
4.9932529338
 21
2.6524929657
 31
0.0
 11
4.9930738446
 21
2.6524058992
 31
0.0
  0
SPLINE
  5
280
100
AcDbEntity
  8
0
100
AcDbSpline
 62
6
  6
CONTINUOUS
 70
0
 71
3
 72
24
 73
20
 74
18
 42
0.0000001
 43
0.0000001
 44
0.0000000001
 12
-0.0995507821
 22
-0.0575662797
 32
0.0
 13
-0.1144217744
 23
-0.0114844381
 33
0.0
 40
0.0
 40
0.0
 40
0.0
 40
0.0
 40
0.010385857
 40
0.0220912208
 40
0.0351466585
 40
0.0495706567
 40
0.0653749886
 40
0.0825672406
 40
0.1211302505
 40
0.1652766795
 40
0.2149880756
 40
0.2702072884
 40
0.3308663133
 40
0.3968917596
 40
0.4681939786
 40
0.5446663781
 40
0.6261997963
 40
0.8039355264
 40
1.0
 40
1.0
 40
1.0
 40
1.0
 10
5.7681059379
 20
2.6538078251
 30
0.0
 10
5.7677612979
 20
2.6536085333
 30
0.0
 10
5.767011528
 20
2.653213337
 30
0.0
 10
5.7657852279
 20
2.6526542031
 30
0.0
 10
5.7643911014
 20
2.6520939714
 30
0.0
 10
5.7628294672
 20
2.6515326186
 30
0.0
 10
5.7611007017
 20
2.6509701225
 30
0.0
 10
5.7584711411
 20
2.6501884643
 30
0.0
 10
5.7547650882
 20
2.6492200885
 30
0.0
 10
5.7498153383
 20
2.6480925558
 30
0.0
 10
5.7442136931
 20
2.6469603359
 30
0.0
 10
5.7379686319
 20
2.6458233097
 30
0.0
 10
5.7310896787
 20
2.6446818904
 30
0.0
 10
5.7235871755
 20
2.6435364172
 30
0.0
 10
5.7154726136
 20
2.6423869961
 30
0.0
 10
5.7067586486
 20
2.6412334156
 30
0.0
 10
5.6939873698
 20
2.6396437969
 30
0.0
 10
5.676645459
 20
2.6376654293
 30
0.0
 10
5.6623936746
 20
2.6361820448
 30
0.0
 10
5.6549156596
 20
2.6354314814
 30
0.0
 11
5.7681059379
 21
2.6538078251
 31
0.0
 11
5.7670516671
 21
2.6532466133
 31
0.0
 11
5.76582853
 21
2.6526845978
 31
0.0
 11
5.7644366866
 21
2.6521217753
 31
0.0
 11
5.7628766732
 21
2.6515581413
 31
0.0
 11
5.7611491013
 21
2.6509936914
 31
0.0
 11
5.7592545821
 21
2.6504284209
 31
0.0
 11
5.7549671471
 21
2.6492953998
 31
0.0
 11
5.7500192692
 21
2.6481590415
 31
0.0
 11
5.7444173885
 21
2.6470193201
 31
0.0
 11
5.7381710956
 21
2.6458762313
 31
0.0
 11
5.7312903663
 21
2.644729774
 31
0.0
 11
5.7237852289
 21
2.6435799444
 31
0.0
 11
5.7156672201
 21
2.6424266764
 31
0.0
 11
5.7069495709
 21
2.6412698334
 31
0.0
 11
5.6976456025
 21
2.6401092751
 31
0.0
 11
5.6773401011
 21
2.6377768824
 31
0.0
 11
5.6549156596
 21
2.6354314814
 31
0.0
  0
SPLINE
  5
281
100
AcDbEntity
  8
0
100
AcDbSpline
 62
6
  6
CONTINUOUS
 70
0
 71
3
 72
24
 73
20
 74
18
 42
0.0000001
 43
0.0000001
 44
0.0000000001
 12
0.0951479945
 22
0.0043613674
 32
0.0
 13
0.08244527
 23
0.0476963294
 33
0.0
 40
0.0
 40
0.0
 40
0.0
 40
0.0
 40
0.2110011612
 40
0.3997821672
 40
0.564746544
 40
0.6379402874
 40
0.7047718312
 40
0.765125059
 40
0.8189058309
 40
0.866024954
 40
0.906397734
 40
0.9240344974
 40
0.9399673823
 40
0.9541955614
 40
0.9667202347
 40
0.977545914
 40
0.9866828928
 40
0.9941524585
 40
1.0
 40
1.0
 40
1.0
 40
1.0
 10
5.6549156596
 20
2.6354314814
 30
0.0
 10
5.6616077721
 20
2.6357382326
 30
0.0
 10
5.6742861228
 20
2.636345074
 30
0.0
 10
5.6921909837
 20
2.6373018592
 30
0.0
 10
5.7057211267
 20
2.6381262569
 30
0.0
 10
5.7153812604
 20
2.6387951223
 30
0.0
 10
5.7217249861
 20
2.6392761074
 30
0.0
 10
5.7274504635
 20
2.6397565838
 30
0.0
 10
5.73254774
 20
2.6402362171
 30
0.0
 10
5.7370075859
 20
2.640714766
 30
0.0
 10
5.7403199004
 20
2.6411284914
 30
0.0
 10
5.7426433834
 20
2.6414647764
 30
0.0
 10
5.7441418331
 20
2.6417052434
 30
0.0
 10
5.7454757321
 20
2.6419453641
 30
0.0
 10
5.7466446657
 20
2.6421850414
 30
0.0
 10
5.7476482256
 20
2.6424240885
 30
0.0
 10
5.7484864823
 20
2.6426622308
 30
0.0
 10
5.7491592487
 20
2.6428991148
 30
0.0
 10
5.7495445748
 20
2.643076769
 30
0.0
 10
5.7497052755
 20
2.6431697378
 30
0.0
 11
5.6549156596
 21
2.6354314814
 31
0.0
 11
5.6749898021
 21
2.6363984312
 31
0.0
 11
5.6929447414
 21
2.6373660619
 31
0.0
 11
5.7086274457
 21
2.6383334133
 31
0.0
 11
5.7155822032
 21
2.6388170066
 31
0.0
 11
5.7219293713
 21
2.6393006019
 31
0.0
 11
5.7276575096
 21
2.6397842257
 31
0.0
 11
5.7327571323
 21
2.6402678706
 31
0.0
 11
5.7372189929
 21
2.640751525
 31
0.0
 11
5.7410338788
 21
2.6412351776
 31
0.0
 11
5.7426962466
 21
2.6414770009
 31
0.0
 11
5.7441944297
 21
2.6417188225
 31
0.0
 11
5.7455278843
 21
2.6419606428
 31
0.0
 11
5.7466960668
 21
2.6422024621
 31
0.0
 11
5.7476984334
 21
2.6424442809
 31
0.0
 11
5.7485344403
 21
2.6426860996
 31
0.0
 11
5.7492035439
 21
2.6429279184
 31
0.0
 11
5.7497052755
 21
2.6431697378
 31
0.0
  0
SPLINE
  5
282
100
AcDbEntity
  8
0
100
AcDbSpline
 62
6
  6
CONTINUOUS
 70
0
 71
3
 72
63
 73
59
 74
57
 42
0.0000001
 43
0.0000001
 44
0.0000000001
 12
0.0002339635
 22
0.7411259406
 32
0.0
 13
0.6864452221
 23
0.2793933995
 33
0.0
 40
0.0
 40
0.0
 40
0.0
 40
0.0
 40
0.000187186
 40
0.0004000207
 40
0.0006565504
 40
0.0009672944
 40
0.0013381836
 40
0.0017726891
 40
0.0022729563
 40
0.0028403814
 40
0.0041797904
 40
0.0057949272
 40
0.0076873016
 40
0.0098573786
 40
0.0123050536
 40
0.0150298857
 40
0.0180312187
 40
0.0213078825
 40
0.0286793639
 40
0.0371279185
 40
0.0466363585
 40
0.057184819
 40
0.0687479896
 40
0.0812996978
 40
0.1092568054
 40
0.1407991585
 40
0.1756414695
 40
0.2134632464
 40
0.2539193238
 40
0.2966392756
 40
0.3412310925
 40
0.387287272
 40
0.4343847436
 40
0.4820926814
 40
0.5299732852
 40
0.5775882288
 40
0.6245005211
 40
0.6702810879
 40
0.7145094052
 40
0.7567812081
 40
0.7967088502
 40
0.8339264555
 40
0.8680947842
 40
0.8988993193
 40
0.9260617465
 40
0.938197145
 40
0.9493327478
 40
0.9594431949
 40
0.9685043143
 40
0.9764976731
 40
0.9834071245
 40
0.9892174512
 40
0.9917071212
 40
0.9939191161
 40
0.9958533742
 40
0.9975103567
 40
0.9988914689
 40
1.0
 40
1.0
 40
1.0
 40
1.0
 10
5.009548495
 20
2.6794886203
 30
0.0
 10
5.0095485096
 20
2.6795348631
 30
0.0
 10
5.0095694139
 20
2.6796343092
 30
0.0
 10
5.0096561651
 20
2.6797738935
 30
0.0
 10
5.0097941069
 20
2.6799101217
 30
0.0
 10
5.0099832401
 20
2.6800451901
 30
0.0
 10
5.0102241586
 20
2.6801800897
 30
0.0
 10
5.0105173718
 20
2.6803150822
 30
0.0
 10
5.0108631565
 20
2.6804502584
 30
0.0
 10
5.0114264209
 20
2.6806413941
 30
0.0
 10
5.012265103
 20
2.6808751579
 30
0.0
 10
5.0134321947
 20
2.6811438264
 30
0.0
 10
5.0148088798
 20
2.6814132889
 30
0.0
 10
5.0163944213
 20
2.6816834245
 30
0.0
 10
5.0181881441
 20
2.681953994
 30
0.0
 10
5.0201892338
 20
2.682224891
 30
0.0
 10
5.0223967686
 20
2.6824960313
 30
0.0
 10
5.0257477036
 20
2.682872724
 30
0.0
 10
5.0304426149
 20
2.6833377267
 30
0.0
 10
5.0366765802
 20
2.6838776284
 30
0.0
 10
5.0436979169
 20
2.6844184166
 30
0.0
 10
5.0514906725
 20
2.6849598418
 30
0.0
 10
5.0600368441
 20
2.6855018732
 30
0.0
 10
5.0728789421
 20
2.686252372
 30
0.0
 10
5.090654675
 20
2.6871782935
 30
0.0
 10
5.1139361816
 20
2.6882565003
 30
0.0
 10
5.1396569526
 20
2.6893363806
 30
0.0
 10
5.1675814882
 20
2.6904177765
 30
0.0
 10
5.1974534499
 20
2.6915001028
 30
0.0
 10
5.2289989012
 20
2.6925831308
 30
0.0
 10
5.2619285703
 20
2.6936666929
 30
0.0
 10
5.2959402232
 20
2.69475057
 30
0.0
 10
5.3307220602
 20
2.6958347141
 30
0.0
 10
5.3659548183
 20
2.6969189601
 30
0.0
 10
5.4013154718
 20
2.6980032638
 30
0.0
 10
5.4364794776
 20
2.6990874897
 30
0.0
 10
5.4711244411
 20
2.7001715943
 30
0.0
 10
5.5049323581
 20
2.7012554079
 30
0.0
 10
5.5375932857
 20
2.7023388743
 30
0.0
 10
5.5688074889
 20
2.703421777
 30
0.0
 10
5.5982886874
 20
2.7045039138
 30
0.0
 10
5.6257665928
 20
2.7055850667
 30
0.0
 10
5.6509889096
 20
2.7066645721
 30
0.0
 10
5.6737247566
 20
2.7077422724
 30
0.0
 10
5.6910183718
 20
2.7086687554
 30
0.0
 10
5.7034549043
 20
2.7094203453
 30
0.0
 10
5.7116837523
 20
2.7099621755
 30
0.0
 10
5.7191513835
 20
2.7105033126
 30
0.0
 10
5.7258405532
 20
2.7110437757
 30
0.0
 10
5.7317362001
 20
2.7115830034
 30
0.0
 10
5.7368250706
 20
2.7121206294
 30
0.0
 10
5.7405538132
 20
2.7125870532
 30
0.0
 10
5.743122764
 20
2.7129678019
 30
0.0
 10
5.7447398146
 20
2.7132380333
 30
0.0
 10
5.7461480306
 20
2.7135076473
 30
0.0
 10
5.7473469911
 20
2.7137763764
 30
0.0
 10
5.7483361262
 20
2.7140439064
 30
0.0
 10
5.7489193303
 20
2.7142421485
 30
0.0
 10
5.749172979
 20
2.7143453872
 30
0.0
 11
5.009548495
 21
2.6794886203
 31
0.0
 11
5.0095750699
 21
2.6796247796
 31
0.0
 11
5.0096547049
 21
2.6797609388
 31
0.0
 11
5.0097873946
 21
2.6798970981
 31
0.0
 11
5.0099731337
 21
2.6800332573
 31
0.0
 11
5.0102119165
 21
2.6801694166
 31
0.0
 11
5.0105037378
 21
2.6803055758
 31
0.0
 11
5.010848592
 21
2.6804417351
 31
0.0
 11
5.0112464727
 21
2.6805778943
 31
0.0
 11
5.0122010605
 21
2.6808502128
 31
0.0
 11
5.0133666931
 21
2.6811225313
 31
0.0
 11
5.0147424891
 21
2.6813948498
 31
0.0
 11
5.0163275673
 21
2.6816671683
 31
0.0
 11
5.0181210465
 21
2.6819394868
 31
0.0
 11
5.0201220452
 21
2.6822118053
 31
0.0
 11
5.0223296789
 21
2.6824841238
 31
0.0
 11
5.0247427826
 21
2.6827564422
 31
0.0
 11
5.0301787632
 21
2.6833010792
 31
0.0
 11
5.0364164745
 21
2.6838457162
 31
0.0
 11
5.0434423482
 21
2.6843903532
 31
0.0
 11
5.0512410917
 21
2.6849349902
 31
0.0
 11
5.0597935336
 21
2.6854796272
 31
0.0
 11
5.0690799731
 21
2.6860242641
 31
0.0
 11
5.0897710595
 21
2.6871135381
 31
0.0
 11
5.113122525
 21
2.6882028121
 31
0.0
 11
5.1389220821
 21
2.689292086
 31
0.0
 11
5.1669316108
 21
2.69038136
 31
0.0
 11
5.1968948677
 21
2.691470634
 31
0.0
 11
5.2285369903
 21
2.6925599079
 31
0.0
 11
5.2615671879
 21
2.6936491819
 31
0.0
 11
5.295683234
 21
2.6947384559
 31
0.0
 11
5.3305713932
 21
2.6958277298
 31
0.0
 11
5.3659122024
 21
2.6969170038
 31
0.0
 11
5.4013810395
 21
2.6980062778
 31
0.0
 11
5.4366528955
 21
2.6990955517
 31
0.0
 11
5.4714037464
 21
2.7001848257
 31
0.0
 11
5.505315424
 21
2.7012740997
 31
0.0
 11
5.538076075
 21
2.7023633736
 31
0.0
 11
5.569385864
 21
2.7034526476
 31
0.0
 11
5.5989572216
 21
2.7045419216
 31
0.0
 11
5.6265186391
 21
2.7056311955
 31
0.0
 11
5.6518182367
 21
2.7067204695
 31
0.0
 11
5.6746222772
 21
2.7078097434
 31
0.0
 11
5.6947235657
 21
2.7088990174
 31
0.0
 11
5.703700919
 21
2.7094436544
 31
0.0
 11
5.7119358126
 21
2.7099882914
 31
0.0
 11
5.719409108
 21
2.7105329284
 31
0.0
 11
5.7261024168
 21
2.7110775653
 31
0.0
 11
5.7320014137
 21
2.7116222023
 31
0.0
 11
5.7370931419
 21
2.7121668393
 31
0.0
 11
5.7413647448
 21
2.7127114763
 31
0.0
 11
5.7431896982
 21
2.7129837948
 31
0.0
 11
5.7448062892
 21
2.7132561133
 31
0.0
 11
5.7462137152
 21
2.7135284318
 31
0.0
 11
5.7474111738
 21
2.7138007503
 31
0.0
 11
5.7483978625
 21
2.7140730687
 31
0.0
 11
5.749172979
 21
2.7143453872
 31
0.0
  0
LINE
  5
283
100
AcDbEntity
  8
0
100
AcDbLine
 62
6
  6
CONTINUOUS
 10
5.749172979
 20
2.7143453872
 11
5.7497052647
 21
2.7145997381
  0
SPLINE
  5
284
100
AcDbEntity
  8
0
100
AcDbSpline
 62
6
  6
CONTINUOUS
 70
0
 71
3
 72
76
 73
72
 74
70
 42
0.0000001
 43
0.0000001
 44
0.0000000001
 12
-0.7350539834
 22
0.0
 32
0.0
 13
0.7350539834
 23
0.0
 33
0.0
 40
0.0
 40
0.0
 40
0.0
 40
0.0
 40
0.0173116795
 40
0.02596436
 40
0.0345916052
 40
0.0517186894
 40
0.0686698095
 40
0.0770719486
 40
0.0854212408
 40
0.1019674292
 40
0.1183136654
 40
0.1344687892
 40
0.150459653
 40
0.1662957146
 40
0.1819995516
 40
0.1975924291
 40
0.2284816777
 40
0.2438188857
 40
0.2590946906
 40
0.2743170808
 40
0.2894968329
 40
0.3046408993
 40
0.3197530872
 40
0.3348390514
 40
0.3499041489
 40
0.3649516392
 40
0.3799837192
 40
0.3950036544
 40
0.4100140879
 40
0.4250166616
 40
0.4400126597
 40
0.4550038707
 40
0.4699918171
 40
0.4849776469
 40
0.4999622896
 40
0.5149468412
 40
0.5299325122
 40
0.5449206046
 40
0.5599123376
 40
0.574908693
 40
0.5899111232
 40
0.6049217015
 40
0.6199428042
 40
0.6349759194
 40
0.6500232986
 40
0.6650886735
 40
0.6801768759
 40
0.6952908376
 40
0.7104343855
 40
0.7256144655
 40
0.7408404211
 40
0.7561177528
 40
0.7714537718
 40
0.7868622654
 40
0.802358807
 40
0.8179510466
 40
0.8336551633
 40
0.8494966036
 40
0.865486737
 40
0.8816442747
 40
0.8979987501
 40
0.9145471699
 40
0.9228987923
 40
0.9313052605
 40
0.9397634717
 40
0.9482680354
 40
0.9568156781
 40
0.9654055358
 40
0.9740344087
 40
0.9826879474
 40
1.0
 40
1.0
 40
1.0
 40
1.0
 10
6.6072377253
 20
3.908864298
 30
0.0
 10
6.6029960523
 20
3.908864298
 30
0.0
 10
6.5966271713
 20
3.9092287247
 30
0.0
 10
6.5882313973
 20
3.9104096534
 30
0.0
 10
6.579955975
 20
3.9120392695
 30
0.0
 10
6.5698699308
 20
3.9149038829
 30
0.0
 10
6.5601879559
 20
3.9187743176
 30
0.0
 10
6.5527649549
 20
3.9223985113
 30
0.0
 10
6.5456104671
 20
3.9263251567
 30
0.0
 10
6.537094572
 20
3.9317916854
 30
0.0
 10
6.527560097
 20
3.9391285364
 30
0.0
 10
6.518737471
 20
3.9471038458
 30
0.0
 10
6.5106075082
 20
3.9556092145
 30
0.0
 10
6.5031334141
 20
3.9645505827
 30
0.0
 10
6.4962829065
 20
3.9738563589
 30
0.0
 10
6.4879573446
 20
3.9866247205
 30
0.0
 10
6.4806741452
 20
3.9999373505
 30
0.0
 10
6.4743374212
 20
4.0136124752
 30
0.0
 10
6.4700308849
 20
4.0239878652
 30
0.0
 10
6.4661285791
 20
4.0344799272
 30
0.0
 10
6.4626052635
 20
4.0450710286
 30
0.0
 10
6.4594338278
 20
4.0557442157
 30
0.0
 10
6.4565862457
 20
4.0664843073
 30
0.0
 10
6.4540430629
 20
4.0772804662
 30
0.0
 10
6.4517859688
 20
4.0881236757
 30
0.0
 10
6.449795883
 20
4.0990054628
 30
0.0
 10
6.4480545176
 20
4.1099184904
 30
0.0
 10
6.4465507337
 20
4.1208575427
 30
0.0
 10
6.4452728477
 20
4.1318179144
 30
0.0
 10
6.4442088408
 20
4.1427951408
 30
0.0
 10
6.4433484265
 20
4.1537854298
 30
0.0
 10
6.4426871184
 20
4.1647858788
 30
0.0
 10
6.4422196896
 20
4.175793743
 30
0.0
 10
6.4419407323
 20
4.1868063542
 30
0.0
 10
6.4418463445
 20
4.1978212576
 30
0.0
 10
6.4419384156
 20
4.2088361541
 30
0.0
 10
6.4422181082
 20
4.2198487358
 30
0.0
 10
6.4426866455
 20
4.2308566651
 30
0.0
 10
6.4433457196
 20
4.2418574838
 30
0.0
 10
6.4442036063
 20
4.2528481635
 30
0.0
 10
6.4452681386
 20
4.2638254461
 30
0.0
 10
6.4465473713
 20
4.2747859348
 30
0.0
 10
6.4480487998
 20
4.285725868
 30
0.0
 10
6.4497872711
 20
4.2966398931
 30
0.0
 10
6.4517780961
 20
4.3075218718
 30
0.0
 10
6.4540366914
 20
4.3183653475
 30
0.0
 10
6.4565771481
 20
4.3291631941
 30
0.0
 10
6.459421671
 20
4.3399050113
 30
0.0
 10
6.4625944278
 20
4.3505782596
 30
0.0
 10
6.466119236
 20
4.3611696577
 30
0.0
 10
6.4700178105
 20
4.3716645805
 30
0.0
 10
6.4743219947
 20
4.3820416777
 30
0.0
 10
6.479066047
 20
4.3922751064
 30
0.0
 10
6.4842822683
 20
4.4023372362
 30
0.0
 10
6.4900013883
 20
4.4121957827
 30
0.0
 10
6.496266692
 20
4.4218043782
 30
0.0
 10
6.5031184591
 20
4.4311103351
 30
0.0
 10
6.5105895914
 20
4.4400557954
 30
0.0
 10
6.5187198353
 20
4.4485634169
 30
0.0
 10
6.527544552
 20
4.4565399933
 30
0.0
 10
6.537079742
 20
4.4638809631
 30
0.0
 10
6.5455973208
 20
4.4693509181
 30
0.0
 10
6.5527535253
 20
4.473278696
 30
0.0
 10
6.5583079988
 20
4.475990172
 30
0.0
 10
6.5640231967
 20
4.4784408181
 30
0.0
 10
6.5698870476
 20
4.4806129337
 30
0.0
 10
6.5758864908
 20
4.4824881747
 30
0.0
 10
6.5820072942
 20
4.484047343
 30
0.0
 10
6.5882304382
 20
4.4852728915
 30
0.0
 10
6.5966267212
 20
4.4864540552
 30
0.0
 10
6.6029959609
 20
4.4868186648
 30
0.0
 10
6.6072377253
 20
4.4868186648
 30
0.0
 11
6.6072377253
 21
3.908864298
 31
0.0
 11
6.5945329792
 21
3.9095823048
 31
0.0
 11
6.5882347373
 21
3.9104678164
 31
0.0
 11
6.5820128572
 21
3.9116936697
 31
0.0
 11
6.5698994756
 21
3.9151225547
 31
0.0
 11
6.5583263857
 21
3.9197393608
 31
0.0
 11
6.5527760119
 21
3.9224479853
 31
0.0
 11
6.5473951499
 21
3.9253994778
 31
0.0
 11
6.5371539551
 21
3.9319600024
 31
0.0
 11
6.5276253287
 21
3.9392794491
 31
0.0
 11
6.5188090825
 21
3.9472347474
 31
0.0
 11
6.5106792179
 21
3.9557238758
 31
0.0
 11
6.5032072627
 21
3.9646495617
 31
0.0
 11
6.4963571063
 21
3.973940422
 31
0.0
 11
6.4900892938
 21
3.9835364084
 31
0.0
 11
6.4791470013
 21
4.0034310132
 31
0.0
 11
6.4744008332
 21
4.0136569438
 31
0.0
 11
6.4700910988
 21
4.0240254696
 31
0.0
 11
6.4661864747
 21
4.0345113585
 31
0.0
 11
6.4626599263
 21
4.0450973407
 31
0.0
 11
6.459484648
 21
4.0557665719
 31
0.0
 11
6.4566346297
 21
4.0665030119
 31
0.0
 11
6.4540890605
 21
4.0772958779
 31
0.0
 11
6.4518292176
 21
4.0881364984
 31
0.0
 11
6.4498363855
 21
4.0990162088
 31
0.0
 11
6.4480934525
 21
4.1099272678
 31
0.0
 11
6.4465879364
 21
4.1208646006
 31
0.0
 11
6.4453081849
 21
4.1318236103
 31
0.0
 11
6.4442425627
 21
4.1427997049
 31
0.0
 11
6.4433814874
 21
4.1537888891
 31
0.0
 11
6.4427193684
 21
4.1647883281
 31
0.0
 11
6.4422510742
 21
4.1757953205
 31
0.0
 11
6.4419714859
 21
4.1868071656
 31
0.0
 11
6.4418774202
 21
4.1978212853
 31
0.0
 11
6.441969678
 21
4.2088353532
 31
0.0
 11
6.4422495513
 21
4.2198470744
 31
0.0
 11
6.4427183329
 21
4.2308541534
 31
0.0
 11
6.4433787359
 21
4.24185408
 31
0.0
 11
6.444237849
 21
4.2528436813
 31
0.0
 11
6.4453036008
 21
4.2638196573
 31
0.0
 11
6.4465839198
 21
4.2747787078
 31
0.0
 11
6.4480876533
 21
4.2857171521
 31
0.0
 11
6.449828433
 21
4.2966293255
 31
0.0
 11
6.4518214421
 21
4.3075089203
 31
0.0
 11
6.4540818648
 21
4.3183496282
 31
0.0
 11
6.4566255171
 21
4.3291446365
 31
0.0
 11
6.4594733945
 21
4.3398829935
 31
0.0
 11
6.46264903
 21
4.3505517207
 31
0.0
 11
6.466175974
 21
4.3611378252
 31
0.0
 11
6.4700784698
 21
4.3716273026
 31
0.0
 11
6.4743865137
 21
4.3819977462
 31
0.0
 11
6.4791329516
 21
4.392222588
 31
0.0
 11
6.4843506498
 21
4.402275229
 31
0.0
 11
6.4900737773
 21
4.4121238844
 31
0.0
 11
6.4963407503
 21
4.4217198591
 31
0.0
 11
6.5031908492
 21
4.4310110172
 31
0.0
 11
6.510662794
 21
4.4399418674
 31
0.0
 11
6.5187911015
 21
4.4484317433
 31
0.0
 11
6.5276083796
 21
4.4563885465
 31
0.0
 11
6.5371404752
 21
4.4637134183
 31
0.0
 11
6.5473819923
 21
4.4702764804
 31
0.0
 11
6.5527642754
 21
4.4732289437
 31
0.0
 11
6.5583175842
 21
4.4759388094
 31
0.0
 11
6.5640320726
 21
4.4783880374
 31
0.0
 11
6.5698945687
 21
4.4805583045
 31
0.0
 11
6.5758918817
 21
4.482431286
 31
0.0
 11
6.5820108102
 21
4.4839886637
 31
0.0
 11
6.5882338654
 21
4.4852147416
 31
0.0
 11
6.5945327159
 21
4.4861004555
 31
0.0
 11
6.6072377253
 21
4.4868186648
 31
0.0
  0
SPLINE
  5
285
100
AcDbEntity
  8
0
100
AcDbSpline
 62
6
  6
CONTINUOUS
 70
0
 71
3
 72
68
 73
64
 74
62
 42
0.0000001
 43
0.0000001
 44
0.0000000001
 12
-0.7350258459
 22
0.0
 32
0.0
 13
0.7350258459
 23
-0.0
 33
0.0
 40
0.0
 40
0.0
 40
0.0
 40
0.0
 40
0.0173174246
 40
0.0259737759
 40
0.0346051833
 40
0.0431968446
 40
0.0517452488
 40
0.0602496866
 40
0.0687070538
 40
0.0771122581
 40
0.0854637997
 40
0.1020134205
 40
0.1183646193
 40
0.1345233183
 40
0.1505175256
 40
0.1663578905
 40
0.1820650505
 40
0.1976612673
 40
0.2285578276
 40
0.2438981835
 40
0.2591771274
 40
0.2744027434
 40
0.2895855671
 40
0.3047322408
 40
0.3198471284
 40
0.3349363873
 40
0.3500046695
 40
0.3800880697
 40
0.3951115548
 40
0.4101251263
 40
0.4251306263
 40
0.4401300393
 40
0.4551247673
 40
0.4701159538
 40
0.5000918264
 40
0.5300677705
 40
0.5450590555
 40
0.5600539435
 40
0.5750535807
 40
0.5900593239
 40
0.605073149
 40
0.620097069
 40
0.6501809997
 40
0.680336393
 40
0.695450843
 40
0.7105962884
 40
0.7257776469
 40
0.7410013936
 40
0.7562768461
 40
0.7716116422
 40
0.7870175678
 40
0.802506668
 40
0.8180928498
 40
0.8337926353
 40
0.8655854715
 40
0.8817351746
 40
0.8980712223
 40
0.9146108224
 40
0.9313541353
 40
0.9482980564
 40
0.9654193666
 40
0.9826864665
 40
1.0
 40
1.0
 40
1.0
 40
1.0
 10
6.6072377253
 20
4.501364298
 30
0.0
 10
6.6029948071
 20
4.501364298
 30
0.0
 10
6.5966238092
 20
4.5017293901
 30
0.0
 10
6.5882253134
 20
4.5029113079
 30
0.0
 10
6.5820007156
 20
4.504137265
 30
0.0
 10
6.575878906
 20
4.5056965658
 30
0.0
 10
6.5698791415
 20
4.5075719928
 30
0.0
 10
6.564015665
 20
4.5097442912
 30
0.0
 10
6.558301401
 20
4.5121951425
 30
0.0
 10
6.5527480757
 20
4.5149072113
 30
0.0
 10
6.5455926051
 20
4.5188355801
 30
0.0
 10
6.5370757493
 20
4.5243048873
 30
0.0
 10
6.5275407082
 20
4.5316450017
 30
0.0
 10
6.5187173062
 20
4.5396231224
 30
0.0
 10
6.5105872803
 20
4.5481316387
 30
0.0
 10
6.5031136261
 20
4.5570762847
 30
0.0
 10
6.4962630415
 20
4.5663847838
 30
0.0
 10
6.4879381086
 20
4.5791569654
 30
0.0
 10
6.4806560425
 20
4.5924733936
 30
0.0
 10
6.4743200524
 20
4.6061518922
 30
0.0
 10
6.4700144562
 20
4.6165297354
 30
0.0
 10
6.4661133345
 20
4.6270242492
 30
0.0
 10
6.4625912015
 20
4.6376175846
 30
0.0
 10
6.4594202416
 20
4.6482926096
 30
0.0
 10
6.4565734788
 20
4.659034652
 30
0.0
 10
6.4540319955
 20
4.6698331489
 30
0.0
 10
6.4510260885
 20
4.6842846577
 30
0.0
 10
6.4485472507
 20
4.69882448
 30
0.0
 10
6.4465442447
 20
4.7134183988
 30
0.0
 10
6.4452664223
 20
4.7243807874
 30
0.0
 10
6.4442022638
 20
4.7353599027
 30
0.0
 10
6.4433445483
 20
4.746352411
 30
0.0
 10
6.4426849363
 20
4.7573550402
 30
0.0
 10
6.4420611304
 20
4.7720335721
 30
0.0
 10
6.4417553564
 20
4.7903964359
 30
0.0
 10
6.4420641808
 20
4.8087592744
 30
0.0
 10
6.4426905459
 20
4.8234377787
 30
0.0
 10
6.4433521475
 20
4.8344404075
 30
0.0
 10
6.4442117508
 20
4.8454329195
 30
0.0
 10
6.4452779273
 20
4.8564120288
 30
0.0
 10
6.4465583525
 20
4.867374311
 30
0.0
 10
6.4485641282
 20
4.8819683093
 30
0.0
 10
6.451668569
 20
4.9001518796
 30
0.0
 10
6.4556537193
 20
4.9181883316
 30
0.0
 10
6.4594500575
 20
4.9324973862
 30
0.0
 10
6.4626248486
 20
4.9431705245
 30
0.0
 10
6.4661502419
 20
4.9537615539
 30
0.0
 10
6.4700540232
 20
4.9642533857
 30
0.0
 10
6.4743618576
 20
4.9746270658
 30
0.0
 10
6.4791080226
 20
4.9848574594
 30
0.0
 10
6.4843245135
 20
4.9949159507
 30
0.0
 10
6.4900469908
 20
5.004767346
 30
0.0
 10
6.4963148324
 20
5.014369263
 30
0.0
 10
6.505482387
 20
5.0268181811
 30
0.0
 10
6.51588884
 20
5.0385056797
 30
0.0
 10
6.5275836487
 20
5.0490723943
 30
0.0
 10
6.5371137494
 20
5.0564068154
 30
0.0
 10
6.5473599633
 20
5.0629789184
 30
0.0
 10
6.5582994494
 20
5.0686557029
 30
0.0
 10
6.5698791054
 20
5.0732819366
 30
0.0
 10
6.5820011113
 20
5.0767239486
 30
0.0
 10
6.5945160764
 20
5.0788352242
 30
0.0
 10
6.6029957604
 20
5.0793186648
 30
0.0
 10
6.6072377253
 20
5.0793186648
 30
0.0
 11
6.6072377253
 21
4.501364298
 31
0.0
 11
6.5945292873
 21
4.5020831852
 31
0.0
 11
6.5882286725
 21
4.5029694502
 31
0.0
 11
6.5820040505
 21
4.5041959569
 31
0.0
 11
6.5758840615
 21
4.5057535626
 31
0.0
 11
6.569886471
 21
4.5076267266
 31
0.0
 11
6.5640243949
 21
4.509797172
 31
0.0
 11
6.5583109311
 21
4.5122466119
 31
0.0
 11
6.5527590604
 21
4.5149567669
 31
0.0
 11
6.5473773372
 21
4.5179096387
 31
0.0
 11
6.5371355195
 21
4.5244730046
 31
0.0
 11
6.5276056521
 21
4.5317960683
 31
0.0
 11
6.5187889823
 21
4.5397541411
 31
0.0
 11
6.510659234
 21
4.5482461603
 31
0.0
 11
6.5031872488
 21
4.5571753648
 31
0.0
 11
6.4963373293
 21
4.5664688851
 31
0.0
 11
6.4900700146
 21
4.5760676041
 31
0.0
 11
6.4791289729
 21
4.5959680382
 31
0.0
 11
6.4743835206
 21
4.6061963759
 31
0.0
 11
6.4700747207
 21
4.6165673232
 31
0.0
 11
6.4661712132
 21
4.6270557007
 31
0.0
 11
6.4626457075
 21
4.6376439597
 31
0.0
 11
6.4594711283
 21
4.6483149537
 31
0.0
 11
6.4566220523
 21
4.6590532569
 31
0.0
 11
6.4540779252
 21
4.6698485149
 31
0.0
 11
6.4518190854
 21
4.6806913026
 31
0.0
 11
6.4480849219
 21
4.7024857964
 31
0.0
 11
6.4465810897
 21
4.713425568
 31
0.0
 11
6.4453017172
 21
4.7243865189
 31
0.0
 11
6.4442364727
 21
4.735364387
 31
0.0
 11
6.4433774454
 21
4.7463558261
 31
0.0
 11
6.4427168226
 21
4.7573575222
 31
0.0
 11
6.4422486244
 21
4.7683664803
 31
0.0
 11
6.4418782707
 21
4.7903964085
 31
0.0
 11
6.4422523232
 21
4.8124263268
 31
0.0
 11
6.4427224425
 21
4.8234352755
 31
0.0
 11
6.4433850259
 21
4.8344369716
 31
0.0
 11
6.4442459803
 21
4.8454284251
 31
0.0
 11
6.4453133179
 21
4.8564062695
 31
0.0
 11
6.4465951036
 21
4.8673671262
 31
0.0
 11
6.4481011574
 21
4.8783069149
 31
0.0
 11
6.4518404737
 21
4.9001009208
 31
0.0
 11
6.4566490712
 21
4.921738026
 31
0.0
 11
6.459501171
 21
4.9324751937
 31
0.0
 11
6.4626792897
 21
4.9431441922
 31
0.0
 11
6.4662080802
 21
4.9537302216
 31
0.0
 11
6.4701144199
 21
4.9642160784
 31
0.0
 11
6.4744260563
 21
4.9745830674
 31
0.0
 11
6.4791748649
 21
4.9848053415
 31
0.0
 11
6.4843940674
 21
4.9948545861
 31
0.0
 11
6.4901190813
 21
5.0046953133
 31
0.0
 11
6.496387626
 21
5.0142844182
 31
0.0
 11
6.5032378557
 21
5.0235709751
 31
0.0
 11
6.5188351754
 21
5.0409724993
 31
0.0
 11
6.5276497154
 21
5.0489230619
 31
0.0
 11
6.5371724559
 21
5.0562371226
 31
0.0
 11
6.5474108039
 21
5.06279225
 31
0.0
 11
6.5583398569
 21
5.0684501941
 31
0.0
 11
6.5699081219
 21
5.0730635269
 31
0.0
 11
6.5820170818
 21
5.0764906814
 31
0.0
 11
6.5945320387
 21
5.0786017817
 31
0.0
 11
6.6072377253
 21
5.0793186648
 31
0.0
  0
SPLINE
  5
286
100
AcDbEntity
  8
0
100
AcDbSpline
 62
6
  6
CONTINUOUS
 70
0
 71
3
 72
69
 73
65
 74
63
 42
0.0000001
 43
0.0000001
 44
0.0000000001
 12
0.7092869023
 22
0.4094155641
 32
0.0
 13
-0.0001288897
 23
0.8189682517
 33
0.0
 40
0.0
 40
0.0
 40
0.0
 40
0.0
 40
0.0003674495
 40
0.0008008905
 40
0.0013021218
 40
0.001872274
 40
0.0032219449
 40
0.004853602
 40
0.0067689124
 40
0.0089682742
 40
0.0114509658
 40
0.0142159227
 40
0.0205874763
 40
0.0280718543
 40
0.0366537737
 40
0.0463124593
 40
0.0570263937
 40
0.0687725879
 40
0.0815225755
 40
0.0952464146
 40
0.1099137703
 40
0.1254901548
 40
0.1592207466
 40
0.1961264045
 40
0.235861812
 40
0.2780569874
 40
0.3223189322
 40
0.3682338196
 40
0.4153743017
 40
0.4632998077
 40
0.5115636354
 40
0.5597151158
 40
0.6073053261
 40
0.6538898559
 40
0.6990342762
 40
0.7423178041
 40
0.7833357012
 40
0.8217071016
 40
0.8570727115
 40
0.8891042975
 40
0.9037751672
 40
0.9175040982
 40
0.9302577815
 40
0.9420071785
 40
0.9527264375
 40
0.9623899313
 40
0.9709750194
 40
0.9784643618
 40
0.98179303
 40
0.9848417116
 40
0.9876086511
 40
0.9900929278
 40
0.9922940457
 40
0.9942117877
 40
0.9958464101
 40
0.9971990423
 40
0.9977705053
 40
0.998272849
 40
0.9987072009
 40
0.9990754246
 40
0.9993806021
 40
0.9996281792
 40
0.9998283563
 40
1.0
 40
1.0
 40
1.0
 40
1.0
 10
4.9713620204
 20
2.8541451524
 30
0.0
 10
4.9714488961
 20
2.854195299
 30
0.0
 10
4.9716445257
 20
2.8542937315
 30
0.0
 10
4.9719731291
 20
2.8544297701
 30
0.0
 10
4.9723608318
 20
2.8545660839
 30
0.0
 10
4.9729930855
 20
2.8547591034
 30
0.0
 10
4.9739340091
 20
2.8549950521
 30
0.0
 10
4.9752431682
 20
2.855266156
 30
0.0
 10
4.9767883091
 20
2.855538039
 30
0.0
 10
4.9785686896
 20
2.8558105474
 30
0.0
 10
4.9805833169
 20
2.856083518
 30
0.0
 10
4.9837321397
 20
2.8564662327
 30
0.0
 10
4.9882453414
 20
2.8569364353
 30
0.0
 10
4.9943466424
 20
2.857479631
 30
0.0
 10
5.0013482722
 20
2.858024087
 30
0.0
 10
5.0092337709
 20
2.8585697205
 30
0.0
 10
5.0179848823
 20
2.8591160778
 30
0.0
 10
5.0275813447
 20
2.8596628642
 30
0.0
 10
5.0380006745
 20
2.8602100814
 30
0.0
 10
5.0492184476
 20
2.8607576416
 30
0.0
 10
5.0612086424
 20
2.8613054109
 30
0.0
 10
5.0786568334
 20
2.8620561004
 30
0.0
 10
5.1021736474
 20
2.8629863701
 30
0.0
 10
5.1322842449
 20
2.8640767073
 30
0.0
 10
5.1647069422
 20
2.8651681938
 30
0.0
 10
5.1991388604
 20
2.8662605299
 30
0.0
 10
5.2352584969
 20
2.8673534345
 30
0.0
 10
5.2727287274
 20
2.8684467994
 30
0.0
 10
5.3111994761
 20
2.8695404166
 30
0.0
 10
5.3503117082
 20
2.8706342301
 30
0.0
 10
5.3897000372
 20
2.8717280985
 30
0.0
 10
5.4289967991
 20
2.872821957
 30
0.0
 10
5.4678349556
 20
2.8739156822
 30
0.0
 10
5.5058518926
 20
2.8750091887
 30
0.0
 10
5.5426926627
 20
2.8761023528
 30
0.0
 10
5.5780131257
 20
2.877194978
 30
0.0
 10
5.6114837209
 20
2.8782869625
 30
0.0
 10
5.6427916318
 20
2.8793778592
 30
0.0
 10
5.6716448172
 20
2.8804675328
 30
0.0
 10
5.6940292476
 20
2.8813990134
 30
0.0
 10
5.7105092213
 20
2.882151642
 30
0.0
 10
5.7217303593
 20
2.8826991525
 30
0.0
 10
5.732152966
 20
2.8832463828
 30
0.0
 10
5.7417527668
 20
2.8837932476
 30
0.0
 10
5.7505075274
 20
2.8843395301
 30
0.0
 10
5.7583966819
 20
2.884885056
 30
0.0
 10
5.7654018106
 20
2.8854297752
 30
0.0
 10
5.7706780106
 20
2.8858989445
 30
0.0
 10
5.7744443851
 20
2.8862790167
 30
0.0
 10
5.7769256915
 20
2.8865525425
 30
0.0
 10
5.7791749897
 20
2.8868258335
 30
0.0
 10
5.7811910838
 20
2.8870987985
 30
0.0
 10
5.782973057
 20
2.8873713138
 30
0.0
 10
5.7845201907
 20
2.8876431228
 30
0.0
 10
5.7858317064
 20
2.8879140945
 30
0.0
 10
5.7867746927
 20
2.8881499118
 30
0.0
 10
5.787408512
 20
2.8883428587
 30
0.0
 10
5.7877971739
 20
2.8884791402
 30
0.0
 10
5.7881266522
 20
2.8886151866
 30
0.0
 10
5.7883972319
 20
2.888751037
 30
0.0
 10
5.7886095623
 20
2.8888868835
 30
0.0
 10
5.7887644696
 20
2.8890237276
 30
0.0
 10
5.7888628001
 20
2.8891642715
 30
0.0
 10
5.7888870704
 20
2.8892664154
 30
0.0
 10
5.7888870631
 20
2.8893132723
 30
0.0
 11
4.9713620204
 21
2.8541451524
 31
0.0
 11
4.971629771
 21
2.854282514
 31
0.0
 11
4.9719570828
 21
2.8544198958
 31
0.0
 11
4.9723438977
 21
2.8545572943
 31
0.0
 11
4.9727901575
 21
2.8546947058
 31
0.0
 11
4.9738607789
 21
2.8549695531
 31
0.0
 11
4.9751684817
 21
2.8552444084
 31
0.0
 11
4.9767127953
 21
2.8555192424
 31
0.0
 11
4.9784929175
 21
2.8557940395
 31
0.0
 11
4.9805075121
 21
2.8560688057
 31
0.0
 11
4.9827551948
 21
2.8563435487
 31
0.0
 11
4.9879442869
 21
2.8568929968
 31
0.0
 11
4.9940490788
 21
2.8574424463
 31
0.0
 11
5.0010558857
 21
2.8579919305
 31
0.0
 11
5.0089469329
 21
2.8585414367
 31
0.0
 11
5.0177040812
 21
2.8590909481
 31
0.0
 11
5.0273081341
 21
2.8596404513
 31
0.0
 11
5.0377355008
 21
2.860189947
 31
0.0
 11
5.0489614491
 21
2.8607394398
 31
0.0
 11
5.060960973
 21
2.861288934
 31
0.0
 11
5.0737056971
 21
2.8618384305
 31
0.0
 11
5.1013081115
 21
2.862937426
 31
0.0
 11
5.1315126872
 21
2.8640364197
 31
0.0
 11
5.1640361622
 21
2.8651354129
 31
0.0
 11
5.1985751917
 21
2.8662344066
 31
0.0
 11
5.2348076564
 21
2.8673334003
 31
0.0
 11
5.2723944287
 21
2.8684323938
 31
0.0
 11
5.310985342
 21
2.8695313874
 31
0.0
 11
5.3502194213
 21
2.8706303809
 31
0.0
 11
5.3897306832
 21
2.8717293745
 31
0.0
 11
5.4291499006
 21
2.8728283681
 31
0.0
 11
5.4681092749
 21
2.8739273617
 31
0.0
 11
5.5062446941
 21
2.8750263552
 31
0.0
 11
5.543200204
 21
2.8761253488
 31
0.0
 11
5.5786309994
 21
2.8772243425
 31
0.0
 11
5.6122053734
 21
2.8783233361
 31
0.0
 11
5.6436111096
 21
2.8794223298
 31
0.0
 11
5.6725535639
 21
2.8805213235
 31
0.0
 11
5.6987633856
 21
2.8816203171
 31
0.0
 11
5.7107657902
 21
2.8821698139
 31
0.0
 11
5.7219959134
 21
2.8827193107
 31
0.0
 11
5.7324263109
 21
2.8832688075
 31
0.0
 11
5.7420329916
 21
2.8838183043
 31
0.0
 11
5.75079451
 21
2.8843678011
 31
0.0
 11
5.7586895051
 21
2.8849172979
 31
0.0
 11
5.7656989141
 21
2.8854667947
 31
0.0
 11
5.7718077838
 21
2.8860162915
 31
0.0
 11
5.7745199768
 21
2.8862910399
 31
0.0
 11
5.7770015874
 21
2.8865657883
 31
0.0
 11
5.7792509052
 21
2.8868405367
 31
0.0
 11
5.7812668124
 21
2.8871152851
 31
0.0
 11
5.7830483973
 21
2.8873900336
 31
0.0
 11
5.7845947488
 21
2.887664782
 31
0.0
 11
5.7859049553
 21
2.8879395304
 31
0.0
 11
5.7869781058
 21
2.8882142788
 31
0.0
 11
5.7874255002
 21
2.888351653
 31
0.0
 11
5.7878132903
 21
2.8884890272
 31
0.0
 11
5.7881414144
 21
2.8886264014
 31
0.0
 11
5.7884098708
 21
2.8887637756
 31
0.0
 11
5.7886186618
 21
2.8889011497
 31
0.0
 11
5.7887677894
 21
2.8890385239
 31
0.0
 11
5.7888572558
 21
2.8891758981
 31
0.0
 11
5.7888870631
 21
2.8893132723
 31
0.0
  0
SPLINE
  5
287
100
AcDbEntity
  8
0
100
AcDbSpline
 62
6
  6
CONTINUOUS
 70
0
 71
3
 72
66
 73
62
 74
60
 42
0.0000001
 43
0.0000001
 44
0.0000000001
 12
0.6420861284
 22
0.3713079527
 32
0.0
 13
0.0003309259
 23
0.7417169827
 33
0.0
 40
0.0
 40
0.0
 40
0.0
 40
0.0
 40
0.00040126
 40
0.0008681902
 40
0.0020049774
 40
0.0034182679
 40
0.0051113104
 40
0.0070855423
 40
0.0093414875
 40
0.0118791625
 40
0.0146981196
 40
0.0211739147
 40
0.0287550499
 40
0.0374262642
 40
0.0471700425
 40
0.0579628588
 40
0.0697797734
 40
0.0825953649
 40
0.0963797175
 40
0.1267223474
 40
0.160529686
 40
0.1974861484
 40
0.2372498179
 40
0.2794512622
 40
0.3236975891
 40
0.3695786487
 40
0.416666736
 40
0.464524871
 40
0.5127074458
 40
0.56076687
 40
0.6082557035
 40
0.6547330533
 40
0.6997660334
 40
0.7429365291
 40
0.7838433807
 40
0.8221056054
 40
0.857369693
 40
0.8893061102
 40
0.9176214006
 40
0.9303369214
 40
0.9420526716
 40
0.9527408697
 40
0.962376199
 40
0.9709388082
 40
0.9784099254
 40
0.9817305345
 40
0.9847721889
 40
0.9875339206
 40
0.9900149172
 40
0.9922145775
 40
0.9941326368
 40
0.9957694023
 40
0.9971262927
 40
0.9977010395
 40
0.9982077426
 40
0.9986477716
 40
0.9990232478
 40
0.9993376269
 40
0.9995968514
 40
0.9998115311
 40
1.0
 40
1.0
 40
1.0
 40
1.0
 10
5.0100701591
 20
2.8765225026
 30
0.0
 10
5.0101560403
 20
2.8765721662
 30
0.0
 10
5.010347453
 20
2.8766699762
 30
0.0
 10
5.0108037675
 20
2.8768642648
 30
0.0
 10
5.0115124981
 20
2.8771001502
 30
0.0
 10
5.0125266118
 20
2.877369801
 30
0.0
 10
5.0137535327
 20
2.8776405136
 30
0.0
 10
5.015192722
 20
2.8779121506
 30
0.0
 10
5.0168438328
 20
2.8781843472
 30
0.0
 10
5.0187061864
 20
2.8784569908
 30
0.0
 10
5.0216066903
 20
2.8788387422
 30
0.0
 10
5.0257529054
 20
2.8793080453
 30
0.0
 10
5.0313460774
 20
2.879850645
 30
0.0
 10
5.0377504095
 20
2.8803944966
 30
0.0
 10
5.0449512191
 20
2.8809392472
 30
0.0
 10
5.0529317047
 20
2.8814847342
 30
0.0
 10
5.0616732293
 20
2.8820307758
 30
0.0
 10
5.0711556781
 20
2.8825771616
 30
0.0
 10
5.0852139705
 20
2.8833303877
 30
0.0
 10
5.1044599808
 20
2.884261676
 30
0.0
 10
5.1294338515
 20
2.8853487305
 30
0.0
 10
5.1567389092
 20
2.8864373855
 30
0.0
 10
5.1861207867
 20
2.8875271827
 30
0.0
 10
5.2173061329
 20
2.8886177828
 30
0.0
 10
5.2500047902
 20
2.8897090064
 30
0.0
 10
5.2839122482
 20
2.8908006017
 30
0.0
 10
5.3187131239
 20
2.8918925157
 30
0.0
 10
5.3540832934
 20
2.8929845684
 30
0.0
 10
5.3896937254
 20
2.8940767112
 30
0.0
 10
5.4252128104
 20
2.8951688079
 30
0.0
 10
5.4603100999
 20
2.896260806
 30
0.0
 10
5.4946587748
 20
2.8973525509
 30
0.0
 10
5.5279392464
 20
2.8984439658
 30
0.0
 10
5.5598417242
 20
2.8995348747
 30
0.0
 10
5.5900692109
 20
2.9006250442
 30
0.0
 10
5.6183406128
 20
2.9017143159
 30
0.0
 10
5.64439248
 20
2.9028020389
 30
0.0
 10
5.667982806
 20
2.9038880732
 30
0.0
 10
5.6859991966
 20
2.9048206906
 30
0.0
 10
5.6990183197
 20
2.9055766075
 30
0.0
 10
5.7076840845
 20
2.9061225642
 30
0.0
 10
5.7155867029
 20
2.9066679533
 30
0.0
 10
5.7227077642
 20
2.9072127054
 30
0.0
 10
5.7290309189
 20
2.9077565086
 30
0.0
 10
5.7337932869
 20
2.9082248715
 30
0.0
 10
5.7371923682
 20
2.9086043523
 30
0.0
 10
5.7394316256
 20
2.9088774933
 30
0.0
 10
5.7414616512
 20
2.9091503697
 30
0.0
 10
5.7432814928
 20
2.9094229137
 30
0.0
 10
5.7448902183
 20
2.909695012
 30
0.0
 10
5.746287033
 20
2.9099664236
 30
0.0
 10
5.7474711008
 20
2.910237012
 30
0.0
 10
5.7483219418
 20
2.910472493
 30
0.0
 10
5.7488933896
 20
2.9106650192
 30
0.0
 10
5.7492442323
 20
2.910801159
 30
0.0
 10
5.7495417899
 20
2.9109371101
 30
0.0
 10
5.7497863218
 20
2.9110729607
 30
0.0
 10
5.7499783292
 20
2.9112089701
 30
0.0
 10
5.7501184072
 20
2.9113461386
 30
0.0
 10
5.7502065907
 20
2.9114867185
 30
0.0
 10
5.7502278934
 20
2.9115870196
 30
0.0
 10
5.7502279142
 20
2.9116336164
 30
0.0
 11
5.0100701591
 21
2.8765225026
 31
0.0
 11
5.0103342945
 21
2.8766596557
 31
0.0
 11
5.0106523095
 21
2.8767968089
 31
0.0
 11
5.011449617
 21
2.8770711152
 31
0.0
 11
5.0124613524
 21
2.8773454215
 31
0.0
 11
5.0136867851
 21
2.8776197278
 31
0.0
 11
5.0151251847
 21
2.8778940341
 31
0.0
 11
5.0167758206
 21
2.8781683404
 31
0.0
 11
5.0186379622
 21
2.8784426468
 31
0.0
 11
5.0207107593
 21
2.8787169531
 31
0.0
 11
5.0254825334
 21
2.8792655657
 31
0.0
 11
5.031078764
 21
2.8798141783
 31
0.0
 11
5.0374869106
 21
2.8803627909
 31
0.0
 11
5.0446931844
 21
2.8809114036
 31
0.0
 11
5.0526795795
 21
2.8814600162
 31
0.0
 11
5.0614272002
 21
2.8820086288
 31
0.0
 11
5.0709168982
 21
2.8825572414
 31
0.0
 11
5.0811262581
 21
2.8831058541
 31
0.0
 11
5.1036051416
 21
2.8842030793
 31
0.0
 11
5.1286566042
 21
2.8853003046
 31
0.0
 11
5.1560458739
 21
2.8863975298
 31
0.0
 11
5.185518849
 21
2.8874947551
 31
0.0
 11
5.2168011434
 21
2.8885919803
 31
0.0
 11
5.2496010516
 21
2.8896892056
 31
0.0
 11
5.283614123
 21
2.8907864308
 31
0.0
 11
5.3185229213
 21
2.8918836561
 31
0.0
 11
5.3540031546
 21
2.8929808813
 31
0.0
 11
5.3897241446
 21
2.8940781066
 31
0.0
 11
5.4253537485
 21
2.8951753318
 31
0.0
 11
5.4605599326
 21
2.8962725571
 31
0.0
 11
5.4950155097
 21
2.8973697823
 31
0.0
 11
5.5283992127
 21
2.8984670076
 31
0.0
 11
5.5604007012
 21
2.8995642328
 31
0.0
 11
5.5907221649
 21
2.9006614581
 31
0.0
 11
5.619080691
 21
2.9017586834
 31
0.0
 11
5.6452136422
 21
2.9028559086
 31
0.0
 11
5.6688760021
 21
2.9039531333
 31
0.0
 11
5.6898492546
 21
2.9050503597
 31
0.0
 11
5.6992646035
 21
2.9055989734
 31
0.0
 11
5.7079370401
 21
2.906147586
 31
0.0
 11
5.7158456536
 21
2.9066961963
 31
0.0
 11
5.7229712539
 21
2.9072448047
 31
0.0
 11
5.729298548
 21
2.9077934153
 31
0.0
 11
5.7348127789
 21
2.9083420325
 31
0.0
 11
5.7372604079
 21
2.9086163449
 31
0.0
 11
5.7394997156
 21
2.9088906591
 31
0.0
 11
5.7415296887
 21
2.9091649731
 31
0.0
 11
5.7433493261
 21
2.9094392848
 31
0.0
 11
5.7449576268
 21
2.909713592
 31
0.0
 11
5.7463535899
 21
2.9099878928
 31
0.0
 11
5.7475362144
 21
2.9102621849
 31
0.0
 11
5.7485045471
 21
2.910536467
 31
0.0
 11
5.7489081859
 21
2.9106736054
 31
0.0
 11
5.7492581025
 21
2.9108107434
 31
0.0
 11
5.7495542697
 21
2.9109478819
 31
0.0
 11
5.7497966603
 21
2.9110850219
 31
0.0
 11
5.7499852473
 21
2.9112221643
 31
0.0
 11
5.7501200033
 21
2.9113593103
 31
0.0
 11
5.7502009014
 21
2.9114964606
 31
0.0
 11
5.7502279142
 21
2.9116336164
 31
0.0
  0
LINE
  5
288
100
AcDbEntity
  8
0
100
AcDbLine
 62
6
  6
CONTINUOUS
 10
5.7884140567
 20
2.6755701513
 11
5.7878313907
 21
2.6758405197
  0
SPLINE
  5
289
100
AcDbEntity
  8
0
100
AcDbSpline
 62
6
  6
CONTINUOUS
 70
0
 71
3
 72
68
 73
64
 74
62
 42
0.0000001
 43
0.0000001
 44
0.0000000001
 12
0.6421601912
 22
0.3711780824
 32
0.0
 13
-0.0007009303
 23
0.741715841
 33
0.0
 40
0.0
 40
0.0
 40
0.0
 40
0.0
 40
0.0004012906
 40
0.0008680647
 40
0.0020041931
 40
0.003416773
 40
0.0051095692
 40
0.0070843033
 40
0.0093410449
 40
0.0118792073
 40
0.0146978961
 40
0.0211722877
 40
0.0287538862
 40
0.0374261988
 40
0.047168873
 40
0.0579611274
 40
0.0697792944
 40
0.0825946495
 40
0.0963778421
 40
0.1110986079
 40
0.126721821
 40
0.1605279443
 40
0.197484853
 40
0.2372484168
 40
0.2794493048
 40
0.3236961556
 40
0.3695765213
 40
0.4166649224
 40
0.4645227256
 40
0.5127054166
 40
0.5607645554
 40
0.6082536862
 40
0.6547306841
 40
0.6997638739
 40
0.7429345835
 40
0.78384092
 40
0.822104263
 40
0.8573672754
 40
0.8893048583
 40
0.9039319215
 40
0.9176199633
 40
0.9303364252
 40
0.9420512241
 40
0.9527392192
 40
0.9623759981
 40
0.9709382438
 40
0.9784084846
 40
0.9817295025
 40
0.9847720804
 40
0.9875345665
 40
0.9900155969
 40
0.9922147541
 40
0.9941321854
 40
0.9957686058
 40
0.9971257688
 40
0.9977008141
 40
0.99820782
 40
0.9986480802
 40
0.999023647
 40
0.9993379643
 40
0.9995970461
 40
0.9998115883
 40
1.0
 40
1.0
 40
1.0
 40
1.0
 10
5.0100708081
 20
2.6622325033
 30
0.0
 10
5.0101567057
 20
2.6622821534
 30
0.0
 10
5.0103480883
 20
2.6623799492
 30
0.0
 10
5.0108041899
 20
2.6625742398
 30
0.0
 10
5.0115125076
 20
2.6628101662
 30
0.0
 10
5.0125262004
 20
2.6630798504
 30
0.0
 10
5.0137530049
 20
2.6633505682
 30
0.0
 10
5.0151924669
 20
2.6636221571
 30
0.0
 10
5.0168440283
 20
2.6638943202
 30
0.0
 10
5.0187066358
 20
2.6641669442
 30
0.0
 10
5.0216068379
 20
2.6645487149
 30
0.0
 10
5.0257527346
 20
2.6650181348
 30
0.0
 10
5.0313459486
 20
2.6655606483
 30
0.0
 10
5.0377503937
 20
2.6661044069
 30
0.0
 10
5.0449510455
 20
2.6666492646
 30
0.0
 10
5.0529314181
 20
2.6671947713
 30
0.0
 10
5.0616730506
 20
2.6677407207
 30
0.0
 10
5.0711554515
 20
2.668287113
 30
0.0
 10
5.0813565691
 20
2.6688338268
 30
0.0
 10
5.0922528163
 20
2.669380725
 30
0.0
 10
5.1080955128
 20
2.6701300475
 30
0.0
 10
5.1294334147
 20
2.6710586883
 30
0.0
 10
5.1567382148
 20
2.6721473631
 30
0.0
 10
5.1861200069
 20
2.6732371436
 30
0.0
 10
5.21730528
 20
2.6743277736
 30
0.0
 10
5.2500037203
 20
2.6754189499
 30
0.0
 10
5.2839111721
 20
2.6765105852
 30
0.0
 10
5.3187118312
 20
2.6776024636
 30
0.0
 10
5.3540819821
 20
2.6786945362
 30
0.0
 10
5.3896922484
 20
2.6797866583
 30
0.0
 10
5.4252113221
 20
2.6808787714
 30
0.0
 10
5.4603084864
 20
2.6819707444
 30
0.0
 10
5.4946571582
 20
2.6830625065
 30
0.0
 10
5.527937608
 20
2.6841539134
 30
0.0
 10
5.5598400264
 20
2.6852447952
 30
0.0
 10
5.5900676756
 20
2.6863350304
 30
0.0
 10
5.6183389358
 20
2.687424169
 30
0.0
 10
5.6443910498
 20
2.6885121256
 30
0.0
 10
5.6646007289
 20
2.6894420915
 30
0.0
 10
5.6794785857
 20
2.6901935329
 30
0.0
 10
5.6896084628
 20
2.6907401818
 30
0.0
 10
5.6990172141
 20
2.6912864987
 30
0.0
 10
5.707682913
 20
2.6918324967
 30
0.0
 10
5.7155855912
 20
2.6923779401
 30
0.0
 10
5.722706872
 20
2.6929225705
 30
0.0
 10
5.7290300695
 20
2.6934664038
 30
0.0
 10
5.7337922164
 20
2.6939348512
 30
0.0
 10
5.7371914109
 20
2.6943142946
 30
0.0
 10
5.7394311898
 20
2.6945873973
 30
0.0
 10
5.741461646
 20
2.6948602298
 30
0.0
 10
5.7432815578
 20
2.6951327701
 30
0.0
 10
5.7448900036
 20
2.695404886
 30
0.0
 10
5.7462864393
 20
2.6956763274
 30
0.0
 10
5.7474703145
 20
2.6959469731
 30
0.0
 10
5.7483212091
 20
2.6961824562
 30
0.0
 10
5.7488928878
 20
2.6963749699
 30
0.0
 10
5.7492439485
 20
2.6965111149
 30
0.0
 10
5.7495416756
 20
2.6966470661
 30
0.0
 10
5.7497862823
 20
2.6967829172
 30
0.0
 10
5.7499782474
 20
2.696918943
 30
0.0
 10
5.7501181918
 20
2.6970561343
 30
0.0
 10
5.7502061758
 20
2.697196751
 30
0.0
 10
5.7502273095
 20
2.6972970383
 30
0.0
 10
5.7502272655
 20
2.697343621
 30
0.0
 11
5.0100708081
 21
2.6622325033
 31
0.0
 11
5.0103349688
 21
2.6623696561
 31
0.0
 11
5.0106528575
 21
2.6625068089
 31
0.0
 11
5.0114496474
 21
2.6627811145
 31
0.0
 11
5.0124608356
 21
2.6630554201
 31
0.0
 11
5.0136860798
 21
2.6633297257
 31
0.0
 11
5.0151248569
 21
2.6636040313
 31
0.0
 11
5.0167760896
 21
2.6638783369
 31
0.0
 11
5.0186385946
 21
2.6641526425
 31
0.0
 11
5.0207111883
 21
2.6644269481
 31
0.0
 11
5.0254819091
 21
2.6649755594
 31
0.0
 11
5.0310784783
 21
2.6655241706
 31
0.0
 11
5.037487435
 21
2.6660727818
 31
0.0
 11
5.044692879
 21
2.666621393
 31
0.0
 11
5.0526788468
 21
2.6671700042
 31
0.0
 11
5.0614273879
 21
2.6677186154
 31
0.0
 11
5.070916899
 21
2.6682672266
 31
0.0
 11
5.0811253851
 21
2.6688158379
 31
0.0
 11
5.0920302238
 21
2.6693644491
 31
0.0
 11
5.1036052199
 21
2.6699130603
 31
0.0
 11
5.1286557504
 21
2.6710102827
 31
0.0
 11
5.1560453188
 21
2.6721075051
 31
0.0
 11
5.1855181804
 21
2.6732047276
 31
0.0
 11
5.2168000247
 21
2.67430195
 31
0.0
 11
5.2496002827
 21
2.6753991724
 31
0.0
 11
5.2836127986
 21
2.6764963948
 31
0.0
 11
5.3185217881
 21
2.6775936173
 31
0.0
 11
5.3540017329
 21
2.6786908397
 31
0.0
 11
5.3897227666
 21
2.6797880621
 31
0.0
 11
5.4253521163
 21
2.6808852846
 31
0.0
 11
5.4605584791
 21
2.681982507
 31
0.0
 11
5.4950137541
 21
2.6830797294
 31
0.0
 11
5.5283975729
 21
2.6841769518
 31
0.0
 11
5.560399182
 21
2.6852741743
 31
0.0
 11
5.5907202273
 21
2.6863713967
 31
0.0
 11
5.6190795498
 21
2.6874686191
 31
0.0
 11
5.6452116717
 21
2.6885658415
 31
0.0
 11
5.6688748689
 21
2.689663064
 31
0.0
 11
5.6797101185
 21
2.6902116752
 31
0.0
 11
5.6898479272
 21
2.6907602864
 31
0.0
 11
5.6992639641
 21
2.6913088976
 31
0.0
 11
5.7079356835
 21
2.6918575088
 31
0.0
 11
5.7158441365
 21
2.69240612
 31
0.0
 11
5.7229708064
 21
2.6929547313
 31
0.0
 11
5.7292978221
 21
2.6935033425
 31
0.0
 11
5.7348113939
 21
2.6940519537
 31
0.0
 11
5.7372593256
 21
2.6943262593
 31
0.0
 11
5.739499322
 21
2.6946005649
 31
0.0
 11
5.7415298584
 21
2.6948748705
 31
0.0
 11
5.7433495197
 21
2.6951491761
 31
0.0
 11
5.7449574402
 21
2.6954234817
 31
0.0
 11
5.7463529259
 21
2.6956977873
 31
0.0
 11
5.7475352831
 21
2.6959720929
 31
0.0
 11
5.7485038179
 21
2.6962463985
 31
0.0
 11
5.7489076852
 21
2.6963835513
 31
0.0
 11
5.7492578367
 21
2.6965207041
 31
0.0
 11
5.7495541858
 21
2.6966578569
 31
0.0
 11
5.7497966461
 21
2.6967950097
 31
0.0
 11
5.7499851684
 21
2.6969321626
 31
0.0
 11
5.7501197662
 21
2.6970693154
 31
0.0
 11
5.7502004587
 21
2.6972064682
 31
0.0
 11
5.7502272655
 21
2.697343621
 31
0.0
  0
ENDSEC
  0
SECTION
  2
OBJECTS
  0
DICTIONARY
  5
C
100
AcDbDictionary
280
0
281
1
  3
ACAD_GROUP
350
D
  3
ACAD_MLINESTYLE
350
17
  3
ACAD_LAYOUT
350
1A
  3
ACAD_PLOTSETTINGS
350
19
  3
ACAD_PLOTSTYLENAME
350
E
  0
DICTIONARY
  5
D
102
{ACAD_REACTORS
330
C
102
}
100
AcDbDictionary
280
0
281
1
  0
ACDBDICTIONARYWDFLT
  5
E
102
{ACAD_REACTORS
330
C
102
}
100
AcDbDictionary
281
1
  3
Normal
350
F
100
AcDbDictionaryWithDefault
340
F
  0
DICTIONARY
  5
17
102
{ACAD_REACTORS
330
C
102
}
100
AcDbDictionary
280
0
281
1
  3
Standard
350
18
  0
DICTIONARY
  5
19
102
{ACAD_REACTORS
330
C
102
}
100
AcDbDictionary
281
1
  0
DICTIONARY
  5
1A
102
{ACAD_REACTORS
330
C
102
}
100
AcDbDictionary
281
1
  3
Model
350
28A
  3
Layout1
350
28B
  0
ACDBPLACEHOLDER
  5
F
102
{ACAD_REACTORS
330
E
102
}
  0
MLINESTYLE
  5
18
102
{ACAD_REACTORS
330
17
102
}
100
AcDbMlineStyle
  2
STANDARD
 70
0
  3

 62
256
 51
90.0
 52
90.0
 71
2
 49
0.5
 62
256
  6
BYLAYER
 49
-0.5
 62
256
  6
BYLAYER
  0
LAYOUT
  5
28A
102
{ACAD_REACTORS
330
1A
102
}
100
AcDbPlotSettings
  1

  2
none_device
  4
ISO_A4_(297.00_x_210.00_MM)
  6

 40
0.0
 41
0.0
 42
0.0
 43
0.0
 44
297.0
 45
210.0
 46
0.0
 47
0.0
 48
0.0
 49
0.0
140
0.0
141
0.0
142
1.0
143
1.0
 70
1024
 72
0
 73
0
 74
0
  7

 75
0
147
1.0
148
0.0
149
0.0
100
AcDbLayout
  1
Model
 70
0
 71
0
 10
0.0
 20
0.0
 11
11.6929133858
 21
8.2677165354
 12
0.0
 22
0.0
 32
0.0
 14
0.0
 24
0.0
 34
0.0
 15
0.0
 25
0.0
 35
0.0
146
0.0
 13
0.0
 23
0.0
 33
0.0
 16
1.0
 26
0.0
 36
0.0
 17
0.0
 27
1.0
 37
0.0
 76
0
330
204
345
0
346
0
  0
LAYOUT
  5
28B
102
{ACAD_REACTORS
330
1A
102
}
100
AcDbPlotSettings
  1

  2
none_device
  4
ISO_A4_(297.00_x_210.00_MM)
  6

 40
0.0
 41
0.0
 42
0.0
 43
0.0
 44
297.0
 45
210.0
 46
0.0
 47
0.0
 48
0.0
 49
0.0
140
0.0
141
0.0
142
1.0
143
1.0
 70
0
 72
0
 73
0
 74
0
  7

 75
0
147
1.0
148
0.0
149
0.0
100
AcDbLayout
  1
Layout1
 70
0
 71
1
 10
0.0
 20
0.0
 11
11.6929133858
 21
8.2677165354
 12
0.0
 22
0.0
 32
0.0
 14
0.0
 24
0.0
 34
0.0
 15
0.0
 25
0.0
 35
0.0
146
0.0
 13
0.0
 23
0.0
 33
0.0
 16
1.0
 26
0.0
 36
0.0
 17
0.0
 27
1.0
 37
0.0
 76
0
330
205
345
0
346
0
  0
ENDSEC
  0
EOF
