  0
SECTION
  2
HEADER
  9
$ACADVER
  1
AC1021
  9
$DWGCODEPAGE
  3
ANSI_1252
  9
$EXTMAX
 10
11.6929133858
 20
8.2677165354
 30
0.0
  9
$EXTMIN
 10
0.0
 20
-0.0
 30
0.0
  9
$LIMMIN
 10
0.0
 20
-0.0
  9
$LIMMAX
 10
11.6929133858
 20
8.2677165354
  9
$VIEWCTR
 10
5.8464566929
 20
4.1338582677
  9
$VIEWSIZE
 40
8.2677165354
  9
$CLAYER
  8
0
  9
$LTSCALE
 40
0.6431102362
  9
$CELTYPE
  6
BYLAYER
  9
$DIMSCALE
 40
1.0
  9
$DIMASZ
 40
0.1875
  9
$DIMEXO
 40
0.0730807087
  9
$DIMDLI
 40
0.4443307087
  9
$DIMEXE
 40
0.2104724409
  9
$DIMCEN
 40
0.1052362205
  9
$DIMLFAC
 40
1.0
  9
$DIMBLK
  1
_CLOSED
  9
$DIMTXT
 40
0.15625
  9
$DIMTOL
 70
0
  9
$DIMLIM
 70
0
  9
$DIMTFAC
 40
1.0
  9
$PDMODE
 70
3
  9
$PDSIZE
 40
0.3125
  9
$HANDSEED
  5
275
  9
$TILEMODE
 70
1
  9
$MEASUREMENT
 70
0
  9
$INSUNITS
 70
1
  0
ENDSEC
  0
SECTION
  2
CLASSES
  0
CLASS
  1
ACDBDICTIONARYWDFLT
  2
AcDbDictionaryWithDefault
  3
AutoCAD 2000
 90
0
 91
1
280
0
281
0
  0
CLASS
  1
ACDBPLACEHOLDER
  2
AcDbPlaceHolder
  3
AutoCAD 2000
 90
0
 91
1
280
0
281
0
  0
CLASS
  1
LAYOUT
  2
AcDbLayout
  3
AutoCAD 2000
 90
0
 91
0
280
0
281
0
  0
ENDSEC
  0
SECTION
  2
TABLES
  0
TABLE
  2
VPORT
  5
8
100
AcDbSymbolTable
 70
2
  0
VPORT
  5
1F4
100
AcDbSymbolTableRecord
100
AcDbViewportTableRecord
  2
*ACTIVE
 70
0
 10
0.0
 20
0.0
 11
1.0
 21
1.0
 12
5.8464566929
 22
4.1338582677
 13
0.0
 23
0.0
 14
1.0
 24
1.0
 15
0.0
 25
0.0
 16
0.0
 26
0.0
 36
1.0
 17
0.0
 27
0.0
 37
0.0
 40
8.2677165354
 41
1.4142857143
 42
50.0
 43
0.0
 44
0.0
 50
0.0
 51
0.0
 71
0
 72
100
 73
1
 74
1
 75
0
 76
0
 77
0
 78
0
  0
ENDTAB
  0
TABLE
  2
LTYPE
  5
5
100
AcDbSymbolTable
 70
6
  0
LTYPE
  5
14
100
AcDbSymbolTableRecord
100
AcDbLinetypeTableRecord
  2
BYBLOCK
 70
0
  3

 72
65
 73
0
 40
0.0
  0
LTYPE
  5
15
100
AcDbSymbolTableRecord
100
AcDbLinetypeTableRecord
  2
BYLAYER
 70
0
  3

 72
65
 73
0
 40
0.0
  0
LTYPE
  5
16
100
AcDbSymbolTableRecord
100
AcDbLinetypeTableRecord
  2
CONTINUOUS
 70
64
  3
Solid line
 72
65
 73
0
 40
0.0
  0
LTYPE
  5
1F5
100
AcDbSymbolTableRecord
100
AcDbLinetypeTableRecord
  2
CENTER
 70
64
  3
____ _ ____ _ ____ _ ____ _ ____ _ ____ _ ____
 72
65
 73
4
 40
0.6
 49
0.375
 74
0
 49
-0.075
 74
0
 49
0.075
 74
0
 49
-0.075
 74
0
  0
LTYPE
  5
1F6
100
AcDbSymbolTableRecord
100
AcDbLinetypeTableRecord
  2
HIDDEN
 70
64
  3
- - - - - - - - - - - - - - - - - - - -
 72
65
 73
2
 40
0.2
 49
0.1
 74
0
 49
-0.1
 74
0
  0
LTYPE
  5
1F7
100
AcDbSymbolTableRecord
100
AcDbLinetypeTableRecord
  2
PHANTOM
 70
64
  3
_____ _ _ _____ _ _ _____ _ _ _____
 72
65
 73
6
 40
0.8
 49
0.45
 74
0
 49
-0.05
 74
0
 49
0.1
 74
0
 49
-0.05
 74
0
 49
0.1
 74
0
 49
-0.05
 74
0
  0
LTYPE
  5
1F8
100
AcDbSymbolTableRecord
100
AcDbLinetypeTableRecord
  2
DOT
 70
64
  3
. . . . . . . . . . . . . . . . . . . .
 72
65
 73
2
 40
0.2
 49
0.1
 74
0
 49
-0.1
 74
0
  0
LTYPE
  5
1F9
100
AcDbSymbolTableRecord
100
AcDbLinetypeTableRecord
  2
DASHED
 70
64
  3
- - - - - - - - - - - - - - - - - - - -
 72
65
 73
2
 40
0.2
 49
0.1
 74
0
 49
-0.1
 74
0
  0
ENDTAB
  0
TABLE
  2
LAYER
  5
2
100
AcDbSymbolTable
 70
36
  0
LAYER
  5
10
100
AcDbSymbolTableRecord
100
AcDbLayerTableRecord
  2
0
 70
0
 62
7
  6
CONTINUOUS
370
-3
390
F
  0
LAYER
  5
1FA
100
AcDbSymbolTableRecord
100
AcDbLayerTableRecord
  2
DEFAULT_1
 70
0
 62
7
  6
CENTER
370
-3
390
F
  0
LAYER
  5
1FB
100
AcDbSymbolTableRecord
100
AcDbLayerTableRecord
  2
DEFAULT_2
 70
0
 62
8
  6
HIDDEN
370
-3
390
F
  0
LAYER
  5
1FC
100
AcDbSymbolTableRecord
100
AcDbLayerTableRecord
  2
DEFAULT_3
 70
0
 62
7
  6
PHANTOM
370
-3
390
F
  0
LAYER
  5
1FD
100
AcDbSymbolTableRecord
100
AcDbLayerTableRecord
  2
DEFAULT_COORDINATE_SYSTEM
 70
0
 62
7
  6
CONTINUOUS
370
-3
390
F
  0
LAYER
  5
1FE
100
AcDbSymbolTableRecord
100
AcDbLayerTableRecord
  2
DEFAULT_DATUM_AXES
 70
0
 62
7
  6
CONTINUOUS
370
-3
390
F
  0
LAYER
  5
1FF
100
AcDbSymbolTableRecord
100
AcDbLayerTableRecord
  2
DEFAULT_DATUM_CURVES
 70
0
 62
7
  6
CONTINUOUS
370
-3
390
F
  0
LAYER
  5
200
100
AcDbSymbolTableRecord
100
AcDbLayerTableRecord
  2
DEFAULT_DATUM_PLANES
 70
0
 62
7
  6
CONTINUOUS
370
-3
390
F
  0
ENDTAB
  0
TABLE
  2
STYLE
  5
3
100
AcDbSymbolTable
 70
1
  0
STYLE
  5
11
100
AcDbSymbolTableRecord
100
AcDbTextStyleTableRecord
  2
STANDARD
 70
0
 40
0.0
 41
0.8
 50
0.0
 71
0
 42
0.2
  3
txt
  4

  0
STYLE
  5
201
100
AcDbSymbolTableRecord
100
AcDbTextStyleTableRecord
  2
TEXTSTYLE_1
 70
0
 40
0.0
 41
0.8
 50
0.0
 71
0
 42
0.2
  3
gdt
  4

  0
ENDTAB
  0
TABLE
  2
VIEW
  5
6
100
AcDbSymbolTable
 70
0
  0
ENDTAB
  0
TABLE
  2
UCS
  5
7
100
AcDbSymbolTable
 70
0
  0
ENDTAB
  0
TABLE
  2
APPID
  5
9
100
AcDbSymbolTable
 70
1
  0
APPID
  5
202
100
AcDbSymbolTableRecord
100
AcDbRegAppTableRecord
  2
ACAD
 70
0
  0
ENDTAB
  0
TABLE
  2
BLOCK_RECORD
  5
1
100
AcDbSymbolTable
 70
0
  0
BLOCK_RECORD
  5
203
100
AcDbSymbolTableRecord
100
AcDbBlockTableRecord
  2
*Model_Space
  0
BLOCK_RECORD
  5
204
100
AcDbSymbolTableRecord
100
AcDbBlockTableRecord
  2
*Paper_Space
  0
ENDTAB
  0
TABLE
  2
DIMSTYLE
  5
A
100
AcDbSymbolTable
 70
1
100
AcDbDimStyleTable
 71
0
  0
DIMSTYLE
105
205
100
AcDbSymbolTableRecord
100
AcDbDimStyleTableRecord
  2
STANDARD
 70
0
  3

  4

 40
1.0
 41
0.1875
 42
0.0625
 43
0.38
 44
0.18
 45
0.0
 46
0.0
 47
0.001
 48
0.001
140
0.15625
141
0.09
142
0.0
143
25.4
144
1.0
145
0.0
146
1.0
147
0.09
 71
0.0
 72
0.0
 73
1
 74
1
 75
0
 76
0
 77
0
 78
4
170
0
171
2
172
0
173
0
174
0
175
0
176
0
177
0
178
0
270
2
271
3
272
3
273
2
274
2
275
0
280
0
281
0
282
0
283
1
284
4
285
0
286
0
287
3
288
0
340
11
  0
ENDTAB
  0
ENDSEC
  0
SECTION
  2
BLOCKS
  0
BLOCK
  5
20
100
AcDbEntity
  8
0
100
AcDbBlockBegin
  2
*Model_Space
 70
0
 10
0.0
 20
0.0
 30
0.0
  3
*Model_Space
  1

  0
ENDBLK
  5
21
100
AcDbEntity
  8
0
100
AcDbBlockEnd
  0
BLOCK
  5
1C
100
AcDbEntity
  8
0
100
AcDbBlockBegin
  2
*Paper_Space
 70
0
 10
0.0
 20
0.0
 30
0.0
  3
*Paper_Space
  1

  0
ENDBLK
  5
1D
100
AcDbEntity
  8
0
100
AcDbBlockEnd
  0
ENDSEC
  0
SECTION
  2
ENTITIES
  0
LINE
  5
206
100
AcDbEntity
  8
0
100
AcDbLine
 62
6
  6
CONTINUOUS
 10
5.4948276667
 20
3.0848826263
 11
6.2328276667
 21
3.0848826263
  0
LINE
  5
207
100
AcDbEntity
  8
0
100
AcDbLine
 62
6
  6
CONTINUOUS
 10
5.4553008344
 20
3.1341957318
 11
5.493356858
 21
3.1121960076
  0
LINE
  5
208
100
AcDbEntity
  8
0
100
AcDbLine
 62
6
  6
CONTINUOUS
 10
5.4553008344
 20
3.2056257318
 11
5.493356858
 21
3.1836260076
  0
LINE
  5
209
100
AcDbEntity
  8
0
100
AcDbLine
 62
6
  6
CONTINUOUS
 10
5.4553008344
 20
3.2770557318
 11
5.493356858
 21
3.2550560076
  0
LINE
  5
20A
100
AcDbEntity
  8
0
100
AcDbLine
 62
6
  6
CONTINUOUS
 10
5.4553008344
 20
3.3484857318
 11
5.493356858
 21
3.3264860076
  0
LINE
  5
20B
100
AcDbEntity
  8
0
100
AcDbLine
 62
6
  6
CONTINUOUS
 10
5.4948276667
 20
3.0848826263
 11
5.4882005477
 21
3.0915097453
  0
LINE
  5
20C
100
AcDbEntity
  8
0
100
AcDbLine
 62
6
  6
CONTINUOUS
 10
5.4553008344
 20
3.1341957318
 11
5.4548276667
 21
3.1347426561
  0
LINE
  5
20D
100
AcDbEntity
  8
0
100
AcDbLine
 62
6
  6
CONTINUOUS
 10
5.4663498788
 20
3.3648826263
 11
6.2389364946
 21
3.3648826263
  0
LINE
  5
20E
100
AcDbEntity
  8
0
100
AcDbLine
 62
6
  6
CONTINUOUS
 10
5.4553008344
 20
3.2056257318
 11
5.4548276667
 21
3.2061726345
  0
LINE
  5
20F
100
AcDbEntity
  8
0
100
AcDbLine
 62
6
  6
CONTINUOUS
 10
5.4553008344
 20
3.2770557318
 11
5.4548276667
 21
3.2776026263
  0
LINE
  5
210
100
AcDbEntity
  8
0
100
AcDbLine
 62
6
  6
CONTINUOUS
 10
5.4548276667
 20
3.3490326287
 11
5.4553008344
 21
3.3484857318
  0
LINE
  5
211
100
AcDbEntity
  8
0
100
AcDbLine
 62
6
  6
CONTINUOUS
 10
5.298832269
 20
3.4448826263
 11
6.4288230645
 21
3.4448826263
  0
LINE
  5
212
100
AcDbEntity
  8
0
100
AcDbLine
 62
6
  6
CONTINUOUS
 10
6.2619674768
 20
3.1145078746
 11
6.2342984755
 21
3.1305035224
  0
LINE
  5
213
100
AcDbEntity
  8
0
100
AcDbLine
 62
6
  6
CONTINUOUS
 10
6.4288276667
 20
3.5448826263
 11
5.2988276667
 21
3.5448826263
  0
LINE
  5
214
100
AcDbEntity
  8
0
100
AcDbLine
 62
6
  6
CONTINUOUS
 10
6.2723544991
 20
3.1799337979
 11
6.2342984755
 21
3.2019335224
  0
LINE
  5
215
100
AcDbEntity
  8
0
100
AcDbLine
 62
6
  6
CONTINUOUS
 10
6.2723544991
 20
3.2513637979
 11
6.2342984755
 21
3.2733635224
  0
LINE
  5
216
100
AcDbEntity
  8
0
100
AcDbLine
 62
9
  6
CONTINUOUS
 10
6.3288276667
 20
3.6448826263
 11
5.3988276667
 21
3.6448826263
  0
LINE
  5
217
100
AcDbEntity
  8
0
100
AcDbLine
 62
6
  6
CONTINUOUS
 10
6.2723544991
 20
3.3227937979
 11
6.2342984755
 21
3.3447935224
  0
LINE
  5
218
100
AcDbEntity
  8
0
100
AcDbLine
 62
6
  6
CONTINUOUS
 10
5.2988276667
 20
3.5448826263
 11
5.2988276667
 21
3.4448826263
  0
LINE
  5
219
100
AcDbEntity
  8
0
100
AcDbLine
 62
6
  6
CONTINUOUS
 10
5.3988276667
 20
4.2154801427
 11
5.3988276667
 21
3.6448826263
  0
LINE
  5
21A
100
AcDbEntity
  8
0
100
AcDbLine
 62
6
  6
CONTINUOUS
 10
6.2723544991
 20
3.1799337979
 11
6.2728276667
 21
3.1793869036
  0
LINE
  5
21B
100
AcDbEntity
  8
0
100
AcDbLine
 62
6
  6
CONTINUOUS
 10
6.2723544991
 20
3.2513637979
 11
6.2728276667
 21
3.250816926
  0
LINE
  5
21C
100
AcDbEntity
  8
0
100
AcDbLine
 62
6
  6
CONTINUOUS
 10
5.4548276667
 20
3.1347426263
 11
5.4548276667
 21
3.1436719034
  0
LINE
  5
21D
100
AcDbEntity
  8
0
100
AcDbLine
 62
6
  6
CONTINUOUS
 10
5.4548276667
 20
3.2061726263
 11
5.4548276667
 21
3.2151019034
  0
LINE
  5
21E
100
AcDbEntity
  8
0
100
AcDbLine
 62
6
  6
CONTINUOUS
 10
5.4548276667
 20
3.2776026263
 11
5.4548276667
 21
3.2865319034
  0
LINE
  5
21F
100
AcDbEntity
  8
0
100
AcDbLine
 62
6
  6
CONTINUOUS
 10
5.4548276667
 20
3.3490326263
 11
5.4548276667
 21
3.3579619034
  0
LINE
  5
220
100
AcDbEntity
  8
0
100
AcDbLine
 62
6
  6
CONTINUOUS
 10
5.4934876667
 20
3.3267122649
 11
5.4934876667
 21
3.3091541483
  0
LINE
  5
221
100
AcDbEntity
  8
0
100
AcDbLine
 62
6
  6
CONTINUOUS
 10
5.4934876667
 20
3.2552822649
 11
5.4934876667
 21
3.2377241483
  0
LINE
  5
222
100
AcDbEntity
  8
0
100
AcDbLine
 62
6
  6
CONTINUOUS
 10
5.4934876667
 20
3.1838522649
 11
5.4934876667
 21
3.1662941483
  0
LINE
  5
223
100
AcDbEntity
  8
0
100
AcDbLine
 62
6
  6
CONTINUOUS
 10
5.4934876667
 20
3.1124222649
 11
5.4934876667
 21
3.0948641418
  0
LINE
  5
224
100
AcDbEntity
  8
0
100
AcDbLine
 62
6
  6
CONTINUOUS
 10
5.4988276667
 20
3.3648826263
 11
5.4988276667
 21
3.4448826263
  0
LINE
  5
225
100
AcDbEntity
  8
0
100
AcDbLine
 62
6
  6
CONTINUOUS
 10
6.2341676667
 20
3.3445672649
 11
6.2336453038
 21
3.3451711477
  0
LINE
  5
226
100
AcDbEntity
  8
0
100
AcDbLine
 62
6
  6
CONTINUOUS
 10
6.2728276667
 20
3.3222469041
 11
6.2723544991
 21
3.3227937979
  0
LINE
  5
227
100
AcDbEntity
  8
0
100
AcDbLine
 62
6
  6
CONTINUOUS
 10
6.2619674768
 20
3.1145078746
 11
6.2620972644
 21
3.114152224
  0
LINE
  5
228
100
AcDbEntity
  8
0
100
AcDbLine
 62
6
  6
CONTINUOUS
 10
5.4883379844
 20
3.091886835
 11
5.488200461
 21
3.091509832
  0
LINE
  5
229
100
AcDbEntity
  8
0
100
AcDbLine
 62
6
  6
CONTINUOUS
 10
6.2288276667
 20
3.3648826263
 11
6.2288276667
 21
3.4448826263
  0
LINE
  5
22A
100
AcDbEntity
  8
0
100
AcDbLine
 62
6
  6
CONTINUOUS
 10
6.2341676667
 20
3.1302772649
 11
6.2341676667
 21
3.1478353817
  0
LINE
  5
22B
100
AcDbEntity
  8
0
100
AcDbLine
 62
6
  6
CONTINUOUS
 10
6.2341676667
 20
3.2017072649
 11
6.2341676667
 21
3.2192653817
  0
LINE
  5
22C
100
AcDbEntity
  8
0
100
AcDbLine
 62
6
  6
CONTINUOUS
 10
6.2341676667
 20
3.2731372649
 11
6.2341676667
 21
3.2906953817
  0
LINE
  5
22D
100
AcDbEntity
  8
0
100
AcDbLine
 62
6
  6
CONTINUOUS
 10
6.2341676667
 20
3.3445672649
 11
6.2341676667
 21
3.3621253884
  0
LINE
  5
22E
100
AcDbEntity
  8
0
100
AcDbLine
 62
6
  6
CONTINUOUS
 10
6.2728276667
 20
3.1704576263
 11
6.2728276667
 21
3.1793869034
  0
LINE
  5
22F
100
AcDbEntity
  8
0
100
AcDbLine
 62
6
  6
CONTINUOUS
 10
6.2728276667
 20
3.2418876263
 11
6.2728276667
 21
3.2508169034
  0
LINE
  5
230
100
AcDbEntity
  8
0
100
AcDbLine
 62
6
  6
CONTINUOUS
 10
6.2728276667
 20
3.3133176263
 11
6.2728276667
 21
3.3222469034
  0
LINE
  5
231
100
AcDbEntity
  8
0
100
AcDbLine
 62
6
  6
CONTINUOUS
 10
5.4548276667
 20
3.357961905
 11
5.4553008343
 21
3.3585087979
  0
LINE
  5
232
100
AcDbEntity
  8
0
100
AcDbLine
 62
6
  6
CONTINUOUS
 10
5.4553008343
 20
3.2870787979
 11
5.4548276667
 21
3.2865319938
  0
LINE
  5
233
100
AcDbEntity
  8
0
100
AcDbLine
 62
6
  6
CONTINUOUS
 10
5.4553008343
 20
3.2156487979
 11
5.4548276667
 21
3.2151019035
  0
LINE
  5
234
100
AcDbEntity
  8
0
100
AcDbLine
 62
6
  6
CONTINUOUS
 10
6.3288276667
 20
4.2154801427
 11
6.3288276667
 21
3.6448826263
  0
LINE
  5
235
100
AcDbEntity
  8
0
100
AcDbLine
 62
6
  6
CONTINUOUS
 10
6.4288276667
 20
3.5448826263
 11
6.4288276667
 21
3.4448826263
  0
LINE
  5
236
100
AcDbEntity
  8
0
100
AcDbLine
 62
6
  6
CONTINUOUS
 10
5.4548276667
 20
3.1436719012
 11
5.4553008343
 21
3.1442187979
  0
LINE
  5
237
100
AcDbEntity
  8
0
100
AcDbLine
 62
6
  6
CONTINUOUS
 10
5.4663275043
 20
3.3648826263
 11
5.4553008343
 21
3.3585087979
  0
LINE
  5
238
100
AcDbEntity
  8
0
100
AcDbLine
 62
6
  6
CONTINUOUS
 10
5.4940100296
 20
3.3094561477
 11
5.4553008343
 21
3.2870787979
  0
LINE
  5
239
100
AcDbEntity
  8
0
100
AcDbLine
 62
6
  6
CONTINUOUS
 10
5.4940100296
 20
3.2380261477
 11
5.4553008343
 21
3.2156487979
  0
LINE
  5
23A
100
AcDbEntity
  8
0
100
AcDbLine
 62
6
  6
CONTINUOUS
 10
5.4940100296
 20
3.1665961477
 11
5.4553008343
 21
3.1442187979
  0
LINE
  5
23B
100
AcDbEntity
  8
0
100
AcDbLine
 62
6
  6
CONTINUOUS
 10
6.2728276667
 20
3.3133176264
 11
6.2723544991
 21
3.3127707318
  0
LINE
  5
23C
100
AcDbEntity
  8
0
100
AcDbLine
 62
6
  6
CONTINUOUS
 10
5.4940100296
 20
3.0951661477
 11
5.4883379844
 21
3.091886835
  0
LINE
  5
23D
100
AcDbEntity
  8
0
100
AcDbLine
 62
6
  6
CONTINUOUS
 10
6.2723544991
 20
3.2413407318
 11
6.2728276667
 21
3.2418876264
  0
LINE
  5
23E
100
AcDbEntity
  8
0
100
AcDbLine
 62
6
  6
CONTINUOUS
 10
6.2723544991
 20
3.1699107318
 11
6.2728276667
 21
3.1704576264
  0
LINE
  5
23F
100
AcDbEntity
  8
0
100
AcDbLine
 62
6
  6
CONTINUOUS
 10
6.2336453039
 20
3.361823382
 11
6.2389367013
 21
3.3648826263
  0
LINE
  5
240
100
AcDbEntity
  8
0
100
AcDbLine
 62
6
  6
CONTINUOUS
 10
6.2328276667
 20
3.0848826263
 11
6.2620971884
 21
3.114152148
  0
LINE
  5
241
100
AcDbEntity
  8
0
100
AcDbLine
 62
6
  6
CONTINUOUS
 10
6.2336453039
 20
3.290393382
 11
6.2723544991
 21
3.3127707318
  0
LINE
  5
242
100
AcDbEntity
  8
0
100
AcDbLine
 62
6
  6
CONTINUOUS
 10
6.2336453039
 20
3.218963382
 11
6.2723544991
 21
3.2413407318
  0
LINE
  5
243
100
AcDbEntity
  8
0
100
AcDbLine
 62
6
  6
CONTINUOUS
 10
6.2336453039
 20
3.147533382
 11
6.2723544991
 21
3.1699107318
  0
ARC
  5
244
100
AcDbEntity
  8
0
100
AcDbCircle
 62
6
  6
CONTINUOUS
 10
5.6380396472
 20
1.0701328281
 40
2.2973721513
100
AcDbArc
 50
92.737845028
 51
93.4838187281
  0
ARC
  5
245
100
AcDbEntity
  8
0
100
AcDbCircle
 62
6
  6
CONTINUOUS
 10
5.8638276667
 20
4.6448826263
 40
1.0361916848
100
AcDbArc
 50
296.6773921536
 51
243.3226078464
  0
ARC
  5
246
100
AcDbEntity
  8
0
100
AcDbCircle
 62
6
  6
CONTINUOUS
 10
5.8638276667
 20
4.6448826263
 40
1.0
100
AcDbArc
 50
297.7433357399
 51
242.2566642601
  0
ARC
  5
247
100
AcDbEntity
  8
0
100
AcDbCircle
 62
7
  6
CONTINUOUS
 10
5.8638276667
 20
4.6448826263
 40
0.9299999808
100
AcDbArc
 50
300.0746673349
 51
239.9252194785
  0
CIRCLE
  5
248
100
AcDbEntity
  8
0
100
AcDbCircle
 62
6
  6
CONTINUOUS
 10
5.8638276667
 20
4.6448826263
 40
0.6338516481
  0
CIRCLE
  5
249
100
AcDbEntity
  8
0
100
AcDbCircle
 62
6
  6
CONTINUOUS
 10
5.8638276667
 20
4.6448826263
 40
0.6
  0
CIRCLE
  5
24A
100
AcDbEntity
  8
0
100
AcDbCircle
 62
7
  6
CONTINUOUS
 10
5.8638276667
 20
4.6448826263
 40
0.5536591992
  0
CIRCLE
  5
24B
100
AcDbEntity
  8
0
100
AcDbCircle
 62
9
  6
CONTINUOUS
 10
5.8638276667
 20
4.6448826263
 40
0.5472213052
  0
ARC
  5
24C
100
AcDbEntity
  8
0
100
AcDbCircle
 62
6
  6
CONTINUOUS
 10
5.2988276667
 20
3.6448826263
 40
0.1
100
AcDbArc
 50
270.0
 51
360.0
  0
ARC
  5
24D
100
AcDbEntity
  8
0
100
AcDbCircle
 62
6
  6
CONTINUOUS
 10
6.4288276667
 20
3.6448826263
 40
0.1
100
AcDbArc
 50
180.0
 51
270.0
  0
ARC
  5
24E
100
AcDbEntity
  8
0
100
AcDbCircle
 62
6
  6
CONTINUOUS
 10
5.5022649611
 20
3.0151042775
 40
0.0782539414
100
AcDbArc
 50
96.7813865032
 51
97.2081656192
  0
LINE
  5
24F
100
AcDbEntity
  8
0
100
AcDbLine
 62
6
  6
CONTINUOUS
 10
5.4550950273
 20
3.3575508233
 11
5.4548279586
 21
3.3579619055
  0
SPLINE
  5
250
100
AcDbEntity
  8
0
100
AcDbSpline
 62
6
  6
CONTINUOUS
 70
0
 71
3
 72
22
 73
18
 74
16
 42
0.0000001
 43
0.0000001
 44
0.0000000001
 12
0.0376510582
 22
0.0217653436
 32
0.0
 13
0.0434064922
 23
0.0026849212
 33
0.0
 40
0.0
 40
0.0
 40
0.0
 40
0.0
 40
0.0075239481
 40
0.0165025894
 40
0.0269773578
 40
0.0389738397
 40
0.0675906072
 40
0.1024308212
 40
0.1435096736
 40
0.1908197067
 40
0.2443435148
 40
0.3040579376
 40
0.3699362596
 40
0.4419472015
 40
0.6041770302
 40
0.7903375296
 40
1.0
 40
1.0
 40
1.0
 40
1.0
 10
5.4553014372
 20
3.3585087968
 30
0.0
 10
5.4553958654
 20
3.3585633839
 30
0.0
 10
5.4556104287
 20
3.3586702051
 30
0.0
 10
5.4559731337
 20
3.358817011
 30
0.0
 10
5.4564048565
 20
3.3589641543
 30
0.0
 10
5.4571155235
 20
3.3591731249
 30
0.0
 10
5.4581798374
 20
3.3594280491
 30
0.0
 10
5.4596669583
 20
3.3597205649
 30
0.0
 10
5.4614292772
 20
3.3600140856
 30
0.0
 10
5.4634654543
 20
3.3603084471
 30
0.0
 10
5.4657741688
 20
3.3606033309
 30
0.0
 10
5.4683539443
 20
3.3608985997
 30
0.0
 10
5.471203259
 20
3.3611941621
 30
0.0
 10
5.475534535
 20
3.3616049872
 30
0.0
 10
5.4816079399
 20
3.362111925
 30
0.0
 10
5.4896764004
 20
3.3627004513
 30
0.0
 10
5.495402473
 20
3.3630717926
 30
0.0
 10
5.4984360438
 20
3.363259435
 30
0.0
 11
5.4553014372
 21
3.3585087968
 31
0.0
 11
5.4555930347
 21
3.3586572515
 31
0.0
 11
5.4559541894
 21
3.3588057067
 31
0.0
 11
5.4563848625
 21
3.3589541625
 31
0.0
 11
5.4568850154
 21
3.3591026188
 31
0.0
 11
5.4580936056
 21
3.3593995336
 31
0.0
 11
5.4595794104
 21
3.3596964513
 31
0.0
 11
5.4613410602
 21
3.3599933697
 31
0.0
 11
5.4633770108
 21
3.360290286
 31
0.0
 11
5.465685718
 21
3.3605871977
 31
0.0
 11
5.4682656374
 21
3.3608841021
 31
0.0
 11
5.4711152247
 21
3.3611809966
 31
0.0
 11
5.4742328372
 21
3.3614778798
 31
0.0
 11
5.4812630938
 21
3.3620716435
 31
0.0
 11
5.4893373044
 21
3.3626654698
 31
0.0
 11
5.4984360438
 21
3.363259435
 31
0.0
  0
SPLINE
  5
251
100
AcDbEntity
  8
0
100
AcDbSpline
 62
6
  6
CONTINUOUS
 70
0
 71
3
 72
18
 73
14
 74
12
 42
0.0000001
 43
0.0000001
 44
0.0000000001
 12
-0.3585619503
 22
-0.0099664771
 32
0.0
 13
-0.3581040405
 23
-0.0206760489
 33
0.0
 40
0.0
 40
0.0
 40
0.0
 40
0.0
 40
0.1518939579
 40
0.3011032379
 40
0.4449394782
 40
0.5808620141
 40
0.7064440442
 40
0.7646528598
 40
0.8194535276
 40
0.8706067365
 40
0.91789315
 40
0.9610956631
 40
1.0
 40
1.0
 40
1.0
 40
1.0
 10
5.8638276667
 20
3.1615294034
 30
0.0
 10
5.8456732021
 20
3.1610247876
 30
0.0
 10
5.8096851463
 20
3.1600245018
 30
0.0
 10
5.7565064237
 20
3.158520054
 30
0.0
 10
5.7052381038
 20
3.157016622
 30
0.0
 10
5.6567960399
 20
3.1555148857
 30
0.0
 10
5.6185902728
 20
3.1542355772
 30
0.0
 10
5.5900814012
 20
3.1532007858
 30
0.0
 10
5.5704675341
 20
3.152444823
 30
0.0
 10
5.5521606374
 20
3.1516893155
 30
0.0
 10
5.5352417333
 20
3.1509343527
 30
0.0
 10
5.5197889387
 20
3.1501801646
 30
0.0
 10
5.5099859342
 20
3.1496500328
 30
0.0
 10
5.5053420008
 20
3.1493819034
 30
0.0
 11
5.8638276667
 21
3.1615294034
 31
0.0
 11
5.8093643984
 21
3.1600110491
 31
0.0
 11
5.7558645116
 21
3.1584925021
 31
0.0
 11
5.7042927377
 21
3.1569740878
 31
0.0
 11
5.6555609165
 21
3.1554556246
 31
0.0
 11
5.6105401868
 21
3.1539371859
 31
0.0
 11
5.5896744669
 21
3.1531779729
 31
0.0
 11
5.5700321086
 21
3.1524188078
 31
0.0
 11
5.5516991429
 21
3.1516596227
 31
0.0
 11
5.5347544921
 21
3.1509002652
 31
0.0
 11
5.5192763511
 21
3.1501408373
 31
0.0
 11
5.5053420008
 21
3.1493819034
 31
0.0
  0
SPLINE
  5
252
100
AcDbEntity
  8
0
100
AcDbSpline
 62
6
  6
CONTINUOUS
 70
0
 71
3
 72
36
 73
32
 74
30
 42
0.0000001
 43
0.0000001
 44
0.0000000001
 12
-0.4089503317
 22
-0.011367057
 32
0.0
 13
-0.3542484196
 23
-0.204640272
 33
0.0
 40
0.0
 40
0.0
 40
0.0
 40
0.0
 40
0.095013896
 40
0.1892153928
 40
0.2816758943
 40
0.3715892755
 40
0.4581502492
 40
0.5405651834
 40
0.6180926156
 40
0.6900340959
 40
0.7557377194
 40
0.7860644102
 40
0.8146140513
 40
0.8413209379
 40
0.8661279407
 40
0.8889790173
 40
0.9098202636
 40
0.9286080973
 40
0.9453025155
 40
0.9598647582
 40
0.9722658166
 40
0.9776493585
 40
0.982485063
 40
0.9867709865
 40
0.9905058447
 40
0.9936904761
 40
0.9963282019
 40
0.9974440693
 40
0.9984263087
 40
0.9992771236
 40
1.0
 40
1.0
 40
1.0
 40
1.0
 10
5.8638276667
 20
3.2329594034
 30
0.0
 10
5.8508756786
 20
3.232599394
 30
0.0
 10
5.825082446
 20
3.2318824569
 30
0.0
 10
5.7866855643
 20
3.2308055346
 30
0.0
 10
5.7489845102
 20
3.2297287386
 30
0.0
 10
5.7123258136
 20
3.2286522929
 30
0.0
 10
5.6770376202
 20
3.2275763034
 30
0.0
 10
5.6434392926
 20
3.22650085
 30
0.0
 10
5.6118356611
 20
3.2254262603
 30
0.0
 10
5.5825123104
 20
3.2243527796
 30
0.0
 10
5.5596243457
 20
3.2234367697
 30
0.0
 10
5.5426515205
 20
3.2226975851
 30
0.0
 10
5.5309930352
 20
3.2221583079
 30
0.0
 10
5.5200881126
 20
3.2216192274
 30
0.0
 10
5.5099612969
 20
3.2210804825
 30
0.0
 10
5.5006355685
 20
3.2205421785
 30
0.0
 10
5.4921321252
 20
3.2200043185
 30
0.0
 10
5.4844700579
 20
3.2194671539
 30
0.0
 10
5.4776664843
 20
3.2189311223
 30
0.0
 10
5.4717368396
 20
3.2183962965
 30
0.0
 10
5.4673497777
 20
3.2179333495
 30
0.0
 10
5.4642880761
 20
3.2175566087
 30
0.0
 10
5.4623282726
 20
3.2172878793
 30
0.0
 10
5.4605955802
 20
3.2170196253
 30
0.0
 10
5.4590909287
 20
3.2167520162
 30
0.0
 10
5.4578150181
 20
3.2164851829
 30
0.0
 10
5.4568972444
 20
3.2162529933
 30
0.0
 10
5.4562798299
 20
3.2160630956
 30
0.0
 10
5.4559005674
 20
3.2159288977
 30
0.0
 10
5.4555785901
 20
3.2157949444
 30
0.0
 10
5.4553866865
 20
3.2156981087
 30
0.0
 10
5.4553013273
 20
3.2156487988
 30
0.0
 11
5.8638276667
 21
3.2329594034
 31
0.0
 11
5.8249717478
 21
3.2318777438
 31
0.0
 11
5.7864483331
 21
3.2307955481
 31
0.0
 11
5.7486374503
 21
3.229713698
 31
0.0
 11
5.7118690543
 21
3.2286318403
 31
0.0
 11
5.6764727748
 21
3.227549908
 31
0.0
 11
5.6427735055
 21
3.2264680039
 31
0.0
 11
5.6110748487
 21
3.2253861084
 31
0.0
 11
5.5816628858
 21
3.2243041965
 31
0.0
 11
5.5548047724
 21
3.223222266
 31
0.0
 11
5.5424096715
 21
3.2226812959
 31
0.0
 11
5.5307423117
 21
3.2221403246
 31
0.0
 11
5.5198297038
 21
3.2215993537
 31
0.0
 11
5.5096953817
 21
3.2210583852
 31
0.0
 11
5.5003624819
 21
3.2205174213
 31
0.0
 11
5.4918533335
 21
3.2199764633
 31
0.0
 11
5.4841861348
 21
3.2194355099
 31
0.0
 11
5.4773777667
 21
3.2188945588
 31
0.0
 11
5.4714448429
 21
3.2183536076
 31
0.0
 11
5.4664003895
 21
3.2178126546
 31
0.0
 11
5.4642146094
 21
3.2175421769
 31
0.0
 11
5.46225486
 21
3.2172716981
 31
0.0
 11
5.4605224409
 21
3.217001218
 31
0.0
 11
5.4590186105
 21
3.2167307365
 31
0.0
 11
5.4577441377
 21
3.2164602535
 31
0.0
 11
5.456699471
 21
3.2161897695
 31
0.0
 11
5.4562634533
 21
3.2160545271
 31
0.0
 11
5.4558850532
 21
3.2159192845
 31
0.0
 11
5.4555643261
 21
3.2157840418
 31
0.0
 11
5.4553013273
 21
3.2156487988
 31
0.0
  0
SPLINE
  5
253
100
AcDbEntity
  8
0
100
AcDbSpline
 62
6
  6
CONTINUOUS
 70
0
 71
3
 72
18
 73
14
 74
12
 42
0.0000001
 43
0.0000001
 44
0.0000000001
 12
0.3581040405
 22
0.0206760489
 32
0.0
 13
0.3585619503
 23
0.0099664771
 33
0.0
 40
0.0
 40
0.0
 40
0.0
 40
0.0
 40
0.0389043369
 40
0.08210685
 40
0.1293932635
 40
0.1805464724
 40
0.2353471402
 40
0.2935559558
 40
0.4191379859
 40
0.5550605218
 40
0.6988967621
 40
0.8481060421
 40
1.0
 40
1.0
 40
1.0
 40
1.0
 10
5.5053420008
 20
3.2118826263
 30
0.0
 10
5.5099859342
 20
3.2121507556
 30
0.0
 10
5.5197889387
 20
3.2126808875
 30
0.0
 10
5.5352417333
 20
3.2134350755
 30
0.0
 10
5.5521606374
 20
3.2141900383
 30
0.0
 10
5.5704675341
 20
3.2149455459
 30
0.0
 10
5.5900814012
 20
3.2157015086
 30
0.0
 10
5.6185902728
 20
3.2167363
 30
0.0
 10
5.6567960399
 20
3.2180156085
 30
0.0
 10
5.7052381038
 20
3.2195173448
 30
0.0
 10
5.7565064237
 20
3.2210207768
 30
0.0
 10
5.8096851463
 20
3.2225252246
 30
0.0
 10
5.8456732021
 20
3.2235255104
 30
0.0
 10
5.8638276667
 20
3.2240301263
 30
0.0
 11
5.5053420008
 21
3.2118826263
 31
0.0
 11
5.5192763511
 21
3.2126415601
 31
0.0
 11
5.5347544921
 21
3.2134009881
 31
0.0
 11
5.5516991429
 21
3.2141603455
 31
0.0
 11
5.5700321086
 21
3.2149195306
 31
0.0
 11
5.5896744669
 21
3.2156786957
 31
0.0
 11
5.6105401868
 21
3.2164379087
 31
0.0
 11
5.6555609165
 21
3.2179563474
 31
0.0
 11
5.7042927377
 21
3.2194748106
 31
0.0
 11
5.7558645116
 21
3.2209932249
 31
0.0
 11
5.8093643984
 21
3.2225117719
 31
0.0
 11
5.8638276667
 21
3.2240301263
 31
0.0
  0
SPLINE
  5
254
100
AcDbEntity
  8
0
100
AcDbSpline
 62
6
  6
CONTINUOUS
 70
0
 71
3
 72
36
 73
32
 74
30
 42
0.0000001
 43
0.0000001
 44
0.0000000001
 12
-0.408950391
 22
-0.0113670587
 32
0.0
 13
-0.3542472363
 23
-0.2046424392
 33
0.0
 40
0.0
 40
0.0
 40
0.0
 40
0.0
 40
0.0950143905
 40
0.1892175687
 40
0.2816797171
 40
0.3715926744
 40
0.4581523101
 40
0.540566725
 40
0.6180941776
 40
0.6900358226
 40
0.7557395843
 40
0.7860663055
 40
0.814615991
 40
0.8413228745
 40
0.8661298446
 40
0.888980923
 40
0.9098221616
 40
0.9286098898
 40
0.9453041666
 40
0.9598662264
 40
0.9722668996
 40
0.9776502123
 40
0.98248569
 40
0.9867714091
 40
0.9905061078
 40
0.9936906354
 40
0.9963282952
 40
0.9974441378
 40
0.9984263548
 40
0.9992771476
 40
1.0
 40
1.0
 40
1.0
 40
1.0
 10
5.8638276667
 20
3.3043894034
 30
0.0
 10
5.8508756093
 20
3.3040293921
 30
0.0
 10
5.8250820763
 20
3.3033124468
 30
0.0
 10
5.786684668
 20
3.3022355092
 30
0.0
 10
5.7489832125
 20
3.3011587005
 30
0.0
 10
5.7123245263
 20
3.3000822555
 30
0.0
 10
5.6770366388
 20
3.2990062725
 30
0.0
 10
5.6434385567
 20
3.2979308257
 30
0.0
 10
5.6118349662
 20
3.2968562361
 30
0.0
 10
5.5825115672
 20
3.2957827512
 30
0.0
 10
5.5596235539
 20
3.294866737
 30
0.0
 10
5.5426506974
 20
3.2941275476
 30
0.0
 10
5.5309922007
 20
3.2935882684
 30
0.0
 10
5.5200872755
 20
3.2930491851
 30
0.0
 10
5.5099604632
 20
3.2925104362
 30
0.0
 10
5.5006347389
 20
3.2919721285
 30
0.0
 10
5.4921313098
 20
3.2914342644
 30
0.0
 10
5.4844692767
 20
3.2908970936
 30
0.0
 10
5.4776657612
 20
3.2903610585
 30
0.0
 10
5.4717362121
 20
3.289826239
 30
0.0
 10
5.4673492586
 20
3.2893632947
 30
0.0
 10
5.4642876716
 20
3.2889865587
 30
0.0
 10
5.462327958
 20
3.2887178344
 30
0.0
 10
5.4605953459
 20
3.288449586
 30
0.0
 10
5.459090758
 20
3.2881819831
 30
0.0
 10
5.4578148914
 20
3.2879151577
 30
0.0
 10
5.4568971431
 20
3.2876829755
 30
0.0
 10
5.4562797428
 20
3.2874930838
 30
0.0
 10
5.4559004888
 20
3.2873588899
 30
0.0
 10
5.4555785199
 20
3.2872249407
 30
0.0
 10
5.4553866221
 20
3.2871281076
 30
0.0
 10
5.4553012659
 20
3.2870787988
 30
0.0
 11
5.8638276667
 21
3.3043894034
 31
0.0
 11
5.8249715399
 21
3.303307738
 31
0.0
 11
5.786447432
 21
3.3022255224
 31
0.0
 11
5.7486358703
 21
3.3011436519
 31
0.0
 11
5.7118676423
 21
3.3000617986
 31
0.0
 11
5.6764719049
 21
3.2989798808
 31
0.0
 11
5.6427728431
 21
3.2978979819
 31
0.0
 11
5.6110741734
 21
3.2968160846
 31
0.0
 11
5.5816621389
 21
3.2957341678
 31
0.0
 11
5.5548039653
 21
3.2946522315
 31
0.0
 11
5.5424088503
 21
3.2941112586
 31
0.0
 11
5.5307414707
 21
3.2935702845
 31
0.0
 11
5.5198288627
 21
3.2930293109
 31
0.0
 11
5.5096945527
 21
3.2924883391
 31
0.0
 11
5.500361651
 21
3.2919473708
 31
0.0
 11
5.4918525049
 21
3.2914064074
 31
0.0
 11
5.4841853487
 21
3.2908654489
 31
0.0
 11
5.4773770378
 21
3.2903244952
 31
0.0
 11
5.4714441881
 21
3.2897835459
 31
0.0
 11
5.4663998918
 21
3.2892425995
 31
0.0
 11
5.4642142052
 21
3.2889721266
 31
0.0
 11
5.4622545484
 21
3.2887016535
 31
0.0
 11
5.4605222126
 21
3.2884311799
 31
0.0
 11
5.4590184471
 21
3.2881607055
 31
0.0
 11
5.457744016
 21
3.2878902301
 31
0.0
 11
5.4566993749
 21
3.2876197539
 31
0.0
 11
5.4562633666
 21
3.2874845154
 31
0.0
 11
5.4558849747
 21
3.2873492768
 31
0.0
 11
5.4555642557
 21
3.2872140379
 31
0.0
 11
5.4553012659
 21
3.2870787988
 31
0.0
  0
SPLINE
  5
255
100
AcDbEntity
  8
0
100
AcDbSpline
 62
6
  6
CONTINUOUS
 70
0
 71
3
 72
36
 73
32
 74
30
 42
0.0000001
 43
0.0000001
 44
0.0000000001
 12
0.408950344
 22
0.0113670574
 32
0.0
 13
0.3542489142
 23
0.2046394406
 33
0.0
 40
0.0
 40
0.0
 40
0.0
 40
0.0
 40
0.0950137602
 40
0.1892157685
 40
0.2816778734
 40
0.371592511
 40
0.4581543406
 40
0.5405695959
 40
0.6180969942
 40
0.6900379261
 40
0.7557408507
 40
0.786067014
 40
0.8146162019
 40
0.8413225809
 40
0.8661290223
 40
0.8889796
 40
0.909820494
 40
0.9286080894
 40
0.9453023283
 40
0.9598644571
 40
0.9722655857
 40
0.9776491909
 40
0.9824849515
 40
0.9867709044
 40
0.9905057643
 40
0.9936904117
 40
0.9963281624
 40
0.9974440426
 40
0.9984262936
 40
0.9992771177
 40
1.0
 40
1.0
 40
1.0
 40
1.0
 10
5.8638276667
 20
3.1526001263
 30
0.0
 10
5.8767796367
 20
3.1529601352
 30
0.0
 10
5.9025729214
 20
3.1536770736
 30
0.0
 10
5.9409700739
 20
3.1547540039
 30
0.0
 10
5.9786715888
 20
3.155830813
 30
0.0
 10
6.0153307929
 20
3.1569072751
 30
0.0
 10
6.0506193191
 20
3.1579832754
 30
0.0
 10
6.0842178033
 20
3.159058739
 30
0.0
 10
6.1158214002
 20
3.1601333283
 30
0.0
 10
6.1451445769
 20
3.1612068116
 30
0.0
 10
6.1680323004
 20
3.1621228129
 30
0.0
 10
6.1850048969
 20
3.1628619947
 30
0.0
 10
6.1966631798
 20
3.1634012633
 30
0.0
 10
6.2075678953
 20
3.1639403354
 30
0.0
 10
6.2176944976
 20
3.1644790724
 30
0.0
 10
6.2270200338
 20
3.1650173682
 30
0.0
 10
6.2355233291
 20
3.1655552187
 30
0.0
 10
6.2431852919
 20
3.1660923749
 30
0.0
 10
6.2499887935
 20
3.1666284004
 30
0.0
 10
6.2559184077
 20
3.167163228
 30
0.0
 10
6.2603054725
 20
3.1676261734
 30
0.0
 10
6.2633672003
 20
3.1680029143
 30
0.0
 10
6.2653270242
 20
3.1682716446
 30
0.0
 10
6.2670597286
 20
3.1685398993
 30
0.0
 10
6.2685643861
 20
3.1688075114
 30
0.0
 10
6.2698403026
 20
3.1690743455
 30
0.0
 10
6.2707580837
 20
3.1693065354
 30
0.0
 10
6.2713755052
 20
3.1694964333
 30
0.0
 10
6.2717547725
 20
3.1696306314
 30
0.0
 10
6.2720767537
 20
3.1697645848
 30
0.0
 10
6.2722686595
 20
3.1698614208
 30
0.0
 10
6.2723540195
 20
3.1699107309
 30
0.0
 11
5.8638276667
 21
3.1526001263
 31
0.0
 11
5.9026835313
 21
3.1536817844
 31
0.0
 11
5.9412071563
 21
3.1547639862
 31
0.0
 11
5.9790186959
 21
3.1558458554
 31
0.0
 11
6.0157876068
 21
3.1569277294
 31
0.0
 11
6.0511842373
 21
3.158009674
 31
0.0
 11
6.0848836388
 21
3.1590915861
 31
0.0
 11
6.1165822826
 21
3.1601734842
 31
0.0
 11
6.145994022
 21
3.1612553942
 31
0.0
 11
6.1728518503
 21
3.162337318
 31
0.0
 11
6.1852467358
 21
3.1628782827
 31
0.0
 11
6.1969139107
 21
3.1634192471
 31
0.0
 11
6.2078263114
 21
3.1639602097
 31
0.0
 11
6.2179604043
 21
3.164501169
 31
0.0
 11
6.2272931004
 21
3.1650421235
 31
0.0
 11
6.2358021053
 21
3.1655830725
 31
0.0
 11
6.243469207
 21
3.1661240182
 31
0.0
 11
6.2502775022
 21
3.1666649641
 31
0.0
 11
6.2562103795
 21
3.1672059133
 31
0.0
 11
6.2612548618
 21
3.1677468674
 31
0.0
 11
6.263440668
 21
3.1680173463
 31
0.0
 11
6.2654004405
 21
3.1682878264
 31
0.0
 11
6.2671328716
 21
3.1685583078
 31
0.0
 11
6.2686367025
 21
3.1688287905
 31
0.0
 11
6.2699111818
 21
3.1690992743
 31
0.0
 11
6.2709558589
 21
3.1693697591
 31
0.0
 11
6.271391882
 21
3.1695050018
 31
0.0
 11
6.271770287
 21
3.1696402447
 31
0.0
 11
6.2720910181
 21
3.1697754877
 31
0.0
 11
6.2723540195
 21
3.1699107309
 31
0.0
  0
SPLINE
  5
256
100
AcDbEntity
  8
0
100
AcDbSpline
 62
6
  6
CONTINUOUS
 70
0
 71
3
 72
40
 73
36
 74
34
 42
0.0000001
 43
0.0000001
 44
0.0000000001
 12
-0.0003093029
 22
0.409860627
 32
0.0
 13
0.4097025061
 23
0.0113879642
 33
0.0
 40
0.0
 40
0.0
 40
0.0
 40
0.0
 40
0.0003485281
 40
0.000756616
 40
0.001263354
 40
0.0018896601
 40
0.0026466006
 40
0.0035402356
 40
0.0045740919
 40
0.0057503458
 40
0.008534895
 40
0.0119005426
 40
0.0158498901
 40
0.0203837963
 40
0.0255020424
 40
0.0312025525
 40
0.037482154
 40
0.0443374326
 40
0.0597605323
 40
0.077440963
 40
0.097336423
 40
0.1193989575
 40
0.1435793515
 40
0.1698189471
 40
0.198053318
 40
0.2282173255
 40
0.294037413
 40
0.3666484552
 40
0.4453507604
 40
0.5293907805
 40
0.6179626095
 40
0.7102067307
 40
0.8052370558
 40
0.9021689993
 40
1.0
 40
1.0
 40
1.0
 40
1.0
 10
5.4548281353
 20
3.1347426555
 30
0.0
 10
5.4548280993
 20
3.1347902715
 30
0.0
 10
5.4548532161
 20
3.1348943027
 30
0.0
 10
5.4549547527
 20
3.1350369804
 30
0.0
 10
5.4551145503
 20
3.1351758637
 30
0.0
 10
5.4553336382
 20
3.1353137602
 30
0.0
 10
5.4556128706
 20
3.1354516736
 30
0.0
 10
5.4559528624
 20
3.135589805
 30
0.0
 10
5.456353837
 20
3.1357281978
 30
0.0
 10
5.4570076168
 20
3.1359241595
 30
0.0
 10
5.4579800331
 20
3.1361636562
 30
0.0
 10
5.4593323219
 20
3.1364388514
 30
0.0
 10
5.4609276044
 20
3.136714895
 30
0.0
 10
5.4627652252
 20
3.1369916538
 30
0.0
 10
5.4648443964
 20
3.1372688306
 30
0.0
 10
5.4671638912
 20
3.1375463442
 30
0.0
 10
5.4697221913
 20
3.137824138
 30
0.0
 10
5.4736046922
 20
3.1382101275
 30
0.0
 10
5.479043218
 20
3.1386866299
 30
0.0
 10
5.486262895
 20
3.1392396931
 30
0.0
 10
5.4943919326
 20
3.1397937121
 30
0.0
 10
5.5034107755
 20
3.1403485532
 30
0.0
 10
5.5132978128
 20
3.1409038511
 30
0.0
 10
5.5240292405
 20
3.1414595537
 30
0.0
 10
5.535579144
 20
3.1420156406
 30
0.0
 10
5.5525327123
 20
3.1427797467
 30
0.0
 10
5.575546884
 20
3.1437255336
 30
0.0
 10
5.605191111
 20
3.1448320106
 30
0.0
 10
5.6373260901
 20
3.1459398531
 30
0.0
 10
5.6716428014
 20
3.1470487036
 30
0.0
 10
5.7078104862
 20
3.1481582597
 30
0.0
 10
5.7454803265
 20
3.1492683362
 30
0.0
 10
5.7842927941
 20
3.1503788139
 30
0.0
 10
5.8238688424
 20
3.1514894483
 30
0.0
 10
5.8504671313
 20
3.1522287609
 30
0.0
 10
5.8638276667
 20
3.1526001263
 30
0.0
 11
5.4548281353
 21
3.1347426555
 31
0.0
 11
5.4548588127
 21
3.1348821705
 31
0.0
 11
5.454951069
 21
3.1350216855
 31
0.0
 11
5.4551049246
 21
3.1351612004
 31
0.0
 11
5.4553204
 21
3.1353007152
 31
0.0
 11
5.4555975004
 21
3.1354402299
 31
0.0
 11
5.4559361542
 21
3.1355797444
 31
0.0
 11
5.4563362653
 21
3.1357192588
 31
0.0
 11
5.4567977374
 21
3.135858773
 31
0.0
 11
5.4579043798
 21
3.1361378008
 31
0.0
 11
5.4592553119
 21
3.1364168279
 31
0.0
 11
5.460849764
 21
3.1366958539
 31
0.0
 11
5.4626869665
 21
3.1369748789
 31
0.0
 11
5.4647660954
 21
3.1372539028
 31
0.0
 11
5.4670857899
 21
3.1375329256
 31
0.0
 11
5.469644383
 21
3.1378119474
 31
0.0
 11
5.472440204
 21
3.1380909684
 31
0.0
 11
5.4787368473
 21
3.1386490086
 31
0.0
 11
5.4859618432
 21
3.1392070471
 31
0.0
 11
5.4940970943
 21
3.1397650851
 31
0.0
 11
5.5031224258
 21
3.1403231237
 31
0.0
 11
5.5130172967
 21
3.1408811638
 31
0.0
 11
5.5237573891
 21
3.1414392046
 31
0.0
 11
5.5353160864
 21
3.1419972446
 31
0.0
 11
5.5476665284
 21
3.1425552821
 31
0.0
 11
5.574620502
 21
3.1436713526
 31
0.0
 11
5.6043599829
 21
3.1447874269
 31
0.0
 11
5.6365976546
 21
3.1459035023
 31
0.0
 11
5.6710242732
 21
3.1470195868
 31
0.0
 11
5.7073092268
 21
3.1481357157
 31
0.0
 11
5.7450999935
 21
3.1492518094
 31
0.0
 11
5.7840332001
 21
3.1503678654
 31
0.0
 11
5.8237461104
 21
3.1514842397
 31
0.0
 11
5.8638276667
 21
3.1526001263
 31
0.0
  0
SPLINE
  5
257
100
AcDbEntity
  8
0
100
AcDbSpline
 62
6
  6
CONTINUOUS
 70
0
 71
3
 72
36
 73
32
 74
30
 42
0.0000001
 43
0.0000001
 44
0.0000000001
 12
0.4089503173
 22
0.0113670566
 32
0.0
 13
0.3542474206
 23
0.2046419728
 33
0.0
 40
0.0
 40
0.0
 40
0.0
 40
0.0
 40
0.0950144041
 40
0.1892192796
 40
0.2816841168
 40
0.3715998916
 40
0.4581623522
 40
0.540577538
 40
0.6181043703
 40
0.6900438014
 40
0.7557450085
 40
0.7860700128
 40
0.8146183346
 40
0.8413239471
 40
0.866129684
 40
0.8889798445
 40
0.9098206195
 40
0.9286081922
 40
0.9453025338
 40
0.9598648095
 40
0.9722658395
 40
0.9776493642
 40
0.9824850644
 40
0.9867710077
 40
0.9905059032
 40
0.9936905396
 40
0.9963282473
 40
0.9974441017
 40
0.998426328
 40
0.9992771315
 40
1.0
 40
1.0
 40
1.0
 40
1.0
 10
5.8638276667
 20
3.2240301263
 30
0.0
 10
5.8767797236
 20
3.2243901376
 30
0.0
 10
5.9025734853
 20
3.2251070892
 30
0.0
 10
5.9409714864
 20
3.2261840437
 30
0.0
 10
5.978673917
 20
3.2272608803
 30
0.0
 10
6.0153337321
 20
3.2283373633
 30
0.0
 10
6.0506224875
 20
3.2294133729
 30
0.0
 10
6.0842209686
 20
3.2304888459
 30
0.0
 10
6.1158242723
 20
3.2315634254
 30
0.0
 10
6.1451469307
 20
3.2326369069
 30
0.0
 10
6.1680340563
 20
3.2335528821
 30
0.0
 10
6.1850061413
 20
3.2342920532
 30
0.0
 10
6.1966640432
 20
3.2348313038
 30
0.0
 10
6.2075684397
 20
3.2353703602
 30
0.0
 10
6.217694784
 20
3.2359090874
 30
0.0
 10
6.2270201505
 20
3.2364473757
 30
0.0
 10
6.2355233692
 20
3.2369852215
 30
0.0
 10
6.243185326
 20
3.2375223807
 30
0.0
 10
6.2499888579
 20
3.2380584099
 30
0.0
 10
6.2559184929
 20
3.2385932311
 30
0.0
 10
6.2603055528
 20
3.2390561795
 30
0.0
 10
6.2633672473
 20
3.2394329209
 30
0.0
 10
6.2653270505
 20
3.2397016509
 30
0.0
 10
6.26705975
 20
3.2399699054
 30
0.0
 10
6.2685644104
 20
3.2402375123
 30
0.0
 10
6.2698403244
 20
3.2405043458
 30
0.0
 10
6.2707580942
 20
3.240736536
 30
0.0
 10
6.2713755023
 20
3.2409264341
 30
0.0
 10
6.2717547594
 20
3.2410606321
 30
0.0
 10
6.2720767318
 20
3.2411945855
 30
0.0
 10
6.2722686324
 20
3.2412914211
 30
0.0
 10
6.2723539905
 20
3.2413407309
 30
0.0
 11
5.8638276667
 21
3.2240301263
 31
0.0
 11
5.9026837921
 21
3.2251117916
 31
0.0
 11
5.9412085871
 21
3.2261940267
 31
0.0
 11
5.9790212416
 21
3.2272759293
 31
0.0
 11
6.015790615
 21
3.2283578196
 31
0.0
 11
6.0511875011
 21
3.2294397759
 31
0.0
 11
6.0848868718
 21
3.2305216938
 31
0.0
 11
6.1165852819
 21
3.2316035888
 31
0.0
 11
6.1459964054
 21
3.2326854873
 31
0.0
 11
6.1728535296
 21
3.2337673879
 31
0.0
 11
6.1852479404
 21
3.2343083379
 31
0.0
 11
6.1969147606
 21
3.2348492869
 31
0.0
 11
6.2078268473
 21
3.2353902346
 31
0.0
 11
6.2179606515
 21
3.2359311816
 31
0.0
 11
6.2272931766
 21
3.2364721282
 31
0.0
 11
6.2358021322
 21
3.237013075
 31
0.0
 11
6.243469224
 21
3.2375540226
 31
0.0
 11
6.2502775607
 21
3.2380949713
 31
0.0
 11
6.2562104978
 21
3.2386359216
 31
0.0
 11
6.2612549394
 21
3.2391768746
 31
0.0
 11
6.2634407123
 21
3.2394473525
 31
0.0
 11
6.2654004599
 21
3.2397178314
 31
0.0
 11
6.2671328871
 21
3.2399883117
 31
0.0
 11
6.2686367329
 21
3.2402587933
 31
0.0
 11
6.2699112077
 21
3.2405292763
 31
0.0
 11
6.2709558667
 21
3.2407997603
 31
0.0
 11
6.2713918788
 21
3.2409350027
 31
0.0
 11
6.2717702732
 21
3.2410702453
 31
0.0
 11
6.2720909953
 21
3.241205488
 31
0.0
 11
6.2723539905
 21
3.2413407309
 31
0.0
  0
SPLINE
  5
258
100
AcDbEntity
  8
0
100
AcDbSpline
 62
6
  6
CONTINUOUS
 70
0
 71
3
 72
29
 73
25
 74
23
 42
0.0000001
 43
0.0000001
 44
0.0000000001
 12
-0.0000469446
 22
0.0511613843
 32
0.0
 13
0.0510763421
 23
0.0029490227
 33
0.0
 40
0.0
 40
0.0
 40
0.0
 40
0.0
 40
0.001761038
 40
0.0036546205
 40
0.0057892513
 40
0.0082417215
 40
0.0142785997
 40
0.0220065086
 40
0.0315295092
 40
0.0429007032
 40
0.0561494558
 40
0.071292874
 40
0.0883411741
 40
0.1073004268
 40
0.1281740681
 40
0.1509637793
 40
0.2022849847
 40
0.2612323955
 40
0.3277615216
 40
0.4018232633
 40
0.4833656597
 40
0.5723230191
 40
0.7720329333
 40
1.0
 40
1.0
 40
1.0
 40
1.0
 10
5.4548277831
 20
3.2061726331
 30
0.0
 10
5.4548277555
 20
3.2062026654
 30
0.0
 10
5.4548368964
 20
3.2062652931
 30
0.0
 10
5.4548769114
 20
3.2063565441
 30
0.0
 10
5.4549421502
 20
3.2064465597
 30
0.0
 10
5.4550713537
 20
3.206574404
 30
0.0
 10
5.4553026285
 20
3.2067295758
 30
0.0
 10
5.4556595792
 20
3.20690469
 30
0.0
 10
5.4561155085
 20
3.2070804526
 30
0.0
 10
5.4566706539
 20
3.2072567811
 30
0.0
 10
5.4573254992
 20
3.2074335679
 30
0.0
 10
5.4580800255
 20
3.2076106876
 30
0.0
 10
5.4589342007
 20
3.2077880567
 30
0.0
 10
5.4598879098
 20
3.2079656084
 30
0.0
 10
5.4609410178
 20
3.2081433123
 30
0.0
 10
5.4625419725
 20
3.2083902752
 30
0.0
 10
5.464790728
 20
3.2086951754
 30
0.0
 10
5.4677850648
 20
3.2090490172
 30
0.0
 10
5.471169524
 20
3.2094034615
 30
0.0
 10
5.4749411288
 20
3.2097584165
 30
0.0
 10
5.4790967092
 20
3.2101137607
 30
0.0
 10
5.4853909291
 20
3.2106071025
 30
0.0
 10
5.4941806221
 20
3.211215867
 30
0.0
 10
5.5014607595
 20
3.2116585329
 30
0.0
 10
5.5053420008
 20
3.2118826263
 30
0.0
 11
5.4548277831
 21
3.2061726331
 31
0.0
 11
5.4548403078
 21
3.2062618554
 31
0.0
 11
5.4548780534
 21
3.2063510781
 31
0.0
 11
5.4549410316
 21
3.206440301
 31
0.0
 11
5.4550292495
 21
3.2065295242
 31
0.0
 11
5.4552813371
 21
3.2067079712
 31
0.0
 11
5.4556341466
 21
3.2068864185
 31
0.0
 11
5.4560875012
 21
3.2070648654
 31
0.0
 11
5.4566412241
 21
3.2072433113
 31
0.0
 11
5.4572951386
 21
3.2074217556
 31
0.0
 11
5.4580490678
 21
3.2076001975
 31
0.0
 11
5.458902835
 21
3.2077786366
 31
0.0
 11
5.4598562635
 21
3.2079570721
 31
0.0
 11
5.4609091765
 21
3.2081355035
 31
0.0
 11
5.4620613969
 21
3.20831393
 31
0.0
 11
5.4646627007
 21
3.2086707712
 31
0.0
 11
5.4676573477
 21
3.2090276104
 31
0.0
 11
5.4710423129
 21
3.2093844652
 31
0.0
 11
5.474814571
 21
3.2097413532
 31
0.0
 11
5.4789710968
 21
3.2100982921
 31
0.0
 11
5.4835082577
 21
3.2104552843
 31
0.0
 11
5.4937007251
 21
3.2111692089
 31
0.0
 11
5.5053420008
 21
3.2118826263
 31
0.0
  0
SPLINE
  5
259
100
AcDbEntity
  8
0
100
AcDbSpline
 62
6
  6
CONTINUOUS
 70
0
 71
3
 72
9
 73
5
 74
3
 42
0.0000001
 43
0.0000001
 44
0.0000000001
 12
0.0000000011
 22
-0.0000885591
 32
0.0
 13
0.00002369
 23
-0.0000853317
 33
0.0
 40
0.0
 40
0.0
 40
0.0
 40
0.0
 40
0.2473409251
 40
1.0
 40
1.0
 40
1.0
 40
1.0
 10
5.4548276667
 20
3.2151019035
 30
0.0
 10
5.4548276668
 20
3.215094602
 30
0.0
 10
5.4548286872
 20
3.2150650874
 30
0.0
 10
5.45483388
 20
3.2150357476
 30
0.0
 10
5.4548398235
 20
3.215014339
 30
0.0
 11
5.4548276667
 21
3.2151019035
 31
0.0
 11
5.4548284269
 21
3.2150800124
 31
0.0
 11
5.4548398235
 21
3.215014339
 31
0.0
  0
SPLINE
  5
25A
100
AcDbEntity
  8
0
100
AcDbSpline
 62
6
  6
CONTINUOUS
 70
0
 71
3
 72
40
 73
36
 74
34
 42
0.0000001
 43
0.0000001
 44
0.0000000001
 12
-0.0000051673
 22
0.4098608809
 32
0.0
 13
0.4097026432
 23
0.011387968
 33
0.0
 40
0.0
 40
0.0
 40
0.0
 40
0.0
 40
0.0003486223
 40
0.0007570714
 40
0.0012643107
 40
0.001891038
 40
0.0026481266
 40
0.0035416288
 40
0.004575139
 40
0.0057509115
 40
0.0085344237
 40
0.0118995057
 40
0.0158493964
 40
0.0203844767
 40
0.0255031144
 40
0.0312030699
 40
0.0374817511
 40
0.0443363348
 40
0.059760573
 40
0.077441389
 40
0.0973356607
 40
0.1193992886
 40
0.1435811486
 40
0.1698206293
 40
0.1980562627
 40
0.2282227008
 40
0.2940451311
 40
0.3666586842
 40
0.4453619875
 40
0.5294019492
 40
0.6179730833
 40
0.7102137634
 40
0.8052406857
 40
0.9021722949
 40
1.0
 40
1.0
 40
1.0
 40
1.0
 10
5.4548276667
 20
3.2776026263
 30
0.0
 10
5.4548276661
 20
3.2776502552
 30
0.0
 10
5.4548529525
 20
3.2777543226
 30
0.0
 10
5.4549547662
 20
3.2778969544
 30
0.0
 10
5.4551148089
 20
3.2780358133
 30
0.0
 10
5.4553340715
 20
3.2781737001
 30
0.0
 10
5.455613362
 20
3.2783116261
 30
0.0
 10
5.4559533002
 20
3.2784497685
 30
0.0
 10
5.4563541331
 20
3.2785881696
 30
0.0
 10
5.4570076439
 20
3.2787841425
 30
0.0
 10
5.4579797619
 20
3.2790236648
 30
0.0
 10
5.4593319014
 20
3.2792988755
 30
0.0
 10
5.4609273498
 20
3.2795748903
 30
0.0
 10
5.4627652692
 20
3.2798516028
 30
0.0
 10
5.4648445793
 20
3.2801287859
 30
0.0
 10
5.4671639236
 20
3.280406317
 30
0.0
 10
5.4697219251
 20
3.2806841226
 30
0.0
 10
5.4736043582
 20
3.2810701512
 30
0.0
 10
5.4790430063
 20
3.2815465812
 30
0.0
 10
5.4862627306
 20
3.28209965
 30
0.0
 10
5.4943918061
 20
3.2826537389
 30
0.0
 10
5.5034108416
 20
3.2832085517
 30
0.0
 10
5.5132982169
 20
3.2837638438
 30
0.0
 10
5.5240300027
 20
3.2843196065
 30
0.0
 10
5.5355803988
 20
3.2848757067
 30
0.0
 10
5.5525347984
 20
3.2856398099
 30
0.0
 10
5.5755499707
 20
3.2865856723
 30
0.0
 10
5.6051950079
 20
3.2876921447
 30
0.0
 10
5.6373304691
 20
3.2887999959
 30
0.0
 10
5.6716472255
 20
3.2899088455
 30
0.0
 10
5.7078143499
 20
3.2910183726
 30
0.0
 10
5.7454831733
 20
3.2921284191
 30
0.0
 10
5.7842946737
 20
3.2932388672
 30
0.0
 10
5.8238697748
 20
3.2943494737
 30
0.0
 10
5.8504675769
 20
3.2950887733
 30
0.0
 10
5.8638276667
 20
3.2954601263
 30
0.0
 11
5.4548276667
 21
3.2776026263
 31
0.0
 11
5.4548585202
 21
3.2777421421
 31
0.0
 11
5.4549510434
 21
3.2778816579
 31
0.0
 11
5.4551051757
 21
3.2780211736
 31
0.0
 11
5.4553208562
 21
3.2781606892
 31
0.0
 11
5.4555980243
 21
3.2783002047
 31
0.0
 11
5.455936619
 21
3.2784397201
 31
0.0
 11
5.4563365798
 21
3.2785792352
 31
0.0
 11
5.4567978457
 21
3.2787187502
 31
0.0
 11
5.4579040499
 21
3.2789977793
 31
0.0
 11
5.4592547455
 21
3.2792768071
 31
0.0
 11
5.4608494242
 21
3.2795558334
 31
0.0
 11
5.4626871141
 21
3.2798348583
 31
0.0
 11
5.4647664056
 21
3.2801138818
 31
0.0
 11
5.4670858721
 21
3.2803929042
 31
0.0
 11
5.4696440866
 21
3.2806719258
 31
0.0
 11
5.4724396223
 21
3.2809509467
 31
0.0
 11
5.4787367362
 21
3.2815089875
 31
0.0
 11
5.4859618926
 21
3.2820670287
 31
0.0
 11
5.494096658
 21
3.282625073
 31
0.0
 11
5.5031224407
 21
3.2831831228
 31
0.0
 11
5.5130179158
 21
3.2837411787
 31
0.0
 11
5.5237579637
 21
3.2842992386
 31
0.0
 11
5.5353171819
 21
3.2848573003
 31
0.0
 11
5.5476686241
 21
3.2854153618
 31
0.0
 11
5.574623566
 21
3.286531477
 31
0.0
 11
5.6043640858
 21
3.2876475734
 31
0.0
 11
5.6366021776
 21
3.2887636509
 31
0.0
 11
5.671028784
 21
3.2898797301
 31
0.0
 11
5.7073134653
 21
3.2909958421
 31
0.0
 11
5.745102835
 21
3.2921118921
 31
0.0
 11
5.7840346605
 21
3.293227907
 31
0.0
 11
5.8237474472
 21
3.2943442767
 31
0.0
 11
5.8638276667
 21
3.2954601263
 31
0.0
  0
SPLINE
  5
25B
100
AcDbEntity
  8
0
100
AcDbSpline
 62
6
  6
CONTINUOUS
 70
0
 71
3
 72
9
 73
5
 74
3
 42
0.0000001
 43
0.0000001
 44
0.0000000001
 12
-0.0000000056
 22
-0.0000887613
 32
0.0
 13
0.0000237823
 23
-0.0000855159
 33
0.0
 40
0.0
 40
0.0
 40
0.0
 40
0.0
 40
0.2473322625
 40
1.0
 40
1.0
 40
1.0
 40
1.0
 10
5.4548276707
 20
3.2865319937
 30
0.0
 10
5.4548276702
 20
3.2865246759
 30
0.0
 10
5.4548286928
 20
3.2864950937
 30
0.0
 10
5.4548339058
 20
3.2864656874
 30
0.0
 10
5.4548398726
 20
3.2864442324
 30
0.0
 11
5.4548276707
 21
3.2865319937
 31
0.0
 11
5.4548284324
 21
3.2865100534
 31
0.0
 11
5.4548398726
 21
3.2864442324
 31
0.0
  0
SPLINE
  5
25C
100
AcDbEntity
  8
0
100
AcDbSpline
 62
6
  6
CONTINUOUS
 70
0
 71
3
 72
40
 73
36
 74
34
 42
0.0000001
 43
0.0000001
 44
0.0000000001
 12
0.4097022501
 22
0.0113879571
 32
0.0
 13
0.0004790487
 23
0.4098602077
 33
0.0
 40
0.0
 40
0.0
 40
0.0
 40
0.0
 40
0.0978262258
 40
0.1947633041
 40
0.2897929577
 40
0.3820326126
 40
0.4706044006
 40
0.5546448601
 40
0.6333490187
 40
0.7059615685
 40
0.7717821459
 40
0.8019473197
 40
0.8301833123
 40
0.8564212986
 40
0.8806018636
 40
0.9026666915
 40
0.9225606144
 40
0.9402402868
 40
0.955665777
 40
0.9625210767
 40
0.968799442
 40
0.9744985263
 40
0.9796162795
 40
0.9841510016
 40
0.988101553
 40
0.9914677495
 40
0.9942514242
 40
0.9954269079
 40
0.9964599865
 40
0.9973529931
 40
0.9981096005
 40
0.9987359371
 40
0.9992429418
 40
0.9996513386
 40
1.0
 40
1.0
 40
1.0
 40
1.0
 10
5.8638276667
 20
3.3043894034
 30
0.0
 10
5.8771875417
 20
3.3047607504
 30
0.0
 10
5.9037858631
 20
3.3055000649
 30
0.0
 10
5.9433618442
 20
3.3066106958
 30
0.0
 10
5.9821742872
 20
3.3077211717
 30
0.0
 10
6.0198433965
 20
3.3088312334
 30
0.0
 10
6.0560105038
 20
3.309940752
 30
0.0
 10
6.0903275004
 20
3.3110496332
 30
0.0
 10
6.1224629792
 20
3.3121574702
 30
0.0
 10
6.1521077137
 20
3.3132639587
 30
0.0
 10
6.1751223018
 20
3.3142097905
 30
0.0
 10
6.1920763071
 20
3.3149739103
 30
0.0
 10
6.2036263668
 20
3.3155299487
 30
0.0
 10
6.2143578096
 20
3.3160857197
 30
0.0
 10
6.2242449559
 20
3.3166410438
 30
0.0
 10
6.2332639259
 20
3.3171957911
 30
0.0
 10
6.2413929535
 20
3.3177498856
 30
0.0
 10
6.2486126322
 20
3.318303028
 30
0.0
 10
6.2540513902
 20
3.3187794281
 30
0.0
 10
6.2579340496
 20
3.3191654246
 30
0.0
 10
6.2604919829
 20
3.3194432417
 30
0.0
 10
6.2628110385
 20
3.3197207848
 30
0.0
 10
6.2648900532
 20
3.3199979826
 30
0.0
 10
6.2667278869
 20
3.320274717
 30
0.0
 10
6.2683235303
 20
3.3205507253
 30
0.0
 10
6.2696759531
 20
3.3208258631
 30
0.0
 10
6.2706482121
 20
3.3210653824
 30
0.0
 10
6.2713016372
 20
3.321261375
 30
0.0
 10
6.2717022948
 20
3.3213997749
 30
0.0
 10
6.2720420255
 20
3.3215379175
 30
0.0
 10
6.2723211069
 20
3.3216758458
 30
0.0
 10
6.272540187
 20
3.3218137384
 30
0.0
 10
6.2727000999
 20
3.3219526063
 30
0.0
 10
6.2728018455
 20
3.3220952347
 30
0.0
 10
6.2728271841
 20
3.3221992689
 30
0.0
 10
6.2728272398
 20
3.3222469031
 30
0.0
 11
5.8638276667
 21
3.3043894034
 31
0.0
 11
5.9039072417
 21
3.3055052352
 31
0.0
 11
5.943622231
 21
3.3066216669
 31
0.0
 11
5.9825551382
 21
3.3077377147
 31
0.0
 11
6.0203440514
 21
3.3088537545
 31
0.0
 11
6.0566289658
 21
3.3099698737
 31
0.0
 11
6.0910557427
 21
3.3110859703
 31
0.0
 11
6.1232941539
 21
3.3122020579
 31
0.0
 11
6.1530342338
 21
3.3133181528
 31
0.0
 11
6.1799883905
 21
3.3144342474
 31
0.0
 11
6.1923393027
 21
3.314992294
 31
0.0
 11
6.2038986579
 21
3.3155503407
 31
0.0
 11
6.2146380829
 21
3.3161083875
 31
0.0
 11
6.2245330173
 21
3.3166664344
 31
0.0
 11
6.2335592844
 21
3.3172244814
 31
0.0
 11
6.2416938984
 21
3.3177825283
 31
0.0
 11
6.2489185773
 21
3.3183405751
 31
0.0
 11
6.2552161997
 21
3.3188986219
 31
0.0
 11
6.2580120274
 21
3.3191776454
 31
0.0
 11
6.260570109
 21
3.3194566688
 31
0.0
 11
6.2628892134
 21
3.3197356922
 31
0.0
 11
6.2649681372
 21
3.3200147156
 31
0.0
 11
6.266805677
 21
3.3202937391
 31
0.0
 11
6.2684006294
 21
3.3205727625
 31
0.0
 11
6.2697517911
 21
3.3208517859
 31
0.0
 11
6.2708580643
 21
3.3211308094
 31
0.0
 11
6.271319207
 21
3.3212703211
 31
0.0
 11
6.2717189812
 21
3.3214098328
 31
0.0
 11
6.2720573574
 21
3.3215493445
 31
0.0
 11
6.2723343062
 21
3.3216888562
 31
0.0
 11
6.2725497982
 21
3.3218283679
 31
0.0
 11
6.2727038041
 21
3.3219678797
 31
0.0
 11
6.2727962944
 21
3.3221073914
 31
0.0
 11
6.2728272398
 21
3.3222469031
 31
0.0
  0
SPLINE
  5
25D
100
AcDbEntity
  8
0
100
AcDbSpline
 62
6
  6
CONTINUOUS
 70
0
 71
3
 72
39
 73
35
 74
33
 42
0.0000001
 43
0.0000001
 44
0.0000000001
 12
-0.3378496018
 22
-0.0095391031
 32
0.0
 13
-0.0003292743
 23
-0.3379840817
 33
0.0
 40
0.0
 40
0.0
 40
0.0
 40
0.0
 40
0.1028801182
 40
0.2034338238
 40
0.3008000509
 40
0.3942626419
 40
0.4831325591
 40
0.5667298507
 40
0.6444175615
 40
0.715608505
 40
0.7797681598
 40
0.8364073439
 40
0.8617735303
 40
0.8851062388
 40
0.9063589705
 40
0.925494995
 40
0.9424815003
 40
0.9572864092
 40
0.9638619097
 40
0.9698832289
 40
0.9753488078
 40
0.9802573632
 40
0.9846080323
 40
0.9884006228
 40
0.9916360807
 40
0.9943177502
 40
0.9954536135
 40
0.9964550312
 40
0.9973247497
 40
0.9980670046
 40
0.9986886732
 40
0.9992015443
 40
0.9996266033
 40
1.0
 40
1.0
 40
1.0
 40
1.0
 10
5.7919790068
 20
3.3648826263
 30
0.0
 10
5.7803930045
 20
3.3645554982
 30
0.0
 10
5.7574831318
 20
3.3639036763
 30
0.0
 10
5.7236089307
 20
3.3629171805
 30
0.0
 10
5.6907961786
 20
3.3619308367
 30
0.0
 10
5.6593003384
 20
3.3609449855
 30
0.0
 10
5.6293565029
 20
3.359959634
 30
0.0
 10
5.6011908785
 20
3.3589749335
 30
0.0
 10
5.5750182556
 20
3.3579911529
 30
0.0
 10
5.5510371144
 20
3.3570086468
 30
0.0
 10
5.5294294416
 20
3.3560278999
 30
0.0
 10
5.5129837207
 20
3.3551848218
 30
0.0
 10
5.5011358239
 20
3.3545016707
 30
0.0
 10
5.4932703654
 20
3.3540087431
 30
0.0
 10
5.4861082771
 20
3.3535162334
 30
0.0
 10
5.4796629585
 20
3.3530243842
 30
0.0
 10
5.4739463513
 20
3.352533409
 30
0.0
 10
5.4696444448
 20
3.3521104292
 30
0.0
 10
5.4665763666
 20
3.3517677098
 30
0.0
 10
5.464556385
 20
3.3515211142
 30
0.0
 10
5.4627256966
 20
3.3512747559
 30
0.0
 10
5.4610850485
 20
3.3510286961
 30
0.0
 10
5.4596351734
 20
3.3507830345
 30
0.0
 10
5.4583766793
 20
3.3505379874
 30
0.0
 10
5.4573101914
 20
3.3502936689
 30
0.0
 10
5.4565440301
 20
3.3500810221
 30
0.0
 10
5.4560295576
 20
3.3499071777
 30
0.0
 10
5.4557137185
 20
3.3497842475
 30
0.0
 10
5.4554458622
 20
3.3496614863
 30
0.0
 10
5.4552257458
 20
3.3495388141
 30
0.0
 10
5.4550529116
 20
3.349415996
 30
0.0
 10
5.4549268202
 20
3.3492921313
 30
0.0
 10
5.4548474495
 20
3.3491652063
 30
0.0
 10
5.4548282564
 20
3.3490746969
 30
0.0
 10
5.4548282154
 20
3.3490326296
 30
0.0
 11
5.7919790068
 21
3.3648826263
 31
0.0
 11
5.7572212536
 21
3.3638922954
 31
0.0
 11
5.723250136
 21
3.3629013386
 31
0.0
 11
5.6903567999
 21
3.3619106854
 31
0.0
 11
5.6587834511
 21
3.3609201447
 31
0.0
 11
5.6287631597
 21
3.3599295164
 31
0.0
 11
5.6005259645
 21
3.358938872
 31
0.0
 11
5.574287436
 21
3.3579482504
 31
0.0
 11
5.5502464197
 21
3.3569576299
 31
0.0
 11
5.5285841064
 21
3.3559670037
 31
0.0
 11
5.5094666035
 21
3.354976378
 31
0.0
 11
5.5009075521
 21
3.3544810657
 31
0.0
 11
5.4930370346
 21
3.3539857535
 31
0.0
 11
5.4858710437
 21
3.3534904413
 31
0.0
 11
5.479422363
 21
3.3529951289
 31
0.0
 11
5.4737025981
 21
3.3524998164
 31
0.0
 11
5.4687233472
 21
3.3520045039
 31
0.0
 11
5.4665147736
 21
3.3517568477
 31
0.0
 11
5.4644947876
 21
3.3515091915
 31
0.0
 11
5.4626641845
 21
3.3512615353
 31
0.0
 11
5.4610237591
 21
3.3510138791
 31
0.0
 11
5.4595743068
 21
3.3507662229
 31
0.0
 11
5.4583166227
 21
3.3505185668
 31
0.0
 11
5.4572515018
 21
3.3502709106
 31
0.0
 11
5.4563796311
 21
3.3500232544
 31
0.0
 11
5.4560162458
 21
3.3498994263
 31
0.0
 11
5.4557012473
 21
3.3497755982
 31
0.0
 11
5.4554346505
 21
3.3496517701
 31
0.0
 11
5.4552164703
 21
3.349527942
 31
0.0
 11
5.4550467217
 21
3.3494041139
 31
0.0
 11
5.4549254198
 21
3.3492802858
 31
0.0
 11
5.4548525793
 21
3.3491564577
 31
0.0
 11
5.4548282154
 21
3.3490326296
 31
0.0
  0
SPLINE
  5
25E
100
AcDbEntity
  8
0
100
AcDbSpline
 62
6
  6
CONTINUOUS
 70
0
 71
3
 72
9
 73
5
 74
3
 42
0.0000001
 43
0.0000001
 44
0.0000000001
 12
-0.0000000071
 22
0.0000885997
 32
0.0
 13
-0.0000237146
 23
0.000085367
 33
0.0
 40
0.0
 40
0.0
 40
0.0
 40
0.0
 40
0.2473372545
 40
1.0
 40
1.0
 40
1.0
 40
1.0
 10
6.2728276662
 20
3.1704576265
 30
0.0
 10
6.2728276657
 20
3.1704649311
 30
0.0
 10
6.2728266424
 20
3.1704944592
 30
0.0
 10
6.2728214433
 20
3.1705238119
 30
0.0
 10
6.2728154936
 20
3.1705452294
 30
0.0
 11
6.2728276662
 21
3.1704576265
 31
0.0
 11
6.272826904
 21
3.1704795272
 31
0.0
 11
6.2728154936
 21
3.1705452294
 31
0.0
  0
SPLINE
  5
25F
100
AcDbEntity
  8
0
100
AcDbSpline
 62
6
  6
CONTINUOUS
 70
0
 71
3
 72
40
 73
36
 74
34
 42
0.0000001
 43
0.0000001
 44
0.0000000001
 12
-0.0000316154
 22
-0.4098608704
 32
0.0
 13
-0.409702634
 23
-0.0113879678
 33
0.0
 40
0.0
 40
0.0
 40
0.0
 40
0.0
 40
0.0003486273
 40
0.0007570831
 40
0.0012643246
 40
0.001891048
 40
0.0026481276
 40
0.0035416175
 40
0.0045751137
 40
0.0057508728
 40
0.0085343677
 40
0.011899459
 40
0.0158493885
 40
0.0203844823
 40
0.0255031106
 40
0.0312030461
 40
0.037481709
 40
0.0443362885
 40
0.0597605553
 40
0.0774412506
 40
0.0973351998
 40
0.1193982413
 40
0.1435790043
 40
0.1698171387
 40
0.1980515267
 40
0.2282163937
 40
0.2940358727
 40
0.3666473251
 40
0.4453497556
 40
0.5293896539
 40
0.6179622982
 40
0.7102052222
 40
0.8052365155
 40
0.9021717344
 40
1.0
 40
1.0
 40
1.0
 40
1.0
 10
6.2728276663
 20
3.1793869035
 30
0.0
 10
6.2728276626
 20
3.179339274
 30
0.0
 10
6.272802369
 20
3.1792352074
 30
0.0
 10
6.2727005518
 20
3.1790925766
 30
0.0
 10
6.2725405085
 20
3.1789537175
 30
0.0
 10
6.2723212478
 20
3.1788158304
 30
0.0
 10
6.2720419613
 20
3.1786779042
 30
0.0
 10
6.2717020283
 20
3.1785397616
 30
0.0
 10
6.2713012012
 20
3.1784013604
 30
0.0
 10
6.2706476969
 20
3.1782053871
 30
0.0
 10
6.2696755821
 20
3.1779658642
 30
0.0
 10
6.2683234382
 20
3.1776906535
 30
0.0
 10
6.266727981
 20
3.177414641
 30
0.0
 10
6.2648900558
 20
3.1771379276
 30
0.0
 10
6.2628107481
 20
3.176860744
 30
0.0
 10
6.2604914104
 20
3.1765832124
 30
0.0
 10
6.2579334148
 20
3.1763054066
 30
0.0
 10
6.254050981
 20
3.1759193779
 30
0.0
 10
6.2486123459
 20
3.1754429522
 30
0.0
 10
6.2413926784
 20
3.1748898859
 30
0.0
 10
6.2332637435
 20
3.1743358043
 30
0.0
 10
6.2242449818
 20
3.1737810082
 30
0.0
 10
6.2143580204
 20
3.173225732
 30
0.0
 10
6.2036267385
 20
3.1726699885
 30
0.0
 10
6.1920769105
 20
3.1721139184
 30
0.0
 10
6.1751232991
 20
3.1713498378
 30
0.0
 10
6.1521090319
 20
3.1704040018
 30
0.0
 10
6.1224648048
 20
3.1692975429
 30
0.0
 10
6.0903297592
 20
3.1681897008
 30
0.0
 10
6.0560129257
 20
3.1670808319
 30
0.0
 10
6.0198452982
 20
3.1659712884
 30
0.0
 10
5.9821753663
 20
3.1648612026
 30
0.0
 10
5.9433624705
 20
3.163750714
 30
0.0
 10
5.9037862038
 20
3.1626400737
 30
0.0
 10
5.8771878328
 20
3.1619007585
 30
0.0
 10
5.8638276667
 20
3.1615294034
 30
0.0
 11
6.2728276663
 21
3.1793869035
 31
0.0
 11
6.272796803
 21
3.1792473878
 31
0.0
 11
6.2727042747
 21
3.1791078721
 31
0.0
 11
6.2725501412
 21
3.1789683565
 31
0.0
 11
6.2723344625
 21
3.1788288409
 31
0.0
 11
6.2720572985
 21
3.1786893254
 31
0.0
 11
6.2717187092
 21
3.1785498101
 31
0.0
 11
6.2713187546
 21
3.178410295
 31
0.0
 11
6.2708574944
 21
3.17827078
 31
0.0
 11
6.2697512975
 21
3.1779917509
 31
0.0
 11
6.268400598
 21
3.177712723
 31
0.0
 11
6.2668059033
 21
3.1774336965
 31
0.0
 11
6.2649682079
 21
3.1771546715
 31
0.0
 11
6.2628889203
 21
3.1768756479
 31
0.0
 11
6.2605694622
 21
3.1765966253
 31
0.0
 11
6.2580112553
 21
3.1763176037
 31
0.0
 11
6.2552157213
 21
3.176038583
 31
0.0
 11
6.2489185957
 21
3.1754805432
 31
0.0
 11
6.2416934888
 21
3.1749225051
 31
0.0
 11
6.2335588557
 21
3.1743644681
 31
0.0
 11
6.2245333131
 21
3.1738064317
 31
0.0
 11
6.2146382874
 21
3.1732483953
 31
0.0
 11
6.2038987912
 21
3.1726903584
 31
0.0
 11
6.1923400831
 21
3.1721323205
 31
0.0
 11
6.1799892848
 21
3.1715742813
 31
0.0
 11
6.1530355527
 21
3.1704582011
 31
0.0
 11
6.1232958945
 21
3.1693421223
 31
0.0
 11
6.0910581612
 21
3.1682260478
 31
0.0
 11
6.0566315821
 21
3.1671099571
 31
0.0
 11
6.0203462829
 21
3.1659938212
 31
0.0
 11
5.9825559951
 21
3.1648777394
 31
0.0
 11
5.9436223796
 21
3.1637616713
 31
0.0
 11
5.903908115
 21
3.1626452593
 31
0.0
 11
5.8638276667
 21
3.1615294034
 31
0.0
  0
LINE
  5
260
100
AcDbEntity
  8
0
100
AcDbLine
 62
6
  6
CONTINUOUS
 10
6.2725596853
 20
3.3137291835
 11
6.2728273185
 21
3.3133176254
  0
SPLINE
  5
261
100
AcDbEntity
  8
0
100
AcDbSpline
 62
6
  6
CONTINUOUS
 70
0
 71
3
 72
9
 73
5
 74
3
 42
0.0000001
 43
0.0000001
 44
0.0000000001
 12
0.0000000068
 22
0.0000884831
 32
0.0
 13
-0.000023646
 23
0.000085265
 33
0.0
 40
0.0
 40
0.0
 40
0.0
 40
0.0
 40
0.2473471271
 40
1.0
 40
1.0
 40
1.0
 40
1.0
 10
6.2728276663
 20
3.2418876264
 30
0.0
 10
6.2728276668
 20
3.2418949217
 30
0.0
 10
6.2728266508
 20
3.2419244111
 30
0.0
 10
6.2728214691
 20
3.2419537265
 30
0.0
 10
6.2728155367
 20
3.2419751182
 30
0.0
 11
6.2728276663
 21
3.2418876264
 31
0.0
 11
6.2728269093
 21
3.2419094993
 31
0.0
 11
6.2728155367
 21
3.2419751182
 31
0.0
  0
SPLINE
  5
262
100
AcDbEntity
  8
0
100
AcDbSpline
 62
6
  6
CONTINUOUS
 70
0
 71
3
 72
40
 73
36
 74
34
 42
0.0000001
 43
0.0000001
 44
0.0000000001
 12
-0.000015109
 22
-0.4098608936
 32
0.0
 13
-0.4097026562
 23
-0.0113879684
 33
0.0
 40
0.0
 40
0.0
 40
0.0
 40
0.0
 40
0.0003486197
 40
0.0007570562
 40
0.0012642671
 40
0.0018909512
 40
0.0026479854
 40
0.003541426
 40
0.0045748713
 40
0.0057505798
 40
0.0085339829
 40
0.0118990077
 40
0.0158488925
 40
0.0203838987
 40
0.0255024076
 40
0.0312022126
 40
0.0374807548
 40
0.0443352444
 40
0.0597594195
 40
0.0774399724
 40
0.0973339186
 40
0.119397296
 40
0.1435785666
 40
0.1698171994
 40
0.1980519429
 40
0.2282170206
 40
0.2940364371
 40
0.3666473787
 40
0.4453495274
 40
0.5293894872
 40
0.6179621831
 40
0.7102051203
 40
0.805236444
 40
0.9021716929
 40
1.0
 40
1.0
 40
1.0
 40
1.0
 10
6.2728276658
 20
3.2508169259
 30
0.0
 10
6.2728276641
 20
3.2507692974
 30
0.0
 10
6.2728023776
 20
3.2506652333
 30
0.0
 10
6.2727005734
 20
3.2505226027
 30
0.0
 10
6.2725405454
 20
3.2503837443
 30
0.0
 10
6.2723213026
 20
3.2502458582
 30
0.0
 10
6.2720420359
 20
3.2501079331
 30
0.0
 10
6.2717021239
 20
3.2499697917
 30
0.0
 10
6.2713013181
 20
3.2498313916
 30
0.0
 10
6.2706478411
 20
3.2496354191
 30
0.0
 10
6.2696757553
 20
3.2493958973
 30
0.0
 10
6.2683236392
 20
3.2491206889
 30
0.0
 10
6.2667282086
 20
3.2488446806
 30
0.0
 10
6.2648903182
 20
3.2485679674
 30
0.0
 10
6.2628110568
 20
3.2482907842
 30
0.0
 10
6.2604917699
 20
3.2480132528
 30
0.0
 10
6.257933821
 20
3.2477354471
 30
0.0
 10
6.2540514286
 20
3.2473494178
 30
0.0
 10
6.2486128374
 20
3.2468729948
 30
0.0
 10
6.2413932024
 20
3.2463199226
 30
0.0
 10
6.2332642415
 20
3.2457658341
 30
0.0
 10
6.2242453645
 20
3.2452110322
 30
0.0
 10
6.2143582196
 20
3.2446557454
 30
0.0
 10
6.2036267514
 20
3.2440999907
 30
0.0
 10
6.1920767777
 20
3.2435439113
 30
0.0
 10
6.1751230966
 20
3.2427798283
 30
0.0
 10
6.1521088775
 20
3.2418339964
 30
0.0
 10
6.1224647656
 20
3.240727541
 30
0.0
 10
6.090329818
 20
3.2396197031
 30
0.0
 10
6.0560130058
 20
3.2385108344
 30
0.0
 10
6.019845359
 20
3.2374012901
 30
0.0
 10
5.9821754121
 20
3.236291204
 30
0.0
 10
5.9433625041
 20
3.2351807149
 30
0.0
 10
5.9037862214
 20
3.2340700742
 30
0.0
 10
5.8771878392
 20
3.2333307587
 30
0.0
 10
5.8638276667
 20
3.2329594034
 30
0.0
 11
6.2728276658
 21
3.2508169259
 31
0.0
 11
6.2727968105
 21
3.2506774116
 31
0.0
 11
6.2727042944
 21
3.2505378973
 31
0.0
 11
6.2725501765
 21
3.250398383
 31
0.0
 11
6.2723345161
 21
3.2502588688
 31
0.0
 11
6.2720573724
 21
3.2501193546
 31
0.0
 11
6.2717188044
 21
3.2499798405
 31
0.0
 11
6.2713188714
 21
3.2498403265
 31
0.0
 11
6.2708576326
 21
3.2497008127
 31
0.0
 11
6.2697514739
 21
3.2494217856
 31
0.0
 11
6.2684008018
 21
3.2491427595
 31
0.0
 11
6.2668061253
 21
3.2488637346
 31
0.0
 11
6.2649684659
 21
3.2485847108
 31
0.0
 11
6.2628892274
 21
3.2483056881
 31
0.0
 11
6.260569823
 21
3.2480266662
 31
0.0
 11
6.2580116657
 21
3.2477476451
 31
0.0
 11
6.2552161685
 21
3.2474686245
 31
0.0
 11
6.2489190804
 21
3.2469105843
 31
0.0
 11
6.2416940318
 21
3.246352544
 31
0.0
 11
6.2335593998
 21
3.2457945021
 31
0.0
 11
6.2245337193
 21
3.2452364569
 31
0.0
 11
6.2146384854
 21
3.2446784086
 31
0.0
 11
6.2038987846
 21
3.2441203597
 31
0.0
 11
6.1923399305
 21
3.243562313
 31
0.0
 11
6.1799890452
 21
3.2430042699
 31
0.0
 11
6.1530353372
 21
3.2418881926
 31
0.0
 11
6.1232958866
 21
3.2407721217
 31
0.0
 11
6.091058267
 21
3.2396560515
 31
0.0
 11
6.0566316608
 21
3.2385399596
 31
0.0
 11
6.0203463386
 21
3.2374238228
 31
0.0
 11
5.9825560432
 21
3.2363077408
 31
0.0
 11
5.9436224132
 21
3.2351916723
 31
0.0
 11
5.9039081342
 21
3.2340752598
 31
0.0
 11
5.8638276667
 21
3.2329594034
 31
0.0
  0
SPLINE
  5
263
100
AcDbEntity
  8
0
100
AcDbSpline
 62
6
  6
CONTINUOUS
 70
0
 71
3
 72
24
 73
20
 74
18
 42
0.0000001
 43
0.0000001
 44
0.0000000001
 12
-0.37090865
 22
-0.0069085457
 32
0.0
 13
-0.368375144
 23
-0.0438258819
 33
0.0
 40
0.0
 40
0.0
 40
0.0
 40
0.0
 40
0.1777924685
 40
0.3497622787
 40
0.5107887525
 40
0.5856642346
 40
0.6560153936
 40
0.7213054578
 40
0.7810322704
 40
0.834734652
 40
0.8819932828
 40
0.9030893816
 40
0.9224412041
 40
0.9400077832
 40
0.9557547438
 40
0.9696536352
 40
0.9816765445
 40
0.9917974369
 40
1.0
 40
1.0
 40
1.0
 40
1.0
 10
5.8638276667
 20
3.1028309466
 30
0.0
 10
5.8418460786
 20
3.1024215175
 30
0.0
 10
5.7986028374
 20
3.1016136446
 30
0.0
 10
5.7354517209
 20
3.1003911103
 30
0.0
 10
5.6850260085
 20
3.0993479623
 30
0.0
 10
5.647164974
 20
3.0984988785
 30
0.0
 10
5.6211403871
 20
3.0978770245
 30
0.0
 10
5.59698963
 20
3.0972547922
 30
0.0
 10
5.5748983601
 20
3.0966324304
 30
0.0
 10
5.5550377875
 20
3.0960102052
 30
0.0
 10
5.5399539377
 20
3.0954741392
 30
0.0
 10
5.5291170699
 20
3.0950388667
 30
0.0
 10
5.5219499856
 20
3.0947249277
 30
0.0
 10
5.5154450522
 20
3.0944110607
 30
0.0
 10
5.5096152674
 20
3.0940973723
 30
0.0
 10
5.5044720888
 20
3.0937840997
 30
0.0
 10
5.5000259933
 20
3.0934716803
 30
0.0
 10
5.4962862777
 20
3.0931603331
 30
0.0
 10
5.4940318344
 20
3.0929305764
 30
0.0
 10
5.4930246276
 20
3.0928107482
 30
0.0
 11
5.8638276667
 21
3.1028309466
 31
0.0
 11
5.7978830897
 21
3.1015926359
 31
0.0
 11
5.7340990328
 21
3.1003503432
 31
0.0
 11
5.6743755646
 21
3.0991040011
 31
0.0
 11
5.6466058086
 21
3.0984793301
 31
0.0
 11
5.6205149304
 21
3.0978536462
 31
0.0
 11
5.5963021899
 21
3.0972269323
 31
0.0
 11
5.5741540503
 21
3.0965991886
 31
0.0
 11
5.5542418428
 21
3.0959704091
 31
0.0
 11
5.5367214845
 21
3.0953405821
 31
0.0
 11
5.5289017561
 21
3.0950252747
 31
0.0
 11
5.5217296919
 21
3.0947097056
 31
0.0
 11
5.5152206234
 21
3.0943938754
 31
0.0
 11
5.5093874845
 21
3.0940777832
 31
0.0
 11
5.5042410856
 21
3.0937614265
 31
0.0
 11
5.4997921637
 21
3.093444803
 31
0.0
 11
5.496050983
 21
3.0931279104
 31
0.0
 11
5.4930246276
 21
3.0928107482
 31
0.0
  0
SPLINE
  5
264
100
AcDbEntity
  8
0
100
AcDbSpline
 62
6
  6
CONTINUOUS
 70
0
 71
3
 72
14
 73
10
 74
8
 42
0.0000001
 43
0.0000001
 44
0.0000000001
 12
-0.0041762224
 22
-0.0005289403
 32
0.0
 13
-0.0036433279
 23
-0.0021087373
 33
0.0
 40
0.0
 40
0.0
 40
0.0
 40
0.0
 40
0.3643230989
 40
0.51772699
 40
0.6519720131
 40
0.7671105476
 40
0.8632639273
 40
0.9407074528
 40
1.0
 40
1.0
 40
1.0
 40
1.0
 10
5.4924460771
 20
3.0927397646
 30
0.0
 10
5.4919389123
 20
3.0926755296
 30
0.0
 10
5.4912190048
 20
3.092576944
 30
0.0
 10
5.4903164448
 20
3.0924271968
 30
0.0
 10
5.4897611261
 20
3.0923216249
 30
0.0
 10
5.4892877546
 20
3.0922163599
 30
0.0
 10
5.4888961512
 20
3.0921115341
 30
0.0
 10
5.4885862784
 20
3.0920073409
 30
0.0
 10
5.4884104702
 20
3.091928512
 30
0.0
 10
5.4883384628
 20
3.0918868345
 30
0.0
 11
5.4924460771
 21
3.0927397646
 31
0.0
 11
5.490927298
 21
3.0925267146
 31
0.0
 11
5.4902903856
 21
3.092420144
 31
0.0
 11
5.4897354151
 21
3.092313543
 31
0.0
 11
5.4892626046
 21
3.0922069115
 31
0.0
 11
5.488872145
 21
3.0921002496
 31
0.0
 11
5.4885640929
 21
3.0919935572
 31
0.0
 11
5.4883384628
 21
3.0918868345
 31
0.0
  0
SPLINE
  5
265
100
AcDbEntity
  8
0
100
AcDbSpline
 62
6
  6
CONTINUOUS
 70
0
 71
3
 72
38
 73
34
 74
32
 42
0.0000001
 43
0.0000001
 44
0.0000000001
 12
-0.2815146442
 22
-0.2821505763
 32
0.0
 13
-0.3985026335
 23
-0.0074225113
 33
0.0
 40
0.0
 40
0.0
 40
0.0
 40
0.0
 40
0.0003644063
 40
0.0008538139
 40
0.0014776429
 40
0.0022403557
 40
0.0031442005
 40
0.0041903981
 40
0.0067122579
 40
0.0098088735
 40
0.0134808789
 40
0.0177279792
 40
0.0225493956
 40
0.0279436103
 40
0.0339075113
 40
0.0475302595
 40
0.0633889518
 40
0.0814521627
 40
0.1016773308
 40
0.1240180946
 40
0.1484266435
 40
0.1748450615
 40
0.2032107539
 40
0.2334603928
 40
0.2993191832
 40
0.3718007142
 40
0.450214869
 40
0.5338160985
 40
0.6218026354
 40
0.7133163893
 40
0.8074675051
 40
0.9033659513
 40
1.0
 40
1.0
 40
1.0
 40
1.0
 10
6.2620969369
 20
3.1141522249
 30
0.0
 10
6.2620627417
 20
3.1141179524
 30
0.0
 10
6.2619684556
 20
3.1140524303
 30
0.0
 10
6.2617912857
 20
3.1139675302
 30
0.0
 10
6.2615568214
 20
3.1138819509
 30
0.0
 10
6.2612648167
 20
3.1137960131
 30
0.0
 10
6.2609147925
 20
3.1137097014
 30
0.0
 10
6.2603335029
 20
3.1135865262
 30
0.0
 10
6.259460546
 20
3.1134366371
 30
0.0
 10
6.2582381838
 20
3.1132646763
 30
0.0
 10
6.2567847957
 20
3.1130919894
 30
0.0
 10
6.2551009742
 20
3.1129186713
 30
0.0
 10
6.2531873264
 20
3.1127449581
 30
0.0
 10
6.2510447894
 20
3.112570927
 30
0.0
 10
6.2477348052
 20
3.1123276186
 30
0.0
 10
6.2430350779
 20
3.1120279321
 30
0.0
 10
6.2367279239
 20
3.1116807689
 30
0.0
 10
6.2295424791
 20
3.111332641
 30
0.0
 10
6.2214949993
 20
3.1109835696
 30
0.0
 10
6.2126038132
 20
3.1106337535
 30
0.0
 10
6.2028892526
 20
3.1102833648
 30
0.0
 10
6.1923737776
 20
3.1099324221
 30
0.0
 10
6.1810818884
 20
3.1095809396
 30
0.0
 10
6.1645516456
 20
3.1090979417
 30
0.0
 10
6.1421612221
 20
3.1084990336
 30
0.0
 10
6.113372365
 20
3.1077967641
 30
0.0
 10
6.0822256993
 20
3.1070924263
 30
0.0
 10
6.0490186323
 20
3.1063862329
 30
0.0
 10
6.0140708518
 20
3.1056783447
 30
0.0
 10
5.9777211989
 20
3.1049688748
 30
0.0
 10
5.9403202271
 20
3.1042578839
 30
0.0
 10
5.9022388928
 20
3.1035455129
 30
0.0
 10
5.8766639744
 20
3.1030700357
 30
0.0
 10
5.8638276667
 20
3.1028309466
 30
0.0
 11
6.2620969369
 21
3.1141522249
 31
0.0
 11
6.2619807864
 21
3.1140650222
 31
0.0
 11
6.261806309
 21
3.1139778004
 31
0.0
 11
6.2615734761
 21
3.1138905595
 31
0.0
 11
6.2612822732
 21
3.1138032996
 31
0.0
 11
6.2609327588
 21
3.1137160207
 31
0.0
 11
6.2605250145
 21
3.1136287226
 31
0.0
 11
6.2595351626
 21
3.1134540694
 31
0.0
 11
6.25831337
 21
3.1132793398
 31
0.0
 11
6.2568602892
 21
3.113104534
 31
0.0
 11
6.2551765728
 21
3.1129296519
 31
0.0
 11
6.2532628735
 21
3.1127546935
 31
0.0
 11
6.2511200287
 21
3.1125796587
 31
0.0
 11
6.248749445
 21
3.1124045475
 31
0.0
 11
6.243331124
 21
3.112054095
 31
0.0
 11
6.2370200371
 21
3.111703335
 31
0.0
 11
6.2298291161
 21
3.1113522659
 31
0.0
 11
6.2217755972
 21
3.1110008853
 31
0.0
 11
6.212878148
 21
3.1106491904
 31
0.0
 11
6.2031559604
 21
3.1102971783
 31
0.0
 11
6.1926322215
 21
3.1099448487
 31
0.0
 11
6.1813319589
 21
3.1095922017
 31
0.0
 11
6.169280475
 21
3.1092392376
 31
0.0
 11
6.143040541
 21
3.1085323591
 31
0.0
 11
6.1141601307
 21
3.107824213
 31
0.0
 11
6.082914516
 21
3.1071147943
 31
0.0
 11
6.0496010076
 21
3.1064040866
 31
0.0
 11
6.0145392884
 21
3.1056920592
 31
0.0
 11
5.9780714665
 21
3.1049787549
 31
0.0
 11
5.9405522954
 21
3.1042641753
 31
0.0
 11
5.9023365923
 21
3.1035480704
 31
0.0
 11
5.8638276667
 21
3.1028309466
 31
0.0
  0
SPLINE
  5
266
100
AcDbEntity
  8
0
100
AcDbSpline
 62
6
  6
CONTINUOUS
 70
0
 71
3
 72
52
 73
48
 74
46
 42
0.0000001
 43
0.0000001
 44
0.0000000001
 12
0.694701275
 22
0.0442974892
 32
0.0
 13
0.0000162669
 23
0.6961121525
 33
0.0
 40
0.0
 40
0.0
 40
0.0
 40
0.0
 40
0.0227188352
 40
0.0484625414
 40
0.0770402006
 40
0.1082569192
 40
0.1419096648
 40
0.1777672229
 40
0.2155872092
 40
0.2551109498
 40
0.3381915918
 40
0.4247562497
 40
0.5124570963
 40
0.5559894889
 40
0.5989153681
 40
0.6409423282
 40
0.6817861402
 40
0.7211679511
 40
0.7588222166
 40
0.794491259
 40
0.8279354939
 40
0.8589255093
 40
0.8872543273
 40
0.9127272561
 40
0.9351759173
 40
0.9452166666
 40
0.9544463799
 40
0.9628505266
 40
0.9704147318
 40
0.9771258084
 40
0.9829748148
 40
0.9855737578
 40
0.9879545273
 40
0.9901164058
 40
0.9920588237
 40
0.9937815553
 40
0.9952852242
 40
0.9965711702
 40
0.9976417914
 40
0.9980977447
 40
0.9985018754
 40
0.9988555256
 40
0.9991607311
 40
0.9994206994
 40
0.9996406632
 40
0.9998292588
 40
1.0
 40
1.0
 40
1.0
 40
1.0
 10
5.5392272229
 20
3.1717022649
 30
0.0
 10
5.5444881575
 20
3.1720377273
 30
0.0
 10
5.5557140686
 20
3.1726972893
 30
0.0
 10
5.5735662083
 20
3.1736261626
 30
0.0
 10
5.5933924999
 20
3.1745564198
 30
0.0
 10
5.6150557509
 20
3.1754878842
 30
0.0
 10
5.6384096173
 20
3.1764200844
 30
0.0
 10
5.663296794
 20
3.1773530691
 30
0.0
 10
5.6895471485
 20
3.1782864398
 30
0.0
 10
5.7267500719
 20
3.1795525576
 30
0.0
 10
5.7752599291
 20
3.1811167282
 30
0.0
 10
5.8349452089
 20
3.1829662341
 30
0.0
 10
5.8854588301
 20
3.1845116143
 30
0.0
 10
5.9258509527
 20
3.1857605554
 30
0.0
 10
5.9556496874
 20
3.1866948752
 30
0.0
 10
5.9848242626
 20
3.1876290902
 30
0.0
 10
6.0131760584
 20
3.1885630519
 30
0.0
 10
6.040512665
 20
3.1894968072
 30
0.0
 10
6.06664782
 20
3.1904301145
 30
0.0
 10
6.0914043291
 20
3.1913630393
 30
0.0
 10
6.1146133539
 20
3.1922951924
 30
0.0
 10
6.1361177339
 20
3.1932266276
 30
0.0
 10
6.1557706721
 20
3.1941566333
 30
0.0
 10
6.1734393195
 20
3.195085266
 30
0.0
 10
6.1868652173
 20
3.1958835233
 30
0.0
 10
6.196524014
 20
3.1965304906
 30
0.0
 10
6.2029286237
 20
3.1969971519
 30
0.0
 10
6.2087569618
 20
3.1974633144
 30
0.0
 10
6.2139988976
 20
3.1979288165
 30
0.0
 10
6.218645398
 20
3.1983936517
 30
0.0
 10
6.2221401864
 20
3.1987941217
 30
0.0
 10
6.2246318791
 20
3.199118471
 30
0.0
 10
6.2262725214
 20
3.1993518841
 30
0.0
 10
6.2277591823
 20
3.1995850761
 30
0.0
 10
6.2290911466
 20
3.1998179952
 30
0.0
 10
6.2302678521
 20
3.2000505925
 30
0.0
 10
6.2312890481
 20
3.20028267
 30
0.0
 10
6.2321545767
 20
3.2005141309
 30
0.0
 10
6.23277594
 20
3.2007154465
 30
0.0
 10
6.2331928637
 20
3.2008797815
 30
0.0
 10
6.2334494449
 20
3.2009962622
 30
0.0
 10
6.2336671582
 20
3.2011126571
 30
0.0
 10
6.2338461734
 20
3.2012290847
 30
0.0
 10
6.2339867595
 20
3.2013458162
 30
0.0
 10
6.2340891252
 20
3.2014636298
 30
0.0
 10
6.2341527409
 20
3.2015837841
 30
0.0
 10
6.2341676658
 20
3.2016676465
 30
0.0
 10
6.2341676667
 20
3.2017072648
 30
0.0
 11
5.5392272229
 21
3.1717022649
 31
0.0
 11
5.5550142791
 21
3.1726395844
 31
0.0
 11
5.5729102209
 21
3.1735775773
 31
0.0
 11
5.5927813623
 21
3.1745153238
 31
0.0
 11
5.6144914641
 21
3.1754528899
 31
0.0
 11
5.6378987774
 21
3.1763905219
 31
0.0
 11
5.6628420407
 21
3.1773282023
 31
0.0
 11
5.6891522895
 21
3.1782658651
 31
0.0
 11
5.7166492634
 21
3.1792035149
 31
0.0
 11
5.7744522953
 21
3.1810788273
 31
0.0
 11
5.8346818178
 21
3.1829541398
 31
0.0
 11
5.8957026334
 21
3.1848294523
 31
0.0
 11
5.9259915508
 21
3.1857671086
 31
0.0
 11
5.9558580618
 21
3.1867047648
 31
0.0
 11
5.9850985094
 21
3.1876424211
 31
0.0
 11
6.0135149176
 21
3.1885800773
 31
0.0
 11
6.0409130345
 21
3.1895177336
 31
0.0
 11
6.0671078498
 21
3.1904553898
 31
0.0
 11
6.0919197928
 21
3.1913930461
 31
0.0
 11
6.115181841
 21
3.1923307023
 31
0.0
 11
6.13673398
 21
3.1932683586
 31
0.0
 11
6.1564317099
 21
3.1942060148
 31
0.0
 11
6.1741389165
 21
3.1951436711
 31
0.0
 11
6.1897375458
 21
3.1960813273
 31
0.0
 11
6.1967112921
 21
3.1965501555
 31
0.0
 11
6.2031190796
 21
3.1970189836
 31
0.0
 11
6.2089504924
 21
3.1974878117
 31
0.0
 11
6.2141951145
 21
3.1979566398
 31
0.0
 11
6.2188431922
 21
3.198425468
 31
0.0
 11
6.2228876745
 21
3.1988942961
 31
0.0
 11
6.2246815794
 21
3.1991287102
 31
0.0
 11
6.2263221999
 21
3.1993631242
 31
0.0
 11
6.2278087407
 21
3.1995975383
 31
0.0
 11
6.2291404068
 21
3.1998319523
 31
0.0
 11
6.2303164872
 21
3.2000663664
 31
0.0
 11
6.2313366233
 21
3.2003007805
 31
0.0
 11
6.2322005481
 21
3.2005351945
 31
0.0
 11
6.232907995
 21
3.2007696086
 31
0.0
 11
6.2332029558
 21
3.2008868156
 31
0.0
 11
6.233458697
 21
3.2010040227
 31
0.0
 11
6.2336751854
 21
3.2011212297
 31
0.0
 11
6.2338523875
 21
3.2012384367
 31
0.0
 11
6.2339902701
 21
3.2013556437
 31
0.0
 11
6.2340887997
 21
3.2014728508
 31
0.0
 11
6.234147943
 21
3.2015900578
 31
0.0
 11
6.2341676667
 21
3.2017072648
 31
0.0
  0
LINE
  5
267
100
AcDbEntity
  8
0
100
AcDbLine
 62
6
  6
CONTINUOUS
 10
5.4940103007
 20
3.0951661465
 11
5.4947843935
 21
3.0955138913
  0
SPLINE
  5
268
100
AcDbEntity
  8
0
100
AcDbSpline
 62
6
  6
CONTINUOUS
 70
0
 71
3
 72
64
 73
60
 74
58
 42
0.0000001
 43
0.0000001
 44
0.0000000001
 12
0.6954725178
 22
0.2553462111
 32
0.0
 13
0.0007599205
 23
0.7408664745
 33
0.0
 40
0.0
 40
0.0
 40
0.0
 40
0.0
 40
0.0011981748
 40
0.002669109
 40
0.0044152245
 40
0.0064374832
 40
0.0087360872
 40
0.0113108063
 40
0.0172860693
 40
0.0243529336
 40
0.0324958327
 40
0.0416983735
 40
0.0519416702
 40
0.0632013375
 40
0.0754520129
 40
0.0886677258
 40
0.1028178966
 40
0.1337892605
 40
0.1680875528
 40
0.2053991504
 40
0.2453852205
 40
0.2876818459
 40
0.3319027958
 40
0.3776462594
 40
0.4244942474
 40
0.4720204902
 40
0.5197912461
 40
0.567371471
 40
0.6143269077
 40
0.6602301979
 40
0.7046623051
 40
0.7472186834
 40
0.7875118851
 40
0.8251738372
 40
0.8598635989
 40
0.891263412
 40
0.9190903554
 40
0.9315830223
 40
0.9430915016
 40
0.9535889043
 40
0.9630510907
 40
0.9714590185
 40
0.9787945406
 40
0.9820547297
 40
0.9850410619
 40
0.9877525926
 40
0.9901885221
 40
0.9923482618
 40
0.9942315607
 40
0.9958387403
 40
0.9971712791
 40
0.9977358588
 40
0.9982337428
 40
0.9986663039
 40
0.9990356606
 40
0.9993452518
 40
0.9996009632
 40
0.9998132405
 40
1.0
 40
1.0
 40
1.0
 40
1.0
 10
5.4947843935
 20
3.0955138913
 30
0.0
 10
5.4950621594
 20
3.0956158745
 30
0.0
 10
5.4956919906
 20
3.0958126912
 30
0.0
 10
5.4967493439
 20
3.0960800002
 30
0.0
 10
5.498015361
 20
3.0963483529
 30
0.0
 10
5.4994894033
 20
3.0966174753
 30
0.0
 10
5.5011709265
 20
3.0968871444
 30
0.0
 10
5.5038231834
 20
3.0972662736
 30
0.0
 10
5.5076521026
 20
3.0977312897
 30
0.0
 10
5.5128564458
 20
3.0982678234
 30
0.0
 10
5.5188612919
 20
3.0988058536
 30
0.0
 10
5.5256532039
 20
3.0993450222
 30
0.0
 10
5.5332169269
 20
3.0998848371
 30
0.0
 10
5.5415350845
 20
3.1004252801
 30
0.0
 10
5.5505886812
 20
3.1009661726
 30
0.0
 10
5.5603572602
 20
3.101507342
 30
0.0
 10
5.5747447466
 20
3.1022518533
 30
0.0
 10
5.5943363736
 20
3.1031731761
 30
0.0
 10
5.6196465458
 20
3.1042500927
 30
0.0
 10
5.647184733
 20
3.1053284168
 30
0.0
 10
5.6766995108
 20
3.1064077681
 30
0.0
 10
5.7079216371
 20
3.1074878265
 30
0.0
 10
5.740566372
 20
3.1085684515
 30
0.0
 10
5.774335672
 20
3.1096494045
 30
0.0
 10
5.8089216294
 20
3.1107306408
 30
0.0
 10
5.844008474
 20
3.1118119948
 30
0.0
 10
5.8792762314
 20
3.1128934187
 30
0.0
 10
5.9144029606
 20
3.1139747842
 30
0.0
 10
5.9490682921
 20
3.1150560404
 30
0.0
 10
5.9829558022
 20
3.1161370398
 30
0.0
 10
6.0157563843
 20
3.1172177005
 30
0.0
 10
6.0471707617
 20
3.1182978619
 30
0.0
 10
6.0769122045
 20
3.1193772786
 30
0.0
 10
6.10470962
 20
3.1204558083
 30
0.0
 10
6.1303090613
 20
3.1215328016
 30
0.0
 10
6.1534774135
 20
3.1226081151
 30
0.0
 10
6.1711650037
 20
3.123531612
 30
0.0
 10
6.1839423782
 20
3.1242801195
 30
0.0
 10
6.1924448663
 20
3.1248206674
 30
0.0
 10
6.2001973549
 20
3.1253606683
 30
0.0
 10
6.207182166
 20
3.125900035
 30
0.0
 10
6.2133836137
 20
3.1264384565
 30
0.0
 10
6.2180538995
 20
3.1269021885
 30
0.0
 10
6.2213869985
 20
3.1272779148
 30
0.0
 10
6.2235826962
 20
3.1275483418
 30
0.0
 10
6.225573192
 20
3.1278185071
 30
0.0
 10
6.2273575463
 20
3.1280883459
 30
0.0
 10
6.2289348366
 20
3.1283577479
 30
0.0
 10
6.2303042775
 20
3.1286264785
 30
0.0
 10
6.231465054
 20
3.1288944059
 30
0.0
 10
6.2322990518
 20
3.1291275897
 30
0.0
 10
6.2328591122
 20
3.1293182197
 30
0.0
 10
6.2332029956
 20
3.1294530355
 30
0.0
 10
6.2334946552
 20
3.1295876699
 30
0.0
 10
6.2337343506
 20
3.1297222132
 30
0.0
 10
6.2339225708
 20
3.1298569263
 30
0.0
 10
6.2340598873
 20
3.129992795
 30
0.0
 10
6.2341462788
 20
3.1301319934
 30
0.0
 10
6.2341671448
 20
3.1302311425
 30
0.0
 10
6.2341671921
 20
3.1302772638
 30
0.0
 11
5.4947843935
 21
3.0955138913
 31
0.0
 11
5.4956295144
 21
3.0957854805
 31
0.0
 11
5.496684896
 21
3.0960570695
 31
0.0
 11
5.4979497049
 21
3.0963286583
 31
0.0
 11
5.4994231078
 21
3.0966002471
 31
0.0
 11
5.5011042713
 21
3.0968718358
 31
0.0
 11
5.5029923623
 21
3.0971434245
 31
0.0
 11
5.5073857863
 21
3.097686602
 31
0.0
 11
5.5125931392
 21
3.0982297797
 31
0.0
 11
5.5186014405
 21
3.0987729574
 31
0.0
 11
5.5253976261
 21
3.0993161352
 31
0.0
 11
5.5329670813
 21
3.0998593129
 31
0.0
 11
5.5412912925
 21
3.1004024906
 31
0.0
 11
5.5503511437
 21
3.1009456683
 31
0.0
 11
5.560127149
 21
3.101488846
 31
0.0
 11
5.5705964603
 21
3.1020320237
 31
0.0
 11
5.5935163866
 21
3.1031183791
 31
0.0
 11
5.6189036221
 21
3.1042047345
 31
0.0
 11
5.6465251935
 21
3.1052910898
 31
0.0
 11
5.6761296223
 21
3.1063774452
 31
0.0
 11
5.7074469541
 21
3.1074638006
 31
0.0
 11
5.7401907743
 21
3.108550156
 31
0.0
 11
5.7740631744
 21
3.1096365114
 31
0.0
 11
5.8087542909
 21
3.1107228668
 31
0.0
 11
5.8439481467
 21
3.1118092222
 31
0.0
 11
5.87932324
 21
3.1128955776
 31
0.0
 11
5.9145571084
 21
3.113981933
 31
0.0
 11
5.9493278689
 21
3.1150682884
 31
0.0
 11
5.9833187399
 21
3.1161546437
 31
0.0
 11
6.0162190853
 21
3.1172409991
 31
0.0
 11
6.0477289745
 21
3.1183273545
 31
0.0
 11
6.0775610988
 21
3.1194137099
 31
0.0
 11
6.1054424351
 21
3.1205000653
 31
0.0
 11
6.1311199598
 21
3.1215864207
 31
0.0
 11
6.1543576613
 21
3.1226727761
 31
0.0
 11
6.1749450791
 21
3.1237591315
 31
0.0
 11
6.1841845294
 21
3.1243023092
 31
0.0
 11
6.1926934608
 21
3.1248454869
 31
0.0
 11
6.2004516471
 21
3.1253886646
 31
0.0
 11
6.207440792
 21
3.1259318423
 31
0.0
 11
6.2136462196
 21
3.12647502
 31
0.0
 11
6.2190536522
 21
3.1270181977
 31
0.0
 11
6.2214537007
 21
3.1272897865
 31
0.0
 11
6.2236494427
 21
3.1275613753
 31
0.0
 11
6.2256398828
 21
3.1278329642
 31
0.0
 11
6.2274240295
 21
3.128104553
 31
0.0
 11
6.2290008916
 21
3.1283761419
 31
0.0
 11
6.2303694778
 21
3.1286477307
 31
0.0
 11
6.2315287968
 21
3.1289193196
 31
0.0
 11
6.2324779387
 21
3.1291909084
 31
0.0
 11
6.2328735605
 21
3.1293267029
 31
0.0
 11
6.2332165209
 21
3.1294624973
 31
0.0
 11
6.2335067984
 21
3.1295982917
 31
0.0
 11
6.2337443716
 21
3.1297340861
 31
0.0
 11
6.2339292189
 21
3.1298698806
 31
0.0
 11
6.2340613191
 21
3.130005675
 31
0.0
 11
6.2341406506
 21
3.1301414694
 31
0.0
 11
6.2341671921
 21
3.1302772638
 31
0.0
  0
SPLINE
  5
269
100
AcDbEntity
  8
0
100
AcDbSpline
 62
6
  6
CONTINUOUS
 70
0
 71
3
 72
43
 73
39
 74
37
 42
0.0000001
 43
0.0000001
 44
0.0000000001
 12
0.6938708117
 22
0.0442445349
 32
0.0
 13
0.6020172194
 23
0.3478355211
 33
0.0
 40
0.0
 40
0.0
 40
0.0
 40
0.0
 40
0.0222578709
 40
0.047427041
 40
0.0753278958
 40
0.1057771997
 40
0.1385851272
 40
0.1735355163
 40
0.2104013958
 40
0.2489406467
 40
0.3300296922
 40
0.4146913454
 40
0.500720679
 40
0.5858770538
 40
0.6679426402
 40
0.7071435268
 40
0.7447804732
 40
0.7806067319
 40
0.8143904113
 40
0.845909947
 40
0.8749618373
 40
0.9013557365
 40
0.9249220132
 40
0.9455070413
 40
0.9546397724
 40
0.9629803373
 40
0.970514782
 40
0.9772307574
 40
0.9831197163
 40
0.9881741832
 40
0.9903864502
 40
0.9923877991
 40
0.9941779432
 40
0.9957572973
 40
0.9971267538
 40
0.9982879249
 40
0.9992437643
 40
1.0
 40
1.0
 40
1.0
 40
1.0
 10
5.5392272229
 20
3.1895622649
 30
0.0
 10
5.5443752519
 20
3.1898905279
 30
0.0
 10
5.5553480948
 20
3.190536346
 30
0.0
 10
5.5727824099
 20
3.1914468074
 30
0.0
 10
5.5921174315
 20
3.1923585703
 30
0.0
 10
5.6132245371
 20
3.1932714624
 30
0.0
 10
5.6359668215
 20
3.1941850443
 30
0.0
 10
5.6601972991
 20
3.1950993741
 30
0.0
 10
5.6857569452
 20
3.1960140792
 30
0.0
 10
5.7220048026
 20
3.1972552685
 30
0.0
 10
5.7693262222
 20
3.1987891147
 30
0.0
 10
5.8276505908
 20
3.2006022372
 30
0.0
 10
5.8869180297
 20
3.2024159842
 30
0.0
 10
5.9455835315
 20
3.204229371
 30
0.0
 10
5.9933995817
 20
3.2057613333
 30
0.0
 10
6.0302061923
 20
3.2070005453
 30
0.0
 10
6.0563012005
 20
3.2079154141
 30
0.0
 10
6.0811399249
 20
3.2088299265
 30
0.0
 10
6.10455989
 20
3.2097438486
 30
0.0
 10
6.1264085851
 20
3.2106571345
 30
0.0
 10
6.1465430629
 20
3.2115693992
 30
0.0
 10
6.1648323116
 20
3.2124803511
 30
0.0
 10
6.1811566756
 20
3.213389484
 30
0.0
 10
6.1934811434
 20
3.2141726123
 30
0.0
 10
6.2022786714
 20
3.2148081059
 30
0.0
 10
6.2080564794
 20
3.2152650564
 30
0.0
 10
6.21327231
 20
3.2157214372
 30
0.0
 10
6.2179176308
 20
3.2161771381
 30
0.0
 10
6.2219851695
 20
3.2166318737
 30
0.0
 10
6.2250089853
 20
3.2170248397
 30
0.0
 10
6.2271331741
 20
3.2173440548
 30
0.0
 10
6.2285057988
 20
3.2175724865
 30
0.0
 10
6.2297295539
 20
3.2178006363
 30
0.0
 10
6.2308041313
 20
3.218028399
 30
0.0
 10
6.2317293503
 20
3.2182556144
 30
0.0
 10
6.2325054388
 20
3.2184820585
 30
0.0
 10
6.2331324071
 20
3.2187074435
 30
0.0
 10
6.2334931825
 20
3.218875699
 30
0.0
 10
6.2336449382
 20
3.2189633809
 30
0.0
 11
5.5392272229
 21
3.1895622649
 31
0.0
 11
5.5546753969
 21
3.1904807159
 31
0.0
 11
5.5721508643
 21
3.1913998261
 31
0.0
 11
5.5915279957
 21
3.1923187103
 31
0.0
 11
5.6126788451
 21
3.193237409
 31
0.0
 11
5.6354710309
 21
3.1941561646
 31
0.0
 11
5.659753961
 21
3.1950749722
 31
0.0
 11
5.6853695973
 21
3.1959937657
 31
0.0
 11
5.7121494114
 21
3.1969125446
 31
0.0
 11
5.7684990495
 21
3.1987501134
 31
0.0
 11
5.8273339148
 21
3.2005876835
 31
0.0
 11
5.8871201574
 21
3.2024252531
 31
0.0
 11
5.9462991595
 21
3.2042628229
 31
0.0
 11
6.0033281235
 21
3.2061003926
 31
0.0
 11
6.0305682255
 21
3.2070191775
 31
0.0
 11
6.0567203071
 21
3.2079379624
 31
0.0
 11
6.0816126378
 21
3.2088567473
 31
0.0
 11
6.1050837784
 21
3.2097755322
 31
0.0
 11
6.1269794127
 21
3.210694317
 31
0.0
 11
6.1471577042
 21
3.2116131019
 31
0.0
 11
6.1654858398
 21
3.2125318868
 31
0.0
 11
6.1818452203
 21
3.2134506717
 31
0.0
 11
6.1961280575
 21
3.2143694565
 31
0.0
 11
6.2024612231
 21
3.214828849
 31
0.0
 11
6.2082420261
 21
3.2152882414
 31
0.0
 11
6.2134603928
 21
3.2157476339
 31
0.0
 11
6.2181072234
 21
3.2162070263
 31
0.0
 11
6.2221758456
 21
3.2166664187
 31
0.0
 11
6.2256599596
 21
3.2171258112
 31
0.0
 11
6.2271808573
 21
3.2173555074
 31
0.0
 11
6.2285532661
 21
3.2175852036
 31
0.0
 11
6.2297765391
 21
3.2178148998
 31
0.0
 11
6.2308503401
 21
3.218044596
 31
0.0
 11
6.2317743748
 21
3.2182742923
 31
0.0
 11
6.2325483489
 21
3.2185039885
 31
0.0
 11
6.2331719681
 21
3.2187336847
 31
0.0
 11
6.2336449382
 21
3.2189633809
 31
0.0
  0
SPLINE
  5
26A
100
AcDbEntity
  8
0
100
AcDbSpline
 62
6
  6
CONTINUOUS
 70
0
 71
3
 72
22
 73
18
 74
16
 42
0.0000001
 43
0.0000001
 44
0.0000000001
 12
0.0394894312
 22
0.0228118937
 32
0.0
 13
0.0455123671
 23
0.0029020871
 33
0.0
 40
0.0
 40
0.0
 40
0.0
 40
0.0
 40
0.0076965601
 40
0.0168423577
 40
0.0274770083
 40
0.0396246891
 40
0.0685127369
 40
0.1035799798
 40
0.1448547146
 40
0.192333466
 40
0.2459936677
 40
0.3058066375
 40
0.3717400139
 40
0.443759038
 40
0.6058584572
 40
0.7915037247
 40
1.0
 40
1.0
 40
1.0
 40
1.0
 10
5.4940106014
 20
3.1665961501
 30
0.0
 10
5.4941119124
 20
3.1666546744
 30
0.0
 10
5.4943413594
 20
3.1667693192
 30
0.0
 10
5.494728312
 20
3.1669271875
 30
0.0
 10
5.4951873781
 20
3.1670853962
 30
0.0
 10
5.495940284
 20
3.1673098064
 30
0.0
 10
5.4970649245
 20
3.1675837694
 30
0.0
 10
5.4986335923
 20
3.1678983393
 30
0.0
 10
5.5004894568
 20
3.1682138637
 30
0.0
 10
5.5026312507
 20
3.1685302386
 30
0.0
 10
5.5050574554
 20
3.1688471803
 30
0.0
 10
5.5077662554
 20
3.1691645552
 30
0.0
 10
5.5107558165
 20
3.1694822862
 30
0.0
 10
5.5152957064
 20
3.1699238752
 30
0.0
 10
5.5216536886
 20
3.1704686612
 30
0.0
 10
5.5300858528
 20
3.1711011421
 30
0.0
 10
5.5360641699
 20
3.1715005734
 30
0.0
 10
5.5392272229
 20
3.1717022649
 30
0.0
 11
5.4940106014
 21
3.1665961501
 31
0.0
 11
5.4943232325
 21
3.166755721
 31
0.0
 11
5.4947085937
 21
3.1669152913
 31
0.0
 11
5.4951665828
 21
3.1670748606
 31
0.0
 11
5.4956970975
 21
3.1672344285
 31
0.0
 11
5.4969752944
 21
3.1675535583
 31
0.0
 11
5.4985423663
 21
3.1678726774
 31
0.0
 11
5.5003974465
 21
3.1681917832
 31
0.0
 11
5.5025390632
 21
3.1685108819
 31
0.0
 11
5.5049653315
 21
3.1688299857
 31
0.0
 11
5.5076743586
 21
3.169149107
 31
0.0
 11
5.5106642516
 21
3.169468258
 31
0.0
 11
5.5139331176
 21
3.1697874511
 31
0.0
 11
5.5212980032
 21
3.1704259539
 31
0.0
 11
5.5297402152
 21
3.1710643477
 31
0.0
 11
5.5392272229
 21
3.1717022649
 31
0.0
  0
SPLINE
  5
26B
100
AcDbEntity
  8
0
100
AcDbSpline
 62
6
  6
CONTINUOUS
 70
0
 71
3
 72
23
 73
19
 74
17
 42
0.0000001
 43
0.0000001
 44
0.0000000001
 12
0.0436471953
 22
0.0252173054
 32
0.0
 13
0.0503244233
 23
0.0029056088
 33
0.0
 40
0.0
 40
0.0
 40
0.0
 40
0.0
 40
0.0071176041
 40
0.0157243613
 40
0.025861664
 40
0.0375534634
 40
0.0508142364
 40
0.0656529282
 40
0.1000826007
 40
0.1408657876
 40
0.1880032669
 40
0.2414720811
 40
0.3012381849
 40
0.3672641831
 40
0.4395105312
 40
0.6024758001
 40
0.7895476251
 40
1.0
 40
1.0
 40
1.0
 40
1.0
 10
5.4553008838
 20
3.1442187983
 30
0.0
 10
5.4554044383
 20
3.1442786273
 30
0.0
 10
5.4556421639
 20
3.1443952431
 30
0.0
 10
5.4560467232
 20
3.1445545305
 30
0.0
 10
5.4565327937
 20
3.1447142428
 30
0.0
 10
5.4571003957
 20
3.1448742726
 30
0.0
 10
5.457749597
 20
3.1450345713
 30
0.0
 10
5.4587759116
 20
3.1452598638
 30
0.0
 10
5.460263899
 20
3.1455364175
 30
0.0
 10
5.4622949861
 20
3.1458553792
 30
0.0
 10
5.4646492493
 20
3.1461750736
 30
0.0
 10
5.467324918
 20
3.1464954324
 30
0.0
 10
5.4703199237
 20
3.1468162414
 30
0.0
 10
5.4736320214
 20
3.147137432
 30
0.0
 10
5.4786739307
 20
3.1475842025
 30
0.0
 10
5.4857482179
 20
3.1481351807
 30
0.0
 10
5.4951443458
 20
3.1487745335
 30
0.0
 10
5.5018117027
 20
3.1491780727
 30
0.0
 10
5.5053420008
 20
3.1493819034
 30
0.0
 11
5.4553008838
 21
3.1442187983
 31
0.0
 11
5.4556213416
 21
3.1443801493
 31
0.0
 11
5.4560240733
 21
3.1445415005
 31
0.0
 11
5.4565089345
 21
3.1447028517
 31
0.0
 11
5.4570757808
 21
3.1448642023
 31
0.0
 11
5.4577244676
 21
3.1450255519
 31
0.0
 11
5.4584548505
 21
3.1451869002
 31
0.0
 11
5.4601601266
 21
3.1455095909
 31
0.0
 11
5.4621904531
 21
3.1458322709
 31
0.0
 11
5.4645445598
 21
3.1461549384
 31
0.0
 11
5.4672204448
 21
3.1464776022
 31
0.0
 11
5.470215819
 21
3.1468002749
 31
0.0
 11
5.4735283925
 21
3.1471229692
 31
0.0
 11
5.4771558755
 21
3.1474456979
 31
0.0
 11
5.4853452603
 21
3.1480912805
 31
0.0
 11
5.4947531001
 21
3.1487368084
 31
0.0
 11
5.5053420008
 21
3.1493819034
 31
0.0
  0
SPLINE
  5
26C
100
AcDbEntity
  8
0
100
AcDbSpline
 62
6
  6
CONTINUOUS
 70
0
 71
3
 72
69
 73
65
 74
63
 42
0.0000001
 43
0.0000001
 44
0.0000000001
 12
-0.0001539661
 22
0.7417167479
 32
0.0
 13
0.6421057934
 23
0.37127336
 33
0.0
 40
0.0
 40
0.0
 40
0.0
 40
0.0
 40
0.0001884343
 40
0.0004030092
 40
0.0006620841
 40
0.0009763163
 40
0.0013516971
 40
0.0017917297
 40
0.0022985738
 40
0.002873558
 40
0.0042308313
 40
0.0058675405
 40
0.0077852721
 40
0.0099845704
 40
0.0124654114
 40
0.0152274351
 40
0.0182698659
 40
0.0215910498
 40
0.0290618893
 40
0.037623966
 40
0.0472602627
 40
0.0579487743
 40
0.0696638705
 40
0.0823796806
 40
0.0960679522
 40
0.1106955263
 40
0.1426325787
 40
0.1778961874
 40
0.2161593683
 40
0.257065709
 40
0.3002367742
 40
0.3452697593
 40
0.3917471174
 40
0.4392361334
 40
0.487295446
 40
0.5354780778
 40
0.5833360655
 40
0.6304242726
 40
0.6763048061
 40
0.7205516041
 40
0.7627522657
 40
0.8025162412
 40
0.8394723584
 40
0.8732790136
 40
0.888901562
 40
0.9036223757
 40
0.9174061391
 40
0.9302208415
 40
0.942038528
 40
0.9528315845
 40
0.9625740122
 40
0.9712455261
 40
0.9788274659
 40
0.9853021198
 40
0.9881203431
 40
0.9906579605
 40
0.9929143344
 40
0.9948891322
 40
0.9965825323
 40
0.9979956492
 40
0.9985981155
 40
0.9991321193
 40
0.9995988244
 40
1.0
 40
1.0
 40
1.0
 40
1.0
 10
5.4934883634
 20
3.3267122646
 30
0.0
 10
5.4934883538
 20
3.3267588529
 30
0.0
 10
5.493509554
 20
3.3268591358
 30
0.0
 10
5.4935975724
 20
3.3269997381
 30
0.0
 10
5.4937374958
 20
3.3271369267
 30
0.0
 10
5.4939293742
 20
3.3272729537
 30
0.0
 10
5.4941738311
 20
3.3274088204
 30
0.0
 10
5.4944713958
 20
3.3275447872
 30
0.0
 10
5.4948223383
 20
3.327680932
 30
0.0
 10
5.4953939865
 20
3.3278734519
 30
0.0
 10
5.4962449722
 20
3.3281089256
 30
0.0
 10
5.4974290285
 20
3.3283795577
 30
0.0
 10
5.4988256509
 20
3.3286509902
 30
0.0
 10
5.500434162
 20
3.3289230998
 30
0.0
 10
5.5022539463
 20
3.3291956466
 30
0.0
 10
5.5042842003
 20
3.3294685139
 30
0.0
 10
5.5065238717
 20
3.3297416092
 30
0.0
 10
5.5099232232
 20
3.3301210469
 30
0.0
 10
5.5146855257
 20
3.3305894554
 30
0.0
 10
5.5210087125
 20
3.3311333163
 30
0.0
 10
5.5281299627
 20
3.3316779882
 30
0.0
 10
5.5360327323
 20
3.3322233892
 30
0.0
 10
5.5446984791
 20
3.3327693729
 30
0.0
 10
5.554107204
 20
3.3333157416
 30
0.0
 10
5.5642371125
 20
3.3338623694
 30
0.0
 10
5.5791150347
 20
3.3346137812
 30
0.0
 10
5.5993248699
 20
3.3355438082
 30
0.0
 10
5.625376983
 20
3.336631715
 30
0.0
 10
5.653648373
 20
3.337720882
 30
0.0
 10
5.6838760953
 20
3.3388111184
 30
0.0
 10
5.715778578
 20
3.3399019869
 30
0.0
 10
5.7490591801
 20
3.3409934167
 30
0.0
 10
5.7834078899
 20
3.3420851611
 30
0.0
 10
5.8185051854
 20
3.3431771513
 30
0.0
 10
5.8540242877
 20
3.3442692556
 30
0.0
 10
5.889634656
 20
3.3453613897
 30
0.0
 10
5.9250048185
 20
3.3464534525
 30
0.0
 10
5.9598055441
 20
3.3475453459
 30
0.0
 10
5.9937130036
 20
3.3486369742
 30
0.0
 10
6.0264114425
 20
3.3497281502
 30
0.0
 10
6.0575967725
 20
3.3508188036
 30
0.0
 10
6.0869784397
 20
3.3519085405
 30
0.0
 10
6.1142832965
 20
3.3529972845
 30
0.0
 10
6.1356209898
 20
3.3539258541
 30
0.0
 10
6.1514636756
 20
3.3546752269
 30
0.0
 10
6.16235992
 20
3.3552221274
 30
0.0
 10
6.1725610397
 20
3.355768797
 30
0.0
 10
6.1820433071
 20
3.3563152221
 30
0.0
 10
6.1907848617
 20
3.3568612151
 30
0.0
 10
6.1987652643
 20
3.357406648
 30
0.0
 10
6.2059658617
 20
3.3579515082
 30
0.0
 10
6.2123701318
 20
3.358495333
 30
0.0
 10
6.2179633037
 20
3.3590378152
 30
0.0
 10
6.2221092457
 20
3.3595071851
 30
0.0
 10
6.2250092543
 20
3.359889015
 30
0.0
 10
6.2268715209
 20
3.3601616548
 30
0.0
 10
6.2285228518
 20
3.3604338535
 30
0.0
 10
6.2299624333
 20
3.3607054209
 30
0.0
 10
6.2311894105
 20
3.3609762212
 30
0.0
 10
6.2320762259
 20
3.3612115837
 30
0.0
 10
6.232676717
 20
3.3614037408
 30
0.0
 10
6.2330491059
 20
3.3615399491
 30
0.0
 10
6.2333680893
 20
3.3616759587
 30
0.0
 10
6.2335594323
 20
3.3617737315
 30
0.0
 10
6.233645298
 20
3.3618233801
 30
0.0
 11
5.4934883634
 21
3.3267122646
 31
0.0
 11
5.493515257
 21
3.3268494177
 31
0.0
 11
5.4935959971
 21
3.3269865708
 31
0.0
 11
5.4937305875
 21
3.3271237238
 31
0.0
 11
5.4939190318
 21
3.3272608769
 31
0.0
 11
5.4941613337
 21
3.3273980299
 31
0.0
 11
5.4944574969
 21
3.327535183
 31
0.0
 11
5.4948075198
 21
3.3276723361
 31
0.0
 11
5.4952113394
 21
3.3278094891
 31
0.0
 11
5.4961799601
 21
3.3280837953
 31
0.0
 11
5.497362538
 21
3.3283581014
 31
0.0
 11
5.4987582517
 21
3.3286324075
 31
0.0
 11
5.5003662797
 21
3.3289067136
 31
0.0
 11
5.5021858003
 21
3.3291810198
 31
0.0
 11
5.5042159922
 21
3.3294553259
 31
0.0
 11
5.5064558803
 21
3.329729632
 31
0.0
 11
5.5089039379
 21
3.3300039381
 31
0.0
 11
5.5144179602
 21
3.3305525504
 31
0.0
 11
5.5207448552
 21
3.3311011626
 31
0.0
 11
5.527871172
 21
3.3316497749
 31
0.0
 11
5.5357800153
 21
3.3321983871
 31
0.0
 11
5.5444519625
 21
3.3327469994
 31
0.0
 11
5.5538675227
 21
3.3332956116
 31
0.0
 11
5.5640055101
 21
3.3338442239
 31
0.0
 11
5.5748411477
 21
3.3343928361
 31
0.0
 11
5.5985039698
 21
3.3354900606
 31
0.0
 11
5.6246365552
 21
3.3365872851
 31
0.0
 11
5.6529957799
 21
3.3376845096
 31
0.0
 11
5.6833168525
 21
3.3387817341
 31
0.0
 11
5.7153187509
 21
3.3398789586
 31
0.0
 11
5.7487024445
 21
3.3409761831
 31
0.0
 11
5.7831580142
 21
3.3420734076
 31
0.0
 11
5.8183643198
 21
3.3431706321
 31
0.0
 11
5.853993827
 21
3.3442678566
 31
0.0
 11
5.8897148452
 21
3.3453650811
 31
0.0
 11
5.9251949551
 21
3.3464623056
 31
0.0
 11
5.9601038285
 21
3.3475595301
 31
0.0
 11
5.9941164961
 21
3.3486567546
 31
0.0
 11
6.026916741
 21
3.3497539791
 31
0.0
 11
6.0581984422
 21
3.3508512036
 31
0.0
 11
6.0876716328
 21
3.3519484282
 31
0.0
 11
6.1150606354
 21
3.3530456528
 31
0.0
 11
6.1401115808
 21
3.3541428769
 31
0.0
 11
6.1516860925
 21
3.3546914889
 31
0.0
 11
6.1625909755
 21
3.3552401013
 31
0.0
 11
6.1727998936
 21
3.3557887143
 31
0.0
 11
6.1822889273
 21
3.3563373277
 31
0.0
 11
6.1910371182
 21
3.3568859401
 31
0.0
 11
6.1990236888
 21
3.3574345506
 31
0.0
 11
6.2062289555
 21
3.3579831588
 31
0.0
 11
6.2126373228
 21
3.3585317683
 31
0.0
 11
6.2182341506
 21
3.3590803838
 31
0.0
 11
6.2230050693
 21
3.3596290087
 31
0.0
 11
6.2250773155
 21
3.3599033227
 31
0.0
 11
6.2269394123
 21
3.360177635
 31
0.0
 11
6.2285903694
 21
3.3604519435
 31
0.0
 11
6.2300291965
 21
3.3607262462
 31
0.0
 11
6.2312549032
 21
3.3610005408
 31
0.0
 11
6.2322665105
 21
3.3612748256
 31
0.0
 11
6.2326918059
 21
3.3614119647
 31
0.0
 11
6.2330633866
 21
3.3615491028
 31
0.0
 11
6.2333812261
 21
3.361686241
 31
0.0
 11
6.233645298
 21
3.3618233801
 31
0.0
  0
SPLINE
  5
26D
100
AcDbEntity
  8
0
100
AcDbSpline
 62
6
  6
CONTINUOUS
 70
0
 71
3
 72
69
 73
65
 74
63
 42
0.0000001
 43
0.0000001
 44
0.0000000001
 12
-0.000428235
 22
0.7417164177
 32
0.0
 13
0.6421886054
 23
0.3711296576
 33
0.0
 40
0.0
 40
0.0
 40
0.0
 40
0.0
 40
0.0001884413
 40
0.0004031409
 40
0.0006624816
 40
0.0009770593
 40
0.0013527794
 40
0.0017930541
 40
0.0022999592
 40
0.0028748188
 40
0.0042314906
 40
0.0058674966
 40
0.0077848797
 40
0.0099845616
 40
0.0124661974
 40
0.015228759
 40
0.0182710017
 40
0.0215915402
 40
0.0290614628
 40
0.037624761
 40
0.0472611794
 40
0.0579484606
 40
0.0696639168
 40
0.0823806625
 40
0.0960680029
 40
0.1106950325
 40
0.1426329292
 40
0.1778961
 40
0.216158981
 40
0.2570657832
 40
0.3002360018
 40
0.3452694725
 40
0.3917463266
 40
0.4392354598
 40
0.4872945678
 40
0.5354772537
 40
0.5833349953
 40
0.6304233713
 40
0.6763037889
 40
0.720550387
 40
0.7627515872
 40
0.8025147972
 40
0.8394719791
 40
0.8732779431
 40
0.8889013674
 40
0.903621768
 40
0.9174049573
 40
0.9302206076
 40
0.9420386802
 40
0.9528306451
 40
0.9625735626
 40
0.9712460234
 40
0.9788272575
 40
0.9853017301
 40
0.9881205569
 40
0.9906588242
 40
0.9929155645
 40
0.9948901252
 40
0.9965827791
 40
0.9979953646
 40
0.9985977736
 40
0.9991318271
 40
0.9995986569
 40
1.0
 40
1.0
 40
1.0
 40
1.0
 10
5.4934876989
 20
3.1124222644
 30
0.0
 10
5.493487672
 20
3.1124688544
 30
0.0
 10
5.4935089122
 20
3.11256918
 30
0.0
 10
5.4935971547
 20
3.1127097661
 30
0.0
 10
5.4937373533
 20
3.1128469284
 30
0.0
 10
5.4939295298
 20
3.1129829379
 30
0.0
 10
5.4941742519
 20
3.1131187943
 30
0.0
 10
5.494471992
 20
3.1132547554
 30
0.0
 10
5.4948229778
 20
3.1133909074
 30
0.0
 10
5.4953944521
 20
3.1135834258
 30
0.0
 10
5.496245062
 20
3.1138189292
 30
0.0
 10
5.4974286935
 20
3.1140895895
 30
0.0
 10
5.4988251449
 20
3.1143610379
 30
0.0
 10
5.5004338701
 20
3.1146331131
 30
0.0
 10
5.5022540884
 20
3.1149056224
 30
0.0
 10
5.5042846295
 20
3.1151784707
 30
0.0
 10
5.5065242238
 20
3.1154515864
 30
0.0
 10
5.5099231348
 20
3.1158310593
 30
0.0
 10
5.5146853454
 20
3.1162995351
 30
0.0
 10
5.5210086486
 20
3.1168432546
 30
0.0
 10
5.5281299227
 20
3.1173879424
 30
0.0
 10
5.5360324987
 20
3.117933429
 30
0.0
 10
5.5446982618
 20
3.118479372
 30
0.0
 10
5.5541070774
 20
3.1190256803
 30
0.0
 10
5.5642368456
 20
3.1195723712
 30
0.0
 10
5.5791146066
 20
3.1203237932
 30
0.0
 10
5.5993244044
 20
3.1212537585
 30
0.0
 10
5.6253765344
 20
3.122341703
 30
0.0
 10
5.6536478475
 20
3.1234308744
 30
0.0
 10
5.6838753926
 20
3.12452107
 30
0.0
 10
5.715777889
 20
3.1256119874
 30
0.0
 10
5.7490582686
 20
3.1267033694
 30
0.0
 10
5.7834069916
 20
3.1277951443
 30
0.0
 10
5.8185041309
 20
3.1288871123
 30
0.0
 10
5.854023214
 20
3.1299792273
 30
0.0
 10
5.889633474
 20
3.1310713479
 30
0.0
 10
5.9250036198
 20
3.1321634214
 30
0.0
 10
5.9598042876
 20
3.1332553019
 30
0.0
 10
5.9937117007
 20
3.1343469282
 30
0.0
 10
6.0264101842
 20
3.135438123
 30
0.0
 10
6.057595401
 20
3.1365287265
 30
0.0
 10
6.0869772638
 20
3.1376185367
 30
0.0
 10
6.1142820195
 20
3.1387071824
 30
0.0
 10
6.1356200111
 20
3.139635852
 30
0.0
 10
6.1514626393
 20
3.1403851455
 30
0.0
 10
6.162358852
 20
3.1409320662
 30
0.0
 10
6.1725599565
 20
3.1414787794
 30
0.0
 10
6.182042412
 20
3.1420251546
 30
0.0
 10
6.1907840268
 20
3.1425711055
 30
0.0
 10
6.1987643669
 20
3.143116637
 30
0.0
 10
6.2059650487
 20
3.143661478
 30
0.0
 10
6.2123695062
 20
3.1442052117
 30
0.0
 10
6.2179626848
 20
3.1447477697
 30
0.0
 10
6.2221085494
 20
3.145217178
 30
0.0
 10
6.225008833
 20
3.1455989404
 30
0.0
 10
6.2268715074
 20
3.1458715562
 30
0.0
 10
6.2285230381
 20
3.146143725
 30
0.0
 10
6.229962467
 20
3.146415282
 30
0.0
 10
6.2311890477
 20
3.1466861466
 30
0.0
 10
6.232075508
 20
3.1469215545
 30
0.0
 10
6.2326758588
 20
3.1471137107
 30
0.0
 10
6.2330482729
 20
3.1472499329
 30
0.0
 10
6.233367342
 20
3.1473859556
 30
0.0
 10
6.233558764
 20
3.1474837311
 30
0.0
 10
6.2336446766
 20
3.1475333812
 30
0.0
 11
5.4934876989
 21
3.1124222644
 31
0.0
 11
5.4935146207
 21
3.1125594172
 31
0.0
 11
5.4935955433
 21
3.11269657
 31
0.0
 11
5.4937304152
 21
3.1128337228
 31
0.0
 11
5.4939191765
 21
3.1129708756
 31
0.0
 11
5.4941617676
 21
3.1131080284
 31
0.0
 11
5.4944581287
 21
3.1132451812
 31
0.0
 11
5.4948082001
 21
3.113382334
 31
0.0
 11
5.4952119221
 21
3.1135194868
 31
0.0
 11
5.4961800788
 21
3.1137937924
 31
0.0
 11
5.4973621211
 21
3.114068098
 31
0.0
 11
5.4987575711
 21
3.1143424036
 31
0.0
 11
5.5003658872
 21
3.1146167092
 31
0.0
 11
5.5021860036
 21
3.1148910148
 31
0.0
 11
5.5042165975
 21
3.1151653204
 31
0.0
 11
5.5064563444
 21
3.115439626
 31
0.0
 11
5.5089039197
 21
3.1157139316
 31
0.0
 11
5.5144172569
 21
3.1162625428
 31
0.0
 11
5.5207450595
 21
3.116811154
 31
0.0
 11
5.5278714648
 21
3.1173597652
 31
0.0
 11
5.535779391
 21
3.1179083764
 31
0.0
 11
5.5444516032
 21
3.1184569876
 31
0.0
 11
5.5538678557
 21
3.1190055988
 31
0.0
 11
5.5640051484
 21
3.11955421
 31
0.0
 11
5.5748403784
 21
3.1201028212
 31
0.0
 11
5.5985038204
 21
3.1212000436
 31
0.0
 11
5.624636073
 21
3.122297266
 31
0.0
 11
5.6529950667
 21
3.1233944884
 31
0.0
 11
5.6833164727
 21
3.1244917108
 31
0.0
 11
5.7153177333
 21
3.1255889332
 31
0.0
 11
5.7487017774
 21
3.1266861556
 31
0.0
 11
5.7831569628
 21
3.127783378
 31
0.0
 11
5.8183633448
 21
3.1288806004
 31
0.0
 11
5.8539926895
 21
3.1299778228
 31
0.0
 11
5.8897137372
 21
3.1310750452
 31
0.0
 11
5.9251936539
 21
3.1321722676
 31
0.0
 11
5.9601026422
 21
3.13326949
 31
0.0
 11
5.9941152137
 21
3.1343667124
 31
0.0
 11
6.0269153004
 21
3.1354639348
 31
0.0
 11
6.058197392
 21
3.1365611572
 31
0.0
 11
6.0876700057
 21
3.1376583796
 31
0.0
 11
6.1150597905
 21
3.138755602
 31
0.0
 11
6.1401102152
 21
3.1398528244
 31
0.0
 11
6.1516853739
 21
3.1404014356
 31
0.0
 11
6.1625899469
 21
3.1409500468
 31
0.0
 11
6.1727984356
 21
3.141498658
 31
0.0
 11
6.1822881708
 21
3.1420472692
 31
0.0
 11
6.1910366461
 21
3.1425958804
 31
0.0
 11
6.1990224027
 21
3.1431444916
 31
0.0
 11
6.2062280313
 21
3.1436931028
 31
0.0
 11
6.2126371015
 21
3.144241714
 31
0.0
 11
6.218233402
 21
3.1447903252
 31
0.0
 11
6.2230041855
 21
3.1453389364
 31
0.0
 11
6.2250768837
 21
3.145613242
 31
0.0
 11
6.2269394682
 21
3.1458875476
 31
0.0
 11
6.2285907008
 21
3.1461618532
 31
0.0
 11
6.2300293478
 21
3.1464361588
 31
0.0
 11
6.2312544844
 21
3.1467104644
 31
0.0
 11
6.2322656775
 21
3.14698477
 31
0.0
 11
6.2326909237
 21
3.1471219228
 31
0.0
 11
6.233062538
 21
3.1472590756
 31
0.0
 11
6.2333804718
 21
3.1473962284
 31
0.0
 11
6.2336446766
 21
3.1475333812
 31
0.0
  0
SPLINE
  5
26E
100
AcDbEntity
  8
0
100
AcDbSpline
 62
6
  6
CONTINUOUS
 70
0
 71
3
 72
28
 73
24
 74
22
 42
0.0000001
 43
0.0000001
 44
0.0000000001
 12
-0.0000058192
 22
0.04643699
 32
0.0
 13
0.046342872
 23
0.0029550441
 33
0.0
 40
0.0
 40
0.0
 40
0.0
 40
0.0
 40
0.0019369959
 40
0.0039952485
 40
0.0062766448
 40
0.0088565544
 40
0.0150968522
 40
0.0229762139
 40
0.0326133391
 40
0.0440709251
 40
0.0573846813
 40
0.0725761001
 40
0.0896585814
 40
0.1086406159
 40
0.1523205297
 40
0.2036221199
 40
0.2625168163
 40
0.3289659666
 40
0.4029253634
 40
0.4843471405
 40
0.5731597901
 40
0.7724996251
 40
1.0
 40
1.0
 40
1.0
 40
1.0
 10
5.4934876596
 20
3.1838522644
 30
0.0
 10
5.4934876559
 20
3.1838822471
 30
0.0
 10
5.4934958603
 20
3.1839443419
 30
0.0
 10
5.4935319192
 20
3.1840353956
 30
0.0
 10
5.4935909428
 20
3.1841254789
 30
0.0
 10
5.4937072407
 20
3.1842527352
 30
0.0
 10
5.4939161914
 20
3.1844081243
 30
0.0
 10
5.494239901
 20
3.1845836829
 30
0.0
 10
5.4946529809
 20
3.1847597038
 30
0.0
 10
5.4951557581
 20
3.1849361578
 30
0.0
 10
5.4957487104
 20
3.1851130193
 30
0.0
 10
5.4964318788
 20
3.1852901774
 30
0.0
 10
5.4972052675
 20
3.1854675838
 30
0.0
 10
5.4984144326
 20
3.1857161361
 30
0.0
 10
5.5001521407
 20
3.1860217171
 30
0.0
 10
5.502507845
 20
3.1863747023
 30
0.0
 10
5.5052192859
 20
3.1867285133
 30
0.0
 10
5.5082839469
 20
3.1870830146
 30
0.0
 10
5.5116993217
 20
3.1874379996
 30
0.0
 10
5.515462501
 20
3.1877933649
 30
0.0
 10
5.5211618747
 20
3.1882867018
 30
0.0
 10
5.5291206007
 20
3.1888954788
 30
0.0
 10
5.5357128827
 20
3.1893381736
 30
0.0
 10
5.5392272229
 20
3.1895622649
 30
0.0
 11
5.4934876596
 21
3.1838522644
 31
0.0
 11
5.4934990779
 21
3.1839414849
 31
0.0
 11
5.493533356
 21
3.1840307058
 31
0.0
 11
5.4935904798
 21
3.184119927
 31
0.0
 11
5.4936704321
 21
3.1842091482
 31
0.0
 11
5.4938987543
 21
3.184387591
 31
0.0
 11
5.4942181859
 21
3.1845660336
 31
0.0
 11
5.4946285904
 21
3.1847444753
 31
0.0
 11
5.4951298313
 21
3.1849229157
 31
0.0
 11
5.4957217719
 21
3.1851013542
 31
0.0
 11
5.4964042758
 21
3.1852797902
 31
0.0
 11
5.4971772063
 21
3.185458223
 31
0.0
 11
5.4980404269
 21
3.1856366522
 31
0.0
 11
5.5000371544
 21
3.1859934978
 31
0.0
 11
5.5023925696
 21
3.1863503337
 31
0.0
 11
5.505104082
 21
3.1867071768
 31
0.0
 11
5.5081690749
 21
3.1870640444
 31
0.0
 11
5.5115849313
 21
3.1874209535
 31
0.0
 11
5.5153490249
 21
3.1877779213
 31
0.0
 11
5.5194577352
 21
3.1881349381
 31
0.0
 11
5.5286869043
 21
3.1888488782
 31
0.0
 11
5.5392272229
 21
3.1895622649
 31
0.0
  0
SPLINE
  5
26F
100
AcDbEntity
  8
0
100
AcDbSpline
 62
6
  6
CONTINUOUS
 70
0
 71
3
 72
69
 73
65
 74
63
 42
0.0000001
 43
0.0000001
 44
0.0000000001
 12
0.0008519374
 22
0.7417162227
 32
0.0
 13
0.6420611366
 23
0.3713504782
 33
0.0
 40
0.0
 40
0.0
 40
0.0
 40
0.0
 40
0.0001884875
 40
0.0004032148
 40
0.0006624867
 40
0.0009768961
 40
0.0013523764
 40
0.0017923787
 40
0.0022990207
 40
0.00287367
 40
0.0042302526
 40
0.0058668034
 40
0.0077849009
 40
0.0099847634
 40
0.0124660334
 40
0.0152280155
 40
0.0182698027
 40
0.0215903489
 40
0.0290615517
 40
0.0376245129
 40
0.0472599731
 40
0.0579480091
 40
0.0696640044
 40
0.0823797962
 40
0.0960670243
 40
0.110695113
 40
0.1426318114
 40
0.1778959758
 40
0.2161582285
 40
0.2570652296
 40
0.3002356586
 40
0.3452686978
 40
0.3917459665
 40
0.4392347506
 40
0.4872940808
 40
0.5354765581
 40
0.5833345591
 40
0.6304225224
 40
0.6763034339
 40
0.720549611
 40
0.7627509077
 40
0.8025144261
 40
0.8394707423
 40
0.8732779438
 40
0.8889004574
 40
0.9036204938
 40
0.9174048009
 40
0.9302202747
 40
0.9420371664
 40
0.9528299909
 40
0.9625736735
 40
0.9712448113
 40
0.9788259987
 40
0.9853017816
 40
0.9881206504
 40
0.9906582651
 40
0.9929142185
 40
0.9948884954
 40
0.9965815885
 40
0.9979949042
 40
0.9985976362
 40
0.9991319069
 40
0.999598794
 40
1.0
 40
1.0
 40
1.0
 40
1.0
 10
5.4934880335
 20
3.255282266
 30
0.0
 10
5.493488087
 20
3.2553288674
 30
0.0
 10
5.4935094568
 20
3.2554291676
 30
0.0
 10
5.4935976982
 20
3.2555697392
 30
0.0
 10
5.4937378123
 20
3.2557069128
 30
0.0
 10
5.4939298357
 20
3.2558429332
 30
0.0
 10
5.4941743616
 20
3.2559787977
 30
0.0
 10
5.4944718892
 20
3.2561147641
 30
0.0
 10
5.4948226764
 20
3.2562509195
 30
0.0
 10
5.4953939965
 20
3.2564434622
 30
0.0
 10
5.4962446663
 20
3.256678987
 30
0.0
 10
5.4974286081
 20
3.2569495917
 30
0.0
 10
5.4988254305
 20
3.2572209949
 30
0.0
 10
5.5004342856
 20
3.2574930845
 30
0.0
 10
5.5022543096
 20
3.2577656167
 30
0.0
 10
5.5042844996
 20
3.258038481
 30
0.0
 10
5.5065238371
 20
3.2583116096
 30
0.0
 10
5.5099229542
 20
3.2586911014
 30
0.0
 10
5.514685414
 20
3.2591594572
 30
0.0
 10
5.521008708
 20
3.259703246
 30
0.0
 10
5.5281298451
 20
3.2602480001
 30
0.0
 10
5.5360325111
 20
3.2607934177
 30
0.0
 10
5.5446983618
 20
3.2613393347
 30
0.0
 10
5.5541070454
 20
3.2618857062
 30
0.0
 10
5.5642368143
 20
3.2624323979
 30
0.0
 10
5.579114521
 20
3.2631837281
 30
0.0
 10
5.5993245286
 20
3.2641138263
 30
0.0
 10
5.6253764634
 20
3.26520166
 30
0.0
 10
5.6536479199
 20
3.2662908983
 30
0.0
 10
5.6838754188
 20
3.2673810684
 30
0.0
 10
5.7157779172
 20
3.2684719785
 30
0.0
 10
5.7490583516
 20
3.269563386
 30
0.0
 10
5.7834069928
 20
3.2706551314
 30
0.0
 10
5.8185042106
 20
3.271747125
 30
0.0
 10
5.8540232195
 20
3.2728392197
 30
0.0
 10
5.8896335546
 20
3.273931359
 30
0.0
 10
5.9250036198
 20
3.2750234097
 30
0.0
 10
5.9598043789
 20
3.27611532
 30
0.0
 10
5.9937117168
 20
3.2772069134
 30
0.0
 10
6.026410249
 20
3.2782981321
 30
0.0
 10
6.0575954689
 20
3.2793887364
 30
0.0
 10
6.0869772261
 20
3.2804785064
 30
0.0
 10
6.1142821527
 20
3.2815672402
 30
0.0
 10
6.1356200206
 20
3.2824958011
 30
0.0
 10
6.1514626405
 20
3.2832451547
 30
0.0
 10
6.1623588152
 20
3.2837921045
 30
0.0
 10
6.1725600685
 20
3.284338752
 30
0.0
 10
6.1820424673
 20
3.2848851223
 30
0.0
 10
6.190783955
 20
3.2854311658
 30
0.0
 10
6.1987644101
 20
3.2859766457
 30
0.0
 10
6.2059651754
 20
3.2865213985
 30
0.0
 10
6.2123694746
 20
3.2870652536
 30
0.0
 10
6.217962635
 20
3.2876078462
 30
0.0
 10
6.2221088384
 20
3.2880771403
 30
0.0
 10
6.2250092979
 20
3.2884589013
 30
0.0
 10
6.2268716201
 20
3.2887315426
 30
0.0
 10
6.2285227129
 20
3.289003752
 30
0.0
 10
6.2299619763
 20
3.2892753413
 30
0.0
 10
6.2311887844
 20
3.2895461855
 30
0.0
 10
6.2320756347
 20
3.2897815597
 30
0.0
 10
6.2326763193
 20
3.2899737035
 30
0.0
 10
6.2330488947
 20
3.290109916
 30
0.0
 10
6.2333680075
 20
3.2902459249
 30
0.0
 10
6.2335593999
 20
3.2903437198
 30
0.0
 10
6.2336452662
 20
3.2903933825
 30
0.0
 11
5.4934880335
 21
3.255282266
 31
0.0
 11
5.4935151325
 21
3.2554194188
 31
0.0
 11
5.4935960956
 21
3.2555565716
 31
0.0
 11
5.4937308948
 21
3.2556937244
 31
0.0
 11
5.4939195019
 21
3.2558308772
 31
0.0
 11
5.4941618887
 21
3.25596803
 31
0.0
 11
5.4944580272
 21
3.2561051828
 31
0.0
 11
5.4948078892
 21
3.2562423355
 31
0.0
 11
5.4952114465
 21
3.2563794883
 31
0.0
 11
5.4961795348
 21
3.2566537939
 31
0.0
 11
5.4973619922
 21
3.2569280995
 31
0.0
 11
5.4987579825
 21
3.2572024051
 31
0.0
 11
5.5003664348
 21
3.2574767107
 31
0.0
 11
5.5021862773
 21
3.2577510163
 31
0.0
 11
5.504216438
 21
3.2580253219
 31
0.0
 11
5.506455845
 21
3.2582996275
 31
0.0
 11
5.5089034266
 21
3.2585739331
 31
0.0
 11
5.5144177194
 21
3.2591225443
 31
0.0
 11
5.5207452725
 21
3.2596711555
 31
0.0
 11
5.5278709666
 21
3.2602197667
 31
0.0
 11
5.5357794558
 21
3.2607683779
 31
0.0
 11
5.5444520707
 21
3.2613169891
 31
0.0
 11
5.5538676167
 21
3.2618656003
 31
0.0
 11
5.5640048283
 21
3.2624142115
 31
0.0
 11
5.5748408473
 21
3.2629628227
 31
0.0
 11
5.5985034051
 21
3.2640600451
 31
0.0
 11
5.6246364013
 21
3.2651572675
 31
0.0
 11
5.6529949351
 21
3.2662544899
 31
0.0
 11
5.6833164958
 21
3.2673517123
 31
0.0
 11
5.7153179199
 21
3.2684489347
 31
0.0
 11
5.7487016514
 21
3.269546157
 31
0.0
 11
5.7831571524
 21
3.2706433794
 31
0.0
 11
5.8183632835
 21
3.2717406018
 31
0.0
 11
5.8539928012
 21
3.2728378242
 31
0.0
 11
5.8897137024
 21
3.2739350466
 31
0.0
 11
5.9251938198
 21
3.275032269
 31
0.0
 11
5.9601025099
 21
3.2761294914
 31
0.0
 11
5.9941154557
 21
3.2772267138
 31
0.0
 11
6.0269152376
 21
3.2783239362
 31
0.0
 11
6.058197408
 21
3.2794211586
 31
0.0
 11
6.0876702574
 21
3.280518381
 31
0.0
 11
6.1150594059
 21
3.2816156033
 31
0.0
 11
6.1401107551
 21
3.2827128257
 31
0.0
 11
6.1516852402
 21
3.2832614369
 31
0.0
 11
6.1625895452
 21
3.2838100481
 31
0.0
 11
6.1727988666
 21
3.2843586593
 31
0.0
 11
6.1822884728
 21
3.2849072705
 31
0.0
 11
6.1910360725
 21
3.2854558817
 31
0.0
 11
6.1990224701
 21
3.2860044929
 31
0.0
 11
6.2062286695
 21
3.2865531041
 31
0.0
 11
6.2126367563
 21
3.2871017153
 31
0.0
 11
6.2182330233
 21
3.2876503265
 31
0.0
 11
6.2230047862
 21
3.2881989377
 31
0.0
 11
6.2250775162
 21
3.2884732433
 31
0.0
 11
6.2269396119
 21
3.2887475489
 31
0.0
 11
6.2285902533
 21
3.2890218545
 31
0.0
 11
6.2300286863
 21
3.2892961601
 31
0.0
 11
6.2312541571
 21
3.2895704657
 31
0.0
 11
6.2322659116
 21
3.2898447713
 31
0.0
 11
6.2326914096
 21
3.2899819241
 31
0.0
 11
6.2330631958
 21
3.2901190769
 31
0.0
 11
6.2333811759
 21
3.2902562297
 31
0.0
 11
6.2336452662
 21
3.2903933825
 31
0.0
  0
SPLINE
  5
270
100
AcDbEntity
  8
0
100
AcDbSpline
 62
6
  6
CONTINUOUS
 70
0
 71
3
 72
69
 73
65
 74
63
 42
0.0000001
 43
0.0000001
 44
0.0000000001
 12
0.6421481628
 22
0.3711995054
 32
0.0
 13
-0.0008449277
 23
0.7417159981
 33
0.0
 40
0.0
 40
0.0
 40
0.0
 40
0.0
 40
0.0004012672
 40
0.000868016
 40
0.0014019948
 40
0.0020043471
 40
0.0034169201
 40
0.0051097712
 40
0.0070845527
 40
0.009341298
 40
0.011879437
 40
0.0146980916
 40
0.0211724509
 40
0.0287541017
 40
0.0374264083
 40
0.0471690512
 40
0.0579612971
 40
0.0697794784
 40
0.0825948391
 40
0.0963780016
 40
0.1110987438
 40
0.1267219901
 40
0.1605280421
 40
0.1974850154
 40
0.2372484799
 40
0.2794494243
 40
0.323696211
 40
0.3695765499
 40
0.4166649579
 40
0.4645227113
 40
0.5127054021
 40
0.5607645011
 40
0.6082536552
 40
0.6547305424
 40
0.699763873
 40
0.7429343389
 40
0.7838408556
 40
0.8221040628
 40
0.8573670223
 40
0.8893049035
 40
0.9039318006
 40
0.9176194969
 40
0.9303362771
 40
0.9420512656
 40
0.9527388176
 40
0.9623755392
 40
0.97093837
 40
0.978408268
 40
0.9817290254
 40
0.9847714786
 40
0.9875341209
 40
0.9900155869
 40
0.9922149068
 40
0.9941321968
 40
0.9957683346
 40
0.9971252344
 40
0.9977002043
 40
0.9982071968
 40
0.9986475215
 40
0.9990232419
 40
0.9993377626
 40
0.9995969934
 40
0.9998115874
 40
1.0
 40
1.0
 40
1.0
 40
1.0
 10
5.4940107323
 20
3.309456148
 30
0.0
 10
5.4940966233
 20
3.3095057981
 30
0.0
 10
5.4942880011
 20
3.3096035749
 30
0.0
 10
5.4946070076
 20
3.3097395987
 30
0.0
 10
5.4949793655
 20
3.3098758218
 30
0.0
 10
5.495579677
 20
3.3100679845
 30
0.0
 10
5.4964661684
 20
3.3103034009
 30
0.0
 10
5.4976928564
 20
3.3105742448
 30
0.0
 10
5.499132394
 20
3.3108457875
 30
0.0
 10
5.500783947
 20
3.3111179672
 30
0.0
 10
5.5026465467
 20
3.3113905875
 30
0.0
 10
5.5055467253
 20
3.3117723622
 30
0.0
 10
5.5096926212
 20
3.312241783
 30
0.0
 10
5.5152858412
 20
3.3127842901
 30
0.0
 10
5.5216902926
 20
3.3133280514
 30
0.0
 10
5.5288909359
 20
3.3138729101
 30
0.0
 10
5.5368713056
 20
3.3144184167
 30
0.0
 10
5.5456129446
 20
3.3149643652
 30
0.0
 10
5.5550953469
 20
3.315510757
 30
0.0
 10
5.5652964568
 20
3.3160574718
 30
0.0
 10
5.5761927035
 20
3.3166043711
 30
0.0
 10
5.5920353914
 20
3.3173536895
 30
0.0
 10
5.6133733084
 20
3.3182823368
 30
0.0
 10
5.640678094
 20
3.3193710041
 30
0.0
 10
5.6700599033
 20
3.3204607919
 30
0.0
 10
5.7012451631
 20
3.3215514159
 30
0.0
 10
5.7339436083
 20
3.3226425957
 30
0.0
 10
5.7678510533
 20
3.3237342304
 30
0.0
 10
5.8026517097
 20
3.3248261075
 30
0.0
 10
5.8380218646
 20
3.3259181819
 30
0.0
 10
5.8736321235
 20
3.3270103022
 30
0.0
 10
5.9091512078
 20
3.3281024177
 30
0.0
 10
5.9442483553
 20
3.3291943864
 30
0.0
 10
5.9785970542
 20
3.3302861565
 30
0.0
 10
6.0118774654
 20
3.3313775506
 30
0.0
 10
6.0437799156
 20
3.3324684484
 30
0.0
 10
6.0740075286
 20
3.3335586692
 30
0.0
 10
6.1022787981
 20
3.3346478143
 30
0.0
 10
6.1283309497
 20
3.3357357794
 30
0.0
 10
6.1485406576
 20
3.3366657281
 30
0.0
 10
6.1634184677
 20
3.3374171712
 30
0.0
 10
6.1735482999
 20
3.3379638437
 30
0.0
 10
6.1829570963
 20
3.3385101418
 30
0.0
 10
6.191622816
 20
3.3390561226
 30
0.0
 10
6.1995254187
 20
3.3396015928
 30
0.0
 10
6.2066467215
 20
3.3401462451
 30
0.0
 10
6.2129699735
 20
3.3406900103
 30
0.0
 10
6.2177321154
 20
3.3411584879
 30
0.0
 10
6.2211311286
 20
3.3415379444
 30
0.0
 10
6.2233708505
 20
3.3418110544
 30
0.0
 10
6.2254014227
 20
3.3420838953
 30
0.0
 10
6.2272215291
 20
3.3423563997
 30
0.0
 10
6.2288300916
 20
3.3426285101
 30
0.0
 10
6.230226461
 20
3.3428999584
 30
0.0
 10
6.2314101608
 20
3.3431706136
 30
0.0
 10
6.2322608933
 20
3.3434061076
 30
0.0
 10
6.2328324801
 20
3.3435986217
 30
0.0
 10
6.2331835326
 20
3.3437347711
 30
0.0
 10
6.2334813119
 20
3.3438707286
 30
0.0
 10
6.2337260354
 20
3.3440065807
 30
0.0
 10
6.2339181659
 20
3.3441425849
 30
0.0
 10
6.2340582715
 20
3.3442797551
 30
0.0
 10
6.2341463519
 20
3.3444203771
 30
0.0
 10
6.2341674946
 20
3.344520683
 30
0.0
 10
6.2341674416
 20
3.3445672659
 30
0.0
 11
5.4940107323
 21
3.309456148
 31
0.0
 11
5.4942748736
 21
3.3095933008
 31
0.0
 11
5.4945927419
 21
3.3097304536
 31
0.0
 11
5.4949642972
 21
3.3098676065
 31
0.0
 11
5.4953894991
 21
3.3100047593
 31
0.0
 11
5.4964006825
 21
3.3102790649
 31
0.0
 11
5.4976259689
 21
3.3105533705
 31
0.0
 11
5.4990647825
 21
3.3108276761
 31
0.0
 11
5.5007160188
 21
3.3111019817
 31
0.0
 11
5.5025785069
 21
3.3113762873
 31
0.0
 11
5.504651076
 21
3.3116505929
 31
0.0
 11
5.5094217745
 21
3.3121992041
 31
0.0
 11
5.5150183852
 21
3.3127478153
 31
0.0
 11
5.52142734
 21
3.3132964266
 31
0.0
 11
5.5286327637
 21
3.3138450378
 31
0.0
 11
5.5366187286
 21
3.314393649
 31
0.0
 11
5.5453672839
 21
3.3149422602
 31
0.0
 11
5.5548568032
 21
3.3154908714
 31
0.0
 11
5.5650652711
 21
3.3160394826
 31
0.0
 11
5.5759700969
 21
3.3165880939
 31
0.0
 11
5.5875451224
 21
3.3171367051
 31
0.0
 11
5.6125956104
 21
3.3182339275
 31
0.0
 11
5.639985238
 21
3.3193311499
 31
0.0
 11
5.6694580381
 21
3.3204283724
 31
0.0
 11
5.7007399372
 21
3.3215255948
 31
0.0
 11
5.7335401613
 21
3.3226228172
 31
0.0
 11
5.7675526715
 21
3.3237200397
 31
0.0
 11
5.8024616805
 21
3.3248172621
 31
0.0
 11
5.8379416031
 21
3.3259144845
 31
0.0
 11
5.8736626515
 21
3.327011707
 31
0.0
 11
5.9092919865
 21
3.3281089294
 31
0.0
 11
5.9444983811
 21
3.3292061518
 31
0.0
 11
5.9789535882
 21
3.3303033743
 31
0.0
 11
6.0123375254
 21
3.3314005967
 31
0.0
 11
6.0443389669
 21
3.3324978191
 31
0.0
 11
6.0746601585
 21
3.3335950416
 31
0.0
 11
6.1030193919
 21
3.334692264
 31
0.0
 11
6.1291514854
 21
3.3357894864
 31
0.0
 11
6.1528149139
 21
3.3368867088
 31
0.0
 11
6.1636500447
 21
3.3374353201
 31
0.0
 11
6.1737876009
 21
3.3379839313
 31
0.0
 11
6.1832038782
 21
3.3385325425
 31
0.0
 11
6.1918757421
 21
3.3390811537
 31
0.0
 11
6.199783869
 21
3.3396297649
 31
0.0
 11
6.2069104992
 21
3.3401783761
 31
0.0
 11
6.2132379532
 21
3.3407269874
 31
0.0
 11
6.2187512718
 21
3.3412755986
 31
0.0
 11
6.2211990102
 21
3.3415499042
 31
0.0
 11
6.2234389142
 21
3.3418242098
 31
0.0
 11
6.2254695683
 21
3.3420985154
 31
0.0
 11
6.2272895572
 21
3.342372821
 31
0.0
 11
6.2288976008
 21
3.3426471266
 31
0.0
 11
6.2302929803
 21
3.3429214322
 31
0.0
 11
6.2314751228
 21
3.3431957378
 31
0.0
 11
6.2324434552
 21
3.3434700434
 31
0.0
 11
6.2328472636
 21
3.3436071962
 31
0.0
 11
6.2331974046
 21
3.343744349
 31
0.0
 11
6.2334938065
 21
3.3438815019
 31
0.0
 11
6.2337363978
 21
3.3440186547
 31
0.0
 11
6.2339251068
 21
3.3441558075
 31
0.0
 11
6.2340598624
 21
3.3442929603
 31
0.0
 11
6.2341406308
 21
3.3444301131
 31
0.0
 11
6.2341674416
 21
3.3445672659
 31
0.0
  0
SPLINE
  5
271
100
AcDbEntity
  8
0
100
AcDbSpline
 62
6
  6
CONTINUOUS
 70
0
 71
3
 72
36
 73
32
 74
30
 42
0.0000001
 43
0.0000001
 44
0.0000000001
 12
-0.3541876111
 22
-0.2047451364
 32
0.0
 13
-0.4089501496
 23
-0.011367052
 33
0.0
 40
0.0
 40
0.0
 40
0.0
 40
0.0
 40
0.0007224834
 40
0.0015728741
 40
0.0025547197
 40
0.0036702863
 40
0.0063079372
 40
0.0094934391
 40
0.0132291203
 40
0.017514968
 40
0.0223500226
 40
0.02773277
 40
0.040133535
 40
0.0546973392
 40
0.0713911131
 40
0.0901781548
 40
0.1110204934
 40
0.1338710518
 40
0.1586764562
 40
0.185383002
 40
0.2139322826
 40
0.2442572089
 40
0.3099600618
 40
0.3819002822
 40
0.4594286727
 40
0.5418442561
 40
0.6284053197
 40
0.7183179134
 40
0.8107811731
 40
0.9049874362
 40
1.0
 40
1.0
 40
1.0
 40
1.0
 10
6.2723537885
 20
3.312770732
 30
0.0
 10
6.2722684902
 20
3.3127214236
 30
0.0
 10
6.2720767117
 20
3.312624587
 30
0.0
 10
6.271754913
 20
3.3124906341
 30
0.0
 10
6.2713758117
 20
3.3123564374
 30
0.0
 10
6.2707585112
 20
3.3121665257
 30
0.0
 10
6.2698406689
 20
3.311934326
 30
0.0
 10
6.2685645206
 20
3.3116675527
 30
0.0
 10
6.2670596423
 20
3.3113999684
 30
0.0
 10
6.2653269406
 20
3.3111316953
 30
0.0
 10
6.2633673488
 20
3.3108629543
 30
0.0
 10
6.2603058913
 20
3.3104861803
 30
0.0
 10
6.2559187668
 20
3.3100232221
 30
0.0
 10
6.2499890318
 20
3.3094884826
 30
0.0
 10
6.2431854496
 20
3.3089523868
 30
0.0
 10
6.2355234345
 20
3.3084151936
 30
0.0
 10
6.2270200209
 20
3.3078773936
 30
0.0
 10
6.2176944373
 20
3.3073390804
 30
0.0
 10
6.2075679625
 20
3.30680032
 30
0.0
 10
6.196663357
 20
3.3062612728
 30
0.0
 10
6.1850052122
 20
3.3057220256
 30
0.0
 10
6.168032791
 20
3.3049828158
 30
0.0
 10
6.1451453521
 20
3.3040668629
 30
0.0
 10
6.1158221623
 20
3.3029933407
 30
0.0
 10
6.0842184967
 20
3.3019187708
 30
0.0
 10
6.0506199533
 20
3.3008432925
 30
0.0
 10
6.0153317821
 20
3.2997673055
 30
0.0
 10
5.9786728211
 20
3.2986908494
 30
0.0
 10
5.9409708654
 20
3.2976140255
 30
0.0
 10
5.9025731568
 20
3.2965370808
 30
0.0
 10
5.8767794675
 20
3.2958201305
 30
0.0
 10
5.8638276667
 20
3.2954601263
 30
0.0
 11
6.2723537885
 21
3.312770732
 31
0.0
 11
6.2720909687
 21
3.3126354928
 31
0.0
 11
6.2717704285
 21
3.3125002537
 31
0.0
 11
6.2713921984
 21
3.3123650146
 31
0.0
 11
6.2709563088
 21
3.3122297755
 31
0.0
 11
6.2699116727
 21
3.3119592973
 31
0.0
 11
6.2686368355
 21
3.3116888191
 31
0.0
 11
6.2671326631
 21
3.3114183408
 31
0.0
 11
6.2654002759
 21
3.3111478626
 31
0.0
 11
6.2634407957
 21
3.3108773844
 31
0.0
 11
6.2612553441
 21
3.3106069062
 31
0.0
 11
6.2562110141
 21
3.3100659498
 31
0.0
 11
6.250277452
 21
3.3095249934
 31
0.0
 11
6.2434693517
 21
3.3089840369
 31
0.0
 11
6.2358024815
 21
3.3084430805
 31
0.0
 11
6.227292889
 21
3.307902124
 31
0.0
 11
6.2179602053
 21
3.3073611675
 31
0.0
 11
6.207826542
 21
3.3068202111
 31
0.0
 11
6.1969140778
 21
3.3062792548
 31
0.0
 11
6.1852468701
 21
3.3057382987
 31
0.0
 11
6.1728524967
 21
3.3051973424
 31
0.0
 11
6.1459947102
 21
3.3041154282
 31
0.0
 11
6.1165832762
 21
3.3030335152
 31
0.0
 11
6.0848842415
 21
3.3019516091
 31
0.0
 11
6.0511847221
 21
3.3008696891
 31
0.0
 11
6.0157884217
 21
3.2997877538
 31
0.0
 11
5.9790203641
 21
3.2987059042
 31
0.0
 11
5.9412083703
 21
3.2976240204
 31
0.0
 11
5.9026830235
 21
3.2965417705
 31
0.0
 11
5.8638276667
 21
3.2954601263
 31
0.0
  0
SPLINE
  5
272
100
AcDbEntity
  8
0
100
AcDbSpline
 62
6
  6
CONTINUOUS
 70
0
 71
3
 72
69
 73
65
 74
63
 42
0.0000001
 43
0.0000001
 44
0.0000000001
 12
0.6421910288
 22
0.3711255167
 32
0.0
 13
-0.0005779226
 23
0.7417163424
 33
0.0
 40
0.0
 40
0.0
 40
0.0
 40
0.0
 40
0.000401348
 40
0.0008681839
 40
0.0014022437
 40
0.0020046585
 40
0.0034172504
 40
0.0051098978
 40
0.0070844408
 40
0.0093411752
 40
0.0118794462
 40
0.0146982814
 40
0.0211727667
 40
0.0287539846
 40
0.0374264439
 40
0.0471693709
 40
0.0579613356
 40
0.0697794014
 40
0.0825950524
 40
0.0963782452
 40
0.1110986467
 40
0.1267220664
 40
0.160528035
 40
0.1974852079
 40
0.237248429
 40
0.2794496138
 40
0.323696223
 40
0.3695766316
 40
0.4166650107
 40
0.4645227508
 40
0.5127054364
 40
0.5607645403
 40
0.6082536769
 40
0.6547305299
 40
0.6997639825
 40
0.7429342328
 40
0.7838409859
 40
0.8221039263
 40
0.8573670479
 40
0.8893049623
 40
0.9039319433
 40
0.9176193508
 40
0.9303361202
 40
0.942051472
 40
0.9527387961
 40
0.9623752887
 40
0.9709385041
 40
0.9784083928
 40
0.9817289767
 40
0.98477127
 40
0.9875338602
 40
0.9900154755
 40
0.9922150713
 40
0.9941324141
 40
0.9957684408
 40
0.9971251638
 40
0.9977000509
 40
0.99820698
 40
0.9986472716
 40
0.9990229983
 40
0.9993375703
 40
0.9995968929
 40
0.9998115682
 40
1.0
 40
1.0
 40
1.0
 40
1.0
 10
5.4940106434
 20
3.2380261485
 30
0.0
 10
5.4940965575
 20
3.2380757987
 30
0.0
 10
5.4942879825
 20
3.2381735742
 30
0.0
 10
5.4946070563
 20
3.2383095968
 30
0.0
 10
5.4949794752
 20
3.2384458189
 30
0.0
 10
5.495579831
 20
3.2386379746
 30
0.0
 10
5.4964662929
 20
3.2388733819
 30
0.0
 10
5.497692869
 20
3.239144247
 30
0.0
 10
5.49913229
 20
3.2394158059
 30
0.0
 10
5.500783816
 20
3.239687974
 30
0.0
 10
5.5026464919
 20
3.2399605896
 30
0.0
 10
5.5055467819
 20
3.2403423515
 30
0.0
 10
5.509692648
 20
3.2408117587
 30
0.0
 10
5.5152858253
 20
3.2413543189
 30
0.0
 10
5.5216902811
 20
3.2418980519
 30
0.0
 10
5.5288909651
 20
3.2424428924
 30
0.0
 10
5.5368713061
 20
3.2429884241
 30
0.0
 10
5.5456129197
 20
3.2435343754
 30
0.0
 10
5.5550953748
 20
3.2440807504
 30
0.0
 10
5.565296481
 20
3.2446274636
 30
0.0
 10
5.576192694
 20
3.2451743841
 30
0.0
 10
5.592035323
 20
3.245923678
 30
0.0
 10
5.6133733132
 20
3.246852347
 30
0.0
 10
5.6406780714
 20
3.2479409935
 30
0.0
 10
5.670059932
 20
3.2490308027
 30
0.0
 10
5.7012451516
 20
3.2501214073
 30
0.0
 10
5.733943633
 20
3.2512126012
 30
0.0
 10
5.7678510485
 20
3.2523042282
 30
0.0
 10
5.8026517157
 20
3.2533961083
 30
0.0
 10
5.8380218631
 20
3.254488182
 30
0.0
 10
5.8736321229
 20
3.2555803024
 30
0.0
 10
5.909151207
 20
3.2566724176
 30
0.0
 10
5.9442483471
 20
3.2577643855
 30
0.0
 10
5.9785970674
 20
3.25885616
 30
0.0
 10
6.0118774513
 20
3.2599475435
 30
0.0
 10
6.04377994
 20
3.261038458
 30
0.0
 10
6.0740074965
 20
3.2621286579
 30
0.0
 10
6.1022788012
 20
3.2632178241
 30
0.0
 10
6.1283309388
 20
3.2643057738
 30
0.0
 10
6.1485407176
 20
3.2652357337
 30
0.0
 10
6.1634184879
 20
3.2659871615
 30
0.0
 10
6.173548267
 20
3.266533849
 30
0.0
 10
6.1829570799
 20
3.2670801538
 30
0.0
 10
6.1916228334
 20
3.2676261051
 30
0.0
 10
6.199525413
 20
3.2681715892
 30
0.0
 10
6.2066466965
 20
3.2687162695
 30
0.0
 10
6.2129699887
 20
3.2692599958
 30
0.0
 10
6.2177321814
 20
3.2697284751
 30
0.0
 10
6.2211311084
 20
3.2701079439
 30
0.0
 10
6.223370734
 20
3.2703810583
 30
0.0
 10
6.22540129
 20
3.2706539054
 30
0.0
 10
6.2272214894
 20
3.2709264115
 30
0.0
 10
6.2288301765
 20
3.2711984947
 30
0.0
 10
6.2302266009
 20
3.2714699451
 30
0.0
 10
6.2314102406
 20
3.2717406042
 30
0.0
 10
6.2322608765
 20
3.2719761053
 30
0.0
 10
6.2328323781
 20
3.2721686225
 30
0.0
 10
6.2331833822
 20
3.2723047739
 30
0.0
 10
6.2334811356
 20
3.2724407343
 30
0.0
 10
6.2337258635
 20
3.2725765896
 30
0.0
 10
6.2339180355
 20
3.2727125983
 30
0.0
 10
6.2340582197
 20
3.2728497596
 30
0.0
 10
6.2341464296
 20
3.2729903546
 30
0.0
 10
6.2341676362
 20
3.2730906778
 30
0.0
 10
6.2341675999
 20
3.2731372655
 30
0.0
 11
5.4940106434
 21
3.2380261485
 31
0.0
 11
5.4942748523
 21
3.2381633013
 31
0.0
 11
5.4945927911
 21
3.2383004541
 31
0.0
 11
5.4949644105
 21
3.2384376069
 31
0.0
 11
5.4953896611
 21
3.2385747597
 31
0.0
 11
5.4964008592
 21
3.2388490653
 31
0.0
 11
5.4976259909
 21
3.2391233709
 31
0.0
 11
5.4990646246
 21
3.2393976765
 31
0.0
 11
5.5007158528
 21
3.2396719821
 31
0.0
 11
5.5025784401
 21
3.2399462877
 31
0.0
 11
5.5046511447
 21
3.2402205933
 31
0.0
 11
5.5094219378
 21
3.2407692045
 31
0.0
 11
5.5150182265
 21
3.2413178157
 31
0.0
 11
5.5214272958
 21
3.2418664269
 31
0.0
 11
5.5286329317
 21
3.2424150381
 31
0.0
 11
5.5366186885
 21
3.2429636493
 31
0.0
 11
5.545367159
 21
3.2435122605
 31
0.0
 11
5.554856895
 21
3.2440608717
 31
0.0
 11
5.5650653867
 21
3.2446094829
 31
0.0
 11
5.5759699607
 21
3.2451580942
 31
0.0
 11
5.5875451164
 21
3.2457067054
 31
0.0
 11
5.6125955454
 21
3.2468039278
 31
0.0
 11
5.6399853246
 21
3.2479011502
 31
0.0
 11
5.6694579475
 21
3.2489983726
 31
0.0
 11
5.7007400288
 21
3.250095595
 31
0.0
 11
5.733540125
 21
3.2511928174
 31
0.0
 11
5.7675526909
 21
3.2522900398
 31
0.0
 11
5.8024616827
 21
3.2533872622
 31
0.0
 11
5.8379415996
 21
3.2544844846
 31
0.0
 11
5.8736626484
 21
3.255581707
 31
0.0
 11
5.9092919912
 21
3.2566789294
 31
0.0
 11
5.9444983771
 21
3.2577761518
 31
0.0
 11
5.9789535629
 21
3.2588733742
 31
0.0
 11
6.0123375946
 21
3.2599705966
 31
0.0
 11
6.0443388799
 21
3.261067819
 31
0.0
 11
6.0746602506
 21
3.2621650414
 31
0.0
 11
6.1030192894
 21
3.2632622638
 31
0.0
 11
6.1291515063
 21
3.2643594862
 31
0.0
 11
6.1528149623
 21
3.2654567086
 31
0.0
 11
6.1636501565
 21
3.2660053198
 31
0.0
 11
6.1737874995
 21
3.266553931
 31
0.0
 11
6.18320377
 21
3.2671025422
 31
0.0
 11
6.1918759049
 21
3.2676511534
 31
0.0
 11
6.1997838633
 21
3.2681997646
 31
0.0
 11
6.206910324
 21
3.2687483758
 31
0.0
 11
6.2132380651
 21
3.269296987
 31
0.0
 11
6.2187513773
 21
3.2698455982
 31
0.0
 11
6.2211989866
 21
3.2701199038
 31
0.0
 11
6.2234387714
 21
3.2703942094
 31
0.0
 11
6.2254693868
 21
3.270668515
 31
0.0
 11
6.2272894879
 21
3.2709428206
 31
0.0
 11
6.2288977392
 21
3.2712171263
 31
0.0
 11
6.2302931588
 21
3.2714914319
 31
0.0
 11
6.2314752169
 21
3.2717657375
 31
0.0
 11
6.2324434131
 21
3.2720400431
 31
0.0
 11
6.2328471567
 21
3.2721771959
 31
0.0
 11
6.2331972472
 21
3.2723143487
 31
0.0
 11
6.2334936221
 21
3.2724515015
 31
0.0
 11
6.2337362189
 21
3.2725886543
 31
0.0
 11
6.233924975
 21
3.2727258071
 31
0.0
 11
6.2340598278
 21
3.2728629599
 31
0.0
 11
6.2341407149
 21
3.2730001127
 31
0.0
 11
6.2341675999
 21
3.2731372655
 31
0.0
  0
ENDSEC
  0
SECTION
  2
OBJECTS
  0
DICTIONARY
  5
C
100
AcDbDictionary
280
0
281
1
  3
ACAD_GROUP
350
D
  3
ACAD_MLINESTYLE
350
17
  3
ACAD_LAYOUT
350
1A
  3
ACAD_PLOTSETTINGS
350
19
  3
ACAD_PLOTSTYLENAME
350
E
  0
DICTIONARY
  5
D
102
{ACAD_REACTORS
330
C
102
}
100
AcDbDictionary
280
0
281
1
  0
ACDBDICTIONARYWDFLT
  5
E
102
{ACAD_REACTORS
330
C
102
}
100
AcDbDictionary
281
1
  3
Normal
350
F
100
AcDbDictionaryWithDefault
340
F
  0
DICTIONARY
  5
17
102
{ACAD_REACTORS
330
C
102
}
100
AcDbDictionary
280
0
281
1
  3
Standard
350
18
  0
DICTIONARY
  5
19
102
{ACAD_REACTORS
330
C
102
}
100
AcDbDictionary
281
1
  0
DICTIONARY
  5
1A
102
{ACAD_REACTORS
330
C
102
}
100
AcDbDictionary
281
1
  3
Model
350
273
  3
Layout1
350
274
  0
ACDBPLACEHOLDER
  5
F
102
{ACAD_REACTORS
330
E
102
}
  0
MLINESTYLE
  5
18
102
{ACAD_REACTORS
330
17
102
}
100
AcDbMlineStyle
  2
STANDARD
 70
0
  3

 62
256
 51
90.0
 52
90.0
 71
2
 49
0.5
 62
256
  6
BYLAYER
 49
-0.5
 62
256
  6
BYLAYER
  0
LAYOUT
  5
273
102
{ACAD_REACTORS
330
1A
102
}
100
AcDbPlotSettings
  1

  2
none_device
  4
ISO_A4_(297.00_x_210.00_MM)
  6

 40
0.0
 41
0.0
 42
0.0
 43
0.0
 44
297.0
 45
210.0
 46
0.0
 47
0.0
 48
0.0
 49
0.0
140
0.0
141
0.0
142
1.0
143
1.0
 70
1024
 72
0
 73
0
 74
0
  7

 75
0
147
1.0
148
0.0
149
0.0
100
AcDbLayout
  1
Model
 70
0
 71
0
 10
0.0
 20
0.0
 11
11.6929133858
 21
8.2677165354
 12
0.0
 22
0.0
 32
0.0
 14
0.0
 24
0.0
 34
0.0
 15
0.0
 25
0.0
 35
0.0
146
0.0
 13
0.0
 23
0.0
 33
0.0
 16
1.0
 26
0.0
 36
0.0
 17
0.0
 27
1.0
 37
0.0
 76
0
330
203
345
0
346
0
  0
LAYOUT
  5
274
102
{ACAD_REACTORS
330
1A
102
}
100
AcDbPlotSettings
  1

  2
none_device
  4
ISO_A4_(297.00_x_210.00_MM)
  6

 40
0.0
 41
0.0
 42
0.0
 43
0.0
 44
297.0
 45
210.0
 46
0.0
 47
0.0
 48
0.0
 49
0.0
140
0.0
141
0.0
142
1.0
143
1.0
 70
0
 72
0
 73
0
 74
0
  7

 75
0
147
1.0
148
0.0
149
0.0
100
AcDbLayout
  1
Layout1
 70
0
 71
1
 10
0.0
 20
0.0
 11
11.6929133858
 21
8.2677165354
 12
0.0
 22
0.0
 32
0.0
 14
0.0
 24
0.0
 34
0.0
 15
0.0
 25
0.0
 35
0.0
146
0.0
 13
0.0
 23
0.0
 33
0.0
 16
1.0
 26
0.0
 36
0.0
 17
0.0
 27
1.0
 37
0.0
 76
0
330
204
345
0
346
0
  0
ENDSEC
  0
EOF
