  0
SECTION
  2
HEADER
  9
$ACADVER
  1
AC1015
  9
$DWGCODEPAGE
  3
ANSI_1252
  9
$EXTMAX
 10
11.0
 20
8.5
 30
0.0
  9
$EXTMIN
 10
0.0
 20
0.0
 30
0.0
  9
$LIMMIN
 10
0.0
 20
0.0
  9
$LIMMAX
 10
11.0
 20
8.5
  9
$VIEWCTR
 10
5.5
 20
4.25
  9
$VIEWSIZE
 40
8.5
  9
$CLAYER
  8
0
  9
$LTSCALE
 40
0.605
  9
$CELTYPE
  6
BYLAYER
  9
$DIMSCALE
 40
1.0
  9
$DIMASZ
 40
0.1
  9
$DIMEXO
 40
0.06875
  9
$DIMDLI
 40
0.418
  9
$DIMEXE
 40
0.198
  9
$DIMCEN
 40
0.099
  9
$DIMLFAC
 40
1.0
  9
$DIMBLK
  1
_FILLED
  9
$DIMTXT
 40
0.08
  9
$DIMTOL
 70
1
  9
$DIMLIM
 70
0
  9
$DIMTFAC
 40
1.0
  9
$DIMTP
 40
0.01
  9
$DIMTM
 40
0.01
  9
$PDMODE
 70
3
  9
$PDSIZE
 40
0.06
  9
$HANDSEED
  5
281
  9
$TILEMODE
 70
1
  9
$MEASUREMENT
 70
0
  9
$INSUNITS
 70
1
  0
ENDSEC
  0
SECTION
  2
CLASSES
  0
CLASS
  1
ACDBDICTIONARYWDFLT
  2
AcDbDictionaryWithDefault
  3
AutoCAD 2000
 90
0
280
0
281
0
  0
CLASS
  1
ACDBPLACEHOLDER
  2
AcDbPlaceHolder
  3
AutoCAD 2000
 90
0
280
0
281
0
  0
CLASS
  1
LAYOUT
  2
AcDbLayout
  3
AutoCAD 2000
 90
0
280
0
281
0
  0
ENDSEC
  0
SECTION
  2
TABLES
  0
TABLE
  2
VPORT
  5
8
100
AcDbSymbolTable
 70
2
  0
VPORT
  5
1F4
100
AcDbSymbolTableRecord
100
AcDbViewportTableRecord
  2
*ACTIVE
 70
0
 10
0.0
 20
0.0
 11
1.0
 21
1.0
 12
5.5
 22
4.25
 13
0.0
 23
0.0
 14
1.0
 24
1.0
 15
0.0
 25
0.0
 16
0.0
 26
0.0
 36
1.0
 17
0.0
 27
0.0
 37
0.0
 40
8.5
 41
1.2941176471
 42
50.0
 43
0.0
 44
0.0
 50
0.0
 51
0.0
 71
0
 72
100
 73
1
 74
1
 75
0
 76
0
 77
0
 78
0
  0
ENDTAB
  0
TABLE
  2
LTYPE
  5
5
100
AcDbSymbolTable
 70
6
  0
LTYPE
  5
14
100
AcDbSymbolTableRecord
100
AcDbLinetypeTableRecord
  2
BYBLOCK
 70
0
  3

 72
65
 73
0
 40
0.0
  0
LTYPE
  5
15
100
AcDbSymbolTableRecord
100
AcDbLinetypeTableRecord
  2
BYLAYER
 70
0
  3

 72
65
 73
0
 40
0.0
  0
LTYPE
  5
16
100
AcDbSymbolTableRecord
100
AcDbLinetypeTableRecord
  2
CONTINUOUS
 70
64
  3
Solid line
 72
65
 73
0
 40
0.0
  0
LTYPE
  5
1F5
100
AcDbSymbolTableRecord
100
AcDbLinetypeTableRecord
  2
CENTER
 70
64
  3
____ _ ____ _ ____ _ ____ _ ____ _ ____ _ ____
 72
65
 73
4
 40
0.6
 49
0.375
 74
0
 49
-0.075
 74
0
 49
0.075
 74
0
 49
-0.075
 74
0
  0
LTYPE
  5
1F6
100
AcDbSymbolTableRecord
100
AcDbLinetypeTableRecord
  2
HIDDEN
 70
64
  3
- - - - - - - - - - - - - - - - - - - -
 72
65
 73
2
 40
0.2
 49
0.1
 74
0
 49
-0.1
 74
0
  0
LTYPE
  5
1F7
100
AcDbSymbolTableRecord
100
AcDbLinetypeTableRecord
  2
PHANTOM
 70
64
  3
_____ _ _ _____ _ _ _____ _ _ _____
 72
65
 73
6
 40
0.8
 49
0.45
 74
0
 49
-0.05
 74
0
 49
0.1
 74
0
 49
-0.05
 74
0
 49
0.1
 74
0
 49
-0.05
 74
0
  0
LTYPE
  5
1F8
100
AcDbSymbolTableRecord
100
AcDbLinetypeTableRecord
  2
DOT
 70
64
  3
. . . . . . . . . . . . . . . . . . . .
 72
65
 73
2
 40
0.2
 49
0.1
 74
0
 49
-0.1
 74
0
  0
LTYPE
  5
1F9
100
AcDbSymbolTableRecord
100
AcDbLinetypeTableRecord
  2
DASHED
 70
64
  3
- - - - - - - - - - - - - - - - - - - -
 72
65
 73
2
 40
0.2
 49
0.1
 74
0
 49
-0.1
 74
0
  0
ENDTAB
  0
TABLE
  2
LAYER
  5
2
100
AcDbSymbolTable
 70
36
  0
LAYER
  5
10
100
AcDbSymbolTableRecord
100
AcDbLayerTableRecord
  2
0
 70
0
 62
7
  6
CONTINUOUS
370
-3
390
F
  0
LAYER
  5
1FA
100
AcDbSymbolTableRecord
100
AcDbLayerTableRecord
  2
DEFAULT_1
 70
0
 62
7
  6
CENTER
370
-3
390
F
  0
LAYER
  5
1FB
100
AcDbSymbolTableRecord
100
AcDbLayerTableRecord
  2
DEFAULT_2
 70
0
 62
8
  6
HIDDEN
370
-3
390
F
  0
LAYER
  5
1FC
100
AcDbSymbolTableRecord
100
AcDbLayerTableRecord
  2
DEFAULT_3
 70
0
 62
7
  6
PHANTOM
370
-3
390
F
  0
LAYER
  5
1FD
100
AcDbSymbolTableRecord
100
AcDbLayerTableRecord
  2
DEFAULT_COORDINATE_SYSTEM
 70
0
 62
7
  6
CONTINUOUS
370
-3
390
F
  0
LAYER
  5
1FE
100
AcDbSymbolTableRecord
100
AcDbLayerTableRecord
  2
DEFAULT_DATUM_AXES
 70
0
 62
7
  6
CONTINUOUS
370
-3
390
F
  0
LAYER
  5
1FF
100
AcDbSymbolTableRecord
100
AcDbLayerTableRecord
  2
DEFAULT_DATUM_CURVES
 70
0
 62
7
  6
CONTINUOUS
370
-3
390
F
  0
LAYER
  5
200
100
AcDbSymbolTableRecord
100
AcDbLayerTableRecord
  2
DEFAULT_DATUM_PLANES
 70
0
 62
7
  6
CONTINUOUS
370
-3
390
F
  0
ENDTAB
  0
TABLE
  2
STYLE
  5
3
100
AcDbSymbolTable
 70
1
  0
STYLE
  5
11
100
AcDbSymbolTableRecord
100
AcDbTextStyleTableRecord
  2
STANDARD
 70
0
 40
0.0
 41
0.8
 50
0.0
 71
0
 42
0.2
  3
txt
  4

  0
STYLE
  5
201
100
AcDbSymbolTableRecord
100
AcDbTextStyleTableRecord
  2
TEXTSTYLE_1
 70
0
 40
0.0
 41
0.8
 50
0.0
 71
0
 42
0.2
  3
gdt
  4

  0
ENDTAB
  0
TABLE
  2
VIEW
  5
6
100
AcDbSymbolTable
 70
0
  0
ENDTAB
  0
TABLE
  2
UCS
  5
7
100
AcDbSymbolTable
 70
0
  0
ENDTAB
  0
TABLE
  2
APPID
  5
9
100
AcDbSymbolTable
 70
1
  0
APPID
  5
202
100
AcDbSymbolTableRecord
100
AcDbRegAppTableRecord
  2
ACAD
 70
0
  0
ENDTAB
  0
TABLE
  2
BLOCK_RECORD
  5
1
100
AcDbSymbolTable
 70
0
  0
BLOCK_RECORD
  5
203
100
AcDbSymbolTableRecord
100
AcDbBlockTableRecord
  2
*Model_Space
  0
BLOCK_RECORD
  5
204
100
AcDbSymbolTableRecord
100
AcDbBlockTableRecord
  2
*Paper_Space
  0
ENDTAB
  0
TABLE
  2
DIMSTYLE
  5
A
100
AcDbSymbolTable
 70
1
100
AcDbDimStyleTable
 71
0
  0
DIMSTYLE
105
205
100
AcDbSymbolTableRecord
100
AcDbDimStyleTableRecord
  2
STANDARD
 70
0
  3

  4

 40
1.0
 41
0.1
 42
0.0625
 43
0.38
 44
0.18
 45
0.0
 46
0.0
 47
0.01
 48
0.01
140
0.08
141
0.09
142
0.0
143
25.4
144
1.0
145
0.0
146
1.0
147
0.09
 71
1.0
 72
0.0
 73
1
 74
1
 75
0
 76
0
 77
0
 78
4
170
0
171
2
172
0
173
0
174
0
175
0
176
0
177
0
178
0
270
2
271
2
272
2
273
2
274
2
275
0
280
0
281
0
282
0
283
1
284
4
285
0
286
0
287
3
288
0
340
11
  0
ENDTAB
  0
ENDSEC
  0
SECTION
  2
BLOCKS
  0
BLOCK
  5
20
100
AcDbEntity
  8
0
100
AcDbBlockBegin
  2
*Model_Space
 70
0
 10
0.0
 20
0.0
 30
0.0
  3
*Model_Space
  1

  0
ENDBLK
  5
21
100
AcDbEntity
  8
0
100
AcDbBlockEnd
  0
BLOCK
  5
1C
100
AcDbEntity
  8
0
100
AcDbBlockBegin
  2
*Paper_Space
 70
0
 10
0.0
 20
0.0
 30
0.0
  3
*Paper_Space
  1

  0
ENDBLK
  5
1D
100
AcDbEntity
  8
0
100
AcDbBlockEnd
  0
ENDSEC
  0
SECTION
  2
ENTITIES
  0
LINE
  5
206
100
AcDbEntity
  8
0
100
AcDbLine
 62
6
  6
CONTINUOUS
 10
5.1520549646
 20
3.112457094
 11
5.1568511621
 21
3.109859014
  0
LINE
  5
207
100
AcDbEntity
  8
0
100
AcDbLine
 62
6
  6
CONTINUOUS
 10
5.1444218351
 20
3.1869233822
 11
5.1473088344
 21
3.1853595523
  0
LINE
  5
208
100
AcDbEntity
  8
0
100
AcDbLine
 62
6
  6
CONTINUOUS
 10
5.1444218351
 20
3.2572550221
 11
5.1473088344
 21
3.2556911922
  0
LINE
  5
209
100
AcDbEntity
  8
0
100
AcDbLine
 62
6
  6
CONTINUOUS
 10
5.1277306291
 20
3.12945864
 11
5.124679807
 21
3.1324148943
  0
LINE
  5
20A
100
AcDbEntity
  8
0
100
AcDbLine
 62
6
  6
CONTINUOUS
 10
5.1449732468
 20
3.3272879851
 11
5.1473088431
 21
3.3260228368
  0
LINE
  5
20B
100
AcDbEntity
  8
0
100
AcDbLine
 62
6
  6
CONTINUOUS
 10
5.1277293356
 20
3.1294598934
 11
5.1190054752
 21
3.1405849053
  0
LINE
  5
20C
100
AcDbEntity
  8
0
100
AcDbLine
 62
6
  6
CONTINUOUS
 10
5.124679807
 20
3.1324148943
 11
5.1190054752
 21
3.1405849053
  0
LINE
  5
20D
100
AcDbEntity
  8
0
100
AcDbLine
 62
6
  6
CONTINUOUS
 10
5.9044931492
 20
3.1446075212
 11
5.8852000045
 21
3.1550598871
  0
LINE
  5
20E
100
AcDbEntity
  8
0
100
AcDbLine
 62
6
  6
CONTINUOUS
 10
5.9220343858
 20
3.2054372447
 11
5.8852000037
 21
3.2253915274
  0
LINE
  5
20F
100
AcDbEntity
  8
0
100
AcDbLine
 62
6
  6
CONTINUOUS
 10
5.9220343858
 20
3.2757688846
 11
5.8852000037
 21
3.2957231673
  0
LINE
  5
210
100
AcDbEntity
  8
0
100
AcDbLine
 62
6
  6
CONTINUOUS
 10
5.9220343858
 20
3.3461005245
 11
5.8852000037
 21
3.3660548072
  0
LINE
  5
211
100
AcDbEntity
  8
0
100
AcDbLine
 62
6
  6
CONTINUOUS
 10
5.1181911621
 20
3.1457972629
 11
5.1190054752
 21
3.1405849053
  0
LINE
  5
212
100
AcDbEntity
  8
0
100
AcDbLine
 62
6
  6
CONTINUOUS
 10
5.1181911621
 20
3.1457977457
 11
5.1181911621
 21
3.1545897198
  0
LINE
  5
213
100
AcDbEntity
  8
0
100
AcDbLine
 62
6
  6
CONTINUOUS
 10
5.1181911621
 20
3.2161293856
 11
5.1181911621
 21
3.2249213597
  0
LINE
  5
214
100
AcDbEntity
  8
0
100
AcDbLine
 62
6
  6
CONTINUOUS
 10
5.1181911621
 20
3.2864610255
 11
5.1181911621
 21
3.2952529996
  0
LINE
  5
215
100
AcDbEntity
  8
0
100
AcDbLine
 62
6
  6
CONTINUOUS
 10
5.1568511621
 20
3.3348155183
 11
5.1568511621
 21
3.3311917354
  0
LINE
  5
216
100
AcDbEntity
  8
0
100
AcDbLine
 62
6
  6
CONTINUOUS
 10
5.1568511621
 20
3.2644838784
 11
5.1568511621
 21
3.2608600955
  0
LINE
  5
217
100
AcDbEntity
  8
0
100
AcDbLine
 62
6
  6
CONTINUOUS
 10
5.1568511621
 20
3.1941522385
 11
5.1568511621
 21
3.1905284556
  0
LINE
  5
218
100
AcDbEntity
  8
0
100
AcDbLine
 62
6
  6
CONTINUOUS
 10
5.1568511621
 20
3.1238205986
 11
5.1568511621
 21
3.1070257431
  0
LINE
  5
219
100
AcDbEntity
  8
0
100
AcDbLine
 62
6
  6
CONTINUOUS
 10
5.2021911621
 20
3.5957951563
 11
5.2021911621
 21
3.4396472498
  0
LINE
  5
21A
100
AcDbEntity
  8
0
100
AcDbLine
 62
6
  6
CONTINUOUS
 10
5.9055601907
 20
3.3879325247
 11
5.8509716898
 21
3.4408289215
  0
LINE
  5
21B
100
AcDbEntity
  8
0
100
AcDbLine
 62
6
  6
CONTINUOUS
 10
5.8521911621
 20
3.5957950203
 11
5.8521911621
 21
3.4396472498
  0
LINE
  5
21C
100
AcDbEntity
  8
0
100
AcDbLine
 62
6
  6
CONTINUOUS
 10
5.8975311621
 20
3.1483791601
 11
5.8975311621
 21
3.1589864185
  0
LINE
  5
21D
100
AcDbEntity
  8
0
100
AcDbLine
 62
6
  6
CONTINUOUS
 10
5.8975311621
 20
3.2187107673
 11
5.8975311621
 21
3.2293180584
  0
LINE
  5
21E
100
AcDbEntity
  8
0
100
AcDbLine
 62
6
  6
CONTINUOUS
 10
5.8975311621
 20
3.2890424072
 11
5.8975311621
 21
3.2996496983
  0
LINE
  5
21F
100
AcDbEntity
  8
0
100
AcDbLine
 62
6
  6
CONTINUOUS
 10
5.8975311621
 20
3.3593740471
 11
5.8975311621
 21
3.3699813382
  0
LINE
  5
220
100
AcDbEntity
  8
0
100
AcDbLine
 62
6
  6
CONTINUOUS
 10
5.9361911621
 20
3.3304188195
 11
5.9361911621
 21
3.3216268455
  0
LINE
  5
221
100
AcDbEntity
  8
0
100
AcDbLine
 62
6
  6
CONTINUOUS
 10
5.9361911621
 20
3.2600871796
 11
5.9361911621
 21
3.2512952056
  0
LINE
  5
222
100
AcDbEntity
  8
0
100
AcDbLine
 62
6
  6
CONTINUOUS
 10
5.9361911621
 20
3.1897555397
 11
5.9361911621
 21
3.1809635657
  0
LINE
  5
223
100
AcDbEntity
  8
0
100
AcDbLine
 62
6
  6
CONTINUOUS
 10
5.129069196
 20
3.3687918778
 11
5.1618529555
 21
3.4005594245
  0
LINE
  5
224
100
AcDbEntity
  8
0
100
AcDbLine
 62
6
  6
CONTINUOUS
 10
5.1649935058
 20
3.4036026258
 11
5.2034106344
 21
3.4408289215
  0
LINE
  5
225
100
AcDbEntity
  8
0
100
AcDbLine
 62
6
  6
CONTINUOUS
 10
5.1812500878
 20
3.3444099652
 11
5.144421835
 21
3.3244590029
  0
LINE
  5
226
100
AcDbEntity
  8
0
100
AcDbLine
 62
6
  6
CONTINUOUS
 10
5.1812500878
 20
3.2740783253
 11
5.144421835
 21
3.254127363
  0
LINE
  5
227
100
AcDbEntity
  8
0
100
AcDbLine
 62
6
  6
CONTINUOUS
 10
5.1812500878
 20
3.2037466854
 11
5.144421835
 21
3.1837957231
  0
LINE
  5
228
100
AcDbEntity
  8
0
100
AcDbLine
 62
6
  6
CONTINUOUS
 10
5.8975311621
 20
3.2926716143
 11
5.9220343859
 21
3.3059451406
  0
LINE
  5
229
100
AcDbEntity
  8
0
100
AcDbLine
 62
6
  6
CONTINUOUS
 10
5.8903371035
 20
3.0942697079
 11
5.9147032405
 21
3.1178805569
  0
LINE
  5
22A
100
AcDbEntity
  8
0
100
AcDbLine
 62
6
  6
CONTINUOUS
 10
5.8975311621
 20
3.2223399744
 11
5.9220343859
 21
3.2356135007
  0
LINE
  5
22B
100
AcDbEntity
  8
0
100
AcDbLine
 62
6
  6
CONTINUOUS
 10
5.8975311621
 20
3.1520083345
 11
5.9220343859
 21
3.1652818608
  0
ARC
  5
22C
100
AcDbEntity
  8
0
100
AcDbCircle
 62
6
  6
CONTINUOUS
 10
5.5911910979
 20
1.0421833798
 40
2.3341869826
100
AcDbArc
 50
90.2573966317
 51
92.8833075651
  0
ARC
  5
22D
100
AcDbEntity
  8
0
100
AcDbCircle
 62
6
  6
CONTINUOUS
 10
5.5915513115
 20
1.1508249961
 40
2.2255486517
100
AcDbArc
 50
88.0959965259
 51
90.2792350249
  0
ARC
  5
22E
100
AcDbEntity
  8
0
100
AcDbCircle
 62
6
  6
CONTINUOUS
 10
5.5271911621
 20
4.4731370382
 40
1.04
100
AcDbArc
 50
288.2135070761
 51
251.7864929239
  0
CIRCLE
  5
22F
100
AcDbEntity
  8
0
100
AcDbCircle
 62
9
  6
CONTINUOUS
 10
5.5271911621
 20
4.4731370382
 40
0.8774812032
  0
CIRCLE
  5
230
100
AcDbEntity
  8
0
100
AcDbCircle
 62
9
  6
CONTINUOUS
 10
5.5271911621
 20
4.4731370382
 40
0.8609522739
  0
ARC
  5
231
100
AcDbEntity
  8
0
100
AcDbCircle
 62
6
  6
CONTINUOUS
 10
5.2342737424
 20
3.206005969
 40
0.1955558849
100
AcDbArc
 50
112.8435465029
 51
113.0861368623
  0
ARC
  5
232
100
AcDbEntity
  8
0
100
AcDbCircle
 62
6
  6
CONTINUOUS
 10
5.2448323846
 20
3.2839127436
 40
0.1949477453
100
AcDbArc
 50
241.5815394615
 51
243.073341887
  0
ARC
  5
233
100
AcDbEntity
  8
0
100
AcDbCircle
 62
6
  6
CONTINUOUS
 10
5.2088129195
 20
3.3058126712
 40
0.1352065111
100
AcDbArc
 50
241.5599678086
 51
242.1205612291
  0
ARC
  5
234
100
AcDbEntity
  8
0
100
AcDbCircle
 62
6
  6
CONTINUOUS
 10
5.208796156
 20
3.3761146944
 40
0.135172451
100
AcDbArc
 50
241.5602603355
 51
242.1126131
  0
ARC
  5
235
100
AcDbEntity
  8
0
100
AcDbCircle
 62
6
  6
CONTINUOUS
 10
5.2024127186
 20
3.4333340562
 40
0.1206024205
100
AcDbArc
 50
241.558343232
 51
241.8785177534
  0
ARC
  5
236
100
AcDbEntity
  8
0
100
AcDbCircle
 62
6
  6
CONTINUOUS
 10
5.2345169474
 20
3.0302219542
 40
0.1161066562
100
AcDbArc
 50
117.4234060586
 51
118.4353657474
  0
ARC
  5
237
100
AcDbEntity
  8
0
100
AcDbCircle
 62
6
  6
CONTINUOUS
 10
5.2106483528
 20
3.350040468
 40
0.0702371946
100
AcDbArc
 50
130.4359084816
 51
133.0361868505
  0
ARC
  5
238
100
AcDbEntity
  8
0
100
AcDbCircle
 62
6
  6
CONTINUOUS
 10
5.2064211979
 20
3.3545737699
 40
0.0640388018
100
AcDbArc
 50
133.2749112558
 51
134.1061927339
  0
ARC
  5
239
100
AcDbEntity
  8
0
100
AcDbCircle
 62
6
  6
CONTINUOUS
 10
5.8669817993
 20
3.4155188308
 40
0.0607226492
100
AcDbArc
 50
300.2498134472
 51
301.4917055799
  0
ARC
  5
23A
100
AcDbEntity
  8
0
100
AcDbCircle
 62
6
  6
CONTINUOUS
 10
5.1682038641
 20
3.1070271532
 40
0.0113527021
100
AcDbArc
 50
180.0071168678
 51
188.1143216099
  0
ARC
  5
23B
100
AcDbEntity
  8
0
100
AcDbCircle
 62
6
  6
CONTINUOUS
 10
5.1694303203
 20
3.1057060291
 40
0.0112391582
100
AcDbArc
 50
176.9619149811
 51
179.9983749325
  0
CIRCLE
  5
23C
100
AcDbEntity
  8
0
100
AcDbCircle
 62
9
  6
CONTINUOUS
 10
5.5271911621
 20
4.4731370382
 40
0.0099566485
  0
SPLINE
  5
23D
100
AcDbEntity
  8
0
100
AcDbSpline
 62
6
  6
CONTINUOUS
 70
0
 71
3
 72
36
 73
32
 74
30
 42
0.0000001
 43
0.0000001
 44
0.0000000001
 12
0.3264115759
 22
0.0
 32
0.0
 13
0.3108398915
 23
-0.0996146512
 33
0.0
 40
0.0
 40
0.0
 40
0.0
 40
0.0
 40
0.0849406845
 40
0.1693294932
 40
0.2524450992
 40
0.2933407093
 40
0.3337048235
 40
0.3734698302
 40
0.4125718661
 40
0.4885446515
 40
0.5252937387
 40
0.5611395509
 40
0.6299171494
 40
0.6627476467
 40
0.6944723078
 40
0.7250447863
 40
0.7544201873
 40
0.7825541328
 40
0.80940315
 40
0.8349261757
 40
0.859084532
 40
0.8818417049
 40
0.9031642093
 40
0.9230241216
 40
0.9414004686
 40
0.9582795867
 40
0.9736582678
 40
0.9807893084
 40
0.9875525915
 40
0.9939536842
 40
1.0
 40
1.0
 40
1.0
 40
1.0
 10
5.5271911621
 20
3.5831295243
 30
0.0
 10
5.5364330363
 20
3.5831295243
 30
0.0
 10
5.5548570453
 20
3.5832782646
 30
0.0
 10
5.5823174759
 20
3.5839234846
 30
0.0
 10
5.6049760871
 20
3.5848016227
 30
0.0
 10
5.622839215
 20
3.5856812197
 30
0.0
 10
5.6359867967
 20
3.586415223
 30
0.0
 10
5.6489347231
 20
3.5872196365
 30
0.0
 10
5.6657431999
 20
3.5883619172
 30
0.0
 10
5.6822153828
 20
3.5896087313
 30
0.0
 10
5.6983264489
 20
3.5909250909
 30
0.0
 10
5.7136531412
 20
3.5922271344
 30
0.0
 10
5.7285505192
 20
3.5935447991
 30
0.0
 10
5.7430005864
 20
3.5948300787
 30
0.0
 10
5.753310938
 20
3.5957380932
 30
0.0
 10
5.7632487389
 20
3.5965910707
 30
0.0
 10
5.7728003205
 20
3.5973747292
 30
0.0
 10
5.7819521541
 20
3.598074905
 30
0.0
 10
5.7906908839
 20
3.5986773242
 30
0.0
 10
5.7990033622
 20
3.599168404
 30
0.0
 10
5.8068766859
 20
3.5995349077
 30
0.0
 10
5.8142980996
 20
3.5997636752
 30
0.0
 10
5.8212550971
 20
3.5998412411
 30
0.0
 10
5.8277355221
 20
3.5997556369
 30
0.0
 10
5.8337278421
 20
3.5994969624
 30
0.0
 10
5.8392207164
 20
3.5990549989
 30
0.0
 10
5.8434742192
 20
3.5985126496
 30
0.0
 10
5.8466125733
 20
3.5979666076
 30
0.0
 10
5.8487747593
 20
3.5975157378
 30
0.0
 10
5.8508040196
 20
3.5970126
 30
0.0
 10
5.8521040956
 20
3.5966311475
 30
0.0
 10
5.8527305743
 20
3.5964303803
 30
0.0
 11
5.5271911621
 21
3.5831295243
 31
0.0
 11
5.5549159064
 21
3.5833502245
 31
0.0
 11
5.5824537909
 21
3.5839972217
 31
0.0
 11
5.6095635278
 21
3.585042888
 31
0.0
 11
5.6228962063
 21
3.585698754
 31
0.0
 11
5.6360510609
 21
3.5864327189
 31
0.0
 11
5.6490058925
 21
3.5872367508
 31
0.0
 11
5.6617399548
 21
3.5881010104
 31
0.0
 11
5.6864682711
 21
3.5899640311
 31
0.0
 11
5.6984238617
 21
3.5909395994
 31
0.0
 11
5.710082489
 21
3.5919284524
 31
0.0
 11
5.732446269
 21
3.5938918827
 31
0.0
 11
5.7431205731
 21
3.5948391622
 31
0.0
 11
5.7534361563
 21
3.5957452038
 31
0.0
 11
5.7633790456
 21
3.5965958528
 31
0.0
 11
5.7729356594
 21
3.5973768177
 31
0.0
 11
5.7820924167
 21
3.5980738071
 31
0.0
 11
5.7908357683
 21
3.598672572
 31
0.0
 11
5.7991525452
 21
3.599159364
 31
0.0
 11
5.8070298265
 21
3.5995207618
 31
0.0
 11
5.8144546955
 21
3.5997433495
 31
0.0
 11
5.8214142517
 21
3.599813755
 31
0.0
 11
5.8278960777
 21
3.5997199179
 31
0.0
 11
5.8338883117
 21
3.5994512844
 31
0.0
 11
5.8393791222
 21
3.5989973836
 31
0.0
 11
5.8443566905
 21
3.5983477687
 31
0.0
 11
5.8466495332
 21
3.5979467114
 31
0.0
 11
5.8488102048
 21
3.5974938792
 31
0.0
 11
5.8508375903
 21
3.5969886446
 31
0.0
 11
5.8527305743
 21
3.5964303803
 31
0.0
  0
SPLINE
  5
23E
100
AcDbEntity
  8
0
100
AcDbSpline
 62
6
  6
CONTINUOUS
 70
0
 71
3
 72
19
 73
15
 74
13
 42
0.0000001
 43
0.0000001
 44
0.0000000001
 12
0.0175265039
 22
-0.0056167069
 32
0.0
 13
0.0000044794
 23
-0.0184045026
 33
0.0
 40
0.0
 40
0.0
 40
0.0
 40
0.0
 40
0.1611319558
 40
0.3071779611
 40
0.4396723604
 40
0.5608017126
 40
0.6180414286
 40
0.6735967117
 40
0.7279453206
 40
0.7816000333
 40
0.8350963822
 40
0.8889774117
 40
0.9437774513
 40
1.0
 40
1.0
 40
1.0
 40
1.0
 10
5.8527305743
 20
3.5964303803
 30
0.0
 10
5.8536719342
 20
3.5961287033
 30
0.0
 10
5.8554465923
 20
3.5954869269
 30
0.0
 10
5.8578884098
 20
3.5943292366
 30
0.0
 10
5.8599695665
 20
3.5930202425
 30
0.0
 10
5.8614270102
 20
3.5917763939
 30
0.0
 10
5.862388724
 20
3.5907088966
 30
0.0
 10
5.8630033209
 20
3.5898861582
 30
0.0
 10
5.8635241049
 20
3.5890265802
 30
0.0
 10
5.8639506161
 20
3.5881304154
 30
0.0
 10
5.8642824034
 20
3.5871980626
 30
0.0
 10
5.8645191409
 20
3.5862299424
 30
0.0
 10
5.8646605837
 20
3.5852266556
 30
0.0
 10
5.8646908764
 20
3.584545077
 30
0.0
 10
5.8646909604
 20
3.584200161
 30
0.0
 11
5.8527305743
 21
3.5964303803
 31
0.0
 11
5.8555148511
 21
3.5954094441
 31
0.0
 11
5.8579371358
 21
3.5942443838
 31
0.0
 11
5.8599928361
 21
3.5929327636
 31
0.0
 11
5.8616790729
 21
3.591474512
 31
0.0
 11
5.862383038
 21
3.5906907843
 31
0.0
 11
5.8629939138
 21
3.5898708634
 31
0.0
 11
5.86351146
 21
3.5890149053
 31
0.0
 11
5.8639354363
 21
3.588123066
 31
0.0
 11
5.8642656024
 21
3.5871955016
 31
0.0
 11
5.8645017179
 21
3.586232368
 31
0.0
 11
5.8646435432
 21
3.5852338221
 31
0.0
 11
5.8646909604
 21
3.584200161
 31
0.0
  0
SPLINE
  5
23F
100
AcDbEntity
  8
0
100
AcDbSpline
 62
6
  6
CONTINUOUS
 70
0
 71
3
 72
75
 73
71
 74
69
 42
0.0000001
 43
0.0000001
 44
0.0000000001
 12
0.0
 22
0.494221872
 32
0.0
 13
0.0
 23
-0.494221872
 33
0.0
 40
0.0
 40
0.0
 40
0.0
 40
0.0
 40
0.0020635147
 40
0.0041670379
 40
0.0063470227
 40
0.0086360538
 40
0.0110621223
 40
0.0136485864
 40
0.0164145691
 40
0.0193753545
 40
0.0225427404
 40
0.0259259046
 40
0.029531979
 40
0.0333664797
 40
0.0374336461
 40
0.0417366804
 40
0.0462774751
 40
0.0510567817
 40
0.0613305501
 40
0.072555343
 40
0.0847218582
 40
0.0978123535
 40
0.1118048134
 40
0.1266752055
 40
0.1423946498
 40
0.15892992
 40
0.1762468251
 40
0.1943089815
 40
0.2130755561
 40
0.2325046754
 40
0.2731760496
 40
0.3159523923
 40
0.3604417659
 40
0.4062313801
 40
0.452895836
 40
0.5
 40
0.547104164
 40
0.5937686199
 40
0.6395582341
 40
0.6840476077
 40
0.7268239504
 40
0.7674953246
 40
0.7869244439
 40
0.8056910185
 40
0.8237531749
 40
0.84107008
 40
0.8576053502
 40
0.8733247945
 40
0.8881951866
 40
0.9021876465
 40
0.9152781418
 40
0.927444657
 40
0.9386694499
 40
0.9489432183
 40
0.9537225249
 40
0.9582633196
 40
0.9625663539
 40
0.9666335203
 40
0.970468021
 40
0.9740740954
 40
0.9774572596
 40
0.9806246455
 40
0.9835854309
 40
0.9863514136
 40
0.9889378777
 40
0.9913639462
 40
0.9936529773
 40
0.9958329621
 40
0.9979364853
 40
1.0
 40
1.0
 40
1.0
 40
1.0
 10
5.7646911621
 20
3.1057063479
 30
0.0
 10
5.7646911621
 20
3.1060462926
 30
0.0
 10
5.7646422501
 20
3.1067337149
 30
0.0
 10
5.7644236074
 20
3.1077593155
 30
0.0
 10
5.7640605181
 20
3.1087824566
 30
0.0
 10
5.7635541496
 20
3.1098019631
 30
0.0
 10
5.762905499
 20
3.1108173765
 30
0.0
 10
5.7621153105
 20
3.1118283184
 30
0.0
 10
5.7611840952
 20
3.1128344123
 30
0.0
 10
5.760112422
 20
3.1138352613
 30
0.0
 10
5.7589011272
 20
3.1148306541
 30
0.0
 10
5.7575509763
 20
3.1158202095
 30
0.0
 10
5.756062747
 20
3.1168034959
 30
0.0
 10
5.7544372145
 20
3.1177800303
 30
0.0
 10
5.7526751722
 20
3.1187493063
 30
0.0
 10
5.7507774883
 20
3.1197107246
 30
0.0
 10
5.7487452699
 20
3.1206637801
 30
0.0
 10
5.7457860381
 20
3.1219539309
 30
0.0
 10
5.741753626
 20
3.1235333355
 30
0.0
 10
5.7365102795
 20
3.1253441111
 30
0.0
 10
5.730763891
 20
3.1271082368
 30
0.0
 10
5.7245282858
 20
3.1288218934
 30
0.0
 10
5.7178182456
 20
3.1304809399
 30
0.0
 10
5.710649542
 20
3.132080899
 30
0.0
 10
5.7030393072
 20
3.1336179112
 30
0.0
 10
5.6950059347
 20
3.1350885122
 30
0.0
 10
5.6865685989
 20
3.1364888859
 30
0.0
 10
5.6777474727
 20
3.1378153418
 30
0.0
 10
5.6685638741
 20
3.1390650668
 30
0.0
 10
5.6556678688
 20
3.1406490256
 30
0.0
 10
5.6388091787
 20
3.1424028101
 30
0.0
 10
5.6178021089
 20
3.1441289794
 30
0.0
 10
5.5959233729
 20
3.145489263
 30
0.0
 10
5.5733833559
 20
3.146470705
 30
0.0
 10
5.5503989215
 20
3.1470636007
 30
0.0
 10
5.5271911621
 20
3.1472616574
 30
0.0
 10
5.5039834027
 20
3.1470636007
 30
0.0
 10
5.4809989683
 20
3.146470705
 30
0.0
 10
5.4584589513
 20
3.145489263
 30
0.0
 10
5.4365802153
 20
3.1441289794
 30
0.0
 10
5.4155731456
 20
3.1424028101
 30
0.0
 10
5.3987144554
 20
3.1406490256
 30
0.0
 10
5.3858184501
 20
3.1390650668
 30
0.0
 10
5.3766348515
 20
3.1378153418
 30
0.0
 10
5.3678137254
 20
3.1364888859
 30
0.0
 10
5.3593763895
 20
3.1350885122
 30
0.0
 10
5.351343017
 20
3.1336179112
 30
0.0
 10
5.3437327823
 20
3.132080899
 30
0.0
 10
5.3365640787
 20
3.1304809399
 30
0.0
 10
5.3298540384
 20
3.1288218934
 30
0.0
 10
5.3236184333
 20
3.1271082368
 30
0.0
 10
5.3178720447
 20
3.1253441111
 30
0.0
 10
5.3126286982
 20
3.1235333355
 30
0.0
 10
5.3085962861
 20
3.1219539309
 30
0.0
 10
5.3056370543
 20
3.1206637801
 30
0.0
 10
5.3036048359
 20
3.1197107246
 30
0.0
 10
5.301707152
 20
3.1187493063
 30
0.0
 10
5.2999451097
 20
3.1177800303
 30
0.0
 10
5.2983195773
 20
3.1168034959
 30
0.0
 10
5.296831348
 20
3.1158202095
 30
0.0
 10
5.295481197
 20
3.1148306541
 30
0.0
 10
5.2942699022
 20
3.1138352613
 30
0.0
 10
5.2931982291
 20
3.1128344123
 30
0.0
 10
5.2922670137
 20
3.1118283184
 30
0.0
 10
5.2914768253
 20
3.1108173765
 30
0.0
 10
5.2908281746
 20
3.1098019631
 30
0.0
 10
5.2903218061
 20
3.1087824566
 30
0.0
 10
5.2899587168
 20
3.1077593155
 30
0.0
 10
5.2897400741
 20
3.1067337149
 30
0.0
 10
5.2896911621
 20
3.1060462926
 30
0.0
 10
5.2896911621
 20
3.1057063479
 30
0.0
 11
5.7646911621
 21
3.1057063479
 31
0.0
 11
5.7646195132
 21
3.106723662
 31
0.0
 11
5.7644047601
 21
3.1077408464
 31
0.0
 11
5.764047193
 21
3.1087571773
 31
0.0
 11
5.7635471023
 21
3.1097719307
 31
0.0
 11
5.7629047782
 21
3.1107843829
 31
0.0
 11
5.7621205111
 21
3.11179381
 31
0.0
 11
5.7611945929
 21
3.1127994887
 31
0.0
 11
5.7601275013
 21
3.113800747
 31
0.0
 11
5.7589200608
 21
3.1147970088
 31
0.0
 11
5.7575731347
 21
3.115787709
 31
0.0
 11
5.7560875857
 21
3.116772282
 31
0.0
 11
5.7544642769
 21
3.1177501625
 31
0.0
 11
5.7527040714
 21
3.1187207853
 31
0.0
 11
5.7508078454
 21
3.1196835847
 31
0.0
 11
5.7487767472
 21
3.1206379928
 31
0.0
 11
5.7466121794
 21
3.1215834393
 31
0.0
 11
5.7418882833
 21
3.1234451657
 31
0.0
 11
5.736647454
 21
3.1252642006
 31
0.0
 11
5.7309014762
 21
3.1270360364
 31
0.0
 11
5.7246648152
 21
3.1287564726
 31
0.0
 11
5.717952852
 21
3.1304214133
 31
0.0
 11
5.710781058
 21
3.1320267743
 31
0.0
 11
5.70316672
 21
3.1335687076
 31
0.0
 11
5.6951288207
 21
3.1350435857
 31
0.0
 11
5.6866864095
 21
3.1364477897
 31
0.0
 11
5.6778593417
 21
3.1377778553
 31
0.0
 11
5.6686694974
 21
3.1390307062
 31
0.0
 11
5.6591390701
 21
3.140203326
 31
0.0
 11
5.6391476655
 21
3.1422964543
 31
0.0
 11
5.6180784597
 21
3.1440373236
 31
0.0
 11
5.5961336624
 21
3.1454089546
 31
0.0
 11
5.5735250678
 21
3.1463982514
 31
0.0
 11
5.5504702136
 21
3.146995723
 31
0.0
 11
5.5271911621
 21
3.1471954324
 31
0.0
 11
5.5039121106
 21
3.146995723
 31
0.0
 11
5.4808572564
 21
3.1463982514
 31
0.0
 11
5.4582486618
 21
3.1454089546
 31
0.0
 11
5.4363038645
 21
3.1440373236
 31
0.0
 11
5.4152346587
 21
3.1422964543
 31
0.0
 11
5.3952432541
 21
3.140203326
 31
0.0
 11
5.3857128268
 21
3.1390307062
 31
0.0
 11
5.3765229825
 21
3.1377778553
 31
0.0
 11
5.3676959147
 21
3.1364477897
 31
0.0
 11
5.3592535036
 21
3.1350435857
 31
0.0
 11
5.3512156042
 21
3.1335687076
 31
0.0
 11
5.3436012663
 21
3.1320267743
 31
0.0
 11
5.3364294722
 21
3.1304214133
 31
0.0
 11
5.3297175091
 21
3.1287564726
 31
0.0
 11
5.323480848
 21
3.1270360364
 31
0.0
 11
5.3177348702
 21
3.1252642006
 31
0.0
 11
5.3124940409
 21
3.1234451657
 31
0.0
 11
5.3077701448
 21
3.1215834393
 31
0.0
 11
5.305605577
 21
3.1206379928
 31
0.0
 11
5.3035744789
 21
3.1196835847
 31
0.0
 11
5.3016782528
 21
3.1187207853
 31
0.0
 11
5.2999180473
 21
3.1177501625
 31
0.0
 11
5.2982947385
 21
3.116772282
 31
0.0
 11
5.2968091896
 21
3.115787709
 31
0.0
 11
5.2954622634
 21
3.1147970088
 31
0.0
 11
5.294254823
 21
3.113800747
 31
0.0
 11
5.2931877313
 21
3.1127994887
 31
0.0
 11
5.2922618132
 21
3.11179381
 31
0.0
 11
5.291477546
 21
3.1107843829
 31
0.0
 11
5.290835222
 21
3.1097719307
 31
0.0
 11
5.2903351312
 21
3.1087571773
 31
0.0
 11
5.2899775641
 21
3.1077408464
 31
0.0
 11
5.289762811
 21
3.106723662
 31
0.0
 11
5.2896911621
 21
3.1057063479
 31
0.0
  0
SPLINE
  5
240
100
AcDbEntity
  8
0
100
AcDbSpline
 62
6
  6
CONTINUOUS
 70
0
 71
3
 72
17
 73
13
 74
11
 42
0.0000001
 43
0.0000001
 44
0.0000000001
 12
0.0
 22
-0.0220733902
 32
0.0
 13
-0.0194091553
 23
-0.0105128133
 33
0.0
 40
0.0
 40
0.0
 40
0.0
 40
0.0
 40
0.0450604218
 40
0.0906793525
 40
0.1373797231
 40
0.1856476008
 40
0.2884955083
 40
0.4022370548
 40
0.5289961574
 40
0.6702527414
 40
0.8270215347
 40
1.0
 40
1.0
 40
1.0
 40
1.0
 10
5.9361911621
 20
3.3216268455
 30
0.0
 10
5.9361911621
 20
3.3212953
 30
0.0
 10
5.9361534758
 20
3.320627508
 30
0.0
 10
5.9359845288
 20
3.3196289788
 30
0.0
 10
5.9357034069
 20
3.318631494
 30
0.0
 10
5.9351685318
 20
3.317275558
 30
0.0
 10
5.9341960581
 20
3.3155743208
 30
0.0
 10
5.9326130358
 20
3.313595681
 30
0.0
 10
5.9305937676
 20
3.3116345756
 30
0.0
 10
5.9281412052
 20
3.3096904527
 30
0.0
 10
5.925257313
 20
3.3077632837
 30
0.0
 10
5.9231535323
 20
3.3065513029
 30
0.0
 10
5.9220344104
 20
3.3059451394
 30
0.0
 11
5.9361911621
 21
3.3216268455
 31
0.0
 11
5.9361354772
 21
3.3206337692
 31
0.0
 11
5.9359685047
 21
3.3196407447
 31
0.0
 11
5.9356903679
 21
3.3186481412
 31
0.0
 11
5.9353011901
 21
3.3176563278
 31
0.0
 11
5.934190205
 21
3.3156765477
 31
0.0
 11
5.932636536
 21
3.3137043575
 31
0.0
 11
5.9306414187
 21
3.3117426418
 31
0.0
 11
5.9282073878
 21
3.3097939268
 31
0.0
 11
5.9253373994
 21
3.3078606227
 31
0.0
 11
5.9220344104
 21
3.3059451394
 31
0.0
  0
SPLINE
  5
241
100
AcDbEntity
  8
0
100
AcDbSpline
 62
6
  6
CONTINUOUS
 70
0
 71
3
 72
23
 73
19
 74
17
 42
0.0000001
 43
0.0000001
 44
0.0000000001
 12
-0.0360818553
 22
0.0195443913
 32
0.0
 13
0.0
 23
0.0410351498
 33
0.0
 40
0.0
 40
0.0
 40
0.0
 40
0.0
 40
0.0878879241
 40
0.1718051732
 40
0.2517954652
 40
0.3279172309
 40
0.4002531492
 40
0.4689102393
 40
0.5340190203
 40
0.5957381273
 40
0.6542597218
 40
0.7098155077
 40
0.7626841921
 40
0.8131954557
 40
0.8617296801
 40
0.9087177641
 40
0.9546367322
 40
1.0
 40
1.0
 40
1.0
 40
1.0
 10
5.1444224109
 20
3.257255061
 30
0.0
 10
5.1433653577
 20
3.257827633
 30
0.0
 10
5.1413141642
 20
3.2589752529
 30
0.0
 10
5.1383609525
 20
3.2607485741
 30
0.0
 10
5.1356042398
 20
3.2625331087
 30
0.0
 10
5.133045546
 20
3.2643282236
 30
0.0
 10
5.1306860681
 20
3.2661332114
 30
0.0
 10
5.1285267814
 20
3.2679473684
 30
0.0
 10
5.126568629
 20
3.2697700915
 30
0.0
 10
5.1248125772
 20
3.2716008201
 30
0.0
 10
5.1232596242
 20
3.2734390331
 30
0.0
 10
5.1219108837
 20
3.2752843084
 30
0.0
 10
5.1207673914
 20
3.2771361094
 30
0.0
 10
5.1198298115
 20
3.278993621
 30
0.0
 10
5.1190989843
 20
3.2808559878
 30
0.0
 10
5.1185758444
 20
3.2827222631
 30
0.0
 10
5.1182613436
 20
3.2845908436
 30
0.0
 10
5.1181911621
 20
3.2858405294
 30
0.0
 10
5.1181911621
 20
3.2864610255
 30
0.0
 11
5.1444224109
 21
3.257255061
 31
0.0
 11
5.14127622
 21
3.2590180933
 31
0.0
 11
5.1383253656
 21
3.2607930701
 31
0.0
 11
5.1355714735
 21
3.262579216
 31
0.0
 11
5.1330161373
 21
3.2643757569
 31
0.0
 11
5.1306605854
 21
3.2661819326
 31
0.0
 11
5.1285058131
 21
3.2679969917
 31
0.0
 11
5.1265528118
 21
3.269820183
 31
0.0
 11
5.1248025731
 21
3.2716507552
 31
0.0
 11
5.1232560884
 21
3.2734879571
 31
0.0
 11
5.1219143452
 21
3.2753310359
 31
0.0
 11
5.120778087
 21
3.2771791529
 31
0.0
 11
5.119847678
 21
3.2790313351
 31
0.0
 11
5.1191234495
 21
3.2808865979
 31
0.0
 11
5.118605733
 21
3.2827439569
 31
0.0
 11
5.1182948601
 21
3.2846024276
 31
0.0
 11
5.1181911621
 21
3.2864610255
 31
0.0
  0
SPLINE
  5
242
100
AcDbEntity
  8
0
100
AcDbSpline
 62
6
  6
CONTINUOUS
 70
0
 71
3
 72
23
 73
19
 74
17
 42
0.0000001
 43
0.0000001
 44
0.0000000001
 12
-0.0360816956
 22
0.0195446206
 32
0.0
 13
-0.0
 23
0.0410351185
 33
0.0
 40
0.0
 40
0.0
 40
0.0
 40
0.0
 40
0.087886981
 40
0.1718036452
 40
0.2517942289
 40
0.3279171923
 40
0.4002535971
 40
0.4689105295
 40
0.5340188027
 40
0.5957373085
 40
0.6542584144
 40
0.7098139415
 40
0.7626823602
 40
0.8131934007
 40
0.8617275997
 40
0.9087159776
 40
0.9546356335
 40
1.0
 40
1.0
 40
1.0
 40
1.0
 10
5.1444223468
 20
3.1869234169
 30
0.0
 10
5.1433653097
 20
3.1874959895
 30
0.0
 10
5.1413141457
 20
3.1886436158
 30
0.0
 10
5.1383609654
 20
3.1904169512
 30
0.0
 10
5.1356042513
 20
3.1922015009
 30
0.0
 10
5.1330455196
 20
3.1939966045
 30
0.0
 10
5.1306860242
 20
3.1958016009
 30
0.0
 10
5.1285267461
 20
3.197615761
 30
0.0
 10
5.1265686169
 20
3.1994384805
 30
0.0
 10
5.1248125861
 20
3.2012691964
 30
0.0
 10
5.1232596414
 20
3.2031073886
 30
0.0
 10
5.121910868
 20
3.2049526199
 30
0.0
 10
5.1207673524
 20
3.2068043935
 30
0.0
 10
5.1198297689
 20
3.2086618942
 30
0.0
 10
5.1190989499
 20
3.2105242637
 30
0.0
 10
5.1185758246
 20
3.2123905554
 30
0.0
 10
5.1182613382
 20
3.2142591657
 30
0.0
 10
5.1181911621
 20
3.2155088749
 30
0.0
 10
5.1181911621
 20
3.2161293856
 30
0.0
 11
5.1444223468
 21
3.1869234169
 31
0.0
 11
5.1412762059
 21
3.1886864537
 31
0.0
 11
5.1383253876
 21
3.1904614388
 31
0.0
 11
5.1355714911
 21
3.1922475953
 31
0.0
 11
5.1330161055
 21
3.1940441472
 31
0.0
 11
5.130660536
 21
3.1958503291
 31
0.0
 11
5.1285057749
 21
3.1976653882
 31
0.0
 11
5.1265527981
 21
3.1994885721
 31
0.0
 11
5.1248025813
 21
3.2013191285
 31
0.0
 11
5.1232561006
 21
3.2031563051
 31
0.0
 11
5.1219143306
 21
3.2049993491
 31
0.0
 11
5.1207780515
 21
3.2068474385
 31
0.0
 11
5.1198476389
 21
3.2086996069
 31
0.0
 11
5.1191234184
 21
3.2105548701
 31
0.0
 11
5.1186057151
 21
3.2124122438
 31
0.0
 11
5.1182948546
 21
3.2142707437
 31
0.0
 11
5.1181911621
 21
3.2161293856
 31
0.0
  0
SPLINE
  5
243
100
AcDbEntity
  8
0
100
AcDbSpline
 62
6
  6
CONTINUOUS
 70
0
 71
3
 72
18
 73
14
 74
12
 42
0.0000001
 43
0.0000001
 44
0.0000000001
 12
0.0
 22
0.0220748378
 32
0.0
 13
-0.0194102793
 23
0.0105137778
 33
0.0
 40
0.0
 40
0.0
 40
0.0
 40
0.0
 40
0.0450539567
 40
0.0906673232
 40
0.1373630191
 40
0.1856269682
 40
0.2884682237
 40
0.3438623093
 40
0.4022724504
 40
0.5290229473
 40
0.6702735454
 40
0.8270351362
 40
1.0
 40
1.0
 40
1.0
 40
1.0
 10
5.9361911621
 20
3.2600871796
 30
0.0
 10
5.9361911621
 20
3.2604186992
 30
0.0
 10
5.9361534679
 20
3.2610864474
 30
0.0
 10
5.9359844997
 20
3.2620849117
 30
0.0
 10
5.9357033456
 20
3.2630823658
 30
0.0
 10
5.9351684648
 20
3.2644381906
 30
0.0
 10
5.9344100101
 20
3.2657651858
 30
0.0
 10
5.933466421
 20
3.2670509912
 30
0.0
 10
5.9323208233
 20
3.268402209
 30
0.0
 10
5.930593716
 20
3.2700795282
 30
0.0
 10
5.9281413057
 20
3.272023542
 30
0.0
 10
5.9252573046
 20
3.2739507362
 30
0.0
 10
5.923153539
 20
3.2751627156
 30
0.0
 10
5.9220344402
 20
3.275768887
 30
0.0
 11
5.9361911621
 21
3.2600871796
 31
0.0
 11
5.936135469
 21
3.2610801778
 31
0.0
 11
5.9359684764
 21
3.2620731414
 31
0.0
 11
5.9356903149
 21
3.263065701
 31
0.0
 11
5.9353011148
 21
3.2640574876
 31
0.0
 11
5.9341901205
 21
3.2660372648
 31
0.0
 11
5.933468587
 21
3.2670245171
 31
0.0
 11
5.9326365366
 21
3.2680095197
 31
0.0
 11
5.9306415208
 21
3.2699713294
 31
0.0
 11
5.9282074383
 21
3.2719200958
 31
0.0
 11
5.9253373784
 21
3.2738534153
 31
0.0
 11
5.9220344402
 21
3.275768887
 31
0.0
  0
SPLINE
  5
244
100
AcDbEntity
  8
0
100
AcDbSpline
 62
6
  6
CONTINUOUS
 70
0
 71
3
 72
18
 73
14
 74
12
 42
0.0000001
 43
0.0000001
 44
0.0000000001
 12
0.0
 22
0.0220748423
 32
0.0
 13
-0.0194102602
 23
0.0105138223
 33
0.0
 40
0.0
 40
0.0
 40
0.0
 40
0.0
 40
0.045053757
 40
0.0906669585
 40
0.137362528
 40
0.1856263928
 40
0.2884676157
 40
0.3438617553
 40
0.4022719991
 40
0.5290229467
 40
0.6702742849
 40
0.8270361663
 40
1.0
 40
1.0
 40
1.0
 40
1.0
 10
5.9361911621
 20
3.3304188195
 30
0.0
 10
5.9361911621
 20
3.3307503377
 30
0.0
 10
5.9361534679
 20
3.3314180834
 30
0.0
 10
5.9359844998
 20
3.3324165442
 30
0.0
 10
5.9357033459
 20
3.3334139957
 30
0.0
 10
5.9351684651
 20
3.3347698188
 30
0.0
 10
5.9344100104
 20
3.3360968138
 30
0.0
 10
5.9334664214
 20
3.3373826208
 30
0.0
 10
5.9323208225
 20
3.3387338438
 30
0.0
 10
5.9305937094
 20
3.3404111719
 30
0.0
 10
5.9281412845
 20
3.3423551861
 30
0.0
 10
5.9252572806
 20
3.344282377
 30
0.0
 10
5.9231535207
 20
3.345494356
 30
0.0
 10
5.9220344297
 20
3.3461005263
 30
0.0
 11
5.9361911621
 21
3.3304188195
 31
0.0
 11
5.936135469
 21
3.3314118135
 31
0.0
 11
5.9359684767
 21
3.3324047736
 31
0.0
 11
5.9356903154
 21
3.3333973306
 31
0.0
 11
5.9353011155
 21
3.3343891155
 31
0.0
 11
5.9341901213
 21
3.3363688925
 31
0.0
 11
5.9334685877
 21
3.3373561465
 31
0.0
 11
5.9326365368
 21
3.338341152
 31
0.0
 11
5.9306415145
 21
3.3403029701
 31
0.0
 11
5.9282074151
 21
3.3422517425
 31
0.0
 11
5.925337347
 21
3.3441850625
 31
0.0
 11
5.9220344297
 21
3.3461005263
 31
0.0
  0
SPLINE
  5
245
100
AcDbEntity
  8
0
100
AcDbSpline
 62
6
  6
CONTINUOUS
 70
0
 71
3
 72
15
 73
11
 74
9
 42
0.0000001
 43
0.0000001
 44
0.0000000001
 12
-0.0022058929
 22
-0.0183155313
 32
0.0
 13
-0.0157299451
 23
-0.0096381263
 33
0.0
 40
0.0
 40
0.0
 40
0.0
 40
0.0
 40
0.094935156
 40
0.1946874556
 40
0.3016833798
 40
0.4178878372
 40
0.5448251921
 40
0.6836463298
 40
0.8351769413
 40
1.0
 40
1.0
 40
1.0
 40
1.0
 10
5.9103741316
 20
3.3772822133
 30
0.0
 10
5.910304326
 20
3.3767026173
 30
0.0
 10
5.9100503987
 20
3.3755250832
 30
0.0
 10
5.9093553559
 20
3.3737970263
 30
0.0
 10
5.9083447248
 20
3.3720799781
 30
0.0
 10
5.9070219252
 20
3.3703749851
 30
0.0
 10
5.9053891562
 20
3.3686813071
 30
0.0
 10
5.9034476745
 20
3.3669990696
 30
0.0
 10
5.9011990233
 20
3.3653287641
 30
0.0
 10
5.8995660201
 20
3.3642691972
 30
0.0
 10
5.8987018009
 20
3.3637396687
 30
0.0
 11
5.9103741316
 21
3.3772822133
 31
0.0
 11
5.9100104071
 21
3.3755690458
 31
0.0
 11
5.9093323158
 21
3.373858315
 31
0.0
 11
5.9083402746
 21
3.3721518758
 31
0.0
 11
5.9070348859
 21
3.3704514271
 31
0.0
 11
5.9054170416
 21
3.3687584232
 31
0.0
 11
5.9034877189
 21
3.3670743165
 31
0.0
 11
5.9012485947
 21
3.3654007885
 31
0.0
 11
5.8987018009
 21
3.3637396687
 31
0.0
  0
SPLINE
  5
246
100
AcDbEntity
  8
0
100
AcDbSpline
 62
6
  6
CONTINUOUS
 70
0
 71
3
 72
15
 73
11
 74
9
 42
0.0000001
 43
0.0000001
 44
0.0000000001
 12
0.0014493604
 22
0.0120340416
 32
0.0
 13
-0.0087051055
 23
0.0084344496
 33
0.0
 40
0.0
 40
0.0
 40
0.0
 40
0.0
 40
0.1103384822
 40
0.2210719834
 40
0.3343401003
 40
0.4521347662
 40
0.5762211145
 40
0.7081035567
 40
0.8490288553
 40
1.0
 40
1.0
 40
1.0
 40
1.0
 10
5.9103741316
 20
3.3772822133
 30
0.0
 10
5.9104274384
 20
3.3777248192
 30
0.0
 10
5.9104715248
 20
3.3786205565
 30
0.0
 10
5.9103429122
 20
3.3799696658
 30
0.0
 10
5.9100202734
 20
3.3813168577
 30
0.0
 10
5.9095050238
 20
3.3826600939
 30
0.0
 10
5.9087986768
 20
3.3839984622
 30
0.0
 10
5.907902438
 20
3.3853314331
 30
0.0
 10
5.9068172279
 20
3.386658526
 30
0.0
 10
5.9059978437
 20
3.3875085931
 30
0.0
 10
5.9055597704
 20
3.3879330459
 30
0.0
 11
5.9103741316
 21
3.3772822133
 31
0.0
 11
5.9104392794
 21
3.3786180391
 31
0.0
 11
5.9103132724
 21
3.3799543127
 31
0.0
 11
5.9099964038
 21
3.3812901695
 31
0.0
 11
5.9094889669
 21
3.3826247451
 31
0.0
 11
5.9087912551
 21
3.3839571748
 31
0.0
 11
5.9079035616
 21
3.3852865942
 31
0.0
 11
5.9068261947
 21
3.3866121428
 31
0.0
 11
5.9055597704
 21
3.3879330459
 31
0.0
  0
SPLINE
  5
247
100
AcDbEntity
  8
0
100
AcDbSpline
 62
6
  6
CONTINUOUS
 70
0
 71
3
 72
16
 73
12
 74
10
 42
0.0000001
 43
0.0000001
 44
0.0000000001
 12
-0.0026389875
 22
0.0225057709
 32
0.0
 13
-0.0199242351
 23
0.0107934625
 33
0.0
 40
0.0
 40
0.0
 40
0.0
 40
0.0
 40
0.0448294961
 40
0.0906390885
 40
0.1867312202
 40
0.291253572
 40
0.4064240184
 40
0.5338849822
 40
0.6748008173
 40
0.8299829034
 40
1.0
 40
1.0
 40
1.0
 40
1.0
 10
5.9196645711
 20
3.1288188125
 30
0.0
 10
5.9196251362
 20
3.1291551199
 30
0.0
 10
5.9195098958
 20
3.1298314286
 30
0.0
 10
5.9191350947
 20
3.1311931494
 30
0.0
 10
5.9183832347
 20
3.1329078239
 30
0.0
 10
5.9170774686
 20
3.1349138847
 30
0.0
 10
5.9153592993
 20
3.136903465
 30
0.0
 10
5.9132311793
 20
3.1388761861
 30
0.0
 10
5.9106953071
 20
3.1408325899
 30
0.0
 10
5.9077537952
 20
3.1427719363
 30
0.0
 10
5.9056223432
 20
3.1439958322
 30
0.0
 10
5.9044931896
 20
3.1446075233
 30
0.0
 11
5.9196645711
 21
3.1288188125
 31
0.0
 11
5.9194948286
 21
3.1298203652
 31
0.0
 11
5.9192205823
 21
3.1308215264
 31
0.0
 11
5.9183590671
 21
3.1328212901
 31
0.0
 11
5.9170810038
 21
3.1348153356
 31
0.0
 11
5.9153873706
 21
3.1368008946
 31
0.0
 11
5.9132792868
 21
3.1387752385
 31
0.0
 11
5.9107590156
 21
3.1407359592
 31
0.0
 11
5.9078293758
 21
3.1426808046
 31
0.0
 11
5.9044931896
 21
3.1446075233
 31
0.0
  0
SPLINE
  5
248
100
AcDbEntity
  8
0
100
AcDbSpline
 62
6
  6
CONTINUOUS
 70
0
 71
3
 72
19
 73
15
 74
13
 42
0.0000001
 43
0.0000001
 44
0.0000000001
 12
0.0000045334
 22
0.0184055611
 32
0.0
 13
0.0175276586
 23
0.0056165723
 33
0.0
 40
0.0
 40
0.0
 40
0.0
 40
0.0
 40
0.0562215585
 40
0.111020605
 40
0.164900717
 40
0.2183962457
 40
0.2720502568
 40
0.3263983043
 40
0.3819531864
 40
0.4391926798
 40
0.5603221793
 40
0.6928176022
 40
0.8388654661
 40
1.0
 40
1.0
 40
1.0
 40
1.0
 10
5.1896913626
 20
3.5842001879
 30
0.0
 10
5.1896914475
 20
3.5845451177
 30
0.0
 10
5.189721745
 20
3.5852267233
 30
0.0
 10
5.1898632036
 20
3.5862300487
 30
0.0
 10
5.1900999637
 20
3.5871982053
 30
0.0
 10
5.1904317813
 20
3.588130592
 30
0.0
 10
5.1908583302
 20
3.589026788
 30
0.0
 10
5.1913791597
 20
3.5898863942
 30
0.0
 10
5.1919938098
 20
3.5907091575
 30
0.0
 10
5.1929556085
 20
3.5917766858
 30
0.0
 10
5.1944131809
 20
3.593020563
 30
0.0
 10
5.1964945194
 20
3.5943295685
 30
0.0
 10
5.198936543
 20
3.5954872639
 30
0.0
 10
5.2007113462
 20
3.5961290381
 30
0.0
 10
5.2016527832
 20
3.5964307127
 30
0.0
 11
5.1896913626
 21
3.5842001879
 31
0.0
 11
5.189738787
 21
3.58523389
 31
0.0
 11
5.1898806277
 21
3.5862324738
 31
0.0
 11
5.1901167658
 21
3.5871956432
 31
0.0
 11
5.1904469618
 21
3.5881232411
 31
0.0
 11
5.1908709754
 21
3.5890151112
 31
0.0
 11
5.1913885667
 21
3.5898710972
 31
0.0
 11
5.1919994953
 21
3.5906910429
 31
0.0
 11
5.192703521
 21
3.5914747921
 31
0.0
 11
5.1943899035
 21
3.5929330754
 31
0.0
 11
5.1964457825
 21
3.5942447112
 31
0.0
 11
5.1988682736
 21
3.595409778
 31
0.0
 11
5.2016527832
 21
3.5964307127
 31
0.0
  0
SPLINE
  5
249
100
AcDbEntity
  8
0
100
AcDbSpline
 62
6
  6
CONTINUOUS
 70
0
 71
3
 72
36
 73
32
 74
30
 42
0.0000001
 43
0.0000001
 44
0.0000000001
 12
0.3108414597
 22
0.0996062035
 32
0.0
 13
0.3264104913
 23
0.0
 33
0.0
 40
0.0
 40
0.0
 40
0.0
 40
0.0
 40
0.0060464683
 40
0.0124477123
 40
0.0192111451
 40
0.0263423342
 40
0.0417213035
 40
0.0586006802
 40
0.076977257
 40
0.0968373757
 40
0.1181600677
 40
0.1409173991
 40
0.1650758833
 40
0.1905990083
 40
0.2174480973
 40
0.2455820823
 40
0.2749574972
 40
0.3055299739
 40
0.3372546276
 40
0.3700851007
 40
0.4388625878
 40
0.4747083281
 40
0.5114573258
 40
0.587429824
 40
0.6265316996
 40
0.6662965571
 40
0.7066605204
 40
0.747555979
 40
0.8306713026
 40
0.9150597683
 40
1.0
 40
1.0
 40
1.0
 40
1.0
 10
5.2016527832
 20
3.5964307127
 30
0.0
 10
5.2022792809
 20
3.5966314679
 30
0.0
 10
5.2035793933
 20
3.5970128972
 30
0.0
 10
5.2056087054
 20
3.5975160024
 30
0.0
 10
5.2077709405
 20
3.5979668399
 30
0.0
 10
5.2109093565
 20
3.5985128363
 30
0.0
 10
5.2151629282
 20
3.5990551284
 30
0.0
 10
5.2206558724
 20
3.5994970443
 30
0.0
 10
5.2266482498
 20
3.5997556783
 30
0.0
 10
5.2331287216
 20
3.5998412453
 30
0.0
 10
5.2400857556
 20
3.5997636392
 30
0.0
 10
5.2475071953
 20
3.5995348443
 30
0.0
 10
5.2553805338
 20
3.5991683199
 30
0.0
 10
5.2636930161
 20
3.5986772245
 30
0.0
 10
5.2724317386
 20
3.5980747906
 30
0.0
 10
5.2815835545
 20
3.5973746048
 30
0.0
 10
5.2911351094
 20
3.5965909411
 30
0.0
 10
5.3010728774
 20
3.5957379623
 30
0.0
 10
5.3113831911
 20
3.5948299512
 30
0.0
 10
5.3258331948
 20
3.593544677
 30
0.0
 10
5.3407305007
 20
3.5922270174
 30
0.0
 10
5.356057113
 20
3.5909249874
 30
0.0
 10
5.3721680779
 20
3.5896086469
 30
0.0
 10
5.3886401477
 20
3.5883618411
 30
0.0
 10
5.4054485044
 20
3.5872195748
 30
0.0
 10
5.4183963385
 20
3.5864151792
 30
0.0
 10
5.4315438276
 20
3.5856811856
 30
0.0
 10
5.4494068328
 20
3.5848015965
 30
0.0
 10
5.4720652846
 20
3.5839234733
 30
0.0
 10
5.4995255067
 20
3.5832782655
 30
0.0
 10
5.5179493679
 20
3.5831295243
 30
0.0
 10
5.5271911621
 20
3.5831295243
 30
0.0
 11
5.2016527832
 21
3.5964307127
 31
0.0
 11
5.2035458222
 21
3.5969889433
 31
0.0
 11
5.2055732595
 21
3.5974941451
 31
0.0
 11
5.2077339805
 21
3.5979469448
 31
0.0
 11
5.2100268702
 21
3.598347969
 31
0.0
 11
5.215004525
 21
3.5989975199
 31
0.0
 11
5.220495406
 21
3.5994513699
 31
0.0
 11
5.226487697
 21
3.5997199616
 31
0.0
 11
5.2329695694
 21
3.5998137602
 31
0.0
 11
5.2399291633
 21
3.5997433166
 31
0.0
 11
5.2473540585
 21
3.5995207
 31
0.0
 11
5.2552313544
 21
3.599159281
 31
0.0
 11
5.2635481351
 21
3.5986724725
 31
0.0
 11
5.27229148
 21
3.5980736934
 31
0.0
 11
5.2814482188
 21
3.597376694
 31
0.0
 11
5.2910048048
 21
3.5965957237
 31
0.0
 11
5.3009476601
 21
3.5957450736
 31
0.0
 11
5.3112632066
 21
3.5948390344
 31
0.0
 11
5.3219374674
 21
3.5938917586
 31
0.0
 11
5.3443011369
 21
3.591928339
 31
0.0
 11
5.3559597025
 21
3.5909394962
 31
0.0
 11
5.3679152248
 21
3.5899639401
 31
0.0
 11
5.3926433659
 21
3.5881009381
 31
0.0
 11
5.405377334
 21
3.5872366902
 31
0.0
 11
5.4183320746
 21
3.5864326736
 31
0.0
 11
5.4314868366
 21
3.5856987192
 31
0.0
 11
5.4448194215
 21
3.5850428602
 31
0.0
 11
5.4719289765
 21
3.5839972091
 31
0.0
 11
5.4994666578
 21
3.5833502229
 31
0.0
 11
5.5271911621
 21
3.5831295243
 31
0.0
  0
SPLINE
  5
24A
100
AcDbEntity
  8
0
100
AcDbSpline
 62
6
  6
CONTINUOUS
 70
0
 71
3
 72
17
 73
13
 74
11
 42
0.0000001
 43
0.0000001
 44
0.0000000001
 12
0.0
 22
-0.0220735013
 32
0.0
 13
-0.0194094552
 23
-0.010512493
 33
0.0
 40
0.0
 40
0.0
 40
0.0
 40
0.0
 40
0.0450630302
 40
0.0906837759
 40
0.1373851506
 40
0.1856533128
 40
0.2885003841
 40
0.4022411088
 40
0.5289981528
 40
0.6702503742
 40
0.8270167873
 40
1.0
 40
1.0
 40
1.0
 40
1.0
 10
5.9361911621
 20
3.1809635657
 30
0.0
 10
5.9361911621
 20
3.1806319994
 30
0.0
 10
5.9361534817
 20
3.1799641715
 30
0.0
 10
5.9359845521
 20
3.1789655939
 30
0.0
 10
5.9357034503
 20
3.1779680741
 30
0.0
 10
5.9351686002
 20
3.1766121166
 30
0.0
 10
5.9341961325
 20
3.1749108698
 30
0.0
 10
5.9326130096
 20
3.1729323252
 30
0.0
 10
5.9305937174
 20
3.1709713093
 30
0.0
 10
5.9281412217
 20
3.1690271838
 30
0.0
 10
5.9252573391
 20
3.1670999921
 30
0.0
 10
5.9231535157
 20
3.1658880243
 30
0.0
 10
5.9220343457
 20
3.1652818627
 30
0.0
 11
5.9361911621
 21
3.1809635657
 31
0.0
 11
5.9361354835
 21
3.1799704264
 31
0.0
 11
5.9359685262
 21
3.1789773536
 31
0.0
 11
5.9356904078
 21
3.1779847165
 31
0.0
 11
5.935301246
 21
3.1769928843
 31
0.0
 11
5.9341902628
 21
3.1750131112
 31
0.0
 11
5.9326365183
 21
3.1730409875
 31
0.0
 11
5.9306413709
 21
3.1710793471
 31
0.0
 11
5.9282074131
 21
3.1691306697
 31
0.0
 11
5.9253374642
 21
3.1671973699
 31
0.0
 11
5.9220343457
 21
3.1652818627
 31
0.0
  0
SPLINE
  5
24B
100
AcDbEntity
  8
0
100
AcDbSpline
 62
6
  6
CONTINUOUS
 70
0
 71
3
 72
18
 73
14
 74
12
 42
0.0000001
 43
0.0000001
 44
0.0000000001
 12
0.0
 22
-0.0220748434
 32
0.0
 13
-0.0194102487
 23
-0.0105138459
 33
0.0
 40
0.0
 40
0.0
 40
0.0
 40
0.0
 40
0.0450535682
 40
0.0906665884
 40
0.1373619884
 40
0.1856257005
 40
0.2884666917
 40
0.3438607634
 40
0.4022709793
 40
0.5290220701
 40
0.67027386
 40
0.8270361677
 40
1.0
 40
1.0
 40
1.0
 40
1.0
 10
5.9361911621
 20
3.2512952056
 30
0.0
 10
5.9361911621
 20
3.2509636887
 30
0.0
 10
5.9361534681
 20
3.2502959458
 30
0.0
 10
5.935984501
 20
3.2492974888
 30
0.0
 10
5.9357033484
 20
3.2483000407
 30
0.0
 10
5.9351684697
 20
3.2469442211
 30
0.0
 10
5.9344100175
 20
3.2456172285
 30
0.0
 10
5.9334664313
 20
3.2443314224
 30
0.0
 10
5.9323208341
 20
3.2429801973
 30
0.0
 10
5.9305937204
 20
3.2413028635
 30
0.0
 10
5.9281412878
 20
3.2393588465
 30
0.0
 10
5.925257278
 20
3.2374316527
 30
0.0
 10
5.9231535161
 20
3.2362196707
 30
0.0
 10
5.9220344257
 20
3.235613499
 30
0.0
 11
5.9361911621
 21
3.2512952056
 31
0.0
 11
5.9361354694
 21
3.2503022157
 31
0.0
 11
5.9359684779
 21
3.2493092595
 31
0.0
 11
5.935690318
 21
3.2483167059
 31
0.0
 11
5.9353011198
 21
3.2473249239
 31
0.0
 11
5.9341901295
 21
3.2453451504
 31
0.0
 11
5.9334685978
 21
3.2443578968
 31
0.0
 11
5.9326365487
 21
3.2433728906
 31
0.0
 11
5.9306415264
 21
3.2414110678
 31
0.0
 11
5.9282074184
 21
3.2394622899
 31
0.0
 11
5.9253373419
 21
3.2375289651
 31
0.0
 11
5.9220344257
 21
3.235613499
 31
0.0
  0
SPLINE
  5
24C
100
AcDbEntity
  8
0
100
AcDbSpline
 62
6
  6
CONTINUOUS
 70
0
 71
3
 72
23
 73
19
 74
17
 42
0.0000001
 43
0.0000001
 44
0.0000000001
 12
-0.0360819547
 22
-0.0195442764
 32
0.0
 13
-0.0
 23
-0.0410351824
 33
0.0
 40
0.0
 40
0.0
 40
0.0
 40
0.0
 40
0.0878888079
 40
0.1718069117
 40
0.2517976596
 40
0.3279194361
 40
0.4002555222
 40
0.4689128859
 40
0.534021954
 40
0.595741275
 40
0.6542629332
 40
0.7098185746
 40
0.7626869544
 40
0.8131977944
 40
0.8617315031
 40
0.9087190072
 40
0.954637359
 40
1.0
 40
1.0
 40
1.0
 40
1.0
 10
5.1444224538
 20
3.3244589612
 30
0.0
 10
5.1433653871
 20
3.3238863869
 30
0.0
 10
5.1413141661
 20
3.3227387636
 30
0.0
 10
5.1383609186
 20
3.3209654383
 30
0.0
 10
5.135604186
 20
3.319180896
 30
0.0
 10
5.1330454919
 20
3.3173857619
 30
0.0
 10
5.130686012
 20
3.3155807628
 30
0.0
 10
5.1285267197
 20
3.3137665936
 30
0.0
 10
5.1265685604
 20
3.3119438592
 30
0.0
 10
5.1248125048
 20
3.3101131207
 30
0.0
 10
5.1232595538
 20
3.3082749009
 30
0.0
 10
5.1219108269
 20
3.3064296198
 30
0.0
 10
5.1207673493
 20
3.3045778219
 30
0.0
 10
5.1198297828
 20
3.3027203208
 30
0.0
 10
5.1190989674
 20
3.3008579702
 30
0.0
 10
5.1185758367
 20
3.2989917151
 30
0.0
 10
5.1182613421
 20
3.2971231574
 30
0.0
 10
5.1181911621
 20
3.2958734877
 30
0.0
 10
5.1181911621
 20
3.2952529996
 30
0.0
 11
5.1444224538
 21
3.3244589612
 31
0.0
 11
5.1412762214
 21
3.3226959229
 31
0.0
 11
5.1383253279
 21
3.3209209379
 31
0.0
 11
5.1355714166
 21
3.3191347824
 31
0.0
 11
5.1330160844
 21
3.3173382307
 31
0.0
 11
5.1306605304
 21
3.3155320426
 31
0.0
 11
5.1285057514
 21
3.3137169705
 31
0.0
 11
5.1265527427
 21
3.3118937667
 31
0.0
 11
5.1248024997
 21
3.3100631837
 31
0.0
 11
5.1232560176
 21
3.3082259737
 31
0.0
 11
5.121914287
 21
3.3063828908
 31
0.0
 11
5.1207780437
 21
3.3045347773
 31
0.0
 11
5.1198476483
 21
3.3026826059
 31
0.0
 11
5.1191234317
 21
3.3008273594
 31
0.0
 11
5.1186057247
 21
3.2989700209
 31
0.0
 11
5.1182948579
 21
3.2971115733
 31
0.0
 11
5.1181911621
 21
3.2952529996
 31
0.0
  0
SPLINE
  5
24D
100
AcDbEntity
  8
0
100
AcDbSpline
 62
6
  6
CONTINUOUS
 70
0
 71
3
 72
23
 73
19
 74
17
 42
0.0000001
 43
0.0000001
 44
0.0000000001
 12
-0.0000020097
 22
0.0410352131
 32
0.0
 13
0.0360821223
 23
0.0195440315
 33
0.0
 40
0.0
 40
0.0
 40
0.0
 40
0.0
 40
0.0453914781
 40
0.0913218953
 40
0.1383093159
 40
0.1868352656
 40
0.2373347182
 40
0.2901915291
 40
0.3457383394
 40
0.4042557004
 40
0.4659741778
 40
0.5310845049
 40
0.5997439458
 40
0.6720817181
 40
0.7482036895
 40
0.8281938879
 40
0.9121115379
 40
1.0
 40
1.0
 40
1.0
 40
1.0
 10
5.118191174
 20
3.1545896479
 30
0.0
 10
5.1181911436
 20
3.1552105309
 30
0.0
 10
5.1182612284
 20
3.1564607678
 30
0.0
 10
5.118575716
 20
3.1583299005
 30
0.0
 10
5.1190988982
 20
3.1601962079
 30
0.0
 10
5.1198297929
 20
3.1620582504
 30
0.0
 10
5.1207674246
 20
3.1639152507
 30
0.0
 10
5.1219109212
 20
3.165766524
 30
0.0
 10
5.1232595677
 20
3.1676114433
 30
0.0
 10
5.1248124765
 20
3.1694494498
 30
0.0
 10
5.126568522
 20
3.1712801248
 30
0.0
 10
5.1285266876
 20
3.1731029039
 30
0.0
 10
5.1306859788
 20
3.1749171834
 30
0.0
 10
5.1330454298
 20
3.1767223124
 30
0.0
 10
5.1356040575
 20
3.1785175776
 30
0.0
 10
5.1383607385
 20
3.1803021855
 30
0.0
 10
5.1413139617
 20
3.1820755214
 30
0.0
 10
5.14336518
 20
3.1832231311
 30
0.0
 10
5.1444222475
 20
3.1837956961
 30
0.0
 11
5.118191174
 21
3.1545896479
 31
0.0
 11
5.1182948008
 21
3.1564494121
 31
0.0
 11
5.1186056674
 21
3.1583083631
 31
0.0
 11
5.1191234149
 21
3.1601656883
 31
0.0
 11
5.119847682
 21
3.1620205748
 31
0.0
 11
5.1207781075
 21
3.1638722099
 31
0.0
 11
5.12191433
 21
3.1657197808
 31
0.0
 11
5.1232559818
 21
3.1675624749
 31
0.0
 11
5.1248024284
 21
3.1693994867
 31
0.0
 11
5.1265526762
 21
3.1712300199
 31
0.0
 11
5.1285057064
 21
3.1730532792
 31
0.0
 11
5.1306605004
 21
3.1748684691
 31
0.0
 11
5.1330160393
 21
3.1766747942
 31
0.0
 11
5.1355713045
 21
3.1784714591
 31
0.0
 11
5.1383251529
 21
3.1802576748
 31
0.0
 11
5.1412760189
 21
3.1820326745
 31
0.0
 11
5.1444222475
 21
3.1837956961
 31
0.0
  0
SPLINE
  5
24E
100
AcDbEntity
  8
0
100
AcDbSpline
 62
6
  6
CONTINUOUS
 70
0
 71
3
 72
23
 73
19
 74
17
 42
0.0000001
 43
0.0000001
 44
0.0000000001
 12
-0.0360819262
 22
-0.0195443479
 32
0.0
 13
-0.0
 23
-0.0410351914
 33
0.0
 40
0.0
 40
0.0
 40
0.0
 40
0.0
 40
0.087889624
 40
0.1718084163
 40
0.2517998833
 40
0.3279223313
 40
0.4002585973
 40
0.4689157728
 40
0.5340244296
 40
0.5957432455
 40
0.6542644124
 40
0.7098196432
 40
0.7626876092
 40
0.8131980615
 40
0.8617314715
 40
0.9087188154
 40
0.9546371755
 40
1.0
 40
1.0
 40
1.0
 40
1.0
 10
5.1444224537
 20
3.2541273213
 30
0.0
 10
5.1433653781
 20
3.2535547395
 30
0.0
 10
5.1413141412
 20
3.2524071014
 30
0.0
 10
5.1383608705
 20
3.2506337543
 30
0.0
 10
5.1356041139
 20
3.2488491954
 30
0.0
 10
5.133045397
 20
3.2470540553
 30
0.0
 10
5.1306859114
 20
3.2452490472
 30
0.0
 10
5.1285266284
 20
3.2434348749
 30
0.0
 10
5.1265684872
 20
3.2416121424
 30
0.0
 10
5.1248124505
 20
3.2397814117
 30
0.0
 10
5.123259514
 20
3.2379432047
 30
0.0
 10
5.121910785
 20
3.236097947
 30
0.0
 10
5.1207673089
 20
3.2342461668
 30
0.0
 10
5.1198297498
 20
3.2323886781
 30
0.0
 10
5.1190989447
 20
3.2305263352
 30
0.0
 10
5.1185758249
 20
3.228660083
 30
0.0
 10
5.1182613392
 20
3.226791523
 30
0.0
 10
5.1181911621
 20
3.2255418504
 30
0.0
 10
5.1181911621
 20
3.2249213597
 30
0.0
 11
5.1444224537
 21
3.2541273213
 31
0.0
 11
5.1412761951
 21
3.2523642597
 31
0.0
 11
5.1383252797
 21
3.2505892547
 31
0.0
 11
5.1355713431
 21
3.2488030826
 31
0.0
 11
5.1330159852
 21
3.2470065184
 31
0.0
 11
5.1306604266
 21
3.2452003231
 31
0.0
 11
5.1285056583
 21
3.2433852493
 31
0.0
 11
5.1265526684
 21
3.2415620494
 31
0.0
 11
5.1248024449
 21
3.2397314756
 31
0.0
 11
5.1232559757
 21
3.2378942804
 31
0.0
 11
5.1219142456
 21
3.2360512174
 31
0.0
 11
5.1207780045
 21
3.2342031219
 31
0.0
 11
5.1198476166
 21
3.232350964
 31
0.0
 11
5.1191234101
 21
3.2304957263
 31
0.0
 11
5.1186057134
 21
3.2286383913
 31
0.0
 11
5.1182948546
 21
3.2267799416
 31
0.0
 11
5.1181911621
 21
3.2249213597
 31
0.0
  0
SPLINE
  5
24F
100
AcDbEntity
  8
0
100
AcDbSpline
 62
6
  6
CONTINUOUS
 70
0
 71
3
 72
27
 73
23
 74
21
 42
0.0000001
 43
0.0000001
 44
0.0000000001
 12
-0.0391500243
 22
-0.0379352153
 32
0.0
 13
0.0479343663
 23
-0.0259634645
 33
0.0
 40
0.0
 40
0.0
 40
0.0
 40
0.0
 40
0.0652929018
 40
0.1253429651
 40
0.1808640388
 40
0.2327809584
 40
0.2577560038
 40
0.2822729861
 40
0.306501949
 40
0.3306195747
 40
0.3548052233
 40
0.3792361207
 40
0.4040834324
 40
0.4295091266
 40
0.4826501374
 40
0.5397464979
 40
0.6016306967
 40
0.6689330304
 40
0.7421232491
 40
0.8215491232
 40
0.9074607158
 40
1.0
 40
1.0
 40
1.0
 40
1.0
 10
5.1290687484
 20
3.3687910639
 30
0.0
 10
5.1282166755
 20
3.3679654305
 30
0.0
 10
5.1266459276
 20
3.3663105548
 30
0.0
 10
5.1246387675
 20
3.3636994571
 30
0.0
 10
5.12308858
 20
3.3610703863
 30
0.0
 10
5.1221696636
 20
3.3588355082
 30
0.0
 10
5.121680865
 20
3.3570568625
 30
0.0
 10
5.1214346855
 20
3.3557383747
 30
0.0
 10
5.1213046674
 20
3.3544190606
 30
0.0
 10
5.1212909977
 20
3.3530994097
 30
0.0
 10
5.1213936285
 20
3.3517800238
 30
0.0
 10
5.1216122742
 20
3.3504614648
 30
0.0
 10
5.1219466717
 20
3.3491441888
 30
0.0
 10
5.1225551133
 20
3.3473643866
 30
0.0
 10
5.1236232346
 20
3.3451320036
 30
0.0
 10
5.1253441133
 20
3.3425110602
 30
0.0
 10
5.127518363
 20
3.3399083434
 30
0.0
 10
5.1301417117
 20
3.3373243301
 30
0.0
 10
5.1332111212
 20
3.334759471
 30
0.0
 10
5.1367237693
 20
3.3322151193
 30
0.0
 10
5.1406761395
 20
3.3296935715
 30
0.0
 10
5.1434955681
 20
3.3280889218
 30
0.0
 10
5.1449741721
 20
3.3272880417
 30
0.0
 11
5.1290687484
 21
3.3687910639
 31
0.0
 11
5.126628999
 21
3.3661993634
 31
0.0
 11
5.1246459833
 21
3.3635947507
 31
0.0
 11
5.1231216644
 21
3.3609799262
 31
0.0
 11
5.1220569969
 21
3.3583576015
 31
0.0
 11
5.1216973189
 21
3.357044474
 31
0.0
 11
5.1214528975
 21
3.3557304885
 31
0.0
 11
5.1213238473
 21
3.354415984
 31
0.0
 11
5.1213102715
 21
3.3531012994
 31
0.0
 11
5.1214121146
 21
3.3517867759
 31
0.0
 11
5.121629204
 21
3.3504727554
 31
0.0
 11
5.1219613647
 21
3.3491595804
 31
0.0
 11
5.1224084213
 21
3.347847593
 31
0.0
 11
5.1236465216
 21
3.3452285499
 31
0.0
 11
5.1253421032
 21
3.3426183639
 31
0.0
 11
5.1274933928
 21
3.3400197223
 31
0.0
 11
5.1300974472
 21
3.3374351526
 31
0.0
 11
5.1331510937
 21
3.334867151
 31
0.0
 11
5.1366511593
 21
3.3323182137
 31
0.0
 11
5.1405941181
 21
3.3297908872
 31
0.0
 11
5.1449741721
 21
3.3272880417
 31
0.0
  0
LINE
  5
250
100
AcDbEntity
  8
0
100
AcDbLine
 62
6
  6
CONTINUOUS
 10
5.1625226243
 20
3.4011986922
 11
5.1627142677
 21
3.4013784363
  0
SPLINE
  5
251
100
AcDbEntity
  8
0
100
AcDbSpline
 62
6
  6
CONTINUOUS
 70
0
 71
3
 72
63
 73
59
 74
57
 42
0.0000001
 43
0.0000001
 44
0.0000000001
 12
-0.4746944236
 22
0.4601377188
 32
0.0
 13
-0.4746944236
 23
-0.4601377188
 33
0.0
 40
0.0
 40
0.0
 40
0.0
 40
0.0
 40
0.0027566615
 40
0.0056826808
 40
0.0087845576
 40
0.0120675028
 40
0.015535682
 40
0.0191924117
 40
0.0230402684
 40
0.0270808361
 40
0.0357426318
 40
0.0451812018
 40
0.0553946473
 40
0.0663762091
 40
0.0781135947
 40
0.0905923901
 40
0.1037966352
 40
0.1177065562
 40
0.1322997066
 40
0.1475529676
 40
0.1634418902
 40
0.1799387215
 40
0.214640264
 40
0.2514168074
 40
0.2900052105
 40
0.330128244
 40
0.3714945144
 40
0.4138023998
 40
0.4567425336
 40
0.5
 40
0.5432574664
 40
0.5861976002
 40
0.6285054856
 40
0.669871756
 40
0.7099947895
 40
0.7485831926
 40
0.785359736
 40
0.8200612785
 40
0.8365581098
 40
0.8524470324
 40
0.8677002934
 40
0.8822934438
 40
0.8962033648
 40
0.9094076099
 40
0.9218864053
 40
0.9336237909
 40
0.9446053527
 40
0.9548187982
 40
0.9642573682
 40
0.9729191639
 40
0.9769597316
 40
0.9808075883
 40
0.984464318
 40
0.9879324972
 40
0.9912154424
 40
0.9943173192
 40
0.9972433385
 40
1.0
 40
1.0
 40
1.0
 40
1.0
 10
5.8509750588
 20
3.4408258046
 30
0.0
 10
5.8505388682
 20
3.4412486192
 30
0.0
 10
5.8496116039
 20
3.4420915663
 30
0.0
 10
5.8481090585
 20
3.4433134266
 30
0.0
 10
5.8464551982
 20
3.4445290575
 30
0.0
 10
5.8446508252
 20
3.445737936
 30
0.0
 10
5.8426966432
 20
3.4469396055
 30
0.0
 10
5.840593402
 20
3.4481335498
 30
0.0
 10
5.8383419377
 20
3.4493192129
 30
0.0
 10
5.835067249
 20
3.4509258071
 30
0.0
 10
5.8306032664
 20
3.4529004682
 30
0.0
 10
5.8247924556
 20
3.455177429
 30
0.0
 10
5.8184198256
 20
3.4574088364
 30
0.0
 10
5.8114970609
 20
3.459590179
 30
0.0
 10
5.8040371934
 20
3.4617177654
 30
0.0
 10
5.7960541153
 20
3.4637874347
 30
0.0
 10
5.7875625006
 20
3.4657948035
 30
0.0
 10
5.778578364
 20
3.4677362007
 30
0.0
 10
5.7691188247
 20
3.4696081175
 30
0.0
 10
5.7592015875
 20
3.4714067917
 30
0.0
 10
5.7488452183
 20
3.473128492
 30
0.0
 10
5.7342295408
 20
3.475355165
 30
0.0
 10
5.7150093276
 20
3.4779075302
 30
0.0
 10
5.6908987856
 20
3.4805681521
 30
0.0
 10
5.6655502779
 20
3.4828555346
 30
0.0
 10
5.639155556
 20
3.4847516356
 30
0.0
 10
5.6119139923
 20
3.4862417069
 30
0.0
 10
5.5840316203
 20
3.4873145784
 30
0.0
 10
5.5557192906
 20
3.4879613087
 30
0.0
 10
5.5271911621
 20
3.4881777688
 30
0.0
 10
5.4986630336
 20
3.4879613087
 30
0.0
 10
5.4703507039
 20
3.4873145784
 30
0.0
 10
5.4424683319
 20
3.4862417069
 30
0.0
 10
5.4152267683
 20
3.4847516356
 30
0.0
 10
5.3888320463
 20
3.4828555346
 30
0.0
 10
5.3634835386
 20
3.4805681521
 30
0.0
 10
5.3393729966
 20
3.4779075302
 30
0.0
 10
5.3201527835
 20
3.475355165
 30
0.0
 10
5.3055371059
 20
3.473128492
 30
0.0
 10
5.2951807368
 20
3.4714067917
 30
0.0
 10
5.2852634995
 20
3.4696081175
 30
0.0
 10
5.2758039602
 20
3.4677362007
 30
0.0
 10
5.2668198236
 20
3.4657948035
 30
0.0
 10
5.2583282089
 20
3.4637874347
 30
0.0
 10
5.2503451308
 20
3.4617177654
 30
0.0
 10
5.2428852633
 20
3.459590179
 30
0.0
 10
5.2359624987
 20
3.4574088364
 30
0.0
 10
5.2295898686
 20
3.455177429
 30
0.0
 10
5.2237790578
 20
3.4529004682
 30
0.0
 10
5.2193150752
 20
3.4509258071
 30
0.0
 10
5.2160403865
 20
3.4493192129
 30
0.0
 10
5.2137889222
 20
3.4481335498
 30
0.0
 10
5.211685681
 20
3.4469396055
 30
0.0
 10
5.209731499
 20
3.445737936
 30
0.0
 10
5.207927126
 20
3.4445290575
 30
0.0
 10
5.2062732657
 20
3.4433134266
 30
0.0
 10
5.2047707204
 20
3.4420915663
 30
0.0
 10
5.2038434561
 20
3.4412486192
 30
0.0
 10
5.2034072655
 20
3.4408258046
 30
0.0
 11
5.8509750588
 21
3.4408258046
 31
0.0
 11
5.8496287142
 21
3.4420540824
 31
0.0
 11
5.8481297872
 21
3.4432768494
 31
0.0
 11
5.8464790698
 21
3.4444935583
 31
0.0
 11
5.8446773538
 21
3.4457036617
 31
0.0
 11
5.8427254312
 21
3.4469066124
 31
0.0
 11
5.8406240937
 21
3.4481018631
 31
0.0
 11
5.8383741699
 21
3.449288866
 31
0.0
 11
5.8359767989
 21
3.4504670683
 31
0.0
 11
5.8307449047
 21
3.4527948502
 31
0.0
 11
5.824938795
 21
3.4550807671
 31
0.0
 11
5.8185688671
 21
3.4573203784
 31
0.0
 11
5.8116467594
 21
3.4595093798
 31
0.0
 11
5.8041864035
 21
3.4616437188
 31
0.0
 11
5.7962019787
 21
3.4637193697
 31
0.0
 11
5.7877078283
 21
3.4657323269
 31
0.0
 11
5.7787202592
 21
3.4676788219
 31
0.0
 11
5.7692568728
 21
3.4695552427
 31
0.0
 11
5.7593352937
 21
3.47135798
 31
0.0
 11
5.748973725
 21
3.4730835266
 31
0.0
 11
5.7381923703
 21
3.4747287286
 31
0.0
 11
5.7154528803
 21
3.4777657969
 31
0.0
 11
5.691287855
 21
3.48044599
 31
0.0
 11
5.6658809997
 21
3.4827491717
 31
0.0
 11
5.6394241689
 21
3.4846578377
 31
0.0
 11
5.612117818
 21
3.4861575116
 31
0.0
 11
5.5841686471
 21
3.4872369736
 31
0.0
 11
5.5557881169
 21
3.4878878246
 31
0.0
 11
5.5271911621
 21
3.4881054386
 31
0.0
 11
5.4985942073
 21
3.4878878246
 31
0.0
 11
5.4702136771
 21
3.4872369736
 31
0.0
 11
5.4422645062
 21
3.4861575116
 31
0.0
 11
5.4149581553
 21
3.4846578377
 31
0.0
 11
5.3885013245
 21
3.4827491717
 31
0.0
 11
5.3630944693
 21
3.48044599
 31
0.0
 11
5.3389294439
 21
3.4777657969
 31
0.0
 11
5.3161899539
 21
3.4747287286
 31
0.0
 11
5.3054085992
 21
3.4730835266
 31
0.0
 11
5.2950470305
 21
3.47135798
 31
0.0
 11
5.2851254514
 21
3.4695552427
 31
0.0
 11
5.2756620651
 21
3.4676788219
 31
0.0
 11
5.2666744959
 21
3.4657323269
 31
0.0
 11
5.2581803455
 21
3.4637193697
 31
0.0
 11
5.2501959207
 21
3.4616437188
 31
0.0
 11
5.2427355648
 21
3.4595093798
 31
0.0
 11
5.2358134571
 21
3.4573203784
 31
0.0
 11
5.2294435292
 21
3.4550807671
 31
0.0
 11
5.2236374195
 21
3.4527948502
 31
0.0
 11
5.2184055253
 21
3.4504670683
 31
0.0
 11
5.2160081544
 21
3.449288866
 31
0.0
 11
5.2137582305
 21
3.4481018631
 31
0.0
 11
5.211656893
 21
3.4469066124
 31
0.0
 11
5.2097049704
 21
3.4457036617
 31
0.0
 11
5.2079032544
 21
3.4444935583
 31
0.0
 11
5.206252537
 21
3.4432768494
 31
0.0
 11
5.20475361
 21
3.4420540824
 31
0.0
 11
5.2034072655
 21
3.4408258046
 31
0.0
  0
SPLINE
  5
252
100
AcDbEntity
  8
0
100
AcDbSpline
 62
6
  6
CONTINUOUS
 70
0
 71
3
 72
36
 73
32
 74
30
 42
0.0000001
 43
0.0000001
 44
0.0000000001
 12
-0.2849759069
 22
-0.2762370005
 32
0.0
 13
-0.3968550059
 23
0.0049246596
 33
0.0
 40
0.0
 40
0.0
 40
0.0
 40
0.0
 40
0.0054206765
 40
0.0111915432
 40
0.0173264652
 40
0.0238364309
 40
0.03073012
 40
0.0380143561
 40
0.045694173
 40
0.0537723788
 40
0.0622505381
 40
0.0711293685
 40
0.0900876084
 40
0.1106417419
 40
0.132772547
 40
0.1564511479
 40
0.1816449535
 40
0.208315999
 40
0.2364173793
 40
0.2658994966
 40
0.2967109121
 40
0.3287935236
 40
0.3620852534
 40
0.4320403929
 40
0.5060312175
 40
0.5834741421
 40
0.6637484159
 40
0.7462106103
 40
0.830193955
 40
0.9150196507
 40
1.0
 40
1.0
 40
1.0
 40
1.0
 10
5.8903408821
 20
3.0942732038
 30
0.0
 10
5.8898259613
 20
3.0937740733
 30
0.0
 10
5.8887279126
 20
3.0927792144
 30
0.0
 10
5.8869427894
 20
3.0913396819
 30
0.0
 10
5.8849703858
 20
3.089907944
 30
0.0
 10
5.8828117374
 20
3.0884846755
 30
0.0
 10
5.8804677535
 20
3.0870704676
 30
0.0
 10
5.8779394217
 20
3.0856660046
 30
0.0
 10
5.8752279009
 20
3.0842720319
 30
0.0
 10
5.8723346704
 20
3.0828891525
 30
0.0
 10
5.8692613386
 20
3.0815180397
 30
0.0
 10
5.8648279645
 20
3.0796658958
 30
0.0
 10
5.8588401223
 20
3.0773953973
 30
0.0
 10
5.8511124602
 20
3.0747852732
 30
0.0
 10
5.8427089875
 20
3.0722387044
 30
0.0
 10
5.8336473099
 20
3.0697606715
 30
0.0
 10
5.8239458087
 20
3.0673567772
 30
0.0
 10
5.8136244124
 20
3.0650324841
 30
0.0
 10
5.8027047704
 20
3.062792198
 30
0.0
 10
5.7912096195
 20
3.0606407281
 30
0.0
 10
5.7791626884
 20
3.0585831282
 30
0.0
 10
5.766589151
 20
3.0566234486
 30
0.0
 10
5.7488633163
 20
3.0541047107
 30
0.0
 10
5.725587642
 20
3.0512496918
 30
0.0
 10
5.6964432581
 20
3.0483254551
 30
0.0
 10
5.6658855369
 20
3.045875719
 30
0.0
 10
5.6341695094
 20
3.0439202575
 30
0.0
 10
5.6015600404
 20
3.0424768302
 30
0.0
 10
5.5683292967
 20
3.0415572108
 30
0.0
 10
5.5347550609
 20
3.0411693355
 30
0.0
 10
5.5122896243
 20
3.0412678732
 30
0.0
 10
5.5010479986
 20
3.041407373
 30
0.0
 11
5.8903408821
 21
3.0942732038
 31
0.0
 11
5.8887493679
 21
3.0928256009
 31
0.0
 11
5.8869688977
 21
3.091384859
 31
0.0
 11
5.8850005023
 21
3.0899516903
 31
0.0
 11
5.8828452127
 21
3.0885268075
 31
0.0
 11
5.8805040596
 21
3.0871109229
 31
0.0
 11
5.877978074
 21
3.0857047491
 31
0.0
 11
5.875268417
 21
3.0843090004
 31
0.0
 11
5.8723766869
 21
3.0829243983
 31
0.0
 11
5.8693045734
 21
3.0815516656
 31
0.0
 11
5.8660537666
 21
3.080191525
 31
0.0
 11
5.8590228326
 21
3.0775119114
 31
0.0
 11
5.8512975768
 21
3.0748913209
 31
0.0
 11
5.8428943367
 21
3.0723352267
 31
0.0
 11
5.8338315158
 21
3.069848875
 31
0.0
 11
5.8241275757
 21
3.067437506
 31
0.0
 11
5.8138021313
 21
3.0651062203
 31
0.0
 11
5.8028776823
 21
3.06285977
 31
0.0
 11
5.7913771721
 21
3.0607028536
 31
0.0
 11
5.7793237926
 21
3.0586401259
 31
0.0
 11
5.7667430931
 21
3.0566758252
 31
0.0
 11
5.753661923
 21
3.0548139606
 31
0.0
 11
5.7261067899
 21
3.0514132853
 31
0.0
 11
5.6968891399
 21
3.0484663523
 31
0.0
 11
5.666252429
 21
3.0459980895
 31
0.0
 11
5.6344536494
 21
3.0440287966
 31
0.0
 11
5.6017578904
 21
3.0425752252
 31
0.0
 11
5.5684389752
 21
3.0416493537
 31
0.0
 11
5.5347751454
 21
3.0412589234
 31
0.0
 11
5.5010479986
 21
3.041407373
 31
0.0
  0
SPLINE
  5
253
100
AcDbEntity
  8
0
100
AcDbSpline
 62
6
  6
CONTINUOUS
 70
0
 71
3
 72
35
 73
31
 74
29
 42
0.0000001
 43
0.0000001
 44
0.0000000001
 12
-0.3445721768
 22
0.0042758707
 32
0.0
 13
-0.2474323547
 23
0.2398447372
 33
0.0
 40
0.0
 40
0.0
 40
0.0
 40
0.0
 40
0.0878838703
 40
0.1746852448
 40
0.2598330392
 40
0.3427656017
 40
0.4229418199
 40
0.4998375178
 40
0.5729587546
 40
0.607956199
 40
0.6418386122
 40
0.67455306
 40
0.7060476513
 40
0.7362759184
 40
0.7651949888
 40
0.7927630455
 40
0.818940668
 40
0.8436959899
 40
0.8670011546
 40
0.8888309341
 40
0.9091657029
 40
0.9279967129
 40
0.9453224894
 40
0.9611501633
 40
0.9685093714
 40
0.9755046292
 40
0.9821423647
 40
0.9884305511
 40
0.9943790451
 40
1.0
 40
1.0
 40
1.0
 40
1.0
 10
5.5010479986
 20
3.041407373
 30
0.0
 10
5.4909538864
 20
3.041532633
 30
0.0
 10
5.4708914649
 20
3.0419260057
 30
0.0
 10
5.4410619703
 20
3.0429509841
 30
0.0
 10
5.4118193603
 20
3.0444001138
 30
0.0
 10
5.3833628193
 20
3.0462646043
 30
0.0
 10
5.3558862303
 20
3.0485301766
 30
0.0
 10
5.3295766363
 20
3.0511823527
 30
0.0
 10
5.3084766715
 20
3.0537337403
 30
0.0
 10
5.2923186908
 20
3.0559660201
 30
0.0
 10
5.2807781913
 20
3.0577001017
 30
0.0
 10
5.2696576798
 20
3.0595155092
 30
0.0
 10
5.258976274
 20
3.0614094916
 30
0.0
 10
5.2487520642
 20
3.0633786311
 30
0.0
 10
5.2390021945
 20
3.0654192944
 30
0.0
 10
5.2297433509
 20
3.0675279657
 30
0.0
 10
5.2209914446
 20
3.0697014141
 30
0.0
 10
5.2127610949
 20
3.0719355705
 30
0.0
 10
5.2050659235
 20
3.0742263913
 30
0.0
 10
5.1979190268
 20
3.0765700062
 30
0.0
 10
5.1913325548
 20
3.078962826
 30
0.0
 10
5.1853168939
 20
3.0814002067
 30
0.0
 10
5.1798817124
 20
3.0838778179
 30
0.0
 10
5.1757483413
 20
3.0860217671
 30
0.0
 10
5.1727492584
 20
3.0877621293
 30
0.0
 10
5.1707058128
 20
3.0890432297
 30
0.0
 10
5.168813902
 20
3.0903314812
 30
0.0
 10
5.1670742103
 20
3.0916264736
 30
0.0
 10
5.1654875118
 20
3.0929276931
 30
0.0
 10
5.1645050442
 20
3.0938238183
 30
0.0
 10
5.1640414422
 20
3.0942732038
 30
0.0
 11
5.5010479986
 21
3.041407373
 31
0.0
 11
5.4707691942
 21
3.042003292
 31
0.0
 11
5.440875309
 21
3.043033783
 31
0.0
 11
5.4115697178
 21
3.0444914229
 31
0.0
 11
5.3830528544
 21
3.0463666612
 31
0.0
 11
5.3555184441
 21
3.0486463428
 31
0.0
 11
5.3291550366
 21
3.051315261
 31
0.0
 11
5.3041415667
 21
3.0543549157
 31
0.0
 11
5.2921952594
 21
3.0560075281
 31
0.0
 11
5.2806493986
 21
3.0577448365
 31
0.0
 11
5.2695237702
 21
3.05956389
 31
0.0
 11
5.2588379949
 21
3.0614617087
 31
0.0
 11
5.24860999
 21
3.0634350116
 31
0.0
 11
5.2388566672
 21
3.0654803405
 31
0.0
 11
5.2295949251
 21
3.0675942347
 31
0.0
 11
5.2208412657
 21
3.0697731856
 31
0.0
 11
5.2126100228
 21
3.0720134226
 31
0.0
 11
5.2049147923
 21
3.0743110862
 31
0.0
 11
5.1977691692
 21
3.0766623165
 31
0.0
 11
5.1911859588
 21
3.0790631672
 31
0.0
 11
5.1851755709
 21
3.081509429
 31
0.0
 11
5.1797479629
 21
3.083996843
 31
0.0
 11
5.1749130767
 21
3.0865211505
 31
0.0
 11
5.1727207269
 21
3.0877958129
 31
0.0
 11
5.1706795289
 21
3.0890781136
 31
0.0
 11
5.1687902422
 21
3.0903675278
 31
0.0
 11
5.167053626
 21
3.0916635307
 31
0.0
 11
5.1654704396
 21
3.0929655976
 31
0.0
 11
5.1640414422
 21
3.0942732038
 31
0.0
  0
SPLINE
  5
254
100
AcDbEntity
  8
0
100
AcDbSpline
 62
6
  6
CONTINUOUS
 70
0
 71
3
 72
15
 73
11
 74
9
 42
0.0000001
 43
0.0000001
 44
0.0000000001
 12
0.0089437768
 22
0.0086655383
 32
0.0
 13
-0.0014503065
 23
0.0123684805
 33
0.0
 40
0.0
 40
0.0
 40
0.0
 40
0.0
 40
0.1509240878
 40
0.2918379476
 40
0.4237322601
 40
0.547843241
 40
0.6656670071
 40
0.7789575972
 40
0.889693548
 40
1.0
 40
1.0
 40
1.0
 40
1.0
 10
5.9147025135
 20
3.1178798274
 30
0.0
 10
5.9151524573
 20
3.1183157736
 30
0.0
 10
5.9159942158
 20
3.1191888666
 30
0.0
 10
5.9171097017
 20
3.1205516225
 30
0.0
 10
5.9180316688
 20
3.1219204509
 30
0.0
 10
5.918759023
 20
3.1232949165
 30
0.0
 10
5.9192905961
 20
3.1246744323
 30
0.0
 10
5.9196248768
 20
3.1260580736
 30
0.0
 10
5.9197604599
 20
3.1274437653
 30
0.0
 10
5.9197178971
 20
3.1283640381
 30
0.0
 10
5.9196645711
 20
3.1288188125
 30
0.0
 11
5.9147025135
 21
3.1178798274
 31
0.0
 11
5.9160034347
 21
3.1192363266
 31
0.0
 11
5.9171109027
 21
3.1205975569
 31
0.0
 11
5.9180241217
 21
3.1219627919
 31
0.0
 11
5.9187426532
 21
3.1233311977
 31
0.0
 11
5.9192662299
 21
3.1247018887
 31
0.0
 11
5.9195945858
 21
3.1260739788
 31
0.0
 11
5.9197274548
 21
3.127446582
 31
0.0
 11
5.9196645711
 21
3.1288188125
 31
0.0
  0
SPLINE
  5
255
100
AcDbEntity
  8
0
100
AcDbSpline
 62
6
  6
CONTINUOUS
 70
0
 71
3
 72
16
 73
12
 74
10
 42
0.0000001
 43
0.0000001
 44
0.0000000001
 12
-0.0268898322
 22
-0.0145675872
 32
0.0
 13
-0.0078098238
 23
-0.0295682994
 33
0.0
 40
0.0
 40
0.0
 40
0.0
 40
0.0
 40
0.165403031
 40
0.317938139
 40
0.4579802013
 40
0.586074114
 40
0.7030004005
 40
0.8098675999
 40
0.9081816669
 40
0.9547679907
 40
1.0
 40
1.0
 40
1.0
 40
1.0
 10
5.1792307799
 20
3.1323209028
 30
0.0
 10
5.1777482266
 20
3.1315177284
 30
0.0
 10
5.1749329345
 20
3.1299085347
 30
0.0
 10
5.1710121349
 20
3.1273689624
 30
0.0
 10
5.1675704121
 20
3.1248045903
 30
0.0
 10
5.1646121051
 20
3.1222172856
 30
0.0
 10
5.1621417138
 20
3.1196074219
 30
0.0
 10
5.1601633883
 20
3.1169767937
 30
0.0
 10
5.1589067634
 20
3.1147269294
 30
0.0
 10
5.1581722441
 20
3.1129312504
 30
0.0
 10
5.157892058
 20
3.1120366559
 30
0.0
 10
5.1577743067
 20
3.1115908447
 30
0.0
 11
5.1792307799
 21
3.1323209028
 31
0.0
 11
5.17484427
 21
3.1298017741
 31
0.0
 11
5.1709353655
 21
3.1272558885
 31
0.0
 11
5.1675091435
 21
3.1246861682
 31
0.0
 11
5.1645706575
 21
3.1220955345
 31
0.0
 11
5.1621247686
 21
3.1194869877
 31
0.0
 11
5.1601749005
 21
3.1168641181
 31
0.0
 11
5.158723824
 21
3.1142307839
 31
0.0
 11
5.1581861974
 21
3.1129113987
 31
0.0
 11
5.1577743067
 21
3.1115908447
 31
0.0
  0
SPLINE
  5
256
100
AcDbEntity
  8
0
100
AcDbSpline
 62
6
  6
CONTINUOUS
 70
0
 71
3
 72
14
 73
10
 74
8
 42
0.0000001
 43
0.0000001
 44
0.0000000001
 12
0.0016358262
 22
-0.011524464
 32
0.0
 13
0.0083594029
 23
-0.0080999741
 33
0.0
 40
0.0
 40
0.0
 40
0.0
 40
0.0
 40
0.1086712637
 40
0.2201354617
 40
0.3354703955
 40
0.4556454398
 40
0.5815141167
 40
0.7138159625
 40
1.0
 40
1.0
 40
1.0
 40
1.0
 10
5.1569648207
 20
3.1054247342
 30
0.0
 10
5.1570240764
 20
3.1050072748
 30
0.0
 10
5.1571903866
 20
3.1041675577
 30
0.0
 10
5.1575748759
 20
3.102921836
 30
0.0
 10
5.1580961853
 20
3.1016784149
 30
0.0
 10
5.1587537295
 20
3.1004380514
 30
0.0
 10
5.1595470699
 20
3.0992010319
 30
0.0
 10
5.1608186674
 20
3.0975127486
 30
0.0
 10
5.1619289048
 20
3.0963203385
 30
0.0
 10
5.1627263474
 20
3.0955476441
 30
0.0
 11
5.1569648207
 21
3.1054247342
 31
0.0
 11
5.1572092324
 21
3.1041836399
 31
0.0
 11
5.1575899594
 21
3.102943317
 31
0.0
 11
5.1581068238
 21
3.1017043059
 31
0.0
 11
5.1587596478
 21
3.1004671473
 31
0.0
 11
5.1595482534
 21
3.0992323816
 31
0.0
 11
5.1604724623
 21
3.0980005494
 31
0.0
 11
5.1627263474
 21
3.0955476441
 31
0.0
  0
SPLINE
  5
257
100
AcDbEntity
  8
0
100
AcDbSpline
 62
6
  6
CONTINUOUS
 70
0
 71
3
 72
11
 73
7
 74
5
 42
0.0000001
 43
0.0000001
 44
0.0000000001
 12
-0.0261699853
 22
0.0141752639
 32
0.0
 13
-0.0213717255
 23
0.020713657
 33
0.0
 40
0.0
 40
0.0
 40
0.0
 40
0.0
 40
0.2818906414
 40
0.5420818077
 40
0.7811554396
 40
1.0
 40
1.0
 40
1.0
 40
1.0
 10
5.1520552701
 20
3.1124571213
 30
0.0
 10
5.1495962454
 20
3.1137890794
 30
0.0
 10
5.1449252948
 20
3.1164599666
 30
0.0
 10
5.1384199767
 20
3.1206804893
 30
0.0
 10
5.1327079757
 20
3.1249475118
 30
0.0
 10
5.129288536
 20
3.1279488783
 30
0.0
 10
5.1277295074
 20
3.129459902
 30
0.0
 11
5.1520552701
 21
3.1124571213
 31
0.0
 11
5.1447806625
 21
3.1166366326
 31
0.0
 11
5.1382947724
 21
3.1208676868
 31
0.0
 11
5.1326078381
 21
3.1251441453
 31
0.0
 11
5.1277295074
 21
3.129459902
 31
0.0
  0
SPLINE
  5
258
100
AcDbEntity
  8
0
100
AcDbSpline
 62
6
  6
CONTINUOUS
 70
0
 71
3
 72
18
 73
14
 74
12
 42
0.0000001
 43
0.0000001
 44
0.0000000001
 12
0.019410264
 22
-0.0105138033
 32
0.0
 13
0.0
 23
-0.0220748366
 33
0.0
 40
0.0
 40
0.0
 40
0.0
 40
0.0
 40
0.1729639556
 40
0.3297256772
 40
0.4709767556
 40
0.5977275316
 40
0.6561377823
 40
0.7115319785
 40
0.8143733855
 40
0.8626373409
 40
0.9093329819
 40
0.9549462277
 40
1.0
 40
1.0
 40
1.0
 40
1.0
 10
5.9220344348
 20
3.2054372468
 30
0.0
 10
5.9231535268
 20
3.2048310771
 30
0.0
 10
5.9252572868
 20
3.2036191001
 30
0.0
 10
5.9281412883
 20
3.201691911
 30
0.0
 10
5.9305937078
 20
3.1997478981
 30
0.0
 10
5.9323208148
 20
3.1980705691
 30
0.0
 10
5.9334664115
 20
3.1967193459
 30
0.0
 10
5.934410001
 20
3.1954335376
 30
0.0
 10
5.9351684578
 20
3.1941065416
 30
0.0
 10
5.9357033416
 20
3.1927507174
 30
0.0
 10
5.9359844977
 20
3.1917532652
 30
0.0
 10
5.9361534674
 20
3.1907548039
 30
0.0
 10
5.9361911621
 20
3.190087058
 30
0.0
 10
5.9361911621
 20
3.1897555397
 30
0.0
 11
5.9220344348
 21
3.2054372468
 31
0.0
 11
5.9253373548
 21
3.2035217842
 31
0.0
 11
5.9282074192
 21
3.2015884666
 31
0.0
 11
5.9306415119
 21
3.1996396963
 31
0.0
 11
5.9326365279
 21
3.1976778782
 31
0.0
 11
5.9334685777
 21
3.196692872
 31
0.0
 11
5.9341901116
 21
3.1957056172
 31
0.0
 11
5.9353011091
 21
3.193725838
 31
0.0
 11
5.9356903112
 21
3.1927340521
 31
0.0
 11
5.9359684746
 21
3.1917414943
 31
0.0
 11
5.9361354684
 21
3.1907485338
 31
0.0
 11
5.9361911621
 21
3.1897555397
 31
0.0
  0
SPLINE
  5
259
100
AcDbEntity
  8
0
100
AcDbSpline
 62
6
  6
CONTINUOUS
 70
0
 71
3
 72
17
 73
13
 74
11
 42
0.0000001
 43
0.0000001
 44
0.0000000001
 12
0.0169045559
 22
-0.0091586371
 32
0.0
 13
0.000003099
 23
-0.0192261446
 33
0.0
 40
0.0
 40
0.0
 40
0.0
 40
0.0
 40
0.1730311981
 40
0.3298208254
 40
0.4710790486
 40
0.5978300493
 40
0.7115500995
 40
0.814359018
 40
0.8626108641
 40
0.9093028743
 40
0.9549242726
 40
1.0
 40
1.0
 40
1.0
 40
1.0
 10
5.8851999895
 20
3.2253915265
 30
0.0
 10
5.8861749946
 20
3.2248632832
 30
0.0
 10
5.8880076914
 20
3.223807178
 30
0.0
 10
5.8905197636
 20
3.2221279883
 30
0.0
 10
5.8926558931
 20
3.2204343988
 30
0.0
 10
5.8944146655
 20
3.2187265265
 30
0.0
 10
5.8957938198
 20
3.2170039343
 30
0.0
 10
5.8966406912
 20
3.2155225757
 30
0.0
 10
5.8971062781
 20
3.2143418604
 30
0.0
 10
5.8973509459
 20
3.2134731325
 30
0.0
 10
5.8974979846
 20
3.2126033252
 30
0.0
 10
5.8975308212
 20
3.2120215638
 30
0.0
 10
5.8975308678
 20
3.2117326863
 30
0.0
 11
5.8851999895
 21
3.2253915265
 31
0.0
 11
5.8880776015
 21
3.223722265
 31
0.0
 11
5.8905775103
 21
3.2220377991
 31
0.0
 11
5.8926974855
 21
3.2203402855
 31
0.0
 11
5.8944352994
 21
3.2186318811
 31
0.0
 11
5.8957887297
 21
3.2169147429
 31
0.0
 11
5.8967561315
 21
3.2151910385
 31
0.0
 11
5.897094899
 21
3.2143274077
 31
0.0
 11
5.8973369776
 21
3.2134629561
 31
0.0
 11
5.8974823172
 21
3.2125979577
 31
0.0
 11
5.8975308678
 21
3.2117326863
 31
0.0
  0
SPLINE
  5
25A
100
AcDbEntity
  8
0
100
AcDbSpline
 62
6
  6
CONTINUOUS
 70
0
 71
3
 72
84
 73
80
 74
78
 42
0.0000001
 43
0.0000001
 44
0.0000000001
 12
0.0000044042
 22
0.7713942822
 32
0.0
 13
0.0000025821
 23
-0.7713942822
 33
0.0
 40
0.0
 40
0.0
 40
0.0
 40
0.0
 40
0.0024187063
 40
0.0048705502
 40
0.0073871929
 40
0.0099977716
 40
0.0127282602
 40
0.0156012335
 40
0.0186358303
 40
0.0218476724
 40
0.025249497
 40
0.0288516719
 40
0.0326625976
 40
0.0366890569
 40
0.0409363381
 40
0.0454080855
 40
0.0501069008
 40
0.0550346168
 40
0.0601924361
 40
0.0655810418
 40
0.0770493237
 40
0.0894323462
 40
0.1027168538
 40
0.1168851635
 40
0.1319129869
 40
0.1477733322
 40
0.1644366125
 40
0.1818683071
 40
0.2000322498
 40
0.2188904911
 40
0.2384011973
 40
0.2585214274
 40
0.2792069352
 40
0.300410455
 40
0.3220839514
 40
0.3441784489
 40
0.3666427673
 40
0.4124729412
 40
0.4357332916
 40
0.4591517189
 40
0.4826739184
 40
0.5062449943
 40
0.5533132539
 40
0.5999178956
 40
0.6456235109
 40
0.690003754
 40
0.7115675543
 40
0.7326464302
 40
0.7531912045
 40
0.7731551858
 40
0.7924921483
 40
0.8111574431
 40
0.8291096195
 40
0.8463078967
 40
0.8627135544
 40
0.8782918152
 40
0.8930089193
 40
0.9068338441
 40
0.9197404662
 40
0.9317044713
 40
0.9427056168
 40
0.9478409867
 40
0.9527309477
 40
0.9573744809
 40
0.9617709434
 40
0.9659205732
 40
0.9698245424
 40
0.9734847103
 40
0.9769038019
 40
0.9800856702
 40
0.9830356763
 40
0.9857615558
 40
0.9882739097
 40
0.9905866284
 40
0.9927178786
 40
0.994691248
 40
0.9965368367
 40
0.9982919273
 40
1.0
 40
1.0
 40
1.0
 40
1.0
 10
5.1568511623
 20
3.3348155183
 30
0.0
 10
5.1568511658
 20
3.3354374437
 30
0.0
 10
5.1569268759
 20
3.3366910784
 30
0.0
 10
5.157266102
 20
3.3385641809
 30
0.0
 10
5.1578301655
 20
3.3404337812
 30
0.0
 10
5.158617822
 20
3.3422982115
 30
0.0
 10
5.1596278798
 20
3.3441566313
 30
0.0
 10
5.1608593279
 20
3.3460082825
 30
0.0
 10
5.1623112135
 20
3.3478524587
 30
0.0
 10
5.1639821685
 20
3.3496887326
 30
0.0
 10
5.1658709636
 20
3.3515165286
 30
0.0
 10
5.1679764248
 20
3.3533351887
 30
0.0
 10
5.1702974225
 20
3.3551439886
 30
0.0
 10
5.1728328158
 20
3.3569421133
 30
0.0
 10
5.1755812742
 20
3.3587286467
 30
0.0
 10
5.178541048
 20
3.3605029025
 30
0.0
 10
5.1817102845
 20
3.3622640472
 30
0.0
 10
5.1850870909
 20
3.3640112129
 30
0.0
 10
5.1886695635
 20
3.3657435622
 30
0.0
 10
5.1938256031
 20
3.3680810718
 30
0.0
 10
5.2007789077
 20
3.3709475017
 30
0.0
 10
5.2097413102
 20
3.3742475494
 30
0.0
 10
5.2194664219
 20
3.3774687081
 30
0.0
 10
5.2299312945
 20
3.3806038726
 30
0.0
 10
5.2411109348
 20
3.3836474441
 30
0.0
 10
5.2529787252
 20
3.38659312
 30
0.0
 10
5.2655064103
 20
3.3894345228
 30
0.0
 10
5.2786638276
 20
3.3921666754
 30
0.0
 10
5.2924194253
 20
3.3947840805
 30
0.0
 10
5.306740247
 20
3.3972812513
 30
0.0
 10
5.3215917776
 20
3.3996539923
 30
0.0
 10
5.336938303
 20
3.401897718
 30
0.0
 10
5.3527429661
 20
3.4040079163
 30
0.0
 10
5.3689676742
 20
3.4059812902
 30
0.0
 10
5.3855733601
 20
3.4078142431
 30
0.0
 10
5.4025201213
 20
3.4095033213
 30
0.0
 10
5.4256698343
 20
3.411574197
 30
0.0
 10
5.4491478095
 20
3.4133269729
 30
0.0
 10
5.4728909336
 20
3.4147740417
 30
0.0
 10
5.4909177371
 20
3.4157109159
 30
0.0
 10
5.5090318806
 20
3.4164927652
 30
0.0
 10
5.5332296119
 20
3.4173278564
 30
0.0
 10
5.5633712232
 20
3.4179813712
 30
0.0
 10
5.5992111204
 20
3.4181510873
 30
0.0
 10
5.6343575527
 20
3.4177142352
 30
0.0
 10
5.6630549116
 20
3.4168497
 30
0.0
 10
5.6854096243
 20
3.4158598647
 30
0.0
 10
5.7016337573
 20
3.4149840927
 30
0.0
 10
5.7174377133
 20
3.4139710151
 30
0.0
 10
5.7327834836
 20
3.4128248383
 30
0.0
 10
5.7476340942
 20
3.4115495528
 30
0.0
 10
5.7619537941
 20
3.4101492985
 30
0.0
 10
5.7757081713
 20
3.4086292776
 30
0.0
 10
5.7888641156
 20
3.4069943956
 30
0.0
 10
5.8013899764
 20
3.4052496696
 30
0.0
 10
5.8132557376
 20
3.4034012224
 30
0.0
 10
5.8244329138
 20
3.4014547918
 30
0.0
 10
5.8348946803
 20
3.3994161639
 30
0.0
 10
5.844616226
 20
3.3972923463
 30
0.0
 10
5.8535743013
 20
3.3950897414
 30
0.0
 10
5.860536753
 20
3.3931521727
 30
0.0
 10
5.8657036279
 20
3.3915591941
 30
0.0
 10
5.8692854898
 20
3.3903763867
 30
0.0
 10
5.8726615369
 20
3.389178858
 30
0.0
 10
5.8758296457
 20
3.3879673827
 30
0.0
 10
5.8787879728
 20
3.3867428584
 30
0.0
 10
5.8815349723
 20
3.3855062609
 30
0.0
 10
5.8840692132
 20
3.3842584856
 30
0.0
 10
5.886389298
 20
3.3830004039
 30
0.0
 10
5.8884938828
 20
3.3817328592
 30
0.0
 10
5.890381713
 20
3.3804565004
 30
0.0
 10
5.8920518699
 20
3.3791720059
 30
0.0
 10
5.8935037756
 20
3.3778800069
 30
0.0
 10
5.8947368252
 20
3.3765808186
 30
0.0
 10
5.8957501628
 20
3.3752744777
 30
0.0
 10
5.8965424406
 20
3.3739608888
 30
0.0
 10
5.8971114003
 20
3.3726398308
 30
0.0
 10
5.8974543621
 20
3.3713127781
 30
0.0
 10
5.897531153
 20
3.370420536
 30
0.0
 10
5.8975311545
 20
3.3699813368
 30
0.0
 11
5.1568511623
 21
3.3348155183
 31
0.0
 11
5.1569628466
 21
3.3366779488
 31
0.0
 11
5.1572976131
 21
3.3385394246
 31
0.0
 11
5.1578550642
 21
3.3403989908
 31
0.0
 11
5.1586348019
 21
3.3422556925
 31
0.0
 11
5.1596364286
 21
3.3441085749
 31
0.0
 11
5.1608595464
 21
3.3459566831
 31
0.0
 11
5.1623036029
 21
3.3477990663
 31
0.0
 11
5.1639675182
 21
3.3496347871
 31
0.0
 11
5.1658501004
 21
3.3514629111
 31
0.0
 11
5.1679501575
 21
3.3532825038
 31
0.0
 11
5.1702664976
 21
3.3550926308
 31
0.0
 11
5.1727979286
 21
3.3568923576
 31
0.0
 11
5.1755430973
 21
3.3586807582
 31
0.0
 11
5.1785001426
 21
3.3604569333
 31
0.0
 11
5.1816671039
 21
3.3622199891
 31
0.0
 11
5.1850420207
 21
3.3639690314
 31
0.0
 11
5.1886229323
 21
3.3657031662
 31
0.0
 11
5.1924078781
 21
3.3674214996
 31
0.0
 11
5.2005808977
 21
3.3708072788
 31
0.0
 11
5.2095404032
 21
3.3741196264
 31
0.0
 11
5.2192648973
 21
3.3773518673
 31
0.0
 11
5.2297318002
 21
3.380497452
 31
0.0
 11
5.2409149877
 21
3.3835502414
 31
0.0
 11
5.2527876109
 21
3.3865041806
 31
0.0
 11
5.265321819
 21
3.3893533723
 31
0.0
 11
5.2784866071
 21
3.3920924143
 31
0.0
 11
5.292250351
 21
3.394716002
 31
0.0
 11
5.3065805351
 21
3.3972190184
 31
0.0
 11
5.3214419471
 21
3.3995969155
 31
0.0
 11
5.3367988657
 21
3.4018452526
 31
0.0
 11
5.3526148191
 21
3.4039598051
 31
0.0
 11
5.3688511515
 21
3.4059369775
 31
0.0
 11
5.3854688111
 21
3.4077732883
 31
0.0
 11
5.4024281646
 21
3.4094654974
 31
0.0
 11
5.4196879511
 21
3.4110110396
 31
0.0
 11
5.4549422596
 21
3.4136525963
 31
0.0
 11
5.4728518794
 21
3.4147449464
 31
0.0
 11
5.4908923404
 21
3.4156831573
 31
0.0
 11
5.509020329
 21
3.4164661465
 31
0.0
 11
5.5271920943
 21
3.4170935529
 31
0.0
 11
5.5634917423
 21
3.417880926
 31
0.0
 11
5.5994419066
 21
3.4180483336
 31
0.0
 11
5.6346961638
 21
3.4176045504
 31
0.0
 11
5.6689150297
 21
3.4165645716
 31
0.0
 11
5.6855328726
 21
3.415827246
 31
0.0
 11
5.7017692643
 21
3.4149490484
 31
0.0
 11
5.7175848011
 21
3.4139332989
 31
0.0
 11
5.7329419524
 21
3.4127839443
 31
0.0
 11
5.7478034463
 21
3.4115050175
 31
0.0
 11
5.7621331117
 21
3.4101008164
 31
0.0
 11
5.7758971366
 21
3.4085762071
 31
0.0
 11
5.7890620226
 21
3.4069361303
 31
0.0
 11
5.8015956211
 21
3.4051857684
 31
0.0
 11
5.813468571
 21
3.4033308015
 31
0.0
 11
5.8246518676
 21
3.4013769734
 31
0.0
 11
5.8351180869
 21
3.3993302367
 31
0.0
 11
5.8448429495
 21
3.3971969612
 31
0.0
 11
5.8538025636
 21
3.3949835672
 31
0.0
 11
5.8619748307
 21
3.3926966495
 31
0.0
 11
5.8657598538
 21
3.3915277824
 31
0.0
 11
5.8693410917
 21
3.3903431377
 31
0.0
 11
5.8727162604
 21
3.3891435862
 31
0.0
 11
5.8758830954
 21
3.3879300002
 31
0.0
 11
5.8788397065
 21
3.3867032744
 31
0.0
 11
5.881584544
 21
3.3854643246
 31
0.0
 11
5.8841160709
 21
3.3842140674
 31
0.0
 11
5.8864327499
 21
3.3829534191
 31
0.0
 11
5.8885330441
 21
3.3816832963
 31
0.0
 11
5.8904154402
 21
3.3804046168
 31
0.0
 11
5.8920788419
 21
3.3791183198
 31
0.0
 11
5.8935225064
 21
3.3778253634
 31
0.0
 11
5.8947457026
 21
3.376526706
 31
0.0
 11
5.895747699
 21
3.3752233059
 31
0.0
 11
5.8965277642
 21
3.3739161216
 31
0.0
 11
5.8970851917
 21
3.3726061103
 31
0.0
 11
5.8974196603
 21
3.3712942086
 31
0.0
 11
5.8975311545
 21
3.3699813368
 31
0.0
  0
SPLINE
  5
25B
100
AcDbEntity
  8
0
100
AcDbSpline
 62
6
  6
CONTINUOUS
 70
0
 71
3
 72
82
 73
78
 74
76
 42
0.0000001
 43
0.0000001
 44
0.0000000001
 12
0.0000878132
 22
0.7713931665
 32
0.0
 13
0.000052043
 23
-0.7713931698
 33
0.0
 40
0.0
 40
0.0
 40
0.0
 40
0.0
 40
0.0024187145
 40
0.0048705383
 40
0.0073871226
 40
0.0099976455
 40
0.0127281643
 40
0.0156013015
 40
0.0186359528
 40
0.0218477106
 40
0.0252493904
 40
0.028851461
 40
0.0326624398
 40
0.0366891319
 40
0.040936477
 40
0.0454081162
 40
0.0501067602
 40
0.0550343589
 40
0.0655802749
 40
0.0770485034
 40
0.0894312351
 40
0.1027160345
 40
0.1168842848
 40
0.1319118332
 40
0.1477724439
 40
0.164435664
 40
0.1818671101
 40
0.2000312819
 40
0.2188894675
 40
0.2383999595
 40
0.2585203749
 40
0.2792058369
 40
0.3004091827
 40
0.3220828157
 40
0.3441772824
 40
0.3666414715
 40
0.4124717196
 40
0.4357319889
 40
0.4591504457
 40
0.4826726598
 40
0.5062437046
 40
0.5533119829
 40
0.599916564
 40
0.6456223257
 40
0.6900025492
 40
0.7326446621
 40
0.7531895847
 40
0.7731537296
 40
0.7924904687
 40
0.8111559483
 40
0.8291083294
 40
0.8463063465
 40
0.8627122249
 40
0.8782907259
 40
0.8930075389
 40
0.9068327139
 40
0.9197396037
 40
0.9317033031
 40
0.942704733
 40
0.9478403086
 40
0.9527303502
 40
0.9573737258
 40
0.961770017
 40
0.965919717
 40
0.9698238834
 40
0.9734842503
 40
0.9769034239
 40
0.980085157
 40
0.9830350428
 40
0.9857610261
 40
0.9882735767
 40
0.9905864636
 40
0.9927177659
 40
0.9946910435
 40
0.9965365986
 40
0.9982917978
 40
1.0
 40
1.0
 40
1.0
 40
1.0
 10
5.1568512741
 20
3.2644838789
 30
0.0
 10
5.1568513449
 20
3.2651058055
 30
0.0
 10
5.1569270913
 20
3.2663594255
 30
0.0
 10
5.1572661929
 20
3.2682325254
 30
0.0
 10
5.1578300771
 20
3.2701021412
 30
0.0
 10
5.1586176191
 20
3.2719665969
 30
0.0
 10
5.159627734
 20
3.2738250321
 30
0.0
 10
5.1608594547
 20
3.2756765747
 30
0.0
 10
5.1623113732
 20
3.2775207552
 30
0.0
 10
5.1639822235
 20
3.279357058
 30
0.0
 10
5.1658708639
 20
3.2811848853
 30
0.0
 10
5.1679762321
 20
3.2830035719
 30
0.0
 10
5.1702972871
 20
3.2848123721
 30
0.0
 10
5.1728328666
 20
3.2866103814
 30
0.0
 10
5.1755813654
 20
3.2883969295
 30
0.0
 10
5.178541051
 20
3.2901712093
 30
0.0
 10
5.1817101472
 20
3.2919324064
 30
0.0
 10
5.1863175116
 20
3.2943162345
 30
0.0
 10
5.1925996653
 20
3.2972436922
 30
0.0
 10
5.2007786585
 20
3.3006157832
 30
0.0
 10
5.2097411547
 20
3.3039159833
 30
0.0
 10
5.2194662577
 20
3.3071369198
 30
0.0
 10
5.2299310977
 20
3.3102721388
 30
0.0
 10
5.2411106618
 20
3.3133158511
 30
0.0
 10
5.2529784653
 20
3.3162613348
 30
0.0
 10
5.2655061063
 20
3.319102787
 30
0.0
 10
5.278663459
 20
3.3218350618
 30
0.0
 10
5.2924190487
 20
3.3244522996
 30
0.0
 10
5.3067398291
 20
3.3269495164
 30
0.0
 10
5.3215912992
 20
3.3293223668
 30
0.0
 10
5.3369378046
 20
3.3315659434
 30
0.0
 10
5.3527424287
 20
3.333676186
 30
0.0
 10
5.36896708
 20
3.335649661
 30
0.0
 10
5.3855727394
 20
3.3374824769
 30
0.0
 10
5.4025194641
 20
3.3391716045
 30
0.0
 10
5.4256691133
 20
3.3412425798
 30
0.0
 10
5.4491470298
 20
3.3429952095
 30
0.0
 10
5.4728901161
 20
3.3444424303
 30
0.0
 10
5.4909168909
 20
3.3453791781
 30
0.0
 10
5.5090310088
 20
3.3461610824
 30
0.0
 10
5.5332287026
 20
3.3469962533
 30
0.0
 10
5.5633702594
 20
3.3476497059
 30
0.0
 10
5.5992101082
 20
3.3478193807
 30
0.0
 10
5.6343565901
 20
3.3473827401
 30
0.0
 10
5.6684714095
 20
3.3463546688
 30
0.0
 10
5.6960993641
 20
3.3450070701
 30
0.0
 10
5.7174366593
 20
3.3436394474
 30
0.0
 10
5.7327824457
 20
3.342493352
 30
0.0
 10
5.7476330545
 20
3.3412179455
 30
0.0
 10
5.7619527819
 20
3.33981775
 30
0.0
 10
5.7757071848
 20
3.338297834
 30
0.0
 10
5.7888631357
 20
3.3366628136
 30
0.0
 10
5.8013890381
 20
3.3349181535
 30
0.0
 10
5.8132548455
 20
3.3330698226
 30
0.0
 10
5.8244320295
 20
3.3311232319
 30
0.0
 10
5.8348938513
 20
3.3290846749
 30
0.0
 10
5.8446154702
 20
3.3269609927
 30
0.0
 10
5.8535735491
 20
3.3247581927
 30
0.0
 10
5.8605360616
 20
3.3228207136
 30
0.0
 10
5.8657030983
 20
3.3212277873
 30
0.0
 10
5.8692850006
 20
3.3200450129
 30
0.0
 10
5.8726609619
 20
3.318847446
 30
0.0
 10
5.8758289698
 20
3.3176359084
 30
0.0
 10
5.8787873238
 20
3.3164113989
 30
0.0
 10
5.8815344595
 20
3.315174823
 30
0.0
 10
5.8840688464
 20
3.3139270757
 30
0.0
 10
5.8863889941
 20
3.3126690367
 30
0.0
 10
5.8884935019
 20
3.3114014533
 30
0.0
 10
5.8903812489
 20
3.3101250513
 30
0.0
 10
5.8920515053
 20
3.3088406213
 30
0.0
 10
5.8935036243
 20
3.307548686
 30
0.0
 10
5.8947368785
 20
3.3062495475
 30
0.0
 10
5.8957503118
 20
3.3049432316
 30
0.0
 10
5.8965423884
 20
3.3036295306
 30
0.0
 10
5.8971110222
 20
3.3023083439
 30
0.0
 10
5.8974538858
 20
3.3009812254
 30
0.0
 10
5.8975307048
 20
3.3000889299
 30
0.0
 10
5.8975307344
 20
3.299649698
 30
0.0
 11
5.1568512741
 21
3.2644838789
 31
0.0
 11
5.1569630338
 21
3.2663463085
 31
0.0
 11
5.1572976997
 21
3.2682077839
 31
0.0
 11
5.1578549878
 21
3.270067349
 31
0.0
 11
5.1586346144
 21
3.2719240475
 31
0.0
 11
5.1596362954
 21
3.2737769236
 31
0.0
 11
5.1608596496
 21
3.2756250231
 31
0.0
 11
5.1623037721
 21
3.2774674038
 31
0.0
 11
5.1639675826
 21
3.2793031269
 31
0.0
 11
5.1658500009
 21
3.281131254
 31
0.0
 11
5.1679499465
 21
3.2829508464
 31
0.0
 11
5.1702663392
 21
3.2847609655
 31
0.0
 11
5.1727979954
 21
3.2865606778
 31
0.0
 11
5.1755432198
 21
3.2883490747
 31
0.0
 11
5.1785001588
 21
3.2901252551
 31
0.0
 11
5.1816669588
 21
3.2918883182
 31
0.0
 11
5.1850417662
 21
3.2936373629
 31
0.0
 11
5.1924078822
 21
3.2970898019
 31
0.0
 11
5.2005808418
 21
3.3004755849
 31
0.0
 11
5.2095400874
 21
3.303787949
 31
0.0
 11
5.2192648149
 21
3.3070201545
 31
0.0
 11
5.2297316516
 21
3.3101657457
 31
0.0
 11
5.2409145956
 21
3.3132185581
 31
0.0
 11
5.2527874218
 21
3.3161724563
 31
0.0
 11
5.2653215612
 21
3.3190216576
 31
0.0
 11
5.2784861277
 21
3.3217607287
 31
0.0
 11
5.2922500396
 21
3.3243842704
 31
0.0
 11
5.3065801566
 21
3.3268872999
 31
0.0
 11
5.3214413738
 21
3.3292652315
 31
0.0
 11
5.3367984216
 21
3.3315135189
 31
0.0
 11
5.3526143139
 21
3.3336280879
 31
0.0
 11
5.3688504826
 21
3.3356052994
 31
0.0
 11
5.3854682297
 21
3.3374415578
 31
0.0
 11
5.4024275328
 21
3.3391337868
 31
0.0
 11
5.4196871903
 21
3.3406793719
 31
0.0
 11
5.4549415074
 21
3.3433208976
 31
0.0
 11
5.4728510358
 21
3.3444132934
 31
0.0
 11
5.4908914965
 21
3.3453514499
 31
0.0
 11
5.5090194691
 21
3.3461344649
 31
0.0
 11
5.5271911825
 21
3.3467619187
 31
0.0
 11
5.5634907932
 21
3.3475492662
 31
0.0
 11
5.599440859
 21
3.3477166703
 31
0.0
 11
5.6346951794
 21
3.3472729646
 31
0.0
 11
5.6689139804
 21
3.3462329673
 31
0.0
 11
5.7017681194
 21
3.344617446
 31
0.0
 11
5.7175837499
 21
3.3436017266
 31
0.0
 11
5.7329410088
 21
3.3424524161
 31
0.0
 11
5.7478023048
 21
3.3411734495
 31
0.0
 11
5.7621320954
 21
3.3397692774
 31
0.0
 11
5.7758962636
 21
3.3382447089
 31
0.0
 11
5.7890609239
 21
3.3366045983
 31
0.0
 11
5.8015946798
 21
3.3348542634
 31
0.0
 11
5.8134678054
 21
3.3329993333
 31
0.0
 11
5.8246508526
 21
3.3310454768
 31
0.0
 11
5.8351172573
 21
3.3289987627
 31
0.0
 11
5.8448423236
 21
3.3268655188
 31
0.0
 11
5.8538016765
 21
3.3246521062
 31
0.0
 11
5.8619741653
 21
3.3223652121
 31
0.0
 11
5.8657593539
 21
3.3211963624
 31
0.0
 11
5.8693406544
 21
3.3200117267
 31
0.0
 11
5.8727156858
 21
3.318812167
 31
0.0
 11
5.8758823685
 21
3.3175985665
 31
0.0
 11
5.8788390315
 21
3.3163718366
 31
0.0
 11
5.8815840329
 21
3.3151328905
 31
0.0
 11
5.8841157307
 21
3.3138826418
 31
0.0
 11
5.8864324829
 21
3.3126220038
 31
0.0
 11
5.8885326567
 21
3.3113518902
 31
0.0
 11
5.8904149488
 21
3.3100732284
 31
0.0
 11
5.8920784719
 21
3.3087869628
 31
0.0
 11
5.8935223656
 21
3.3074940389
 31
0.0
 11
5.8947457692
 21
3.3061954021
 31
0.0
 11
5.8957478224
 21
3.304891998
 31
0.0
 11
5.8965276756
 21
3.3035847722
 31
0.0
 11
5.897084831
 21
3.3022746756
 31
0.0
 11
5.8974192041
 21
3.3009626651
 31
0.0
 11
5.8975307344
 21
3.299649698
 31
0.0
  0
SPLINE
  5
25C
100
AcDbEntity
  8
0
100
AcDbSpline
 62
6
  6
CONTINUOUS
 70
0
 71
3
 72
81
 73
77
 74
75
 42
0.0000001
 43
0.0000001
 44
0.0000000001
 12
0.0000863241
 22
0.7713929918
 32
0.0
 13
0.0001243369
 23
-0.7713929866
 33
0.0
 40
0.0
 40
0.0
 40
0.0
 40
0.0
 40
0.0024187117
 40
0.0048705012
 40
0.0073870394
 40
0.0099975722
 40
0.0127282288
 40
0.0156014419
 40
0.018636033
 40
0.0218476597
 40
0.0252492305
 40
0.028851326
 40
0.0326625294
 40
0.0366893239
 40
0.0409365871
 40
0.0454080652
 40
0.0501065837
 40
0.0550342149
 40
0.0601923402
 40
0.0655812933
 40
0.0770492718
 40
0.0894319148
 40
0.1027170522
 40
0.1168850647
 40
0.1319125343
 40
0.1477734539
 40
0.1644364599
 40
0.1818678384
 40
0.2000322801
 40
0.2188902832
 40
0.2384007187
 40
0.2585213586
 40
0.279206676
 40
0.3004099754
 40
0.3220837829
 40
0.3666417258
 40
0.4124720418
 40
0.4357322789
 40
0.4591508052
 40
0.5062435881
 40
0.5533119287
 40
0.599916448
 40
0.6456222728
 40
0.6900025616
 40
0.7326445162
 40
0.7531896291
 40
0.773153729
 40
0.7924903106
 40
0.8111560234
 40
0.8291083491
 40
0.8463061789
 40
0.8627123279
 40
0.8782907617
 40
0.893007365
 40
0.9068328411
 40
0.9197396513
 40
0.9317031271
 40
0.9427048788
 40
0.9478405209
 40
0.9527304059
 40
0.9573735458
 40
0.9617698457
 40
0.9659197001
 40
0.9698240373
 40
0.9734844672
 40
0.9769034829
 40
0.9800849955
 40
0.9830348928
 40
0.9857610145
 40
0.9882737087
 40
0.9905866423
 40
0.9927178274
 40
0.9946909729
 40
0.9965365371
 40
0.9982917819
 40
1.0
 40
1.0
 40
1.0
 40
1.0
 10
5.156851464
 20
3.1941522391
 30
0.0
 10
5.1568515336
 20
3.1947741648
 30
0.0
 10
5.156927211
 20
3.1960277745
 30
0.0
 10
5.1572661318
 20
3.1979008851
 30
0.0
 10
5.1578298837
 20
3.1997705243
 30
0.0
 10
5.1586174437
 20
3.2016350106
 30
0.0
 10
5.1596278443
 20
3.2034933573
 30
0.0
 10
5.1608596432
 20
3.2053448846
 30
0.0
 10
5.16231147
 20
3.2071890965
 30
0.0
 10
5.1639821685
 20
3.2090254324
 30
0.0
 10
5.1658707041
 20
3.2108532895
 30
0.0
 10
5.1679761086
 20
3.2126719938
 30
0.0
 10
5.1702973643
 20
3.2144806833
 30
0.0
 10
5.1728330184
 20
3.2162786901
 30
0.0
 10
5.1755814502
 20
3.2180652713
 30
0.0
 10
5.1785410042
 20
3.2198395899
 30
0.0
 10
5.1817100112
 20
3.2216007918
 30
0.0
 10
5.1850867735
 20
3.2233479909
 30
0.0
 10
5.1886694529
 20
3.2250802363
 30
0.0
 10
5.1938256628
 20
3.2274175602
 30
0.0
 10
5.2007787715
 20
3.2302841881
 30
0.0
 10
5.2097410798
 20
3.2335844311
 30
0.0
 10
5.219466306
 20
3.2368051502
 30
0.0
 10
5.2299310778
 20
3.2399405481
 30
0.0
 10
5.2411106394
 20
3.2429842805
 30
0.0
 10
5.2529784859
 20
3.2459295866
 30
0.0
 10
5.2655060959
 20
3.2487711895
 30
0.0
 10
5.2786634408
 20
3.251503481
 30
0.0
 10
5.2924190609
 20
3.2541205658
 30
0.0
 10
5.3067398222
 20
3.2566179146
 30
0.0
 10
5.3215912841
 20
3.258990778
 30
0.0
 10
5.3369378117
 20
3.2612342212
 30
0.0
 10
5.3527424226
 20
3.2633445768
 30
0.0
 10
5.3689670725
 20
3.2653180839
 30
0.0
 10
5.3913140451
 20
3.2677843113
 30
0.0
 10
5.4200037249
 20
3.2704878583
 30
0.0
 10
5.4491469603
 20
3.2726635829
 30
0.0
 10
5.4728901193
 20
3.2741108396
 30
0.0
 10
5.4969694916
 20
3.2753619046
 30
0.0
 10
5.5271818016
 20
3.2765334281
 30
0.0
 10
5.5633702009
 20
3.2773181299
 30
0.0
 10
5.5992101155
 20
3.2774876712
 30
0.0
 10
5.6343565919
 20
3.277051129
 30
0.0
 10
5.668471402
 20
3.2760230766
 30
0.0
 10
5.6960993672
 20
3.2746753515
 30
0.0
 10
5.7174366612
 20
3.2733078404
 30
0.0
 10
5.7327824417
 20
3.2721617457
 30
0.0
 10
5.7476330458
 20
3.2708862365
 30
0.0
 10
5.7619527855
 20
3.2694861509
 30
0.0
 10
5.775707183
 20
3.2679662279
 30
0.0
 10
5.7888631239
 20
3.2663310986
 30
0.0
 10
5.801389044
 20
3.2645865599
 30
0.0
 10
5.8132548469
 20
3.2627382193
 30
0.0
 10
5.8244320124
 20
3.2607915065
 30
0.0
 10
5.8348938613
 20
3.2587530899
 30
0.0
 10
5.8446154767
 20
3.256629393
 30
0.0
 10
5.8535735226
 20
3.2544264551
 30
0.0
 10
5.8605361087
 20
3.2524890933
 30
0.0
 10
5.8657032153
 20
3.2508961934
 30
0.0
 10
5.8692850225
 20
3.2497133985
 30
0.0
 10
5.8726608522
 20
3.248515759
 30
0.0
 10
5.875828844
 20
3.2473042363
 30
0.0
 10
5.8787872997
 20
3.2460797507
 30
0.0
 10
5.8815345571
 20
3.2448432039
 30
0.0
 10
5.8840689831
 20
3.2435954913
 30
0.0
 10
5.8863890262
 20
3.2423374258
 30
0.0
 10
5.8884933693
 20
3.2410697549
 30
0.0
 10
5.8903811053
 20
3.2397933752
 30
0.0
 10
5.892051477
 20
3.2385089738
 30
0.0
 10
5.8935037364
 20
3.2372170705
 30
0.0
 10
5.8947370613
 20
3.2359179691
 30
0.0
 10
5.8957503693
 20
3.2346116102
 30
0.0
 10
5.8965421946
 20
3.233297836
 30
0.0
 10
5.8971108423
 20
3.2319766901
 30
0.0
 10
5.8974538571
 20
3.2306495962
 30
0.0
 10
5.897530797
 20
3.2297572936
 30
0.0
 10
5.8975308678
 20
3.2293180578
 30
0.0
 11
5.156851464
 21
3.1941522391
 31
0.0
 11
5.1569631428
 21
3.196014671
 31
0.0
 11
5.157297649
 21
3.1978761478
 31
0.0
 11
5.1578548128
 21
3.1997357125
 31
0.0
 11
5.1586344642
 21
3.2015924083
 31
0.0
 11
5.1596363773
 21
3.2034452793
 31
0.0
 11
5.1608598372
 21
3.2052933784
 31
0.0
 11
5.162303878
 21
3.2071357635
 31
0.0
 11
5.1639675312
 21
3.208971492
 31
0.0
 11
5.1658498286
 21
3.2107996219
 31
0.0
 11
5.167949802
 21
3.2126192107
 31
0.0
 11
5.1702664224
 21
3.2144293188
 31
0.0
 11
5.1727981766
 21
3.2162290283
 31
0.0
 11
5.1755433204
 21
3.2180174318
 31
0.0
 11
5.1785001078
 21
3.2197936216
 31
0.0
 11
5.181666793
 21
3.2215566903
 31
0.0
 11
5.1850416301
 21
3.2233057304
 31
0.0
 11
5.1886228092
 21
3.2250398391
 31
0.0
 11
5.1924080529
 21
3.2267581479
 31
0.0
 11
5.2005807925
 21
3.2301439528
 31
0.0
 11
5.209539962
 21
3.2334563194
 31
0.0
 11
5.2192649713
 21
3.2366884962
 31
0.0
 11
5.2297316055
 21
3.2398341151
 31
0.0
 11
5.2409144829
 21
3.2428869309
 31
0.0
 11
5.2527875605
 21
3.2458407942
 31
0.0
 11
5.2653215199
 21
3.2486900285
 31
0.0
 11
5.2784860293
 21
3.2514291035
 31
0.0
 11
5.2922501576
 21
3.2540526052
 31
0.0
 11
5.3065801217
 21
3.2565556722
 31
0.0
 11
5.3214412907
 21
3.2589336078
 31
0.0
 11
5.3367985164
 21
3.261181851
 31
0.0
 11
5.352614287
 21
3.2632964615
 31
0.0
 11
5.3688504154
 21
3.2652736768
 31
0.0
 11
5.3854682994
 21
3.2671098879
 31
0.0
 11
5.419687139
 21
3.2703477499
 31
0.0
 11
5.4549415009
 21
3.2729892733
 31
0.0
 11
5.4728510001
 21
3.2740816716
 31
0.0
 11
5.490891513
 21
3.2750197781
 31
0.0
 11
5.5271911616
 21
3.2764302966
 31
0.0
 11
5.563490812
 21
3.2772176429
 31
0.0
 11
5.5994408223
 21
3.2773849995
 31
0.0
 11
5.634695184
 21
3.2769413408
 31
0.0
 11
5.6689140275
 21
3.2759013437
 31
0.0
 11
5.7017680346
 21
3.274285779
 31
0.0
 11
5.7175838115
 21
3.2732701022
 31
0.0
 11
5.7329410319
 21
3.2721207898
 31
0.0
 11
5.7478021993
 21
3.2708417853
 31
0.0
 11
5.7621321711
 21
3.2694376518
 31
0.0
 11
5.775896293
 21
3.267913081
 31
0.0
 11
5.7890608005
 21
3.2662729372
 31
0.0
 11
5.801594769
 21
3.2645226363
 31
0.0
 11
5.813467839
 21
3.2626677039
 31
0.0
 11
5.8246507145
 21
3.2607138193
 31
0.0
 11
5.8351173589
 21
3.2586671336
 31
0.0
 11
5.8448423596
 21
3.2565338879
 31
0.0
 11
5.8538015271
 21
3.2543204527
 31
0.0
 11
5.8619742779
 21
3.2520335806
 31
0.0
 11
5.8657595213
 21
3.2508647378
 31
0.0
 11
5.8693406912
 21
3.2496800944
 31
0.0
 11
5.8727155234
 21
3.2484805198
 31
0.0
 11
5.8758822117
 21
3.2472669171
 31
0.0
 11
5.8788390056
 21
3.2460401936
 31
0.0
 11
5.8815841546
 21
3.2448012564
 31
0.0
 11
5.8841159085
 21
3.2435510129
 31
0.0
 11
5.886432519
 21
3.2422903703
 31
0.0
 11
5.8885324874
 21
3.2410202471
 31
0.0
 11
5.8904147881
 21
3.2397415832
 31
0.0
 11
5.8920784481
 21
3.2384553208
 31
0.0
 11
5.8935224943
 21
3.2371624019
 31
0.0
 11
5.8947459538
 21
3.2358637687
 31
0.0
 11
5.8957478565
 21
3.2345603635
 31
0.0
 11
5.8965275031
 21
3.2332531335
 31
0.0
 11
5.8970846703
 21
3.2319430346
 31
0.0
 11
5.8974191835
 21
3.2306310237
 31
0.0
 11
5.8975308678
 21
3.2293180578
 31
0.0
  0
SPLINE
  5
25D
100
AcDbEntity
  8
0
100
AcDbSpline
 62
6
  6
CONTINUOUS
 70
0
 71
3
 72
47
 73
43
 74
41
 42
0.0000001
 43
0.0000001
 44
0.0000000001
 12
-0.4084581692
 22
-0.1862791372
 32
0.0
 13
-0.4084581692
 23
0.1862791372
 33
0.0
 40
0.0
 40
0.0
 40
0.0
 40
0.0
 40
0.0081408677
 40
0.0169003618
 40
0.02627586
 40
0.0362628682
 40
0.0468551471
 40
0.058042862
 40
0.0698141843
 40
0.0821565776
 40
0.1085000872
 40
0.1369485204
 40
0.1673587299
 40
0.1995758471
 40
0.2334277962
 40
0.2687363791
 40
0.3053094206
 40
0.3429495198
 40
0.3814512865
 40
0.4206036102
 40
0.4601925397
 40
0.5
 40
0.5398074603
 40
0.5793963898
 40
0.6185487135
 40
0.6570504802
 40
0.6946905794
 40
0.7312636209
 40
0.7665722038
 40
0.8004241529
 40
0.8326412701
 40
0.8630514796
 40
0.8914999128
 40
0.9178434224
 40
0.9301858157
 40
0.941957138
 40
0.9531448529
 40
0.9637371318
 40
0.97372414
 40
0.9830996382
 40
0.9918591323
 40
1.0
 40
1.0
 40
1.0
 40
1.0
 10
5.7489814099
 20
3.1204063124
 30
0.0
 10
5.7478730086
 20
3.1199008211
 30
0.0
 10
5.7455487545
 20
3.1189019292
 30
0.0
 10
5.7418816967
 20
3.1174811178
 30
0.0
 10
5.7379111254
 20
3.1160849237
 30
0.0
 10
5.7336423844
 20
3.1147154587
 30
0.0
 10
5.7290811364
 20
3.1133749658
 30
0.0
 10
5.7242338928
 20
3.1120651795
 30
0.0
 10
5.7191077003
 20
3.1107878505
 30
0.0
 10
5.7117493255
 20
3.1090935332
 30
0.0
 10
5.701904436
 20
3.1070839094
 30
0.0
 10
5.6893454837
 20
3.1048778941
 30
0.0
 10
5.6758684857
 20
3.1028411022
 30
0.0
 10
5.6615497186
 20
3.1009860861
 30
0.0
 10
5.6464698766
 20
3.0993226048
 30
0.0
 10
5.6307144252
 20
3.0978615379
 30
0.0
 10
5.6143724138
 20
3.0966102183
 30
0.0
 10
5.5975364694
 20
3.0955767133
 30
0.0
 10
5.5803019343
 20
3.0947665644
 30
0.0
 10
5.5627664247
 20
3.0941843972
 30
0.0
 10
5.5450293451
 20
3.0938340391
 30
0.0
 10
5.5271911621
 20
3.0937166929
 30
0.0
 10
5.5093529791
 20
3.0938340391
 30
0.0
 10
5.4916158995
 20
3.0941843972
 30
0.0
 10
5.4740803899
 20
3.0947665644
 30
0.0
 10
5.4568458548
 20
3.0955767133
 30
0.0
 10
5.4400099104
 20
3.0966102183
 30
0.0
 10
5.4236678991
 20
3.0978615379
 30
0.0
 10
5.4079124476
 20
3.0993226048
 30
0.0
 10
5.3928326056
 20
3.1009860861
 30
0.0
 10
5.3785138385
 20
3.1028411022
 30
0.0
 10
5.3650368405
 20
3.1048778941
 30
0.0
 10
5.3524778882
 20
3.1070839094
 30
0.0
 10
5.3426329987
 20
3.1090935332
 30
0.0
 10
5.3352746239
 20
3.1107878505
 30
0.0
 10
5.3301484314
 20
3.1120651795
 30
0.0
 10
5.3253011879
 20
3.1133749658
 30
0.0
 10
5.3207399398
 20
3.1147154587
 30
0.0
 10
5.3164711988
 20
3.1160849237
 30
0.0
 10
5.3125006275
 20
3.1174811178
 30
0.0
 10
5.3088335697
 20
3.1189019292
 30
0.0
 10
5.3065093156
 20
3.1199008211
 30
0.0
 10
5.3054009143
 20
3.1204063124
 30
0.0
 11
5.7489814099
 21
3.1204063124
 31
0.0
 11
5.7456258597
 21
3.1189582252
 31
0.0
 11
5.7419607656
 21
3.1175331495
 31
0.0
 11
5.7379914944
 21
3.1161331249
 31
0.0
 11
5.733723413
 21
3.1147601909
 31
0.0
 11
5.729162057
 21
3.1134163668
 31
0.0
 11
5.7243141765
 21
3.112103526
 31
0.0
 11
5.7191870532
 21
3.1108234784
 31
0.0
 11
5.7137879708
 21
3.1095780333
 31
0.0
 11
5.7022035213
 21
3.1071981243
 31
0.0
 11
5.6896267624
 21
3.1049771957
 31
0.0
 11
5.6761294083
 21
3.102927828
 31
0.0
 11
5.6617870655
 21
3.1010617952
 31
0.0
 11
5.6466822137
 21
3.0993894275
 31
0.0
 11
5.630899346
 21
3.0979205155
 31
0.0
 11
5.6145288386
 21
3.0966630731
 31
0.0
 11
5.5976630233
 21
3.0956244779
 31
0.0
 11
5.5803976092
 21
3.0948104856
 31
0.0
 11
5.5628306941
 21
3.0942256966
 31
0.0
 11
5.5450615309
 21
3.093873592
 31
0.0
 11
5.5271911621
 21
3.09375588
 31
0.0
 11
5.5093207934
 21
3.093873592
 31
0.0
 11
5.4915516302
 21
3.0942256966
 31
0.0
 11
5.473984715
 21
3.0948104856
 31
0.0
 11
5.4567193009
 21
3.0956244779
 31
0.0
 11
5.4398534856
 21
3.0966630731
 31
0.0
 11
5.4234829782
 21
3.0979205155
 31
0.0
 11
5.4077001106
 21
3.0993894275
 31
0.0
 11
5.3925952588
 21
3.1010617952
 31
0.0
 11
5.3782529159
 21
3.102927828
 31
0.0
 11
5.3647555618
 21
3.1049771957
 31
0.0
 11
5.3521788029
 21
3.1071981243
 31
0.0
 11
5.3405943534
 21
3.1095780333
 31
0.0
 11
5.3351952711
 21
3.1108234784
 31
0.0
 11
5.3300681477
 21
3.112103526
 31
0.0
 11
5.3252202672
 21
3.1134163668
 31
0.0
 11
5.3206589112
 21
3.1147601909
 31
0.0
 11
5.3163908298
 21
3.1161331249
 31
0.0
 11
5.3124215586
 21
3.1175331495
 31
0.0
 11
5.3087564645
 21
3.1189582252
 31
0.0
 11
5.3054009143
 21
3.1204063124
 31
0.0
  0
SPLINE
  5
25E
100
AcDbEntity
  8
0
100
AcDbSpline
 62
6
  6
CONTINUOUS
 70
0
 71
3
 72
11
 73
7
 74
5
 42
0.0000001
 43
0.0000001
 44
0.0000000001
 12
0.0067437773
 22
-0.0096676937
 32
0.0
 13
0.0098262974
 23
-0.0065105079
 33
0.0
 40
0.0
 40
0.0
 40
0.0
 40
0.0
 40
0.2160643528
 40
0.4533977337
 40
0.7142060022
 40
1.0
 40
1.0
 40
1.0
 40
1.0
 10
5.1921720126
 20
3.5908841888
 30
0.0
 10
5.1926577092
 20
3.5901879074
 30
0.0
 10
5.1937788527
 20
3.5887966783
 30
0.0
 10
5.1957725171
 20
3.5868157521
 30
0.0
 10
5.1981490031
 20
3.5848506331
 30
0.0
 10
5.1999043759
 20
3.5836098637
 30
0.0
 10
5.2008404749
 20
3.5829896423
 30
0.0
 11
5.1921720126
 21
3.5908841888
 31
0.0
 11
5.1937590724
 21
3.5888922999
 31
0.0
 11
5.1957341306
 21
3.5869110386
 31
0.0
 11
5.1980956523
 21
3.5849427298
 31
0.0
 11
5.2008404749
 21
3.5829896423
 31
0.0
  0
SPLINE
  5
25F
100
AcDbEntity
  8
0
100
AcDbSpline
 62
6
  6
CONTINUOUS
 70
0
 71
3
 72
11
 73
7
 74
5
 42
0.0000001
 43
0.0000001
 44
0.0000000001
 12
-0.0067437083
 22
-0.0096657693
 32
0.0
 13
-0.0098249487
 23
-0.0065096143
 33
0.0
 40
0.0
 40
0.0
 40
0.0
 40
0.0
 40
0.2160696539
 40
0.4534054703
 40
0.7142122091
 40
1.0
 40
1.0
 40
1.0
 40
1.0
 10
5.8622093845
 20
3.5908828598
 30
0.0
 10
5.8617236809
 20
3.5901867
 30
0.0
 10
5.8606025786
 20
3.5887957172
 30
0.0
 10
5.8586090926
 20
3.586815127
 30
0.0
 10
5.8562329118
 20
3.5848503381
 30
0.0
 10
5.8544777995
 20
3.5836097651
 30
0.0
 10
5.8535418493
 20
3.5829896423
 30
0.0
 11
5.8622093845
 21
3.5908828598
 31
0.0
 11
5.8606223624
 21
3.5888913079
 31
0.0
 11
5.8586474718
 21
3.5869103811
 31
0.0
 11
5.8562862469
 21
3.5849424035
 31
0.0
 11
5.8535418493
 21
3.5829896423
 31
0.0
  0
SPLINE
  5
260
100
AcDbEntity
  8
0
100
AcDbSpline
 62
6
  6
CONTINUOUS
 70
0
 71
3
 72
15
 73
11
 74
9
 42
0.0000001
 43
0.0000001
 44
0.0000000001
 12
0.0000057439
 22
-0.0236002408
 32
0.0
 13
-0.0163203891
 23
-0.017047472
 33
0.0
 40
0.0
 40
0.0
 40
0.0
 40
0.0
 40
0.0898120578
 40
0.187321758
 40
0.2941809662
 40
0.4115997299
 40
0.5404475065
 40
0.6812900699
 40
0.8344223377
 40
1.0
 40
1.0
 40
1.0
 40
1.0
 10
5.8646909604
 20
3.584200161
 30
0.0
 10
5.8646911323
 20
3.5834936323
 30
0.0
 10
5.864557617
 20
3.5820182155
 30
0.0
 10
5.864004488
 20
3.5797641784
 30
0.0
 10
5.8630969683
 20
3.5773950203
 30
0.0
 10
5.8618378473
 20
3.5749142549
 30
0.0
 10
5.8602290461
 20
3.572324913
 30
0.0
 10
5.858272929
 20
3.5696316544
 30
0.0
 10
5.8559727127
 20
3.5668402526
 30
0.0
 10
5.8542782875
 20
3.5649906998
 30
0.0
 10
5.8533775235
 20
3.5640498063
 30
0.0
 11
5.8646909604
 21
3.584200161
 31
0.0
 11
5.8645128313
 21
3.582088073
 31
0.0
 11
5.8639783338
 21
3.5798497532
 31
0.0
 11
5.8630887975
 21
3.5774899396
 31
0.0
 11
5.8618455517
 21
3.5750133699
 31
0.0
 11
5.860249939
 21
3.5724247951
 31
0.0
 11
5.8583042107
 21
3.5697298785
 31
0.0
 11
5.8560121112
 21
3.5669357818
 31
0.0
 11
5.8533775235
 21
3.5640498063
 31
0.0
  0
SPLINE
  5
261
100
AcDbEntity
  8
0
100
AcDbSpline
 62
6
  6
CONTINUOUS
 70
0
 71
3
 72
15
 73
11
 74
9
 42
0.0000001
 43
0.0000001
 44
0.0000000001
 12
-0.0163203557
 22
0.01704746
 32
0.0
 13
0.0000058129
 23
0.0236002091
 33
0.0
 40
0.0
 40
0.0
 40
0.0
 40
0.0
 40
0.165577724
 40
0.3187100183
 40
0.4595525695
 40
0.588400315
 40
0.7058190808
 40
0.8126782981
 40
0.9101879884
 40
1.0
 40
1.0
 40
1.0
 40
1.0
 10
5.2010047598
 20
3.5640498489
 30
0.0
 10
5.2001039974
 20
3.5649907422
 30
0.0
 10
5.1984095753
 20
3.5668402942
 30
0.0
 10
5.196109364
 20
3.5696316946
 30
0.0
 10
5.1941532522
 20
3.5723249514
 30
0.0
 10
5.1925444564
 20
3.5749142914
 30
0.0
 10
5.1912853401
 20
3.5773950549
 30
0.0
 10
5.1903778249
 20
3.5797642111
 30
0.0
 10
5.1898247003
 20
3.5820182457
 30
0.0
 10
5.1896911886
 20
3.5834936605
 30
0.0
 10
5.1896913626
 20
3.5842001879
 30
0.0
 11
5.2010047598
 21
3.5640498489
 31
0.0
 11
5.1983701768
 21
3.5669358235
 31
0.0
 11
5.1960780823
 21
3.5697299188
 31
0.0
 11
5.1941323595
 21
3.5724248336
 31
0.0
 11
5.1925367522
 21
3.5750134061
 31
0.0
 11
5.1912935111
 21
3.577489974
 31
0.0
 11
5.1904039791
 21
3.5798497859
 31
0.0
 11
5.1898694863
 21
3.5820881033
 31
0.0
 11
5.1896913626
 21
3.5842001879
 31
0.0
  0
SPLINE
  5
262
100
AcDbEntity
  8
0
100
AcDbSpline
 62
6
  6
CONTINUOUS
 70
0
 71
3
 72
53
 73
49
 74
47
 42
0.0000001
 43
0.0000001
 44
0.0000000001
 12
0.6277649667
 22
0.3401282255
 32
0.0
 13
0.6277754997
 23
-0.3401087844
 33
0.0
 40
0.0
 40
0.0
 40
0.0
 40
0.0
 40
0.0086023285
 40
0.0178443528
 40
0.0277267787
 40
0.038245249
 40
0.0493929224
 40
0.0611613602
 40
0.0735394661
 40
0.08651321
 40
0.1000676195
 40
0.1141869291
 40
0.128853007
 40
0.1440460638
 40
0.1759310785
 40
0.2096672221
 40
0.2450634781
 40
0.2819157308
 40
0.3200093797
 40
0.359119798
 40
0.3990157938
 40
0.4394595357
 40
0.4802098308
 40
0.5210225907
 40
0.5616532289
 40
0.6018580489
 40
0.6413958086
 40
0.6800295853
 40
0.7175282737
 40
0.7536679417
 40
0.7882343679
 40
0.8210228469
 40
0.8366904829
 40
0.8518432252
 40
0.8664586601
 40
0.8805163626
 40
0.8939972693
 40
0.9068825969
 40
0.9191543926
 40
0.9307974601
 40
0.9417977974
 40
0.9521420653
 40
0.9618189209
 40
0.9708205287
 40
0.9791408392
 40
0.9867759461
 40
0.9937267157
 40
1.0
 40
1.0
 40
1.0
 40
1.0
 10
5.1812505061
 20
3.3444099373
 30
0.0
 10
5.1830505862
 20
3.3453852355
 30
0.0
 10
5.1868354411
 20
3.3473153458
 30
0.0
 10
5.1928344096
 20
3.3500679532
 30
0.0
 10
5.1993495869
 20
3.3527777609
 30
0.0
 10
5.2063707014
 20
3.3554416739
 30
0.0
 10
5.2138871309
 20
3.3580562748
 30
0.0
 10
5.2218876817
 20
3.3606178869
 30
0.0
 10
5.2303601707
 20
3.3631231297
 30
0.0
 10
5.2392913646
 20
3.3655691104
 30
0.0
 10
5.248667552
 20
3.3679526451
 30
0.0
 10
5.2584745046
 20
3.3702703678
 30
0.0
 10
5.2686970619
 20
3.3725195205
 30
0.0
 10
5.2830928453
 20
3.3754710432
 30
0.0
 10
5.3020110194
 20
3.3789513813
 30
0.0
 10
5.3257525999
 20
3.3827497675
 30
0.0
 10
5.3507389207
 20
3.3862154252
 30
0.0
 10
5.3768156331
 20
3.3893323911
 30
0.0
 10
5.4038217633
 20
3.3920858935
 30
0.0
 10
5.4315904617
 20
3.3944647934
 30
0.0
 10
5.4599500795
 20
3.3964587764
 30
0.0
 10
5.4887253146
 20
3.3980617016
 30
0.0
 10
5.5177382305
 20
3.399268062
 30
0.0
 10
5.5468094232
 20
3.4000766729
 30
0.0
 10
5.5757591173
 20
3.400487121
 30
0.0
 10
5.604408275
 20
3.4005030406
 30
0.0
 10
5.6325797343
 20
3.4001292544
 30
0.0
 10
5.6600993044
 20
3.3993740254
 30
0.0
 10
5.6867968
 20
3.398247393
 30
0.0
 10
5.7125072812
 20
3.3967620282
 30
0.0
 10
5.7370716783
 20
3.3949329544
 30
0.0
 10
5.7567477215
 20
3.393109981
 30
0.0
 10
5.7717989614
 20
3.3914836517
 30
0.0
 10
5.7825371458
 20
3.3902076163
 30
0.0
 10
5.7928802173
 20
3.3888592254
 30
0.0
 10
5.8028122522
 20
3.3874413398
 30
0.0
 10
5.8123180728
 20
3.3859570465
 30
0.0
 10
5.8213829047
 20
3.3844093348
 30
0.0
 10
5.8299926386
 20
3.3828010339
 30
0.0
 10
5.8381341459
 20
3.3811356035
 30
0.0
 10
5.8457950655
 20
3.3794164844
 30
0.0
 10
5.8529634853
 20
3.3776469724
 30
0.0
 10
5.8596283695
 20
3.3758303246
 30
0.0
 10
5.8657798746
 20
3.3739704592
 30
0.0
 10
5.87140888
 20
3.3720711366
 30
0.0
 10
5.8765069995
 20
3.3701357287
 30
0.0
 10
5.8810666502
 20
3.3681679679
 30
0.0
 10
5.8838869963
 20
3.3667659933
 30
0.0
 10
5.8851997343
 20
3.3660547936
 30
0.0
 11
5.1812505061
 21
3.3444099373
 31
0.0
 11
5.1867174099
 21
3.3472092977
 31
0.0
 11
5.1927111651
 21
3.3499692667
 31
0.0
 11
5.1992230076
 21
3.3526862192
 31
0.0
 11
5.2062422167
 21
3.3553566907
 31
0.0
 11
5.2137577263
 21
3.3579772451
 31
0.0
 11
5.2217584433
 21
3.3605444495
 31
0.0
 11
5.2302321526
 21
3.3630550008
 31
0.0
 11
5.2391651382
 21
3.3655057699
 31
0.0
 11
5.2485435796
 21
3.3678936402
 31
0.0
 11
5.258353537
 21
3.3702155132
 31
0.0
 11
5.2685796647
 21
3.3724685118
 31
0.0
 11
5.2792056997
 21
3.3746499026
 31
0.0
 11
5.3015920883
 21
3.3787869987
 31
0.0
 11
5.3253744425
 21
3.3826066486
 31
0.0
 11
5.350405579
 21
3.3860906203
 31
0.0
 11
5.3765304673
 21
3.3892229088
 31
0.0
 11
5.4035877351
 21
3.3919894242
 31
0.0
 11
5.4314096229
 21
3.3943787079
 31
0.0
 11
5.4598243346
 21
3.3963811716
 31
0.0
 11
5.4886557404
 21
3.3979901598
 31
0.0
 11
5.5177256814
 21
3.3992008647
 31
0.0
 11
5.5468541433
 21
3.4000115441
 31
0.0
 11
5.5758609428
 21
3.4004223525
 31
0.0
 11
5.6045666194
 21
3.4004364415
 31
0.0
 11
5.6327935041
 21
3.4000589775
 31
0.0
 11
5.6603669794
 21
3.3992978858
 31
0.0
 11
5.687116466
 21
3.3981632456
 31
0.0
 11
5.7128762983
 21
3.3966675456
 31
0.0
 11
5.7374874075
 21
3.3948255291
 31
0.0
 11
5.7607969877
 21
3.3926539528
 31
0.0
 11
5.771918532
 21
3.3914504423
 31
0.0
 11
5.7826615577
 21
3.3901718347
 31
0.0
 11
5.7930089322
 21
3.3888206934
 31
0.0
 11
5.8029448546
 21
3.3873998195
 31
0.0
 11
5.8124543742
 21
3.3859121665
 31
0.0
 11
5.8215225543
 21
3.3843606899
 31
0.0
 11
5.8301348266
 21
3.3827483945
 31
0.0
 11
5.8382783681
 21
3.381078516
 31
0.0
 11
5.8459408721
 21
3.3793543586
 31
0.0
 11
5.8531100369
 21
3.377579227
 31
0.0
 11
5.8597744132
 21
3.3757565089
 31
0.0
 11
5.865924364
 21
3.3738897682
 31
0.0
 11
5.8715504846
 21
3.3719825914
 31
0.0
 11
5.8766434307
 21
3.3700385689
 31
0.0
 11
5.8811953132
 21
3.3680613796
 31
0.0
 11
5.8851997343
 21
3.3660547936
 31
0.0
  0
SPLINE
  5
263
100
AcDbEntity
  8
0
100
AcDbSpline
 62
6
  6
CONTINUOUS
 70
0
 71
3
 72
49
 73
45
 74
43
 42
0.0000001
 43
0.0000001
 44
0.0000000001
 12
0.0
 22
0.5669875638
 32
0.0
 13
-0.5644009861
 23
-0.0540964358
 33
0.0
 40
0.0
 40
0.0
 40
0.0
 40
0.0
 40
0.0016073927
 40
0.0032316088
 40
0.0048884395
 40
0.0065927199
 40
0.0101935978
 40
0.0141297516
 40
0.0184711629
 40
0.0232689273
 40
0.0285590731
 40
0.0343670875
 40
0.0407109975
 40
0.0476033212
 40
0.0550512039
 40
0.0630581923
 40
0.0716256944
 40
0.0807535231
 40
0.0904396591
 40
0.1006796217
 40
0.1114679371
 40
0.1227985263
 40
0.1346647647
 40
0.147058476
 40
0.1733895122
 40
0.2017128011
 40
0.2319381588
 40
0.2639650649
 40
0.2976871771
 40
0.3329877038
 40
0.3697462563
 40
0.4078338642
 40
0.4471178198
 40
0.4874600681
 40
0.5287180282
 40
0.5707466009
 40
0.6565157205
 40
0.7435546025
 40
0.7871659934
 40
0.8306323408
 40
0.8738001142
 40
0.9165171955
 40
0.9586328326
 40
1.0
 40
1.0
 40
1.0
 40
1.0
 10
5.9361911621
 20
3.1809635657
 30
0.0
 10
5.9361911621
 20
3.1812673562
 30
0.0
 10
5.9361595708
 20
3.1818785741
 30
0.0
 10
5.9360178719
 20
3.182793032
 30
0.0
 10
5.9357820077
 20
3.183706803
 30
0.0
 10
5.9353343888
 20
3.1849458826
 30
0.0
 10
5.9345214933
 20
3.1865016213
 30
0.0
 10
5.9331923537
 20
3.1883189727
 30
0.0
 10
5.9314952558
 20
3.1901224083
 30
0.0
 10
5.9294323877
 20
3.1919118102
 30
0.0
 10
5.9270056201
 20
3.1936875662
 30
0.0
 10
5.9242165554
 20
3.1954487909
 30
0.0
 10
5.9210669302
 20
3.1971942264
 30
0.0
 10
5.9175588759
 20
3.1989221085
 30
0.0
 10
5.9136953369
 20
3.2006308797
 30
0.0
 10
5.9094797368
 20
3.202318781
 30
0.0
 10
5.9049156943
 20
3.2039839303
 30
0.0
 10
5.9000069978
 20
3.2056243693
 30
0.0
 10
5.8947579134
 20
3.2072381335
 30
0.0
 10
5.8891733119
 20
3.208823619
 30
0.0
 10
5.8832583636
 20
3.210379045
 30
0.0
 10
5.8770183216
 20
3.211902642
 30
0.0
 10
5.8704586661
 20
3.2133925788
 30
0.0
 10
5.8611040499
 20
3.2153721573
 30
0.0
 10
5.8486535246
 20
3.217738033
 30
0.0
 10
5.832826744
 20
3.2203637822
 30
0.0
 10
5.8158840812
 20
3.2228179888
 30
0.0
 10
5.7978871804
 20
3.2250893456
 30
0.0
 10
5.7789016885
 20
3.2271661416
 30
0.0
 10
5.7589966852
 20
3.2290389442
 30
0.0
 10
5.7382449486
 20
3.2306974477
 30
0.0
 10
5.7167221151
 20
3.2321336934
 30
0.0
 10
5.6945068435
 20
3.2333394055
 30
0.0
 10
5.671680264
 20
3.2343077834
 30
0.0
 10
5.648325687
 20
3.2350329232
 30
0.0
 10
5.616380725
 20
3.2356722106
 30
0.0
 10
5.5757745516
 20
3.2358268258
 30
0.0
 10
5.5348749791
 20
3.2351280279
 30
0.0
 10
5.5019848982
 20
3.2340471641
 30
0.0
 10
5.4773918526
 20
3.2329760746
 30
0.0
 10
5.4529807123
 20
3.2316463955
 30
0.0
 10
5.4288406199
 20
3.2300610638
 30
0.0
 10
5.4050597922
 20
3.228222744
 30
0.0
 10
5.3893441009
 20
3.2268176423
 30
0.0
 10
5.3815615442
 20
3.2260717035
 30
0.0
 11
5.9361911621
 21
3.1809635657
 31
0.0
 11
5.936144376
 21
3.1818737356
 31
0.0
 11
5.9360040832
 21
3.182783897
 31
0.0
 11
5.9357703822
 21
3.1836937656
 31
0.0
 11
5.9354433714
 21
3.184603057
 31
0.0
 11
5.9345098141
 21
3.186418771
 31
0.0
 11
5.9332041985
 21
3.1882287647
 31
0.0
 11
5.9315273275
 21
3.1900307678
 31
0.0
 11
5.9294806414
 21
3.1918226829
 31
0.0
 11
5.9270664283
 21
3.1936026426
 31
0.0
 11
5.924287035
 21
3.1953687954
 31
0.0
 11
5.9211448082
 21
3.1971192897
 31
0.0
 11
5.9176422153
 21
3.1988522719
 31
0.0
 11
5.9137826691
 21
3.2005658712
 31
0.0
 11
5.9095700275
 21
3.2022582086
 31
0.0
 11
5.9050081515
 21
3.2039274053
 31
0.0
 11
5.900100903
 21
3.2055715825
 31
0.0
 11
5.8948525261
 21
3.2071888982
 31
0.0
 11
5.8892681848
 21
3.2087775998
 31
0.0
 11
5.8833531792
 21
3.2103359476
 31
0.0
 11
5.8771128091
 21
3.2118622019
 31
0.0
 11
5.8705524143
 21
3.2133546274
 31
0.0
 11
5.8636780269
 21
3.21481156
 31
0.0
 11
5.8490137631
 21
3.2176125346
 31
0.0
 11
5.8331732644
 21
3.2202523377
 31
0.0
 11
5.8162142881
 21
3.222718847
 31
0.0
 11
5.7981993638
 21
3.2250006457
 31
0.0
 11
5.7791934929
 21
3.2270867834
 31
0.0
 11
5.7592670764
 21
3.228967351
 31
0.0
 11
5.738492083
 21
3.230632792
 31
0.0
 11
5.7169450771
 21
3.2320747359
 31
0.0
 11
5.6947044847
 21
3.2332853085
 31
0.0
 11
5.6718516082
 21
3.2342576597
 31
0.0
 11
5.6484701933
 21
3.2349858114
 31
0.0
 11
5.6246453234
 21
3.2354644846
 31
0.0
 11
5.5760156836
 21
3.2356578225
 31
0.0
 11
5.5266729161
 21
3.234815079
 31
0.0
 11
5.5019591637
 21
3.2340022319
 31
0.0
 11
5.4773376743
 21
3.2329287822
 31
0.0
 11
5.452898394
 21
3.2315960738
 31
0.0
 11
5.4287305459
 21
3.2300066934
 31
0.0
 11
5.4049227286
 21
3.2281637325
 31
0.0
 11
5.3815615442
 21
3.2260717035
 31
0.0
  0
LINE
  5
264
100
AcDbEntity
  8
0
100
AcDbLine
 62
6
  6
CONTINUOUS
 10
5.3815615442
 20
3.2260717035
 11
5.3789008327
 21
3.2258147174
  0
SPLINE
  5
265
100
AcDbEntity
  8
0
100
AcDbSpline
 62
6
  6
CONTINUOUS
 70
0
 71
3
 72
21
 73
17
 74
15
 42
0.0000001
 43
0.0000001
 44
0.0000000001
 12
-0.2288156581
 22
-0.022269659
 32
0.0
 13
-0.209389865
 23
-0.0949127365
 33
0.0
 40
0.0
 40
0.0
 40
0.0
 40
0.0
 40
0.1583676544
 40
0.3095607627
 40
0.3820495098
 40
0.4522544002
 40
0.520022894
 40
0.5852150751
 40
0.6476954071
 40
0.7073363742
 40
0.764025803
 40
0.817657472
 40
0.8681382293
 40
0.9153940834
 40
0.9593616516
 40
1.0
 40
1.0
 40
1.0
 40
1.0
 10
5.3789008327
 20
3.2258147174
 30
0.0
 10
5.366821833
 20
3.2246391195
 30
0.0
 10
5.3432331761
 20
3.2221055091
 30
0.0
 10
5.3141972207
 20
3.2183308642
 30
0.0
 10
5.2919228193
 20
3.2150019386
 30
0.0
 10
5.2760047418
 20
3.2124037574
 30
0.0
 10
5.260676384
 20
3.2096734538
 30
0.0
 10
5.2459735891
 20
3.2068167358
 30
0.0
 10
5.2319308041
 20
3.2038390249
 30
0.0
 10
5.2185809492
 20
3.2007456804
 30
0.0
 10
5.2059550968
 20
3.1975434402
 30
0.0
 10
5.1940826968
 20
3.1942383867
 30
0.0
 10
5.1829914421
 20
3.1908367737
 30
0.0
 10
5.1727066646
 20
3.1873461603
 30
0.0
 10
5.1632523533
 20
3.18377319
 30
0.0
 10
5.1572811616
 20
3.1812407801
 30
0.0
 10
5.1544447421
 20
3.1799550811
 30
0.0
 11
5.3789008327
 21
3.2258147174
 31
0.0
 11
5.3427026689
 21
3.2219094246
 31
0.0
 11
5.3082369101
 21
3.217405363
 31
0.0
 11
5.2917555583
 21
3.2149385857
 31
0.0
 11
5.275827123
 21
3.2123346108
 31
0.0
 11
5.260489565
 21
3.2095981432
 31
0.0
 11
5.2457782143
 21
3.2067344827
 31
0.0
 11
5.2317278575
 21
3.2037490512
 31
0.0
 11
5.2183719903
 21
3.2006474897
 31
0.0
 11
5.2057411669
 21
3.1974359386
 31
0.0
 11
5.1938655057
 21
3.1941206113
 31
0.0
 11
5.1827732402
 21
3.1907079667
 31
0.0
 11
5.1724895592
 21
3.1872048607
 31
0.0
 11
5.163039292
 21
3.1836181925
 31
0.0
 11
5.1544447421
 21
3.1799550811
 31
0.0
  0
SPLINE
  5
266
100
AcDbEntity
  8
0
100
AcDbSpline
 62
6
  6
CONTINUOUS
 70
0
 71
3
 72
20
 73
16
 74
14
 42
0.0000001
 43
0.0000001
 44
0.0000000001
 12
-0.0406332788
 22
-0.0184183494
 32
0.0
 13
-0.0180607595
 23
-0.0407934787
 33
0.0
 40
0.0
 40
0.0
 40
0.0
 40
0.0
 40
0.1670236715
 40
0.3212305312
 40
0.3935764967
 40
0.462790355
 40
0.5289168137
 40
0.5920113108
 40
0.6521420824
 40
0.709392636
 40
0.7638662068
 40
0.8156927199
 40
0.8650274436
 40
0.9120533828
 40
1.0
 40
1.0
 40
1.0
 40
1.0
 10
5.1544447421
 20
3.1799550811
 30
0.0
 10
5.1521825023
 20
3.1789296477
 30
0.0
 10
5.1478694871
 20
3.1768721062
 30
0.0
 10
5.1427098979
 20
3.1741029462
 30
0.0
 10
5.1389272219
 20
3.1718575462
 30
0.0
 10
5.13632081
 20
3.1701996219
 30
0.0
 10
5.1338852281
 20
3.168532468
 30
0.0
 10
5.1316214865
 20
3.1668566477
 30
0.0
 10
5.1295305903
 20
3.1651727374
 30
0.0
 10
5.1276135361
 20
3.1634812796
 30
0.0
 10
5.1258712461
 20
3.1617826743
 30
0.0
 10
5.1243044409
 20
3.1600775938
 30
0.0
 10
5.1229135028
 20
3.1583660782
 30
0.0
 10
5.1213303517
 20
3.1561275281
 30
0.0
 10
5.1203494599
 20
3.1543633939
 30
0.0
 10
5.119819999
 20
3.1531675111
 30
0.0
 11
5.1544447421
 21
3.1799550811
 31
0.0
 11
5.1477249352
 21
3.1767352396
 31
0.0
 11
5.1416703421
 21
3.1734686322
 31
0.0
 11
5.1388960243
 21
3.17181931
 31
0.0
 11
5.1362918259
 21
3.1701601556
 31
0.0
 11
5.1338587999
 21
3.1684918085
 31
0.0
 11
5.1315979999
 21
3.1668149081
 31
0.0
 11
5.129510479
 21
3.1651300936
 31
0.0
 11
5.1275972906
 21
3.1634380045
 31
0.0
 11
5.1258593976
 21
3.1617392753
 31
0.0
 11
5.1242974327
 21
3.160034522
 31
0.0
 11
5.1229119531
 21
3.1583243569
 31
0.0
 11
5.1217035162
 21
3.156609392
 31
0.0
 11
5.119819999
 21
3.1531675111
 31
0.0
  0
SPLINE
  5
267
100
AcDbEntity
  8
0
100
AcDbSpline
 62
6
  6
CONTINUOUS
 70
0
 71
3
 72
11
 73
7
 74
5
 42
0.0000001
 43
0.0000001
 44
0.0000000001
 12
-0.0030767925
 22
-0.0069494901
 32
0.0
 13
-0.0000004476
 23
-0.0076001359
 33
0.0
 40
0.0
 40
0.0
 40
0.0
 40
0.0
 40
0.259569113
 40
0.5110385398
 40
0.7569454047
 40
1.0
 40
1.0
 40
1.0
 40
1.0
 10
5.119819999
 20
3.1531675111
 30
0.0
 10
5.1195537855
 20
3.1525662201
 30
0.0
 10
5.1190834382
 20
3.1513574968
 30
0.0
 10
5.1185695841
 20
3.149506549
 30
0.0
 10
5.1182608918
 20
3.1476527891
 30
0.0
 10
5.1181920731
 20
3.1464130114
 30
0.0
 10
5.1181920368
 20
3.1457972621
 30
0.0
 11
5.119819999
 21
3.1531675111
 31
0.0
 11
5.1191078263
 21
3.1513277844
 31
0.0
 11
5.1185991117
 21
3.1494855299
 31
0.0
 11
5.1182938561
 21
3.1476417018
 31
0.0
 11
5.1181920368
 21
3.1457972621
 31
0.0
  0
SPLINE
  5
268
100
AcDbEntity
  8
0
100
AcDbSpline
 62
6
  6
CONTINUOUS
 70
0
 71
3
 72
11
 73
7
 74
5
 42
0.0000001
 43
0.0000001
 44
0.0000000001
 12
0.0
 22
0.0081050981
 32
0.0
 13
0.0034504014
 23
0.0073339857
 33
0.0
 40
0.0
 40
0.0
 40
0.0
 40
0.0
 40
0.2421038222
 40
0.4874923344
 40
0.7391934613
 40
1.0
 40
1.0
 40
1.0
 40
1.0
 10
5.1181911621
 20
3.2161293856
 30
0.0
 10
5.1181911621
 20
3.2167834774
 30
0.0
 10
5.1182692413
 20
3.2181018033
 30
0.0
 10
5.1186190121
 20
3.2200722575
 30
0.0
 10
5.1192005718
 20
3.2220396362
 30
0.0
 10
5.1197311094
 20
3.2233215663
 30
0.0
 10
5.1200310718
 20
3.2239591501
 30
0.0
 11
5.1181911621
 21
3.2161293856
 31
0.0
 11
5.1183063509
 21
3.2180882771
 31
0.0
 11
5.118651658
 21
3.22004697
 31
0.0
 11
5.1192266945
 21
3.2220043119
 31
0.0
 11
5.1200310718
 21
3.2239591501
 31
0.0
  0
SPLINE
  5
269
100
AcDbEntity
  8
0
100
AcDbSpline
 62
6
  6
CONTINUOUS
 70
0
 71
3
 72
76
 73
72
 74
70
 42
0.0000001
 43
0.0000001
 44
0.0000000001
 12
0.3591540059
 22
0.7633982417
 32
0.0
 13
0.0
 23
-0.8436637217
 33
0.0
 40
0.0
 40
0.0
 40
0.0
 40
0.0
 40
0.0053809036
 40
0.0082922095
 40
0.0113700437
 40
0.014626747
 40
0.0180724204
 40
0.0217152948
 40
0.0255620552
 40
0.0296179944
 40
0.0338868353
 40
0.0383712696
 40
0.0430732517
 40
0.0479941296
 40
0.0531347511
 40
0.0640749999
 40
0.0758891911
 40
0.0885664587
 40
0.1020919605
 40
0.1164447507
 40
0.1316011182
 40
0.1475351215
 40
0.1642161545
 40
0.1816118306
 40
0.1996883581
 40
0.218408383
 40
0.2377333089
 40
0.2576235141
 40
0.2780364177
 40
0.2989284948
 40
0.3202555391
 40
0.3419712581
 40
0.3863799687
 40
0.431769789
 40
0.4777444399
 40
0.5239009977
 40
0.5698347815
 40
0.615142321
 40
0.659425787
 40
0.7022972654
 40
0.7433817888
 40
0.7823223196
 40
0.8008829872
 40
0.8187839134
 40
0.8359864559
 40
0.8524553502
 40
0.8681564733
 40
0.8830570828
 40
0.8971287376
 40
0.910344713
 40
0.9226803083
 40
0.9341161408
 40
0.9446356945
 40
0.9495477819
 40
0.95422671
 40
0.9586721587
 40
0.9628841556
 40
0.9668631622
 40
0.9706101869
 40
0.9741270664
 40
0.9774170436
 40
0.9804845956
 40
0.9833356256
 40
0.9859778998
 40
0.9884216245
 40
0.9906802612
 40
0.9927715541
 40
0.9947181211
 40
0.9965481536
 40
0.9982957047
 40
1.0
 40
1.0
 40
1.0
 40
1.0
 10
5.1200310718
 20
3.2239591501
 30
0.0
 10
5.1206752628
 20
3.2253284075
 30
0.0
 10
5.1218844884
 20
3.2273408546
 30
0.0
 10
5.1238396828
 20
3.2298724002
 30
0.0
 10
5.1255729407
 20
3.2318137393
 30
0.0
 10
5.1275325144
 20
3.2337458882
 30
0.0
 10
5.1297175957
 20
3.2356688386
 30
0.0
 10
5.132126961
 20
3.2375817462
 30
0.0
 10
5.1347595171
 20
3.239483913
 30
0.0
 10
5.1376139736
 20
3.2413744404
 30
0.0
 10
5.1406886516
 20
3.2432526266
 30
0.0
 10
5.143981737
 20
3.2451176305
 30
0.0
 10
5.1474913735
 20
3.2469685631
 30
0.0
 10
5.1512156931
 20
3.248804567
 30
0.0
 10
5.1565771954
 20
3.2512830404
 30
0.0
 10
5.1638110147
 20
3.2543247602
 30
0.0
 10
5.1731402813
 20
3.2578302875
 30
0.0
 10
5.1832695355
 20
3.261256201
 30
0.0
 10
5.1941763458
 20
3.2645952412
 30
0.0
 10
5.2058362678
 20
3.267841643
 30
0.0
 10
5.2182232201
 20
3.2709890677
 30
0.0
 10
5.2313095141
 20
3.2740309158
 30
0.0
 10
5.2450655027
 20
3.2769620139
 30
0.0
 10
5.2594601136
 20
3.2797767827
 30
0.0
 10
5.2744609242
 20
3.282469471
 30
0.0
 10
5.2900339588
 20
3.2850356467
 30
0.0
 10
5.3061440267
 20
3.2874706178
 30
0.0
 10
5.3227547692
 20
3.2897695777
 30
0.0
 10
5.3398285177
 20
3.2919289533
 30
0.0
 10
5.3573265589
 20
3.293944991
 30
0.0
 10
5.3752093325
 20
3.2958138856
 30
0.0
 10
5.3996942283
 20
3.2981231911
 30
0.0
 10
5.430957617
 20
3.3006108175
 30
0.0
 10
5.4690700616
 20
3.3029507887
 30
0.0
 10
5.5077082135
 20
3.3046547093
 30
0.0
 10
5.5465222556
 20
3.3057170567
 30
0.0
 10
5.5851609185
 20
3.3061377057
 30
0.0
 10
5.6232745278
 20
3.3059221937
 30
0.0
 10
5.6605181551
 20
3.3050826579
 30
0.0
 10
5.6965548081
 20
3.3036367317
 30
0.0
 10
5.7310583418
 20
3.3016071478
 30
0.0
 10
5.7586987499
 20
3.2994207583
 30
0.0
 10
5.7798060762
 20
3.2973867723
 30
0.0
 10
5.7948099373
 20
3.2957590813
 30
0.0
 10
5.8092076725
 20
3.2940093021
 30
0.0
 10
5.8229667785
 20
3.2921430555
 30
0.0
 10
5.8360561126
 20
3.2901659367
 30
0.0
 10
5.8484460264
 20
3.2880832313
 30
0.0
 10
5.8601086785
 20
3.2859014458
 30
0.0
 10
5.871017871
 20
3.2836269644
 30
0.0
 10
5.8811491111
 20
3.2812657742
 30
0.0
 10
5.8904797841
 20
3.2788250836
 30
0.0
 10
5.8977277867
 20
3.2766848821
 30
0.0
 10
5.903104012
 20
3.2749285038
 30
0.0
 10
5.9068304821
 20
3.2736256372
 30
0.0
 10
5.9103422162
 20
3.2723079112
 30
0.0
 10
5.913637345
 20
3.2709762131
 30
0.0
 10
5.9167140168
 20
3.2696314639
 30
0.0
 10
5.9195704358
 20
3.2682745529
 30
0.0
 10
5.9222049801
 20
3.2669062522
 30
0.0
 10
5.9246163961
 20
3.2655274939
 30
0.0
 10
5.9268036468
 20
3.2641390982
 30
0.0
 10
5.9287657578
 20
3.2627417926
 30
0.0
 10
5.9305017679
 20
3.2613361934
 30
0.0
 10
5.9320107196
 20
3.2599227404
 30
0.0
 10
5.9332915498
 20
3.2585015884
 30
0.0
 10
5.934343501
 20
3.2570730758
 30
0.0
 10
5.9351654538
 20
3.2556374107
 30
0.0
 10
5.9357555836
 20
3.2541948113
 30
0.0
 10
5.9361114226
 20
3.2527469594
 30
0.0
 10
5.9361911621
 20
3.2517744896
 30
0.0
 10
5.9361911621
 20
3.2512952056
 30
0.0
 11
5.1200310718
 21
3.2239591501
 31
0.0
 11
5.1223358725
 21
3.2278702274
 31
0.0
 11
5.1238329865
 21
3.2298173759
 31
0.0
 11
5.1255586972
 21
3.2317576209
 31
0.0
 11
5.1275118292
 21
3.2336900739
 31
0.0
 11
5.1296912073
 21
3.2356138462
 31
0.0
 11
5.1320956563
 21
3.2375280491
 31
0.0
 11
5.134724001
 21
3.239431794
 31
0.0
 11
5.1375749473
 21
3.2413241878
 31
0.0
 11
5.1406467006
 21
3.2432043184
 31
0.0
 11
5.1439373339
 21
3.2450712687
 31
0.0
 11
5.1474449207
 21
3.2469241218
 31
0.0
 11
5.1511675341
 21
3.2487619606
 31
0.0
 11
5.1551032474
 21
3.2505838681
 31
0.0
 11
5.1636053176
 21
3.2541763172
 31
0.0
 11
5.1729309121
 21
3.2576946198
 31
0.0
 11
5.1830588322
 21
3.261132026
 31
0.0
 11
5.1939670327
 21
3.2644818792
 31
0.0
 11
5.2056299837
 21
3.2677379076
 31
0.0
 11
5.2180212591
 21
3.2708939381
 31
0.0
 11
5.2311136344
 21
3.2739439148
 31
0.0
 11
5.2448766508
 21
3.2768822548
 31
0.0
 11
5.2592790305
 21
3.2797034952
 31
0.0
 11
5.2742888427
 21
3.2824023107
 31
0.0
 11
5.2898714736
 21
3.2849739417
 31
0.0
 11
5.30599162
 21
3.2874137738
 31
0.0
 11
5.3226134009
 21
3.2897173428
 31
0.0
 11
5.3396985963
 21
3.2918807912
 31
0.0
 11
5.3572083944
 21
3.2939004155
 31
0.0
 11
5.3751035729
 21
3.2957726767
 31
0.0
 11
5.3933432276
 21
3.2974947115
 31
0.0
 11
5.4306903212
 21
3.3004775129
 31
0.0
 11
5.468911647
 21
3.3028314755
 31
0.0
 11
5.507660936
 21
3.3045447267
 31
0.0
 11
5.546586932
 21
3.3056115903
 31
0.0
 11
5.585337318
 21
3.3060320536
 31
0.0
 11
5.6235610107
 21
3.3058117823
 31
0.0
 11
5.6609117129
 21
3.3049626176
 31
0.0
 11
5.697051315
 21
3.3035018832
 31
0.0
 11
5.7316521862
 21
3.3014522938
 31
0.0
 11
5.7644010565
 21
3.2988422644
 31
0.0
 11
5.7799875274
 21
3.2973372683
 31
0.0
 11
5.7950014286
 21
3.2957050582
 31
0.0
 11
5.8094081281
 21
3.2939503925
 31
0.0
 11
5.8231756767
 21
3.2920785907
 31
0.0
 11
5.8362728036
 21
3.2900951145
 31
0.0
 11
5.8486690261
 21
3.2880055412
 31
0.0
 11
5.8603370979
 21
3.2858159247
 31
0.0
 11
5.8712506038
 21
3.283532441
 31
0.0
 11
5.8813839939
 21
3.2811613618
 31
0.0
 11
5.8907152026
 21
3.2787093442
 31
0.0
 11
5.8992230415
 21
3.2761831422
 31
0.0
 11
5.9031616933
 21
3.274894344
 31
0.0
 11
5.906887273
 21
3.2735896014
 31
0.0
 11
5.9103978537
 21
3.272269828
 31
0.0
 11
5.9136915085
 21
3.2709359376
 31
0.0
 11
5.9167663107
 21
3.2695888439
 31
0.0
 11
5.9196203332
 21
3.2682294606
 31
0.0
 11
5.922251774
 21
3.2668586995
 31
0.0
 11
5.9246593328
 21
3.2654774656
 31
0.0
 11
5.9268418353
 21
3.2640866617
 31
0.0
 11
5.9287981074
 21
3.2626871909
 31
0.0
 11
5.9305269747
 21
3.2612799561
 31
0.0
 11
5.932027263
 21
3.2598658602
 31
0.0
 11
5.9332979274
 21
3.2584458406
 31
0.0
 11
5.9343384435
 21
3.2570209721
 31
0.0
 11
5.9351484182
 21
3.2555923646
 31
0.0
 11
5.9357274583
 21
3.2541611278
 31
0.0
 11
5.9360751706
 21
3.2527283716
 31
0.0
 11
5.9361911621
 21
3.2512952056
 31
0.0
  0
SPLINE
  5
26A
100
AcDbEntity
  8
0
100
AcDbSpline
 62
6
  6
CONTINUOUS
 70
0
 71
3
 72
11
 73
7
 74
5
 42
0.0000001
 43
0.0000001
 44
0.0000000001
 12
0.0
 22
0.0081149424
 32
0.0
 13
0.0034578334
 23
0.0073413676
 33
0.0
 40
0.0
 40
0.0
 40
0.0
 40
0.0
 40
0.2420883671
 40
0.4874674148
 40
0.7391717303
 40
1.0
 40
1.0
 40
1.0
 40
1.0
 10
5.1181911621
 20
3.2864610255
 30
0.0
 10
5.1181911621
 20
3.2871158699
 30
0.0
 10
5.1182694187
 20
3.2884357324
 30
0.0
 10
5.1186199872
 20
3.2904084629
 30
0.0
 10
5.1192028763
 20
3.2923780986
 30
0.0
 10
5.1197346074
 20
3.2936614365
 30
0.0
 10
5.120035241
 20
3.2942997152
 30
0.0
 11
5.1181911621
 21
3.2864610255
 31
0.0
 11
5.1183066099
 21
3.2884221635
 31
0.0
 11
5.118652696
 21
3.2903830941
 31
0.0
 11
5.1192290349
 21
3.2923426628
 31
0.0
 11
5.120035241
 21
3.2942997152
 31
0.0
  0
SPLINE
  5
26B
100
AcDbEntity
  8
0
100
AcDbSpline
 62
6
  6
CONTINUOUS
 70
0
 71
3
 72
38
 73
34
 74
32
 42
0.0000001
 43
0.0000001
 44
0.0000000001
 12
0.1572895064
 22
0.3339432419
 32
0.0
 13
0.3686596198
 23
0.0186591095
 33
0.0
 40
0.0
 40
0.0
 40
0.0
 40
0.0
 40
0.0107969527
 40
0.0165795481
 40
0.022650139
 40
0.0290297289
 40
0.0357359602
 40
0.042783591
 40
0.0501849286
 40
0.0579502129
 40
0.0660877815
 40
0.0746036805
 40
0.0835024194
 40
0.102459691
 40
0.1229787823
 40
0.1450646666
 40
0.1687081585
 40
0.1938926308
 40
0.2205966466
 40
0.2487904886
 40
0.2784380679
 40
0.3095010326
 40
0.3419367939
 40
0.3756960799
 40
0.4107277957
 40
0.4469792482
 40
0.4843923337
 40
0.562458486
 40
0.6444217518
 40
0.7297389588
 40
0.8178400364
 40
0.9081315004
 40
1.0
 40
1.0
 40
1.0
 40
1.0
 10
5.120035241
 20
3.2942997152
 30
0.0
 10
5.1206013234
 20
3.2955015717
 30
0.0
 10
5.1216367552
 20
3.2972721059
 30
0.0
 10
5.1232905722
 20
3.2995165064
 30
0.0
 10
5.124737735
 20
3.3012330201
 30
0.0
 10
5.1263618916
 20
3.3029428226
 30
0.0
 10
5.1281624583
 20
3.3046458656
 30
0.0
 10
5.1301385786
 20
3.3063415631
 30
0.0
 10
5.1322895022
 20
3.3080294431
 30
0.0
 10
5.1346144447
 20
3.3097089584
 30
0.0
 10
5.1371125299
 20
3.3113794711
 30
0.0
 10
5.1397825958
 20
3.3130405129
 30
0.0
 10
5.1436524963
 20
3.3152894175
 30
0.0
 10
5.1489224501
 20
3.318062704
 30
0.0
 10
5.1557840776
 20
3.3212766662
 30
0.0
 10
5.1632996003
 20
3.3244380274
 30
0.0
 10
5.1714556661
 20
3.3275427144
 30
0.0
 10
5.1802382943
 20
3.3305861064
 30
0.0
 10
5.1896325311
 20
3.3335631674
 30
0.0
 10
5.1996219724
 20
3.3364696052
 30
0.0
 10
5.2101890049
 20
3.3393013649
 30
0.0
 10
5.2213152978
 20
3.3420539602
 30
0.0
 10
5.2329814175
 20
3.3447230818
 30
0.0
 10
5.245166658
 20
3.3473052286
 30
0.0
 10
5.2578495499
 20
3.3497965602
 30
0.0
 10
5.2710078956
 20
3.3521931145
 30
0.0
 10
5.2894171833
 20
3.355302016
 30
0.0
 10
5.3134442392
 20
3.3589098064
 30
0.0
 10
5.3433888023
 20
3.3627544512
 30
0.0
 10
5.374629477
 20
3.366152587
 30
0.0
 10
5.4069460374
 20
3.3690864967
 30
0.0
 10
5.4401106588
 20
3.3715412534
 30
0.0
 10
5.462487522
 20
3.3728432803
 30
0.0
 10
5.4737769241
 20
3.3734146751
 30
0.0
 11
5.120035241
 21
3.2942997152
 31
0.0
 11
5.122024187
 21
3.2977534478
 31
0.0
 11
5.1232874738
 21
3.2994740174
 31
0.0
 11
5.12472923
 21
3.3011894566
 31
0.0
 11
5.1263486526
 21
3.3028991528
 31
0.0
 11
5.1281449373
 21
3.3046024933
 31
0.0
 11
5.1301172802
 21
3.3062988658
 31
0.0
 11
5.1322648768
 21
3.3079876579
 31
0.0
 11
5.1345869231
 21
3.3096682572
 31
0.0
 11
5.1370825446
 21
3.3113400487
 31
0.0
 11
5.1397505181
 21
3.3130024043
 31
0.0
 11
5.1425895123
 21
3.3146546922
 31
0.0
 11
5.1487752383
 21
3.3179265371
 31
0.0
 11
5.1556290726
 21
3.321150528
 31
0.0
 11
5.1631396372
 21
3.3243216859
 31
0.0
 11
5.1712928944
 21
3.3274353116
 31
0.0
 11
5.1800742001
 21
3.33048677
 31
0.0
 11
5.1894687721
 21
3.3334714409
 31
0.0
 11
5.199459877
 21
3.3363849229
 31
0.0
 11
5.2100293347
 21
3.3392229763
 31
0.0
 11
5.2211589243
 21
3.341981366
 31
0.0
 11
5.2328294225
 21
3.3446560024
 31
0.0
 11
5.2450195346
 21
3.3472430959
 31
0.0
 11
5.2577077095
 21
3.349738894
 31
0.0
 11
5.2708721358
 21
3.3521396978
 31
0.0
 11
5.2844891959
 21
3.3544421784
 31
0.0
 11
5.3129836513
 21
3.3587394917
 31
0.0
 11
5.3429906736
 21
3.3626069502
 31
0.0
 11
5.3742980165
 21
3.366024017
 31
0.0
 11
5.4066848955
 21
3.368973254
 31
0.0
 11
5.4399228883
 21
3.3714403197
 31
0.0
 11
5.4737769241
 21
3.3734146751
 31
0.0
  0
SPLINE
  5
26C
100
AcDbEntity
  8
0
100
AcDbSpline
 62
6
  6
CONTINUOUS
 70
0
 71
3
 72
41
 73
37
 74
35
 42
0.0000001
 43
0.0000001
 44
0.0000000001
 12
0.2825867088
 22
-0.0095203841
 32
0.0
 13
0.0
 23
-0.2827470348
 33
0.0
 40
0.0
 40
0.0
 40
0.0
 40
0.0
 40
0.1028454068
 40
0.2022870297
 40
0.2977670853
 40
0.3887472403
 40
0.4747245333
 40
0.5156868717
 40
0.5552247743
 40
0.5932852366
 40
0.6298161834
 40
0.6647710076
 40
0.6981074007
 40
0.729784185
 40
0.7597626624
 40
0.7880118248
 40
0.8145047845
 40
0.8392174947
 40
0.8621323088
 40
0.8832429344
 40
0.9025509254
 40
0.9200678584
 40
0.9281642443
 40
0.9358265061
 40
0.9430625109
 40
0.9498820736
 40
0.9562974261
 40
0.9623238036
 40
0.9679801755
 40
0.9732903641
 40
0.978283893
 40
0.9829964993
 40
0.9874709002
 40
0.9917571992
 40
0.9959125795
 40
1.0
 40
1.0
 40
1.0
 40
1.0
 10
5.665495196
 20
3.3751449153
 30
0.0
 10
5.6751827777
 20
3.3748185394
 30
0.0
 10
5.6942331432
 20
3.3740428619
 30
0.0
 10
5.7222549748
 20
3.3724812798
 30
0.0
 10
5.7491332174
 20
3.3705544577
 30
0.0
 10
5.7747103842
 20
3.3682779491
 30
0.0
 10
5.7951318575
 20
3.3660721862
 30
0.0
 10
5.8107025746
 20
3.3641361207
 30
0.0
 10
5.8217754177
 20
3.36263235
 30
0.0
 10
5.8324161894
 20
3.3610563151
 30
0.0
 10
5.8426091467
 20
3.3594107137
 30
0.0
 10
5.8523394214
 20
3.3576986893
 30
0.0
 10
5.8615929987
 20
3.3559236233
 30
0.0
 10
5.8703563118
 20
3.354088787
 30
0.0
 10
5.8786164522
 20
3.3521972408
 30
0.0
 10
5.8863615553
 20
3.3502526861
 30
0.0
 10
5.8935805819
 20
3.3482588146
 30
0.0
 10
5.9002629734
 20
3.3462191557
 30
0.0
 10
5.906399034
 20
3.3441370971
 30
0.0
 10
5.911980534
 20
3.3420168182
 30
0.0
 10
5.916999798
 20
3.3398622151
 30
0.0
 10
5.9208025404
 20
3.3379951276
 30
0.0
 10
5.9235483921
 20
3.3364787721
 30
0.0
 10
5.9254081442
 20
3.3353650651
 30
0.0
 10
5.9271222992
 20
3.3342453413
 30
0.0
 10
5.9286903151
 20
3.3331199728
 30
0.0
 10
5.9301116571
 20
3.3319893364
 30
0.0
 10
5.9313857929
 20
3.3308537641
 30
0.0
 10
5.9325121562
 20
3.3297134844
 30
0.0
 10
5.9334902663
 20
3.3285687467
 30
0.0
 10
5.9343198003
 20
3.3274198834
 30
0.0
 10
5.9350002891
 20
3.3262671356
 30
0.0
 10
5.9355310785
 20
3.3251108329
 30
0.0
 10
5.935911319
 20
3.3239513891
 30
0.0
 10
5.9361400662
 20
3.3227898754
 30
0.0
 10
5.9361911621
 20
3.3220120808
 30
0.0
 10
5.9361911621
 20
3.3216268455
 30
0.0
 11
5.665495196
 21
3.3751449153
 31
0.0
 11
5.6945501189
 21
3.3739560961
 31
0.0
 11
5.7226229948
 21
3.3723846534
 31
0.0
 11
5.7495499339
 21
3.3704450906
 31
0.0
 11
5.7751720335
 21
3.3681535462
 31
0.0
 11
5.7993397398
 21
3.3655287518
 31
0.0
 11
5.8108329561
 21
3.3640975868
 31
0.0
 11
5.8219101879
 21
3.3625909342
 31
0.0
 11
5.832555156
 21
3.361011641
 31
0.0
 11
5.8427516825
 21
3.3593625693
 31
0.0
 11
5.8524849831
 21
3.357646784
 31
0.0
 11
5.8617412898
 21
3.3558674984
 31
0.0
 11
5.8705068576
 21
3.3540279293
 31
0.0
 11
5.8787682744
 21
3.3521313302
 31
0.0
 11
5.8865139081
 21
3.3501811536
 31
0.0
 11
5.8937327188
 21
3.3481809179
 31
0.0
 11
5.9004136696
 21
3.3461341418
 31
0.0
 11
5.9065465116
 21
3.3440444217
 31
0.0
 11
5.9121229305
 21
3.3419155449
 31
0.0
 11
5.9171349032
 21
3.3397513273
 31
0.0
 11
5.9215744463
 21
3.3375555842
 31
0.0
 11
5.9235773896
 21
3.3364470771
 31
0.0
 11
5.9254349378
 21
3.3353321072
 31
0.0
 11
5.9271464841
 21
3.3342111445
 31
0.0
 11
5.9287114215
 21
3.3330846592
 31
0.0
 11
5.9301291432
 21
3.3319531214
 31
0.0
 11
5.9313990424
 21
3.3308170013
 31
0.0
 11
5.932520517
 21
3.3296767703
 31
0.0
 11
5.933493136
 21
3.3285329458
 31
0.0
 11
5.9343166817
 21
3.3273861025
 31
0.0
 11
5.93499095
 21
3.3262368187
 31
0.0
 11
5.9355157364
 21
3.3250856728
 31
0.0
 11
5.9358908367
 21
3.3239332431
 31
0.0
 11
5.9361160467
 21
3.3227801078
 31
0.0
 11
5.9361911621
 21
3.3216268455
 31
0.0
  0
SPLINE
  5
26D
100
AcDbEntity
  8
0
100
AcDbSpline
 62
6
  6
CONTINUOUS
 70
0
 71
3
 72
52
 73
48
 74
46
 42
0.0000001
 43
0.0000001
 44
0.0000000001
 12
0.6277575107
 22
0.3401416274
 32
0.0
 13
0.6277792342
 23
-0.340101532
 33
0.0
 40
0.0
 40
0.0
 40
0.0
 40
0.0
 40
0.0086021872
 40
0.0178445672
 40
0.0277269855
 40
0.038245182
 40
0.0493928353
 40
0.0611616169
 40
0.073539603
 40
0.0865131055
 40
0.1000676379
 40
0.1141871741
 40
0.1288530749
 40
0.1440459599
 40
0.1759312808
 40
0.2096671555
 40
0.2450636289
 40
0.2819157258
 40
0.3200094893
 40
0.3591198516
 40
0.3990158852
 40
0.4394596108
 40
0.4802099321
 40
0.5210226536
 40
0.5616533643
 40
0.6018580926
 40
0.64139599
 40
0.6800296254
 40
0.7175284933
 40
0.7536680072
 40
0.7882345921
 40
0.8210229708
 40
0.8518429575
 40
0.8664582118
 40
0.8805161351
 40
0.8939972079
 40
0.9068822392
 40
0.9191539855
 40
0.9307973306
 40
0.9417977492
 40
0.9521416459
 40
0.9618186039
 40
0.9708205096
 40
0.9791407544
 40
0.9867755147
 40
0.9937264718
 40
1.0
 40
1.0
 40
1.0
 40
1.0
 10
5.1812504463
 20
3.2740783009
 30
0.0
 10
5.1830504755
 20
3.2750536216
 30
0.0
 10
5.1868353467
 20
3.2769838173
 30
0.0
 10
5.1928344655
 20
3.2797362127
 30
0.0
 10
5.1993496328
 20
3.2824460761
 30
0.0
 10
5.206370634
 20
3.285110083
 30
0.0
 10
5.2138870712
 20
3.2877246977
 30
0.0
 10
5.2218877232
 20
3.290286145
 30
0.0
 10
5.2303601784
 20
3.2927914739
 30
0.0
 10
5.2392912906
 20
3.2952375337
 30
0.0
 10
5.2486675176
 20
3.297621011
 30
0.0
 10
5.2584745296
 20
3.2999386473
 30
0.0
 10
5.2686970347
 20
3.3021878867
 30
0.0
 10
5.2830927904
 20
3.3051394825
 30
0.0
 10
5.3020109643
 20
3.3086196156
 30
0.0
 10
5.3257525631
 20
3.3124182294
 30
0.0
 10
5.3507388549
 20
3.3158837018
 30
0.0
 10
5.3768155857
 20
3.3190008037
 30
0.0
 10
5.4038216958
 20
3.3217542227
 30
0.0
 10
5.4315904074
 20
3.3241331481
 30
0.0
 10
5.4599500092
 20
3.3261271559
 30
0.0
 10
5.4887252523
 20
3.327730007
 30
0.0
 10
5.5177381501
 20
3.328936481
 30
0.0
 10
5.5468093537
 20
3.3297449493
 30
0.0
 10
5.5757590252
 20
3.3301555661
 30
0.0
 10
5.604408204
 20
3.3301713067
 30
0.0
 10
5.6325796371
 20
3.3297977123
 30
0.0
 10
5.6600992354
 20
3.3290422956
 30
0.0
 10
5.6867967113
 20
3.3279158528
 30
0.0
 10
5.7125071979
 20
3.3264303019
 30
0.0
 10
5.7370716565
 20
3.3246014519
 30
0.0
 10
5.7603384755
 20
3.3224453779
 30
0.0
 10
5.7788395188
 20
3.3203579669
 30
0.0
 10
5.7928800942
 20
3.3185275547
 30
0.0
 10
5.8028121873
 20
3.3171097071
 30
0.0
 10
5.8123180384
 20
3.3156254903
 30
0.0
 10
5.8213828083
 20
3.3140776781
 30
0.0
 10
5.829992519
 20
3.3124693573
 30
0.0
 10
5.8381341126
 20
3.3108039946
 30
0.0
 10
5.845795043
 20
3.309084938
 30
0.0
 10
5.8529633783
 20
3.307315277
 30
0.0
 10
5.8596282767
 20
3.3054986683
 30
0.0
 10
5.8657798905
 20
3.3036388931
 30
0.0
 10
5.8714088752
 20
3.3017395884
 30
0.0
 10
5.8765068662
 20
3.2998039991
 30
0.0
 10
5.8810665636
 20
3.2978363092
 30
0.0
 10
5.8838870433
 20
3.2964343713
 30
0.0
 10
5.8851998402
 20
3.2957231591
 30
0.0
 11
5.1812504463
 21
3.2740783009
 31
0.0
 11
5.186717233
 21
3.2768776656
 31
0.0
 11
5.1927112771
 21
3.2796376103
 31
0.0
 11
5.19922311
 21
3.2823545674
 31
0.0
 11
5.2062421003
 21
3.2850250594
 31
0.0
 11
5.2137575936
 21
3.2876456107
 31
0.0
 11
5.2217585758
 21
3.2902127856
 31
0.0
 11
5.2302321891
 21
3.2927233523
 31
0.0
 11
5.2391649874
 21
3.2951741445
 31
0.0
 11
5.2485435217
 21
3.2975619961
 31
0.0
 11
5.2583536485
 21
3.2998838456
 31
0.0
 11
5.2685796383
 21
3.3021368704
 31
0.0
 11
5.2792055414
 21
3.3043182812
 31
0.0
 11
5.301592155
 21
3.3084553324
 31
0.0
 11
5.3253743018
 21
3.3122750267
 31
0.0
 11
5.3504055941
 21
3.3157589605
 31
0.0
 11
5.3765303605
 21
3.3188912785
 31
0.0
 11
5.4035877059
 21
3.321657775
 31
0.0
 11
5.4314095467
 21
3.3240470609
 31
0.0
 11
5.459824278
 21
3.3260495353
 31
0.0
 11
5.4886556666
 21
3.3276584961
 31
0.0
 11
5.5177256177
 21
3.3288692413
 31
0.0
 11
5.5468540465
 21
3.3296798721
 31
0.0
 11
5.57586089
 21
3.3300907398
 31
0.0
 11
5.6045664943
 21
3.3301047698
 31
0.0
 11
5.6327934715
 21
3.3297273709
 31
0.0
 11
5.6603668376
 21
3.3289662213
 31
0.0
 11
5.6871164486
 21
3.3278316392
 31
0.0
 11
5.7128761618
 21
3.3263358925
 31
0.0
 11
5.7374873817
 21
3.3244939165
 31
0.0
 11
5.7607968816
 21
3.3223223125
 31
0.0
 11
5.7826614817
 21
3.3198402108
 31
0.0
 11
5.7930087201
 21
3.3184890419
 31
0.0
 11
5.8029448026
 21
3.3170681917
 31
0.0
 11
5.8124544434
 21
3.315580561
 31
0.0
 11
5.8215224018
 21
3.3140290565
 31
0.0
 11
5.8301346342
 21
3.312416751
 31
0.0
 11
5.8382783807
 21
3.3107468954
 31
0.0
 11
5.8459409449
 21
3.3090227492
 31
0.0
 11
5.8531098285
 21
3.307247592
 31
0.0
 11
5.8597742804
 21
3.3054248797
 31
0.0
 11
5.8659244583
 21
3.3035581602
 31
0.0
 11
5.8715505275
 21
3.3016509821
 31
0.0
 11
5.8766431965
 21
3.2997069317
 31
0.0
 11
5.8811952213
 21
3.2977297368
 31
0.0
 11
5.8851998402
 21
3.2957231591
 31
0.0
  0
SPLINE
  5
26E
100
AcDbEntity
  8
0
100
AcDbSpline
 62
6
  6
CONTINUOUS
 70
0
 71
3
 72
56
 73
52
 74
50
 42
0.0000001
 43
0.0000001
 44
0.0000000001
 12
-0.5447987575
 22
0.5278600768
 32
0.0
 13
-0.6990810593
 23
-0.2944955336
 33
0.0
 40
0.0
 40
0.0
 40
0.0
 40
0.0
 40
0.002361867
 40
0.0048767639
 40
0.0075508582
 40
0.0103890825
 40
0.013395377
 40
0.0165728667
 40
0.0199237567
 40
0.023449492
 40
0.0310285843
 40
0.039314801
 40
0.0483078169
 40
0.0580020471
 40
0.0683885267
 40
0.0794567463
 40
0.0911940348
 40
0.1035844416
 40
0.1166109816
 40
0.1302560007
 40
0.1444995613
 40
0.1593200234
 40
0.1906025301
 40
0.223913946
 40
0.2590495225
 40
0.295790976
 40
0.3339107537
 40
0.3731711687
 40
0.4133290207
 40
0.4541350389
 40
0.4953375053
 40
0.5366826927
 40
0.5779176886
 40
0.6187910387
 40
0.6590558826
 40
0.6984696971
 40
0.7367985458
 40
0.7738157103
 40
0.809306603
 40
0.843067505
 40
0.8749096439
 40
0.8900566138
 40
0.9046608011
 40
0.9187028936
 40
0.9321652167
 40
0.9450325528
 40
0.9572904664
 40
0.9689254659
 40
0.9799270904
 40
0.9902874017
 40
1.0
 40
1.0
 40
1.0
 40
1.0
 10
5.9055597704
 20
3.3879330459
 30
0.0
 10
5.9051308564
 20
3.3883486243
 30
0.0
 10
5.9042163132
 20
3.3891771839
 30
0.0
 10
5.902729759
 20
3.3903766987
 30
0.0
 10
5.9010872106
 20
3.3915704839
 30
0.0
 10
5.8992893769
 20
3.3927580372
 30
0.0
 10
5.8973368685
 20
3.3939389301
 30
0.0
 10
5.8952303874
 20
3.395112611
 30
0.0
 10
5.8929708322
 20
3.396278632
 30
0.0
 10
5.8896752533
 20
3.3978607864
 30
0.0
 10
5.8851721563
 20
3.3998060403
 30
0.0
 10
5.8792987588
 20
3.4020492228
 30
0.0
 10
5.872841516
 20
3.4042494804
 30
0.0
 10
5.8658113805
 20
3.4064030072
 30
0.0
 10
5.8582201211
 20
3.4085059107
 30
0.0
 10
5.8500802207
 20
3.4105540095
 30
0.0
 10
5.84140515
 20
3.412543216
 30
0.0
 10
5.8322095684
 20
3.4144701421
 30
0.0
 10
5.822508832
 20
3.4163311255
 30
0.0
 10
5.812318906
 20
3.4181223378
 30
0.0
 10
5.8016567276
 20
3.4198405441
 30
0.0
 10
5.7865609533
 20
3.4220703335
 30
0.0
 10
5.7666427974
 20
3.4246354166
 30
0.0
 10
5.7415673104
 20
3.4273237011
 30
0.0
 10
5.7150700818
 20
3.4296529203
 30
0.0
 10
5.6873236335
 20
3.4316052392
 30
0.0
 10
5.6585078055
 20
3.4331637739
 30
0.0
 10
5.6288084253
 20
3.4343160791
 30
0.0
 10
5.5984163912
 20
3.4350507654
 30
0.0
 10
5.567526003
 20
3.4353606571
 30
0.0
 10
5.5363340764
 20
3.4352403204
 30
0.0
 10
5.5050383244
 20
3.434687667
 30
0.0
 10
5.4738364106
 20
3.4337033987
 30
0.0
 10
5.442924389
 20
3.4322904253
 30
0.0
 10
5.412495809
 20
3.4304554447
 30
0.0
 10
5.3827401444
 20
3.4282063509
 30
0.0
 10
5.3538420226
 20
3.4255553973
 30
0.0
 10
5.3259797038
 20
3.4225155112
 30
0.0
 10
5.2993242854
 20
3.4191038561
 30
0.0
 10
5.2740386637
 20
3.4153382967
 30
0.0
 10
5.2539149447
 20
3.4118681762
 30
0.0
 10
5.2386225078
 20
3.4089154597
 30
0.0
 10
5.2277800914
 20
3.4066628211
 30
0.0
 10
5.2173889621
 20
3.4043380445
 30
0.0
 10
5.207464707
 20
3.4019441512
 30
0.0
 10
5.1980218981
 20
3.3994847956
 30
0.0
 10
5.1890745058
 20
3.3969634414
 30
0.0
 10
5.1806359506
 20
3.3943832451
 30
0.0
 10
5.1727184676
 20
3.3917478921
 30
0.0
 10
5.1653334153
 20
3.3890613576
 30
0.0
 10
5.1606190938
 20
3.3871775245
 30
0.0
 10
5.1583557959
 20
3.3862240855
 30
0.0
 11
5.9055597704
 21
3.3879330459
 31
0.0
 11
5.9042343255
 21
3.3891385542
 31
0.0
 11
5.902751654
 21
3.3903390485
 31
0.0
 11
5.9011124602
 21
3.3915339972
 31
0.0
 11
5.8993174484
 21
3.3927228685
 31
0.0
 11
5.897367323
 21
3.3939051309
 31
0.0
 11
5.8952628028
 21
3.3950802523
 31
0.0
 11
5.8930048394
 21
3.3962476982
 31
0.0
 11
5.8905945723
 21
3.3974069316
 31
0.0
 11
5.8853217078
 21
3.3996986131
 31
0.0
 11
5.8794533696
 21
3.4019510008
 31
0.0
 11
5.8729989458
 21
3.4041598233
 31
0.0
 11
5.8659698546
 21
3.4063210306
 31
0.0
 11
5.8583785818
 21
3.4084306885
 31
0.0
 11
5.8502376263
 21
3.4104848642
 31
0.0
 11
5.8415603174
 21
3.4124797227
 31
0.0
 11
5.8323619076
 21
3.4144116546
 31
0.0
 11
5.8226579212
 21
3.4162770821
 31
0.0
 11
5.8124639908
 21
3.4180724461
 31
0.0
 11
5.8017972268
 21
3.4197944341
 31
0.0
 11
5.790675807
 21
3.4214399123
 31
0.0
 11
5.76714225
 21
3.4244889181
 31
0.0
 11
5.7420183899
 21
3.4271965107
 31
0.0
 11
5.7154686756
 21
3.4295418852
 31
0.0
 11
5.6876667464
 21
3.431506985
 31
0.0
 11
5.6587924771
 21
3.4330758392
 31
0.0
 11
5.6290329451
 21
3.4342356113
 31
0.0
 11
5.5985790352
 21
3.4349756104
 31
0.0
 11
5.5676260306
 21
3.4352883388
 31
0.0
 11
5.5363709379
 21
3.4351687028
 31
0.0
 11
5.505012247
 21
3.4346145572
 31
0.0
 11
5.4737478578
 21
3.4336265112
 31
0.0
 11
5.4427746747
 21
3.43220773
 31
0.0
 11
5.4122862863
 21
3.430364409
 31
0.0
 11
5.3824732974
 21
3.4281049234
 31
0.0
 11
5.3535201587
 21
3.4254407362
 31
0.0
 11
5.3256064495
 21
3.4223852581
 31
0.0
 11
5.2989032608
 21
3.4189547508
 31
0.0
 11
5.2735745523
 21
3.4151673506
 31
0.0
 11
5.2497743908
 21
3.411043584
 31
0.0
 11
5.2384931353
 21
3.4088624554
 31
0.0
 11
5.2276469737
 21
3.4066058313
 31
0.0
 11
5.2172526887
 21
3.4042767348
 31
0.0
 11
5.2073260909
 21
3.4018783217
 31
0.0
 11
5.1978814151
 21
3.399413963
 31
0.0
 11
5.1889327521
 21
3.3968870491
 31
0.0
 11
5.1804940497
 21
3.3943009851
 31
0.0
 11
5.1725775616
 21
3.3916593457
 31
0.0
 11
5.1651944345
 21
3.3889658166
 31
0.0
 11
5.1583557959
 21
3.3862240855
 31
0.0
  0
SPLINE
  5
26F
100
AcDbEntity
  8
0
100
AcDbSpline
 62
6
  6
CONTINUOUS
 70
0
 71
3
 72
15
 73
11
 74
9
 42
0.0000001
 43
0.0000001
 44
0.0000000001
 12
-0.0307545498
 22
-0.0131096003
 32
0.0
 13
-0.0240096195
 23
-0.023264611
 33
0.0
 40
0.0
 40
0.0
 40
0.0
 40
0.0
 40
0.1529355898
 40
0.2977156774
 40
0.4343798754
 40
0.5629960431
 40
0.6836680878
 40
0.7965556136
 40
0.9018957363
 40
1.0
 40
1.0
 40
1.0
 40
1.0
 10
5.1575934351
 20
3.3859010345
 30
0.0
 10
5.1560256133
 20
3.3852327264
 30
0.0
 10
5.1529905476
 20
3.3838913268
 30
0.0
 10
5.1486232685
 20
3.381801525
 30
0.0
 10
5.1445691583
 20
3.3796907204
 30
0.0
 10
5.1408313479
 20
3.3775604698
 30
0.0
 10
5.1374128291
 20
3.3754121883
 30
0.0
 10
5.1343161818
 20
3.3732470741
 30
0.0
 10
5.1315435234
 20
3.3710668858
 30
0.0
 10
5.1298538971
 20
3.3695518498
 30
0.0
 10
5.1290687484
 20
3.3687910639
 30
0.0
 11
5.1575934351
 21
3.3859010345
 31
0.0
 11
5.1529184408
 21
3.3838305911
 31
0.0
 11
5.1485541413
 21
3.3817374145
 31
0.0
 11
5.1445038106
 21
3.3796231078
 31
0.0
 11
5.1407707226
 21
3.3774892743
 31
0.0
 11
5.1373581489
 21
3.3753375175
 31
0.0
 11
5.1342689608
 21
3.3731694579
 31
0.0
 11
5.1315051868
 21
3.3709867528
 31
0.0
 11
5.1290687484
 21
3.3687910639
 31
0.0
  0
LINE
  5
270
100
AcDbEntity
  8
0
100
AcDbLine
 62
6
  6
CONTINUOUS
 10
5.1640414422
 20
3.0942732038
 11
5.1627341644
 21
3.0956224162
  0
SPLINE
  5
271
100
AcDbEntity
  8
0
100
AcDbSpline
 62
6
  6
CONTINUOUS
 70
0
 71
3
 72
14
 73
10
 74
8
 42
0.0000001
 43
0.0000001
 44
0.0000000001
 12
-0.0075976376
 22
0.0083821962
 32
0.0
 13
0.0
 23
0.0113130593
 33
0.0
 40
0.0
 40
0.0
 40
0.0
 40
0.0
 40
0.2827366026
 40
0.4136649226
 40
0.5386386047
 40
0.6586149373
 40
0.774681007
 40
0.8880427533
 40
1.0
 40
1.0
 40
1.0
 40
1.0
 10
5.1627341644
 20
3.0956224162
 30
0.0
 10
5.162018121
 20
3.0964124007
 30
0.0
 10
5.1610366294
 20
3.0976339184
 30
0.0
 10
5.1599615183
 20
3.0993595053
 30
0.0
 10
5.1593172218
 20
3.1006242814
 30
0.0
 10
5.1588150203
 20
3.1018919678
 30
0.0
 10
5.1584555189
 20
3.1031621229
 30
0.0
 10
5.1582393924
 20
3.1044337147
 30
0.0
 10
5.1581911621
 20
3.1052841549
 30
0.0
 10
5.1581911621
 20
3.1057063479
 30
0.0
 11
5.1627341644
 21
3.0956224162
 31
0.0
 11
5.1607492335
 21
3.0981306413
 31
0.0
 11
5.1599685147
 21
3.0993893831
 31
0.0
 11
5.1593292528
 21
3.1006504433
 31
0.0
 11
5.1588316672
 21
3.1019132458
 31
0.0
 11
5.1584759773
 21
3.1031772147
 31
0.0
 11
5.1582624025
 21
3.104441774
 31
0.0
 11
5.1581911621
 21
3.1057063479
 31
0.0
  0
SPLINE
  5
272
100
AcDbEntity
  8
0
100
AcDbSpline
 62
6
  6
CONTINUOUS
 70
0
 71
3
 72
52
 73
48
 74
46
 42
0.0000001
 43
0.0000001
 44
0.0000000001
 12
-0.6448959141
 22
0.3493564418
 32
0.0
 13
-0.6510035576
 23
-0.3378387655
 33
0.0
 40
0.0
 40
0.0
 40
0.0
 40
0.0
 40
0.0067125554
 40
0.0140744992
 40
0.0220902387
 40
0.0307606622
 40
0.0400837735
 40
0.0500533912
 40
0.0606611235
 40
0.0718975234
 40
0.0837512961
 40
0.0962084339
 40
0.1092541743
 40
0.1228732111
 40
0.1370480886
 40
0.1517598195
 40
0.1827157436
 40
0.2155740193
 40
0.2501531931
 40
0.2862582634
 40
0.3236845174
 40
0.3622160343
 40
0.401630216
 40
0.4416963645
 40
0.4821795538
 40
0.5228406588
 40
0.5634389789
 40
0.6037330641
 40
0.6434827722
 40
0.6824502533
 40
0.7204032647
 40
0.7571152055
 40
0.792367679
 40
0.8259521732
 40
0.8576712783
 40
0.8727742397
 40
0.8873438732
 40
0.9013593762
 40
0.9148022959
 40
0.927655434
 40
0.9399022353
 40
0.9515281131
 40
0.9625213324
 40
0.9728715384
 40
0.9825702698
 40
0.991613299
 40
1.0
 40
1.0
 40
1.0
 40
1.0
 10
5.9044931896
 20
3.1446075233
 30
0.0
 10
5.9030502231
 20
3.1453892148
 30
0.0
 10
5.8999724894
 20
3.1469326635
 30
0.0
 10
5.8950288779
 20
3.1491111493
 30
0.0
 10
5.8895530282
 20
3.1512556917
 30
0.0
 10
5.8835521861
 20
3.1533624717
 30
0.0
 10
5.87703409
 20
3.1554275754
 30
0.0
 10
5.8700078829
 20
3.1574478005
 30
0.0
 10
5.8624834766
 20
3.159419759
 30
0.0
 10
5.8544712822
 20
3.1613398763
 30
0.0
 10
5.8459825738
 20
3.163204689
 30
0.0
 10
5.8370296068
 20
3.1650112428
 30
0.0
 10
5.8276252102
 20
3.1667563549
 30
0.0
 10
5.8177827644
 20
3.1684367013
 30
0.0
 10
5.8075165344
 20
3.1700494393
 30
0.0
 10
5.7930361882
 20
3.1721415497
 30
0.0
 10
5.7739884457
 20
3.1745532757
 30
0.0
 10
5.7500657162
 20
3.1770893162
 30
0.0
 10
5.7248463642
 20
3.1792941914
 30
0.0
 10
5.6984795006
 20
3.1811511887
 30
0.0
 10
5.6711218575
 20
3.1826443465
 30
0.0
 10
5.6429366778
 20
3.1837613283
 30
0.0
 10
5.6140932334
 20
3.1844906823
 30
0.0
 10
5.5847653501
 20
3.1848244928
 30
0.0
 10
5.5551308043
 20
3.1847564173
 30
0.0
 10
5.5253698359
 20
3.1842829544
 30
0.0
 10
5.4956643335
 20
3.1834032326
 30
0.0
 10
5.4661965914
 20
3.1821182639
 30
0.0
 10
5.437148359
 20
3.1804326763
 30
0.0
 10
5.4086994937
 20
3.178352288
 30
0.0
 10
5.3810268374
 20
3.1758868162
 30
0.0
 10
5.3543031093
 20
3.1730472793
 30
0.0
 10
5.328695814
 20
3.1698479665
 30
0.0
 10
5.3043665206
 20
3.1663052217
 30
0.0
 10
5.2849809754
 20
3.1630311313
 30
0.0
 10
5.2702333402
 20
3.1602394435
 30
0.0
 10
5.259767232
 20
3.1581061179
 30
0.0
 10
5.2497310054
 20
3.1559015452
 30
0.0
 10
5.2401406847
 20
3.15362893
 30
0.0
 10
5.2310115834
 20
3.1512915821
 30
0.0
 10
5.2223585552
 20
3.1488925659
 30
0.0
 10
5.2141956314
 20
3.1464350609
 30
0.0
 10
5.2065357911
 20
3.1439228493
 30
0.0
 10
5.1993914189
 20
3.141359509
 30
0.0
 10
5.1927742172
 20
3.1387481819
 30
0.0
 10
5.1866948812
 20
3.136092938
 30
0.0
 10
5.1828625077
 20
3.1342258445
 30
0.0
 10
5.1810425836
 20
3.1332813936
 30
0.0
 11
5.9044931896
 21
3.1446075233
 31
0.0
 11
5.9000981117
 21
3.1468260894
 31
0.0
 11
5.8951614031
 21
3.1490134011
 31
0.0
 11
5.8896904915
 21
3.1511658258
 31
0.0
 11
5.8836928446
 21
3.1532797299
 31
0.0
 11
5.8771762699
 21
3.1553515102
 31
0.0
 11
5.8701504521
 21
3.157377731
 31
0.0
 11
5.8626257209
 21
3.1593550138
 31
0.0
 11
5.854612413
 21
3.1612799813
 31
0.0
 11
5.8461216776
 21
3.1631493371
 31
0.0
 11
5.837166261
 21
3.1649599443
 31
0.0
 11
5.8277590962
 21
3.1667086849
 31
0.0
 11
5.8179132257
 21
3.168392455
 31
0.0
 11
5.8076430832
 21
3.1700083318
 31
0.0
 11
5.7969640568
 21
3.1715535168
 31
0.0
 11
5.7744413736
 21
3.1744206984
 31
0.0
 11
5.7504772138
 21
3.1769732348
 31
0.0
 11
5.7252125568
 21
3.1791920445
 31
0.0
 11
5.6987974739
 21
3.1810601962
 31
0.0
 11
5.6713885354
 21
3.1825624449
 31
0.0
 11
5.6431501578
 21
3.1836860928
 31
0.0
 11
5.6142513713
 21
3.1844202425
 31
0.0
 11
5.5848670057
 21
3.184756684
 31
0.0
 11
5.5551749143
 21
3.1846893127
 31
0.0
 11
5.525356034
 21
3.1842145854
 31
0.0
 11
5.4955925226
 21
3.1833314737
 31
0.0
 11
5.4660672305
 21
3.1820412244
 31
0.0
 11
5.4369622434
 21
3.18034797
 31
0.0
 11
5.4084582891
 21
3.1782578901
 31
0.0
 11
5.3807323635
 21
3.1757800885
 31
0.0
 11
5.3539579166
 21
3.1729257146
 31
0.0
 11
5.3283031169
 21
3.1697085794
 31
0.0
 11
5.3039299351
 21
3.1661447188
 31
0.0
 11
5.2809936612
 21
3.1622523786
 31
0.0
 11
5.2701102788
 21
3.1601893819
 31
0.0
 11
5.2596401707
 21
3.1580521475
 31
0.0
 11
5.249600664
 21
3.1558434567
 31
0.0
 11
5.2400075826
 21
3.1535663596
 31
0.0
 11
5.2308761584
 21
3.1512240125
 31
0.0
 11
5.2222216081
 21
3.1488195737
 31
0.0
 11
5.214058213
 21
3.146356324
 31
0.0
 11
5.2063987523
 21
3.1438377414
 31
0.0
 11
5.1992558688
 21
3.1412673214
 31
0.0
 11
5.1926419547
 21
3.1386485931
 31
0.0
 11
5.186567595
 21
3.1359853256
 31
0.0
 11
5.1810425836
 21
3.1332813936
 31
0.0
  0
SPLINE
  5
273
100
AcDbEntity
  8
0
100
AcDbSpline
 62
6
  6
CONTINUOUS
 70
0
 71
3
 72
78
 73
74
 74
72
 42
0.0000001
 43
0.0000001
 44
0.0000000001
 12
0.0
 22
0.7629837032
 32
0.0
 13
-0.2973007239
 23
-0.7026780279
 33
0.0
 40
0.0
 40
0.0
 40
0.0
 40
0.0
 40
0.002027901
 40
0.0040932755
 40
0.0062303984
 40
0.008470062
 40
0.0108388856
 40
0.0133592346
 40
0.0160495395
 40
0.0189245806
 40
0.02199591
 40
0.0252726147
 40
0.0287618246
 40
0.0324691144
 40
0.0363988232
 40
0.0405541993
 40
0.0449371051
 40
0.0495485354
 40
0.0543889442
 40
0.0594583474
 40
0.0702819672
 40
0.0820122054
 40
0.0946333986
 40
0.1081266964
 40
0.1224706741
 40
0.1376383336
 40
0.1536001426
 40
0.1703255288
 40
0.1877801908
 40
0.205927002
 40
0.2247283298
 40
0.2441444447
 40
0.2641326236
 40
0.3056509401
 40
0.3489210053
 40
0.393561869
 40
0.4391774894
 40
0.4853631642
 40
0.5317074753
 40
0.5777981824
 40
0.6232248273
 40
0.6675844346
 40
0.6892409396
 40
0.710484875
 40
0.7515471668
 40
0.7712771169
 40
0.7904151811
 40
0.8089196477
 40
0.8267521964
 40
0.8438754054
 40
0.8602528987
 40
0.8758525263
 40
0.89064428
 40
0.9045992878
 40
0.9176932305
 40
0.9299061203
 40
0.9412201979
 40
0.9465361768
 40
0.9516235436
 40
0.9564819309
 40
0.9611113237
 40
0.9655121384
 40
0.9696853227
 40
0.9736326426
 40
0.9773572476
 40
0.980863391
 40
0.98415654
 40
0.9872436891
 40
0.9901337551
 40
0.9928380726
 40
0.9953711432
 40
0.9977511051
 40
1.0
 40
1.0
 40
1.0
 40
1.0
 10
5.8961911621
 20
3.1057063479
 30
0.0
 10
5.8961911621
 20
3.1062220997
 30
0.0
 10
5.8961187913
 20
3.1072644984
 30
0.0
 10
5.8957951466
 20
3.1088201542
 30
0.0
 10
5.8952575307
 20
3.1103723236
 30
0.0
 10
5.8945075563
 20
3.1119192793
 30
0.0
 10
5.8935466242
 20
3.11346031
 30
0.0
 10
5.8923758031
 20
3.1149948317
 30
0.0
 10
5.8909958294
 20
3.1165222501
 30
0.0
 10
5.8894076398
 20
3.1180420728
 30
0.0
 10
5.8876124127
 20
3.1195539725
 30
0.0
 10
5.8856112138
 20
3.1210573976
 30
0.0
 10
5.8834051148
 20
3.1225517282
 30
0.0
 10
5.8809951813
 20
3.124036272
 30
0.0
 10
5.8783825167
 20
3.1255102829
 30
0.0
 10
5.8755683953
 20
3.1269728912
 30
0.0
 10
5.8725544648
 20
3.1284234052
 30
0.0
 10
5.8693425564
 20
3.1298610296
 30
0.0
 10
5.8659345573
 20
3.1312849662
 30
0.0
 10
5.8610235593
 20
3.1332063222
 30
0.0
 10
5.8544010162
 20
3.135556863
 30
0.0
 10
5.8458690645
 20
3.1382518496
 30
0.0
 10
5.8366067627
 20
3.1408737714
 30
0.0
 10
5.8266350744
 20
3.1434163694
 30
0.0
 10
5.8159763093
 20
3.1458730694
 30
0.0
 10
5.8046549194
 20
3.1482386523
 30
0.0
 10
5.7926968381
 20
3.1505076878
 30
0.0
 10
5.7801292151
 20
3.1526743387
 30
0.0
 10
5.7669808583
 20
3.1547337393
 30
0.0
 10
5.7532820493
 20
3.1566814351
 30
0.0
 10
5.7390640906
 20
3.1585125383
 30
0.0
 10
5.7243595269
 20
3.1602226701
 30
0.0
 10
5.703889962
 20
3.1623639491
 30
0.0
 10
5.677342494
 20
3.1646965569
 30
0.0
 10
5.6444987473
 20
3.166926913
 30
0.0
 10
5.6105786305
 20
3.1686005155
 30
0.0
 10
5.5758933797
 20
3.1697025951
 30
0.0
 10
5.5407612786
 20
3.1702220573
 30
0.0
 10
5.5055046031
 20
3.1701542414
 30
0.0
 10
5.4704469564
 20
3.1695001585
 30
0.0
 10
5.4359100484
 20
3.1682650858
 30
0.0
 10
5.4076058146
 20
3.1667505556
 30
0.0
 10
5.3854636359
 20
3.1652496554
 30
0.0
 10
5.3641733265
 20
3.1635977305
 30
0.0
 10
5.3433964987
 20
3.1616707981
 30
0.0
 10
5.3231892896
 20
3.1594499755
 30
0.0
 10
5.3087047864
 20
3.157683654
 30
0.0
 10
5.2947220712
 20
3.1557982045
 30
0.0
 10
5.2812730549
 20
3.1537984513
 30
0.0
 10
5.268388587
 20
3.1516891212
 30
0.0
 10
5.2560983435
 20
3.1494745764
 30
0.0
 10
5.2444303329
 20
3.1471603516
 30
0.0
 10
5.2334111011
 20
3.1447521606
 30
0.0
 10
5.2230660043
 20
3.1422551369
 30
0.0
 10
5.213418485
 20
3.1396751788
 30
0.0
 10
5.2044902467
 20
3.1370188309
 30
0.0
 10
5.1975287186
 20
3.1347009411
 30
0.0
 10
5.1923408614
 20
3.1328043241
 30
0.0
 10
5.1887235073
 20
3.1313961086
 30
0.0
 10
5.1853001972
 20
3.1299733049
 30
0.0
 10
5.1820728289
 20
3.1285367216
 30
0.0
 10
5.1790432916
 20
3.1270871897
 30
0.0
 10
5.1762134232
 20
3.1256255069
 30
0.0
 10
5.1735848961
 20
3.1241523598
 30
0.0
 10
5.1711590092
 20
3.1226686142
 30
0.0
 10
5.1689368724
 20
3.1211750264
 30
0.0
 10
5.1669195521
 20
3.1196722911
 30
0.0
 10
5.1651081198
 20
3.1181610373
 30
0.0
 10
5.1635036382
 20
3.1166418153
 30
0.0
 10
5.1621072849
 20
3.1151149998
 30
0.0
 10
5.1609200032
 20
3.1135809521
 30
0.0
 10
5.1599426351
 20
3.1120406127
 30
0.0
 10
5.1594185601
 20
3.1109832101
 30
0.0
 10
5.1591956941
 20
3.1104564604
 30
0.0
 11
5.8961911621
 21
3.1057063479
 31
0.0
 11
5.8960850282
 21
3.1072499589
 31
0.0
 11
5.8957668926
 21
3.108793359
 31
0.0
 11
5.8952371542
 21
3.1103355006
 31
0.0
 11
5.8944962121
 21
3.1118753363
 31
0.0
 11
5.8935444652
 21
3.1134118185
 31
0.0
 11
5.8923823126
 21
3.1149439
 31
0.0
 11
5.8910101648
 21
3.1164705364
 31
0.0
 11
5.8894287832
 21
3.1179907847
 31
0.0
 11
5.8876393326
 21
3.1195038179
 31
0.0
 11
5.8856430002
 21
3.1210088157
 31
0.0
 11
5.8834409731
 21
3.1225049575
 31
0.0
 11
5.8810344385
 21
3.1239914228
 31
0.0
 11
5.8784245836
 21
3.1254673912
 31
0.0
 11
5.8756126854
 21
3.1269320408
 31
0.0
 11
5.8726005184
 21
3.1283845419
 31
0.0
 11
5.8693900287
 21
3.1298240622
 31
0.0
 11
5.8659831622
 21
3.1312497692
 31
0.0
 11
5.8623818653
 21
3.1326608307
 31
0.0
 11
5.8546037686
 21
3.1354356877
 31
0.0
 11
5.8460728089
 21
3.138142139
 31
0.0
 11
5.8368096992
 21
3.1407740901
 31
0.0
 11
5.8268356966
 21
3.1433255061
 31
0.0
 11
5.8161726695
 21
3.145790426
 31
0.0
 11
5.8048458724
 21
3.1481632979
 31
0.0
 11
5.7928817261
 21
3.1504387108
 31
0.0
 11
5.7803068275
 21
3.1526112847
 31
0.0
 11
5.7671502432
 21
3.1546760756
 31
0.0
 11
5.7534428662
 21
3.1566284621
 31
0.0
 11
5.7392156567
 21
3.1584638361
 31
0.0
 11
5.7245009769
 21
3.1601779259
 31
0.0
 11
5.7093333338
 21
3.1617669741
 31
0.0
 11
5.6777784888
 21
3.164555288
 31
0.0
 11
5.6448407539
 21
3.1668032264
 31
0.0
 11
5.6108222902
 21
3.1684898993
 31
0.0
 11
5.576036028
 21
3.1696001404
 31
0.0
 11
5.5408009974
 21
3.1701234967
 31
0.0
 11
5.5054411092
 21
3.1700552431
 31
0.0
 11
5.4702808278
 21
3.1693961457
 31
0.0
 11
5.4356433769
 21
3.1681519491
 31
0.0
 11
5.4018465565
 21
3.1663344075
 31
0.0
 11
5.3853609229
 21
3.1652155103
 31
0.0
 11
5.3692008432
 21
3.1639600185
 31
0.0
 11
5.338006368
 21
3.1610505834
 31
0.0
 11
5.3230431205
 21
3.1594034604
 31
0.0
 11
5.308548818
 21
3.1576330072
 31
0.0
 11
5.2945572675
 21
3.155743149
 31
0.0
 11
5.2810998276
 21
3.1537383985
 31
0.0
 11
5.2682074343
 21
3.1516233694
 31
0.0
 11
5.2559105686
 21
3.149402756
 31
0.0
 11
5.2442368015
 21
3.1470817662
 31
0.0
 11
5.2332125576
 21
3.1446658105
 31
0.0
 11
5.2228641005
 21
3.1421603188
 31
0.0
 11
5.2132150044
 21
3.1395710462
 31
0.0
 11
5.2042865954
 21
3.1369040191
 31
0.0
 11
5.1961001071
 21
3.1341652749
 31
0.0
 11
5.1922912998
 21
3.1327709416
 31
0.0
 11
5.1886748242
 21
3.131361065
 31
0.0
 11
5.1852526263
 21
3.1299364774
 31
0.0
 11
5.1820266525
 21
3.1284980112
 31
0.0
 11
5.1789988486
 21
3.1270464989
 31
0.0
 11
5.1761711609
 21
3.1255827727
 31
0.0
 11
5.1735453975
 21
3.1241076629
 31
0.0
 11
5.1711228612
 21
3.1226219918
 31
0.0
 11
5.1689047392
 21
3.1211265799
 31
0.0
 11
5.1668922187
 21
3.1196222476
 31
0.0
 11
5.1650864869
 21
3.1181098154
 31
0.0
 11
5.1634887309
 21
3.1165901037
 31
0.0
 11
5.1621001237
 21
3.1150639372
 31
0.0
 11
5.1609214731
 21
3.1135322455
 31
0.0
 11
5.1599531969
 21
3.1119960708
 31
0.0
 11
5.1591956941
 21
3.1104564604
 31
0.0
  0
SPLINE
  5
274
100
AcDbEntity
  8
0
100
AcDbSpline
 62
6
  6
CONTINUOUS
 70
0
 71
3
 72
10
 73
6
 74
4
 42
0.0000001
 43
0.0000001
 44
0.0000000001
 12
-0.0016713367
 22
-0.003950248
 32
0.0
 13
-0.0002272485
 23
-0.0042832446
 33
0.0
 40
0.0
 40
0.0
 40
0.0
 40
0.0
 40
0.5098666491
 40
0.7565303051
 40
1.0
 40
1.0
 40
1.0
 40
1.0
 10
5.1591956941
 20
3.1104564604
 30
0.0
 10
5.1589116411
 20
3.1097850939
 30
0.0
 10
5.158565601
 20
3.1087531743
 30
0.0
 10
5.1582951036
 20
3.1073478521
 30
0.0
 10
5.1582254012
 20
3.106649315
 30
0.0
 10
5.1582069584
 20
3.1063017016
 30
0.0
 11
5.1591956941
 21
3.1104564604
 31
0.0
 11
5.158509437
 21
3.1083799673
 31
0.0
 11
5.1583101645
 21
3.1073408963
 31
0.0
 11
5.1582069584
 21
3.1063017016
 31
0.0
  0
SPLINE
  5
275
100
AcDbEntity
  8
0
100
AcDbSpline
 62
6
  6
CONTINUOUS
 70
0
 71
3
 72
11
 73
7
 74
5
 42
0.0000001
 43
0.0000001
 44
0.0000000001
 12
-0.0017584127
 22
-0.0043423943
 32
0.0
 13
-0.0
 23
-0.0046849123
 33
0.0
 40
0.0
 40
0.0
 40
0.0
 40
0.0
 40
0.2581479247
 40
0.5093858642
 40
0.7558971318
 40
1.0
 40
1.0
 40
1.0
 40
1.0
 10
5.1577743067
 20
3.1115908447
 30
0.0
 10
5.1576229965
 20
3.1112171846
 30
0.0
 10
5.1573559425
 20
3.1104665378
 30
0.0
 10
5.1570648932
 20
3.1093207423
 30
0.0
 10
5.1568900917
 20
3.1081736553
 30
0.0
 10
5.1568511621
 20
3.1074069432
 30
0.0
 10
5.1568511621
 20
3.1070257431
 30
0.0
 11
5.1577743067
 21
3.1115908447
 31
0.0
 11
5.1573705343
 21
3.1104508371
 31
0.0
 11
5.1570820202
 21
3.1093097176
 31
0.0
 11
5.1569088811
 21
3.1081678861
 31
0.0
 11
5.1568511621
 21
3.1070257431
 31
0.0
  0
SPLINE
  5
276
100
AcDbEntity
  8
0
100
AcDbSpline
 62
6
  6
CONTINUOUS
 70
0
 71
3
 72
54
 73
50
 74
48
 42
0.0000001
 43
0.0000001
 44
0.0000000001
 12
0.6277770094
 22
0.340107793
 32
0.0
 13
0.6277784641
 23
-0.3401051077
 33
0.0
 40
0.0
 40
0.0
 40
0.0
 40
0.0
 40
0.0086028084
 40
0.0178451514
 40
0.0277269665
 40
0.0382454177
 40
0.0493936798
 40
0.0611620406
 40
0.0735395213
 40
0.0865135049
 40
0.1000683563
 40
0.1141873187
 40
0.12885306
 40
0.1440464657
 40
0.1597465334
 40
0.1759318655
 40
0.209668249
 40
0.24506415
 40
0.2819166663
 40
0.3200100048
 40
0.3591205779
 40
0.3990163668
 40
0.4394601452
 40
0.4802103159
 40
0.5210230607
 40
0.561653594
 40
0.601858411
 40
0.6413960446
 40
0.6800298347
 40
0.7175283969
 40
0.7536680693
 40
0.7882344051
 40
0.821022865
 40
0.8366905022
 40
0.8518431849
 40
0.8664585485
 40
0.8805163133
 40
0.8939972589
 40
0.9068824367
 40
0.9191541857
 40
0.9307973977
 40
0.9417977625
 40
0.9521417584
 40
0.9618186926
 40
0.9708205228
 40
0.9791407408
 40
0.9867755311
 40
0.9937265014
 40
1.0
 40
1.0
 40
1.0
 40
1.0
 10
5.1812501736
 20
3.1334150402
 30
0.0
 10
5.1830503887
 20
3.1343903343
 30
0.0
 10
5.1868355486
 20
3.1363202789
 30
0.0
 10
5.1928346101
 20
3.1390727889
 30
0.0
 10
5.1993495393
 20
3.1417830197
 30
0.0
 10
5.206370663
 20
3.1444469249
 30
0.0
 10
5.2138873102
 20
3.1470612825
 30
0.0
 10
5.2218878292
 20
3.1496229267
 30
0.0
 10
5.2303601443
 20
3.1521284112
 30
0.0
 10
5.2392914104
 20
3.1545742312
 30
0.0
 10
5.2486677317
 20
3.1569575994
 30
0.0
 10
5.2584745972
 20
3.1592754972
 30
0.0
 10
5.2686970589
 20
3.1615247385
 30
0.0
 10
5.2793193588
 20
3.1637024754
 30
0.0
 10
5.2903249512
 20
3.1658062812
 30
0.0
 10
5.305700619
 20
3.168547061
 30
0.0
 10
5.3257527557
 20
3.1717546516
 30
0.0
 10
5.3507389834
 20
3.175220713
 30
0.0
 10
5.3768157051
 20
3.1783373156
 30
0.0
 10
5.4038218519
 20
3.1810911364
 30
0.0
 10
5.4315905248
 20
3.1834697539
 30
0.0
 10
5.4599501557
 20
3.1854639599
 30
0.0
 10
5.4887253655
 20
3.1870667195
 30
0.0
 10
5.5177382864
 20
3.1882731831
 30
0.0
 10
5.5468094576
 20
3.1890817518
 30
0.0
 10
5.5757591567
 20
3.1894921962
 30
0.0
 10
5.6044082934
 20
3.1895081539
 30
0.0
 10
5.632579758
 20
3.1891343109
 30
0.0
 10
5.6600993058
 20
3.1883791413
 30
0.0
 10
5.6867968054
 20
3.1872524543
 30
0.0
 10
5.7125072692
 20
3.1857671315
 30
0.0
 10
5.7370716692
 20
3.1839380331
 30
0.0
 10
5.7567477105
 20
3.1821150654
 30
0.0
 10
5.7717989516
 20
3.18048875
 30
0.0
 10
5.7825371175
 20
3.1792127094
 30
0.0
 10
5.792880182
 20
3.1778642957
 30
0.0
 10
5.8028122391
 20
3.1764464317
 30
0.0
 10
5.8123180644
 20
3.1749621668
 30
0.0
 10
5.8213828628
 20
3.1734144153
 30
0.0
 10
5.8299925912
 20
3.171806097
 30
0.0
 10
5.8381341467
 20
3.1701407065
 30
0.0
 10
5.8457950624
 20
3.1684216306
 30
0.0
 10
5.852963425
 20
3.1666520148
 30
0.0
 10
5.8596283317
 20
3.1648353969
 30
0.0
 10
5.8657799193
 20
3.1629756069
 30
0.0
 10
5.8714088929
 20
3.1610762972
 30
0.0
 10
5.8765069014
 20
3.1591407215
 30
0.0
 10
5.8810666127
 20
3.1571730373
 30
0.0
 10
5.8838870925
 20
3.1557710972
 30
0.0
 10
5.8851998816
 20
3.1550598809
 30
0.0
 11
5.1812501736
 21
3.1334150402
 31
0.0
 11
5.1867175243
 21
3.136214296
 31
0.0
 11
5.1927115312
 21
3.1389742811
 31
0.0
 11
5.1992228644
 21
3.1416913437
 31
0.0
 11
5.2062420557
 21
3.1443618491
 31
0.0
 11
5.2137580358
 21
3.1469823595
 31
0.0
 11
5.2217587058
 21
3.1495495635
 31
0.0
 11
5.2302319495
 21
3.1520601519
 31
0.0
 11
5.239165136
 21
3.1545108779
 31
0.0
 11
5.2485439268
 21
3.1568987017
 31
0.0
 11
5.2583536297
 21
3.1592206261
 31
0.0
 11
5.2685795162
 21
3.1614736605
 31
0.0
 11
5.2792058305
 21
3.1636549944
 31
0.0
 11
5.2902156686
 21
3.1657620184
 31
0.0
 11
5.3015920664
 21
3.1677921339
 31
0.0
 11
5.3253746345
 21
3.1716117141
 31
0.0
 11
5.3504055348
 21
3.1750957633
 31
0.0
 11
5.3765306554
 21
3.1782279604
 31
0.0
 11
5.4035877247
 21
3.180994558
 31
0.0
 11
5.4314097641
 21
3.1833837586
 31
0.0
 11
5.4598243575
 21
3.1853862871
 31
0.0
 11
5.4886558268
 21
3.1869952242
 31
0.0
 11
5.5177257124
 21
3.1882059607
 31
0.0
 11
5.5468541987
 21
3.1890166298
 31
0.0
 11
5.5758609581
 21
3.1894274346
 31
0.0
 11
5.604566667
 21
3.1894415387
 31
0.0
 11
5.6327934953
 21
3.189064054
 31
0.0
 11
5.6603670137
 21
3.1883029816
 31
0.0
 11
5.6871164415
 21
3.1871683242
 31
0.0
 11
5.7128763086
 21
3.1856726366
 31
0.0
 11
5.7374873823
 21
3.1838306141
 31
0.0
 11
5.7607969772
 21
3.1816590417
 31
0.0
 11
5.7719185364
 21
3.1804555361
 31
0.0
 11
5.7826615319
 21
3.1791769246
 31
0.0
 11
5.7930088667
 21
3.1778257759
 31
0.0
 11
5.8029448475
 21
3.1764049117
 31
0.0
 11
5.8124544082
 21
3.1749172673
 31
0.0
 11
5.8215224889
 21
3.1733657785
 31
0.0
 11
5.8301347369
 21
3.1717534776
 31
0.0
 11
5.8382783968
 21
3.1700836128
 31
0.0
 11
5.8459409321
 21
3.1683594622
 31
0.0
 11
5.8531099017
 21
3.1665843136
 31
0.0
 11
5.8597743465
 21
3.1647616021
 31
0.0
 11
5.8659244767
 21
3.1628948793
 31
0.0
 11
5.8715505343
 21
3.1609876999
 31
0.0
 11
5.8766432355
 21
3.1590436516
 31
0.0
 11
5.8811952791
 21
3.1570664586
 31
0.0
 11
5.8851998816
 21
3.1550598809
 31
0.0
  0
SPLINE
  5
277
100
AcDbEntity
  8
0
100
AcDbSpline
 62
6
  6
CONTINUOUS
 70
0
 71
3
 72
81
 73
77
 74
75
 42
0.0000001
 43
0.0000001
 44
0.0000000001
 12
0.0000852366
 22
0.7713930058
 32
0.0
 13
0.0001303588
 23
-0.7713929995
 33
0.0
 40
0.0
 40
0.0
 40
0.0
 40
0.0
 40
0.0024187115
 40
0.0048705011
 40
0.0073870401
 40
0.0099975751
 40
0.0127282338
 40
0.0156014447
 40
0.0186360309
 40
0.0218476532
 40
0.0252492237
 40
0.0288513279
 40
0.0326625425
 40
0.0366893338
 40
0.0409365857
 40
0.0454080524
 40
0.0501065683
 40
0.0550342148
 40
0.0601923605
 40
0.0655813096
 40
0.0770492538
 40
0.0894319134
 40
0.1027170734
 40
0.1168850427
 40
0.1319125325
 40
0.147773478
 40
0.1644364353
 40
0.1818678366
 40
0.2000323051
 40
0.2188902581
 40
0.2384007169
 40
0.2585213825
 40
0.2792066526
 40
0.3004099732
 40
0.3220838037
 40
0.366641722
 40
0.4124720296
 40
0.4357322723
 40
0.4591508143
 40
0.5062435766
 40
0.5533119383
 40
0.5999164407
 40
0.6456222453
 40
0.6900026028
 40
0.7326444909
 40
0.7531896889
 40
0.7731536774
 40
0.7924902769
 40
0.8111561026
 40
0.8291082829
 40
0.8463061376
 40
0.8627124266
 40
0.8782906803
 40
0.8930073175
 40
0.9068329583
 40
0.9197395547
 40
0.9317030754
 40
0.9427050115
 40
0.9478405972
 40
0.952730297
 40
0.9573734023
 40
0.9617697918
 40
0.96591977
 40
0.9698241779
 40
0.9734845432
 40
0.9769033709
 40
0.9800848546
 40
0.9830348414
 40
0.9857610787
 40
0.9882738328
 40
0.9905867066
 40
0.9927177519
 40
0.9946908828
 40
0.996536494
 40
0.9982917769
 40
1.0
 40
1.0
 40
1.0
 40
1.0
 10
5.1568514564
 20
3.1238205992
 30
0.0
 10
5.1568515252
 20
3.1244425249
 30
0.0
 10
5.1569272015
 20
3.1256961346
 30
0.0
 10
5.1572661229
 20
3.1275692454
 30
0.0
 10
5.1578298773
 20
3.1294388848
 30
0.0
 10
5.1586174424
 20
3.1313033705
 30
0.0
 10
5.1596278469
 20
3.1331617156
 30
0.0
 10
5.1608596415
 20
3.135013244
 30
0.0
 10
5.1623114622
 20
3.1368574571
 30
0.0
 10
5.1639821559
 20
3.1386937941
 30
0.0
 10
5.1658706921
 20
3.1405216524
 30
0.0
 10
5.1679761054
 20
3.1423403545
 30
0.0
 10
5.1702973706
 20
3.1441490387
 30
0.0
 10
5.1728330212
 20
3.1459470486
 30
0.0
 10
5.1755814437
 20
3.1477336321
 30
0.0
 10
5.178540989
 20
3.1495079529
 30
0.0
 10
5.1817099955
 20
3.1512691566
 30
0.0
 10
5.1850867695
 20
3.1530163518
 30
0.0
 10
5.1886694614
 20
3.15474859
 30
0.0
 10
5.1938256647
 20
3.1570859173
 30
0.0
 10
5.2007787613
 20
3.1599525606
 30
0.0
 10
5.2097410761
 20
3.1632527913
 30
0.0
 10
5.2194663054
 20
3.1664734973
 30
0.0
 10
5.2299310688
 20
3.1696089233
 30
0.0
 10
5.2411106359
 20
3.1726526402
 30
0.0
 10
5.252978485
 20
3.1755979331
 30
0.0
 10
5.2655060885
 20
3.1784395659
 30
0.0
 10
5.2786634377
 20
3.18117184
 30
0.0
 10
5.2924190601
 20
3.1837889119
 30
0.0
 10
5.3067398162
 20
3.1862862923
 30
0.0
 10
5.3215912814
 20
3.1886591363
 30
0.0
 10
5.3369378114
 20
3.190902567
 30
0.0
 10
5.352742418
 20
3.1930129561
 30
0.0
 10
5.3689670705
 20
3.1949864392
 30
0.0
 10
5.3913140487
 20
3.1974526638
 30
0.0
 10
5.4200037261
 20
3.2001562113
 30
0.0
 10
5.4491469531
 20
3.202331965
 30
0.0
 10
5.4728901176
 20
3.2037791938
 30
0.0
 10
5.4969694905
 20
3.2050302571
 30
0.0
 10
5.5271818051
 20
3.2062017786
 30
0.0
 10
5.5633702003
 20
3.2069865153
 30
0.0
 10
5.5992101119
 20
3.2071560178
 30
0.0
 10
5.6343565963
 20
3.2067194725
 30
0.0
 10
5.668471405
 20
3.2056914795
 30
0.0
 10
5.6960993886
 20
3.2043436699
 30
0.0
 10
5.7174366641
 20
3.202976237
 30
0.0
 10
5.7327824389
 20
3.2018300888
 30
0.0
 10
5.7476330475
 20
3.2005545754
 30
0.0
 10
5.7619527901
 20
3.1991545533
 30
0.0
 10
5.7757071792
 20
3.1976345668
 30
0.0
 10
5.7888631244
 20
3.1959994344
 30
0.0
 10
5.8013890515
 20
3.1942549708
 30
0.0
 10
5.8132548414
 20
3.1924065524
 30
0.0
 10
5.8244320104
 20
3.1904598375
 30
0.0
 10
5.8348938745
 20
3.1884215141
 30
0.0
 10
5.8446154674
 20
3.1862977156
 30
0.0
 10
5.8535735179
 20
3.1840947856
 30
0.0
 10
5.8605361685
 20
3.1821574884
 30
0.0
 10
5.8657032593
 20
3.1805645845
 30
0.0
 10
5.8692849725
 20
3.1793817309
 30
0.0
 10
5.8726607667
 20
3.1781840931
 30
0.0
 10
5.8758288131
 20
3.1769725852
 30
0.0
 10
5.8787873563
 20
3.1757481198
 30
0.0
 10
5.8815346595
 20
3.1745115929
 30
0.0
 10
5.88406904
 20
3.17326389
 30
0.0
 10
5.8863889592
 20
3.172005748
 30
0.0
 10
5.888493266
 20
3.1707380838
 30
0.0
 10
5.8903810684
 20
3.169461723
 30
0.0
 10
5.8920515447
 20
3.1681773456
 30
0.0
 10
5.8935038659
 20
3.1668854666
 30
0.0
 10
5.8947371523
 20
3.1655863688
 30
0.0
 10
5.8957502591
 20
3.1642799242
 30
0.0
 10
5.896542052
 20
3.1629661721
 30
0.0
 10
5.8971107916
 20
3.1616450499
 30
0.0
 10
5.8974539453
 20
3.1603179686
 30
0.0
 10
5.8975309434
 20
3.1594256551
 30
0.0
 10
5.8975310176
 20
3.158986418
 30
0.0
 11
5.1568514564
 21
3.1238205992
 31
0.0
 11
5.1569631336
 21
3.1256830311
 31
0.0
 11
5.1572976404
 21
3.1275445078
 31
0.0
 11
5.1578548067
 21
3.1294040725
 31
0.0
 11
5.1586344627
 21
3.1312607683
 31
0.0
 11
5.1596363792
 21
3.1331136393
 31
0.0
 11
5.1608598359
 21
3.1349617386
 31
0.0
 11
5.1623038703
 21
3.1368041238
 31
0.0
 11
5.1639675183
 21
3.1386398525
 31
0.0
 11
5.1658498157
 21
3.1404679823
 31
0.0
 11
5.1679497984
 21
3.1422875706
 31
0.0
 11
5.1702664301
 21
3.1440976784
 31
0.0
 11
5.1727981811
 21
3.1458973883
 31
0.0
 11
5.175543314
 21
3.1476857924
 31
0.0
 11
5.178500091
 21
3.1494619827
 31
0.0
 11
5.181666774
 21
3.1512250514
 31
0.0
 11
5.1850416251
 21
3.1529740904
 31
0.0
 11
5.1886228223
 21
3.154708198
 31
0.0
 11
5.1924080624
 21
3.1564265073
 31
0.0
 11
5.2005807724
 21
3.1598123148
 31
0.0
 11
5.2095399565
 21
3.1631246795
 31
0.0
 11
5.2192649848
 21
3.166356855
 31
0.0
 11
5.2297315831
 21
3.1695024783
 31
0.0
 11
5.2409144776
 21
3.172555291
 31
0.0
 11
5.2527875767
 21
3.1755091522
 31
0.0
 11
5.2653214963
 21
3.178358393
 31
0.0
 11
5.2784860248
 21
3.1810974634
 31
0.0
 11
5.292250175
 21
3.1837209621
 31
0.0
 11
5.3065800986
 21
3.1862240382
 31
0.0
 11
5.3214412871
 21
3.1886019673
 31
0.0
 11
5.3367985336
 21
3.190850207
 31
0.0
 11
5.3526142662
 21
3.192964829
 31
0.0
 11
5.3688504124
 21
3.1949420358
 31
0.0
 11
5.385468315
 21
3.1967782429
 31
0.0
 11
5.4196871358
 21
3.2000161081
 31
0.0
 11
5.4549414909
 21
3.2026576439
 31
0.0
 11
5.4728509956
 21
3.203750029
 31
0.0
 11
5.4908915212
 21
3.2046881315
 31
0.0
 11
5.5271911543
 21
3.2060986531
 31
0.0
 11
5.5634908214
 21
3.2068860161
 31
0.0
 11
5.5994408194
 21
3.207053352
 31
0.0
 11
5.6346951661
 21
3.2066096956
 31
0.0
 11
5.6689140639
 21
3.2055697183
 31
0.0
 11
5.7017680192
 21
3.2039541314
 31
0.0
 11
5.7175838635
 21
3.2029384769
 31
0.0
 11
5.7329409965
 21
3.2017891435
 31
0.0
 11
5.7478021778
 21
3.200510138
 31
0.0
 11
5.7621322396
 21
3.1991060261
 31
0.0
 11
5.7758962466
 21
3.1975814346
 31
0.0
 11
5.7890607737
 21
3.1959412905
 31
0.0
 11
5.8015948542
 21
3.1941910096
 31
0.0
 11
5.8134677808
 21
3.1923360578
 31
0.0
 11
5.824650683
 21
3.1903821733
 31
0.0
 11
5.8351174606
 21
3.1883355055
 31
0.0
 11
5.8448422889
 21
3.1862022426
 31
0.0
 11
5.8538014923
 21
3.1839888075
 31
0.0
 11
5.8619743951
 21
3.1817019504
 31
0.0
 11
5.8657595924
 21
3.1805331055
 31
0.0
 11
5.8693406081
 21
3.1793484504
 31
0.0
 11
5.8727154106
 21
3.178148872
 31
0.0
 11
5.8758821744
 21
3.1769352729
 31
0.0
 11
5.8788390743
 21
3.1757085558
 31
0.0
 11
5.8815842856
 21
3.1744696235
 31
0.0
 11
5.8841159833
 21
3.1732193788
 31
0.0
 11
5.8864324243
 21
3.1719587281
 31
0.0
 11
5.888532365
 21
3.170688602
 31
0.0
 11
5.8904147506
 21
3.16940994
 31
0.0
 11
5.8920785263
 21
3.1681236815
 31
0.0
 11
5.8935226376
 21
3.1668307659
 31
0.0
 11
5.8947460297
 21
3.1655321327
 31
0.0
 11
5.8957477505
 21
3.1642287235
 31
0.0
 11
5.8965273712
 21
3.1629214912
 31
0.0
 11
5.8970846303
 21
3.161611392
 31
0.0
 11
5.8974192663
 21
3.1602993821
 31
0.0
 11
5.8975310176
 21
3.158986418
 31
0.0
  0
SPLINE
  5
278
100
AcDbEntity
  8
0
100
AcDbSpline
 62
6
  6
CONTINUOUS
 70
0
 71
3
 72
15
 73
11
 74
9
 42
0.0000001
 43
0.0000001
 44
0.0000000001
 12
0.0
 22
-0.0131925168
 32
0.0
 13
-0.0094726284
 23
-0.0091821463
 33
0.0
 40
0.0
 40
0.0
 40
0.0
 40
0.0
 40
0.1090303151
 40
0.219810369
 40
0.3339488827
 40
0.4529100225
 40
0.5779808379
 40
0.710262839
 40
0.8506811316
 40
1.0
 40
1.0
 40
1.0
 40
1.0
 10
5.8961911621
 20
3.1057063479
 30
0.0
 10
5.8961911621
 20
3.1052268865
 30
0.0
 10
5.8961287584
 20
3.1042591673
 30
0.0
 10
5.8958494468
 20
3.1028138028
 30
0.0
 10
5.8953852008
 20
3.1013709783
 30
0.0
 10
5.8947371879
 20
3.0999321285
 30
0.0
 10
5.8939064823
 20
3.0984979241
 30
0.0
 10
5.8928939231
 20
3.0970689162
 30
0.0
 10
5.891700224
 20
3.0956456439
 30
0.0
 10
5.8908123628
 20
3.0947302263
 30
0.0
 10
5.8903408821
 20
3.0942732038
 30
0.0
 11
5.8961911621
 21
3.1057063479
 31
0.0
 11
5.8960993757
 21
3.1042708952
 31
0.0
 11
5.8958242304
 21
3.1028355614
 31
0.0
 11
5.8953660471
 21
3.101401189
 31
0.0
 11
5.8947251467
 21
3.0999686203
 31
0.0
 11
5.89390185
 21
3.0985386977
 31
0.0
 11
5.8928964778
 21
3.0971122636
 31
0.0
 11
5.8917093512
 21
3.0956901602
 31
0.0
 11
5.8903408821
 21
3.0942732038
 31
0.0
  0
SPLINE
  5
279
100
AcDbEntity
  8
0
100
AcDbSpline
 62
6
  6
CONTINUOUS
 70
0
 71
3
 72
52
 73
48
 74
46
 42
0.0000001
 43
0.0000001
 44
0.0000000001
 12
-0.6934666258
 22
0.3756233451
 32
0.0
 13
-0.69346501
 23
-0.3756263282
 33
0.0
 40
0.0
 40
0.0
 40
0.0
 40
0.0
 40
0.0063846479
 40
0.0134457792
 40
0.0211882731
 40
0.0296128803
 40
0.0387172003
 40
0.0484943673
 40
0.0589350015
 40
0.0700286024
 40
0.0817628511
 40
0.0941225285
 40
0.1070915836
 40
0.1206534552
 40
0.1347895016
 40
0.1494793592
 40
0.180437005
 40
0.2133490317
 40
0.2480230297
 40
0.2842541306
 40
0.3218277538
 40
0.3605195057
 40
0.4000988578
 40
0.4403279375
 40
0.480965729
 40
0.5217682511
 40
0.5624912316
 40
0.6028907549
 40
0.6427257983
 40
0.6817586854
 40
0.7197588043
 40
0.7565017954
 40
0.7917742845
 40
0.8253721762
 40
0.8571058212
 40
0.8722180652
 40
0.886800159
 40
0.9008326402
 40
0.9142971143
 40
0.9271778817
 40
0.9394603528
 40
0.951130786
 40
0.9621779228
 40
0.972593524
 40
0.9823710368
 40
0.9915062739
 40
1.0
 40
1.0
 40
1.0
 40
1.0
 10
5.9220344402
 20
3.275768887
 30
0.0
 10
5.9205585935
 20
3.2765682946
 30
0.0
 10
5.917391945
 20
3.2781445312
 30
0.0
 10
5.9122787612
 20
3.2803588243
 30
0.0
 10
5.9065723372
 20
3.2825373262
 30
0.0
 10
5.9002809939
 20
3.284675668
 30
0.0
 10
5.8934135911
 20
3.2867693685
 30
0.0
 10
5.8859806183
 20
3.2888147392
 30
0.0
 10
5.8779934978
 20
3.29080796
 30
0.0
 10
5.8694642311
 20
3.2927449964
 30
0.0
 10
5.8604057727
 20
3.294621906
 30
0.0
 10
5.8508321902
 20
3.2964353748
 30
0.0
 10
5.8407582243
 20
3.2981818459
 30
0.0
 10
5.8301992004
 20
3.2998576136
 30
0.0
 10
5.8191714097
 20
3.3014594668
 30
0.0
 10
5.803591583
 20
3.3035289861
 30
0.0
 10
5.7830733096
 20
3.3058936517
 30
0.0
 10
5.7572820041
 20
3.3083434399
 30
0.0
 10
5.7300683358
 20
3.3104310241
 30
0.0
 10
5.701600544
 20
3.3121381424
 30
0.0
 10
5.6720545003
 20
3.3134478511
 30
0.0
 10
5.6416125794
 20
3.3143471256
 30
0.0
 10
5.610462985
 20
3.314823977
 30
0.0
 10
5.5787982105
 20
3.3148707197
 30
0.0
 10
5.546814225
 20
3.3144808449
 30
0.0
 10
5.5147087134
 20
3.3136518368
 30
0.0
 10
5.4826802238
 20
3.3123831263
 30
0.0
 10
5.4509266976
 20
3.3106771977
 30
0.0
 10
5.4196445613
 20
3.3085395534
 30
0.0
 10
5.389027149
 20
3.3059776112
 30
0.0
 10
5.3592637582
 20
3.3030027691
 30
0.0
 10
5.3305381022
 20
3.2996273469
 30
0.0
 10
5.3030274691
 20
3.2958681893
 30
0.0
 10
5.2769016594
 20
3.2917424767
 30
0.0
 10
5.2560928285
 20
3.2879582184
 30
0.0
 10
5.2402662757
 20
3.2847466527
 30
0.0
 10
5.2290341992
 20
3.2822990141
 30
0.0
 10
5.2182631661
 20
3.2797761977
 30
0.0
 10
5.2079699114
 20
3.2771810886
 30
0.0
 10
5.198170096
 20
3.2745174007
 30
0.0
 10
5.1888786394
 20
3.2717887227
 30
0.0
 10
5.1801099754
 20
3.2689983652
 30
0.0
 10
5.1718775286
 20
3.2661498812
 30
0.0
 10
5.1641935709
 20
3.2632473877
 30
0.0
 10
5.1570696632
 20
3.260294697
 30
0.0
 10
5.1505170515
 20
3.2572952448
 30
0.0
 10
5.146385821
 20
3.2551908103
 30
0.0
 10
5.1444224537
 20
3.2541273213
 30
0.0
 11
5.9220344402
 21
3.275768887
 31
0.0
 11
5.9175336542
 21
3.2780266537
 31
0.0
 11
5.9124285503
 21
3.2802515165
 31
0.0
 11
5.9067277361
 21
3.2824393447
 31
0.0
 11
5.9004398997
 21
3.2845860061
 31
0.0
 11
5.8935740451
 21
3.2866873994
 31
0.0
 11
5.8861412713
 21
3.2887396303
 31
0.0
 11
5.8781535302
 21
3.2907388883
 31
0.0
 11
5.8696227798
 21
3.2926813639
 31
0.0
 11
5.8605617959
 21
3.2945633385
 31
0.0
 11
5.8509852076
 21
3.2963813004
 31
0.0
 11
5.840907899
 21
3.2981317663
 31
0.0
 11
5.8303448414
 21
3.2998112658
 31
0.0
 11
5.819312445
 21
3.301416538
 31
0.0
 11
5.8078283031
 21
3.3029444948
 31
0.0
 11
5.7835756031
 21
3.3057561915
 31
0.0
 11
5.7577366453
 21
3.3082234829
 31
0.0
 11
5.7304714712
 21
3.310325591
 31
0.0
 11
5.7019490827
 21
3.3120441872
 31
0.0
 11
5.6723455298
 21
3.3133630194
 31
0.0
 11
5.6418442323
 21
3.3142687271
 31
0.0
 11
5.6106331837
 21
3.3147499935
 31
0.0
 11
5.5789060463
 21
3.3147986657
 31
0.0
 11
5.5468589079
 21
3.314408744
 31
0.0
 11
5.5146902216
 21
3.3135773806
 31
0.0
 11
5.4825987729
 21
3.3123041662
 31
0.0
 11
5.4507832376
 21
3.3105915391
 31
0.0
 11
5.4194402608
 21
3.3084447251
 31
0.0
 11
5.3887642227
 21
3.3058714124
 31
0.0
 11
5.3589443859
 21
3.3028822886
 31
0.0
 11
5.3301657866
 21
3.2994901415
 31
0.0
 11
5.302605622
 21
3.2957107468
 31
0.0
 11
5.2764350553
 21
3.2915617875
 31
0.0
 11
5.2518154522
 21
3.2870636782
 31
0.0
 11
5.2401356443
 21
3.2846905257
 31
0.0
 11
5.2288996928
 21
3.2822386843
 31
0.0
 11
5.2181252724
 21
3.2797112313
 31
0.0
 11
5.2078295403
 21
3.2771113192
 31
0.0
 11
5.1980278342
 21
3.274442364
 31
0.0
 11
5.1887350921
 21
3.2717078397
 31
0.0
 11
5.1799662147
 21
3.2689112244
 31
0.0
 11
5.1717348406
 21
3.2660561374
 31
0.0
 11
5.1640530728
 21
3.2631463699
 31
0.0
 11
5.1569329213
 21
3.2601857235
 31
0.0
 11
5.150386142
 21
3.2571780264
 31
0.0
 11
5.1444224537
 21
3.2541273213
 31
0.0
  0
SPLINE
  5
27A
100
AcDbEntity
  8
0
100
AcDbSpline
 62
6
  6
CONTINUOUS
 70
0
 71
3
 72
38
 73
34
 74
32
 42
0.0000001
 43
0.0000001
 44
0.0000000001
 12
-0.4727064328
 22
0.2560476466
 32
0.0
 13
-0.5353434018
 23
-0.0491854765
 33
0.0
 40
0.0
 40
0.0
 40
0.0
 40
0.0
 40
0.006035037
 40
0.012495515
 40
0.0193846807
 40
0.0267042147
 40
0.0344547006
 40
0.0426358642
 40
0.0512466753
 40
0.060284641
 40
0.0796268651
 40
0.1006307539
 40
0.12325715
 40
0.1474561296
 40
0.1731739583
 40
0.2003513875
 40
0.2289216222
 40
0.2588160911
 40
0.2899605486
 40
0.3222758437
 40
0.3556816509
 40
0.3900923344
 40
0.425419476
 40
0.4615735562
 40
0.4984610483
 40
0.535987226
 40
0.5740560473
 40
0.612568691
 40
0.6905266574
 40
0.7690561915
 40
0.8473467188
 40
0.924592196
 40
1.0
 40
1.0
 40
1.0
 40
1.0
 10
5.9220344297
 20
3.3461005263
 30
0.0
 10
5.9210834961
 20
3.346615612
 30
0.0
 10
5.9190905236
 20
3.3476380261
 30
0.0
 10
5.9159416253
 20
3.3491062809
 30
0.0
 10
5.9125342798
 20
3.3505600385
 30
0.0
 10
5.9088708618
 20
3.351998102
 30
0.0
 10
5.9049536949
 20
3.3534193175
 30
0.0
 10
5.9007851729
 20
3.3548224997
 30
0.0
 10
5.8963678596
 20
3.3562064159
 30
0.0
 10
5.8900051555
 20
3.3580667853
 30
0.0
 10
5.8814464864
 20
3.3603239183
 30
0.0
 10
5.8704542762
 20
3.3628819299
 30
0.0
 10
5.8585488245
 20
3.3653377446
 30
0.0
 10
5.8457616586
 20
3.3676838558
 30
0.0
 10
5.8321264624
 20
3.3699118422
 30
0.0
 10
5.8176793453
 20
3.3720138544
 30
0.0
 10
5.8024586164
 20
3.3739831903
 30
0.0
 10
5.7865047135
 20
3.3758124046
 30
0.0
 10
5.769860072
 20
3.3774951142
 30
0.0
 10
5.7525689992
 20
3.3790255627
 30
0.0
 10
5.7346775789
 20
3.3803974961
 30
0.0
 10
5.716233494
 20
3.3816060145
 30
0.0
 10
5.6972859341
 20
3.3826464412
 30
0.0
 10
5.6778853908
 20
3.3835139359
 30
0.0
 10
5.6580834688
 20
3.3842051007
 30
0.0
 10
5.6379328676
 20
3.3847164158
 30
0.0
 10
5.617487181
 20
3.3850446752
 30
0.0
 10
5.5897941591
 20
3.385236386
 30
0.0
 10
5.5548489769
 20
3.3850035781
 30
0.0
 10
5.512787348
 20
3.383972941
 30
0.0
 10
5.4708785268
 20
3.3821882246
 30
0.0
 10
5.4295687031
 20
3.3796563624
 30
0.0
 10
5.4023004407
 20
3.3774467156
 30
0.0
 10
5.3888440839
 20
3.3762103927
 30
0.0
 11
5.9220344297
 21
3.3461005263
 31
0.0
 11
5.9191497877
 21
3.3475854953
 31
0.0
 11
5.916003731
 21
3.3490569011
 31
0.0
 11
5.9125986231
 21
3.3505135801
 31
0.0
 11
5.908936915
 21
3.3519543668
 31
0.0
 11
5.9050210574
 21
3.3533780962
 31
0.0
 11
5.9008535013
 21
3.3547836031
 31
0.0
 11
5.8964367437
 21
3.3561697267
 31
0.0
 11
5.8917738122
 21
3.3575353566
 31
0.0
 11
5.8817228994
 21
3.3602008223
 31
0.0
 11
5.8707277348
 21
3.3627713775
 31
0.0
 11
5.8588166591
 21
3.3652385515
 31
0.0
 11
5.846022413
 21
3.3675943631
 31
0.0
 11
5.8323786573
 21
3.3698309349
 31
0.0
 11
5.8179212522
 21
3.3719407188
 31
0.0
 11
5.8026895821
 21
3.3739166952
 31
0.0
 11
5.7867235001
 21
3.3757519215
 31
0.0
 11
5.770065612
 21
3.3774399966
 31
0.0
 11
5.7527609157
 21
3.3789749897
 31
0.0
 11
5.7348548137
 21
3.3803510734
 31
0.0
 11
5.7163954455
 21
3.3815631606
 31
0.0
 11
5.6974323217
 21
3.3826065346
 31
0.0
 11
5.6780154425
 21
3.3834766766
 31
0.0
 11
5.6581969163
 21
3.3841699257
 31
0.0
 11
5.6380294345
 21
3.3846828587
 31
0.0
 11
5.6175663605
 21
3.3850124344
 31
0.0
 11
5.5968625355
 21
3.3851564512
 31
0.0
 11
5.5549533879
 21
3.3848801406
 31
0.0
 11
5.5127487561
 21
3.3838446759
 31
0.0
 11
5.4706982492
 21
3.3820487015
 31
0.0
 11
5.4292495749
 21
3.3794989465
 31
0.0
 11
5.3888440839
 21
3.3762103927
 31
0.0
  0
SPLINE
  5
27B
100
AcDbEntity
  8
0
100
AcDbSpline
 62
6
  6
CONTINUOUS
 70
0
 71
3
 72
26
 73
22
 74
20
 42
0.0000001
 43
0.0000001
 44
0.0000000001
 12
-0.2500133329
 22
-0.0229703493
 32
0.0
 13
-0.2207609061
 23
-0.1195781164
 33
0.0
 40
0.0
 40
0.0
 40
0.0
 40
0.0
 40
0.082484109
 40
0.1632039604
 40
0.2419358125
 40
0.318464132
 40
0.3925770228
 40
0.464076771
 40
0.5327729032
 40
0.5984839048
 40
0.6610454745
 40
0.7203001213
 40
0.7761094312
 40
0.8283534326
 40
0.876925739
 40
0.8998117317
 40
0.9217537288
 40
0.9427458399
 40
0.9627838776
 40
0.9818674967
 40
1.0
 40
1.0
 40
1.0
 40
1.0
 10
5.3888440839
 20
3.3762103927
 30
0.0
 10
5.3819700416
 20
3.3755788298
 30
0.0
 10
5.3683757246
 20
3.3742543411
 30
0.0
 10
5.3482476543
 20
3.3720558784
 30
0.0
 10
5.3286428974
 20
3.3696699221
 30
0.0
 10
5.3096188576
 20
3.3671022831
 30
0.0
 10
5.2912311502
 20
3.3643580626
 30
0.0
 10
5.273533471
 20
3.3614441085
 30
0.0
 10
5.2565774341
 20
3.358367301
 30
0.0
 10
5.2404125139
 20
3.3551344035
 30
0.0
 10
5.2250857966
 20
3.3517541129
 30
0.0
 10
5.2106419451
 20
3.3482340626
 30
0.0
 10
5.1971228323
 20
3.3445830488
 30
0.0
 10
5.1845676065
 20
3.3408108041
 30
0.0
 10
5.1747524987
 20
3.3375111492
 30
0.0
 10
5.1674184199
 20
3.3348061303
 30
0.0
 10
5.1622905551
 20
3.3327930849
 30
0.0
 10
5.1574293308
 20
3.3307566228
 30
0.0
 10
5.1528384122
 20
3.3286977975
 30
0.0
 10
5.1485211312
 20
3.3266179619
 30
0.0
 10
5.1457567697
 20
3.3251817114
 30
0.0
 10
5.1444224538
 20
3.3244589612
 30
0.0
 11
5.3888440839
 21
3.3762103927
 31
0.0
 11
5.3682329611
 21
3.3741995266
 31
0.0
 11
5.3480870776
 21
3.3719959748
 31
0.0
 11
5.3284653715
 21
3.3696043914
 31
0.0
 11
5.3094249128
 21
3.3670301716
 31
0.0
 11
5.2910221906
 21
3.3642788753
 31
0.0
 11
5.2733104147
 21
3.3613569162
 31
0.0
 11
5.2563414317
 21
3.358271063
 31
0.0
 11
5.2401654173
 21
3.355028436
 31
0.0
 11
5.2248288319
 21
3.3516369378
 31
0.0
 11
5.2103774229
 21
3.3481046082
 31
0.0
 11
5.1968532773
 21
3.344440033
 31
0.0
 11
5.1842953768
 21
3.3406522617
 31
0.0
 11
5.1727415516
 21
3.3367504673
 31
0.0
 11
5.1673514895
 21
3.3347598336
 31
0.0
 11
5.1622245234
 21
3.332744353
 31
0.0
 11
5.1573645502
 21
3.3307052583
 31
0.0
 11
5.1527754265
 21
3.328643787
 31
0.0
 11
5.1484604397
 21
3.326561239
 31
0.0
 11
5.1444224538
 21
3.3244589612
 31
0.0
  0
SPLINE
  5
27C
100
AcDbEntity
  8
0
100
AcDbSpline
 62
6
  6
CONTINUOUS
 70
0
 71
3
 72
53
 73
49
 74
47
 42
0.0000001
 43
0.0000001
 44
0.0000000001
 12
0.627754466
 22
0.3401487386
 32
0.0
 13
0.6277715141
 23
-0.3401172739
 33
0.0
 40
0.0
 40
0.0
 40
0.0
 40
0.0
 40
0.0086023132
 40
0.0178449461
 40
0.0277271415
 40
0.0382451209
 40
0.0493930435
 40
0.0611619167
 40
0.0735396429
 40
0.0865130233
 40
0.1000678695
 40
0.11418736
 40
0.1288530134
 40
0.144045892
 40
0.1597462209
 40
0.1759319651
 40
0.209667738
 40
0.2450641951
 40
0.2819162977
 40
0.3200099565
 40
0.3591203551
 40
0.3990162769
 40
0.4394600126
 40
0.4802102669
 40
0.5210229478
 40
0.5616536474
 40
0.6018582943
 40
0.6413962052
 40
0.680029762
 40
0.7175285985
 40
0.7536681097
 40
0.7882345476
 40
0.8210230651
 40
0.8518427703
 40
0.8664580855
 40
0.8805162345
 40
0.8939972348
 40
0.906881952
 40
0.9191538685
 40
0.930797431
 40
0.941797614
 40
0.9521413122
 40
0.961818523
 40
0.9708205845
 40
0.9791404567
 40
0.9867751884
 40
0.9937264322
 40
1.0
 40
1.0
 40
1.0
 40
1.0
 10
5.181250287
 20
3.2037466715
 30
0.0
 10
5.1830503338
 20
3.2047220268
 30
0.0
 10
5.1868353305
 20
3.2066521905
 30
0.0
 10
5.1928345484
 20
3.2094044677
 30
0.0
 10
5.199349624
 20
3.2121144481
 30
0.0
 10
5.2063705602
 20
3.2147785404
 30
0.0
 10
5.2138870937
 20
3.2173930088
 30
0.0
 10
5.2218877814
 20
3.2199544448
 30
0.0
 10
5.2303601466
 20
3.2224598641
 30
0.0
 10
5.2392912397
 20
3.2249059728
 30
0.0
 10
5.2486675519
 20
3.227289293
 30
0.0
 10
5.2584745675
 20
3.2296069838
 30
0.0
 10
5.26869699
 20
3.231856277
 30
0.0
 10
5.2793191542
 20
3.2340342364
 30
0.0
 10
5.2903248062
 20
3.2361378973
 30
0.0
 10
5.3057005159
 20
3.238878476
 30
0.0
 10
5.3257526558
 20
3.2420865337
 30
0.0
 10
5.3507388299
 20
3.2455521026
 30
0.0
 10
5.3768156005
 20
3.2486691047
 30
0.0
 10
5.4038217017
 20
3.2514226507
 30
0.0
 10
5.4315904135
 20
3.2538014208
 30
0.0
 10
5.4599500151
 20
3.255795606
 30
0.0
 10
5.4887252573
 20
3.2573982698
 30
0.0
 10
5.5177381527
 20
3.2586049377
 30
0.0
 10
5.5468093623
 20
3.2594132191
 30
0.0
 10
5.5757590283
 20
3.2598240138
 30
0.0
 10
5.6044082171
 20
3.2598395973
 30
0.0
 10
5.6325796448
 20
3.2594661337
 30
0.0
 10
5.6600992453
 20
3.2587106203
 30
0.0
 10
5.6867967225
 20
3.2575842287
 30
0.0
 10
5.7125071921
 20
3.2560986717
 30
0.0
 10
5.7370716684
 20
3.2542697736
 30
0.0
 10
5.7603384502
 20
3.2521137893
 30
0.0
 10
5.7788394831
 20
3.250026291
 30
0.0
 10
5.7928800737
 20
3.2481958812
 30
0.0
 10
5.8028122384
 20
3.2467781044
 30
0.0
 10
5.8123180623
 20
3.2452938944
 30
0.0
 10
5.8213827695
 20
3.2437459678
 30
0.0
 10
5.8299925162
 20
3.2421377019
 30
0.0
 10
5.8381341723
 20
3.2404724195
 30
0.0
 10
5.8457950448
 20
3.2387533013
 30
0.0
 10
5.8529633237
 20
3.2369835646
 30
0.0
 10
5.8596282993
 20
3.2351670287
 30
0.0
 10
5.8657799606
 20
3.2333073511
 30
0.0
 10
5.871408839
 20
3.2314078921
 30
0.0
 10
5.8765067998
 20
3.2294722931
 30
0.0
 10
5.8810666202
 20
3.2275047018
 30
0.0
 10
5.8838872004
 20
3.2261027761
 30
0.0
 10
5.8851999895
 20
3.2253915265
 30
0.0
 11
5.181250287
 21
3.2037466715
 31
0.0
 11
5.1867171877
 21
3.2065460244
 31
0.0
 11
5.192711444
 21
3.2093059556
 31
0.0
 11
5.1992231048
 21
3.2120229303
 31
0.0
 11
5.2062419324
 21
3.2146934349
 31
0.0
 11
5.2137576468
 21
3.2173139604
 31
0.0
 11
5.2217587079
 21
3.2198811306
 31
0.0
 11
5.2302321293
 21
3.2223917226
 31
0.0
 11
5.239164845
 21
3.2248425216
 31
0.0
 11
5.2485436299
 21
3.227230336
 31
0.0
 11
5.2583537312
 21
3.2295521945
 31
0.0
 11
5.2685795444
 21
3.2318052492
 31
0.0
 11
5.2792054552
 21
3.2339866532
 31
0.0
 11
5.2902154872
 21
3.23609363
 31
0.0
 11
5.3015921887
 21
3.2381236891
 31
0.0
 11
5.3253742859
 21
3.2419433847
 31
0.0
 11
5.3504055906
 21
3.2454273277
 31
0.0
 11
5.3765303907
 21
3.2485596199
 31
0.0
 11
5.4035876843
 21
3.2513261533
 31
0.0
 11
5.4314095831
 21
3.2537153914
 31
0.0
 11
5.4598242587
 21
3.255717923
 31
0.0
 11
5.4886556868
 21
3.2573268233
 31
0.0
 11
5.5177256162
 21
3.2585376342
 31
0.0
 11
5.5468540468
 21
3.2593482026
 31
0.0
 11
5.5758609104
 21
3.2597591317
 31
0.0
 11
5.6045664852
 21
3.2597731085
 31
0.0
 11
5.6327935007
 21
3.2593957541
 31
0.0
 11
5.6603668372
 21
3.2586345707
 31
0.0
 11
5.6871164531
 21
3.257500006
 31
0.0
 11
5.7128761898
 21
3.2560042529
 31
0.0
 11
5.7374873283
 21
3.2541622664
 31
0.0
 11
5.760796953
 21
3.2519906818
 31
0.0
 11
5.7826613696
 21
3.2495085515
 31
0.0
 11
5.7930086628
 21
3.248157387
 31
0.0
 11
5.8029449225
 21
3.2467365664
 31
0.0
 11
5.8124545203
 21
3.2452489341
 31
0.0
 11
5.8215222548
 21
3.2436973961
 31
0.0
 11
5.8301346222
 21
3.2420851042
 31
0.0
 11
5.8382785403
 21
3.2404152711
 31
0.0
 11
5.8459409367
 21
3.2386911104
 31
0.0
 11
5.8531096774
 21
3.2369159353
 31
0.0
 11
5.859774328
 21
3.2350932388
 31
0.0
 11
5.865924633
 21
3.233226533
 31
0.0
 11
5.8715504211
 21
3.2313193361
 31
0.0
 11
5.8766430721
 21
3.2293752803
 31
0.0
 11
5.8811953311
 21
3.2273980985
 31
0.0
 11
5.8851999895
 21
3.2253915265
 31
0.0
  0
SPLINE
  5
27D
100
AcDbEntity
  8
0
100
AcDbSpline
 62
6
  6
CONTINUOUS
 70
0
 71
3
 72
52
 73
48
 74
46
 42
0.0000001
 43
0.0000001
 44
0.0000000001
 12
0.693468565
 22
0.3756201298
 32
0.0
 13
0.6934662738
 23
-0.3756243598
 33
0.0
 40
0.0
 40
0.0
 40
0.0
 40
0.0
 40
0.00849357
 40
0.0176285437
 40
0.0274058372
 40
0.0378213231
 40
0.0488683873
 40
0.0605387634
 40
0.0728212919
 40
0.0857021452
 40
0.0991666178
 40
0.1131990092
 40
0.1277810193
 40
0.1428931548
 40
0.1746265193
 40
0.2082243427
 40
0.2434970056
 40
0.2802403608
 40
0.3182408669
 40
0.3572740306
 40
0.3971092388
 40
0.4375089275
 40
0.4782321637
 40
0.5190349626
 40
0.559672983
 40
0.5999021866
 40
0.6394817196
 40
0.6781738631
 40
0.7157478667
 40
0.7519789553
 40
0.7866526831
 40
0.8195641273
 40
0.8505212705
 40
0.8652109184
 40
0.8793468233
 40
0.8929086606
 40
0.9058777534
 40
0.9182375018
 40
0.9299718236
 40
0.9410654496
 40
0.9515060293
 40
0.9612831029
 40
0.9703873316
 40
0.9788118659
 40
0.9865542997
 40
0.993615382
 40
1.0
 40
1.0
 40
1.0
 40
1.0
 10
5.1444222475
 20
3.1837956961
 30
0.0
 10
5.1463855887
 20
3.184859148
 30
0.0
 10
5.1505167509
 20
3.1869634752
 30
0.0
 10
5.1570692126
 20
3.1899628527
 30
0.0
 10
5.1641929711
 20
3.1929154976
 30
0.0
 10
5.1718768273
 20
3.1958179621
 30
0.0
 10
5.1801092052
 20
3.1986664529
 30
0.0
 10
5.1888778365
 20
3.2014568577
 30
0.0
 10
5.1981693164
 20
3.2041855453
 30
0.0
 10
5.2079691703
 20
3.2068492414
 30
0.0
 10
5.2182624202
 20
3.2094443732
 30
0.0
 10
5.2290334038
 20
3.2119672109
 30
0.0
 10
5.2402654106
 20
3.2144148331
 30
0.0
 10
5.2560918441
 20
3.2176263794
 30
0.0
 10
5.276900553
 20
3.2214106621
 30
0.0
 10
5.3030263222
 20
3.2255363748
 30
0.0
 10
5.3305370798
 20
3.2292955777
 30
0.0
 10
5.3592629814
 20
3.2326710499
 30
0.0
 10
5.3890266476
 20
3.2356459185
 30
0.0
 10
5.4196442817
 20
3.2382079048
 30
0.0
 10
5.4509265854
 20
3.2403455412
 30
0.0
 10
5.4826802712
 20
3.2420515019
 30
0.0
 10
5.5147089522
 20
3.243320192
 30
0.0
 10
5.5468146705
 20
3.2441492257
 30
0.0
 10
5.578798829
 20
3.2445390715
 30
0.0
 10
5.6104637507
 20
3.2444923403
 30
0.0
 10
5.6416135349
 20
3.2440154647
 30
0.0
 10
5.672055712
 20
3.2431161576
 30
0.0
 10
5.7016019621
 20
3.2418064434
 30
0.0
 10
5.7300697827
 20
3.2400992716
 30
0.0
 10
5.7572832308
 20
3.2380117115
 30
0.0
 10
5.7830741826
 20
3.2355619074
 30
0.0
 10
5.803592123
 20
3.2331972872
 30
0.0
 10
5.8191717295
 20
3.2311277882
 30
0.0
 10
5.830199421
 20
3.2295259403
 30
0.0
 10
5.840758411
 20
3.2278501753
 30
0.0
 10
5.8508323972
 20
3.226103693
 30
0.0
 10
5.8604060274
 20
3.224290208
 30
0.0
 10
5.8694645311
 20
3.2224132882
 30
0.0
 10
5.8779938119
 20
3.2204762529
 30
0.0
 10
5.8859809008
 20
3.218483031
 30
0.0
 10
5.8934138114
 20
3.2164376648
 30
0.0
 10
5.9002811487
 20
3.2143439771
 30
0.0
 10
5.906572438
 20
3.2122056552
 30
0.0
 10
5.912278819
 20
3.2100271708
 30
0.0
 10
5.9173919697
 20
3.20781289
 30
0.0
 10
5.9205585957
 20
3.2062366528
 30
0.0
 10
5.9220344348
 20
3.2054372468
 30
0.0
 11
5.1444222475
 21
3.1837956961
 31
0.0
 11
5.1503858587
 21
3.1868462848
 31
0.0
 11
5.1569324586
 21
3.1898538787
 31
0.0
 11
5.1640524478
 21
3.1928144691
 31
0.0
 11
5.1717341277
 21
3.1957242174
 31
0.0
 11
5.1799654399
 21
3.1985793141
 31
0.0
 11
5.1887342633
 21
3.2013759569
 31
0.0
 11
5.1980270475
 21
3.2041105056
 31
0.0
 11
5.2078288205
 21
3.2067794816
 31
0.0
 11
5.2181245489
 21
3.2093794133
 31
0.0
 11
5.2288988971
 21
3.2119068752
 31
0.0
 11
5.2401347853
 21
3.2143587084
 31
0.0
 11
5.2518145109
 21
3.2167318492
 31
0.0
 11
5.2764338954
 21
3.2212299553
 31
0.0
 11
5.3026044116
 21
3.225378926
 31
0.0
 11
5.3301647149
 21
3.2291583636
 31
0.0
 11
5.3589436034
 21
3.232550564
 31
0.0
 11
5.38876375
 21
3.2355397258
 31
0.0
 11
5.4194400111
 21
3.2381130707
 31
0.0
 11
5.4507831248
 21
3.2402598894
 31
0.0
 11
5.482598797
 21
3.2419725317
 31
0.0
 11
5.5146904546
 21
3.2432457433
 31
0.0
 11
5.5468593662
 21
3.244077116
 31
0.0
 11
5.5789066924
 21
3.2444670244
 31
0.0
 11
5.6106339345
 21
3.244418351
 31
0.0
 11
5.6418451322
 21
3.2439370661
 31
0.0
 11
5.6723467446
 21
3.2430313297
 31
0.0
 11
5.7019506033
 21
3.2417124728
 31
0.0
 11
5.7304729863
 21
3.2399938435
 31
0.0
 11
5.7577379531
 21
3.2378917384
 31
0.0
 11
5.7835764564
 21
3.2354244597
 31
0.0
 11
5.8078287672
 21
3.2326128027
 31
0.0
 11
5.8193127469
 21
3.2310848616
 31
0.0
 11
5.8303450343
 21
3.2294795978
 31
0.0
 11
5.8409080668
 21
3.2278000979
 31
0.0
 11
5.8509854059
 21
3.22604962
 31
0.0
 11
5.8605620502
 21
3.2242316414
 31
0.0
 11
5.8696230924
 21
3.2223496537
 31
0.0
 11
5.8781538641
 21
3.2204071742
 31
0.0
 11
5.8861415635
 21
3.2184079188
 31
0.0
 11
5.893574265
 21
3.2163556967
 31
0.0
 11
5.9004400505
 21
3.2142543182
 31
0.0
 11
5.9067278339
 21
3.2121076751
 31
0.0
 11
5.9124286053
 21
3.209919864
 31
0.0
 11
5.9175336734
 21
3.2076950124
 31
0.0
 11
5.9220344348
 21
3.2054372468
 31
0.0
  0
SPLINE
  5
27E
100
AcDbEntity
  8
0
100
AcDbSpline
 62
6
  6
CONTINUOUS
 70
0
 71
3
 72
75
 73
71
 74
69
 42
0.0000001
 43
0.0000001
 44
0.0000000001
 12
0.0
 22
-0.494221872
 32
0.0
 13
0.0
 23
0.494221872
 33
0.0
 40
0.0
 40
0.0
 40
0.0
 40
0.0
 40
0.0020635147
 40
0.0041670379
 40
0.0063470227
 40
0.0086360538
 40
0.0110621223
 40
0.0136485864
 40
0.0164145691
 40
0.0193753545
 40
0.0225427404
 40
0.0259259046
 40
0.029531979
 40
0.0333664797
 40
0.0374336461
 40
0.0417366804
 40
0.0462774751
 40
0.0510567817
 40
0.0613305501
 40
0.072555343
 40
0.0847218582
 40
0.0978123535
 40
0.1118048134
 40
0.1266752055
 40
0.1423946498
 40
0.15892992
 40
0.1762468251
 40
0.1943089815
 40
0.2130755561
 40
0.2325046754
 40
0.2731760496
 40
0.3159523923
 40
0.3604417659
 40
0.4062313801
 40
0.452895836
 40
0.5
 40
0.547104164
 40
0.5937686199
 40
0.6395582341
 40
0.6840476077
 40
0.7268239504
 40
0.7674953246
 40
0.7869244439
 40
0.8056910185
 40
0.8237531749
 40
0.84107008
 40
0.8576053502
 40
0.8733247945
 40
0.8881951866
 40
0.9021876465
 40
0.9152781418
 40
0.927444657
 40
0.9386694499
 40
0.9489432183
 40
0.9537225249
 40
0.9582633196
 40
0.9625663539
 40
0.9666335203
 40
0.970468021
 40
0.9740740954
 40
0.9774572596
 40
0.9806246455
 40
0.9835854309
 40
0.9863514136
 40
0.9889378777
 40
0.9913639462
 40
0.9936529773
 40
0.9958329621
 40
0.9979364853
 40
1.0
 40
1.0
 40
1.0
 40
1.0
 10
5.2896911621
 20
3.1057063479
 30
0.0
 10
5.2896911621
 20
3.1053664032
 30
0.0
 10
5.2897400741
 20
3.1046789809
 30
0.0
 10
5.2899587168
 20
3.1036533802
 30
0.0
 10
5.2903218061
 20
3.1026302392
 30
0.0
 10
5.2908281746
 20
3.1016107327
 30
0.0
 10
5.2914768253
 20
3.1005953193
 30
0.0
 10
5.2922670137
 20
3.0995843774
 30
0.0
 10
5.2931982291
 20
3.0985782835
 30
0.0
 10
5.2942699022
 20
3.0975774345
 30
0.0
 10
5.295481197
 20
3.0965820416
 30
0.0
 10
5.296831348
 20
3.0955924863
 30
0.0
 10
5.2983195773
 20
3.0946091999
 30
0.0
 10
5.2999451097
 20
3.0936326655
 30
0.0
 10
5.301707152
 20
3.0926633894
 30
0.0
 10
5.3036048359
 20
3.0917019711
 30
0.0
 10
5.3056370543
 20
3.0907489157
 30
0.0
 10
5.3085962861
 20
3.0894587648
 30
0.0
 10
5.3126286982
 20
3.0878793602
 30
0.0
 10
5.3178720447
 20
3.0860685847
 30
0.0
 10
5.3236184333
 20
3.084304459
 30
0.0
 10
5.3298540384
 20
3.0825908023
 30
0.0
 10
5.3365640787
 20
3.0809317559
 30
0.0
 10
5.3437327823
 20
3.0793317968
 30
0.0
 10
5.351343017
 20
3.0777947846
 30
0.0
 10
5.3593763895
 20
3.0763241836
 30
0.0
 10
5.3678137254
 20
3.0749238099
 30
0.0
 10
5.3766348515
 20
3.0735973539
 30
0.0
 10
5.3858184501
 20
3.0723476289
 30
0.0
 10
5.3987144554
 20
3.0707636702
 30
0.0
 10
5.4155731456
 20
3.0690098857
 30
0.0
 10
5.4365802153
 20
3.0672837164
 30
0.0
 10
5.4584589513
 20
3.0659234328
 30
0.0
 10
5.4809989683
 20
3.0649419908
 30
0.0
 10
5.5039834027
 20
3.0643490951
 30
0.0
 10
5.5271911621
 20
3.0641510383
 30
0.0
 10
5.5503989215
 20
3.0643490951
 30
0.0
 10
5.5733833559
 20
3.0649419908
 30
0.0
 10
5.5959233729
 20
3.0659234328
 30
0.0
 10
5.6178021089
 20
3.0672837164
 30
0.0
 10
5.6388091787
 20
3.0690098857
 30
0.0
 10
5.6556678688
 20
3.0707636702
 30
0.0
 10
5.6685638741
 20
3.0723476289
 30
0.0
 10
5.6777474727
 20
3.0735973539
 30
0.0
 10
5.6865685989
 20
3.0749238099
 30
0.0
 10
5.6950059347
 20
3.0763241836
 30
0.0
 10
5.7030393072
 20
3.0777947846
 30
0.0
 10
5.710649542
 20
3.0793317968
 30
0.0
 10
5.7178182456
 20
3.0809317559
 30
0.0
 10
5.7245282858
 20
3.0825908023
 30
0.0
 10
5.730763891
 20
3.084304459
 30
0.0
 10
5.7365102795
 20
3.0860685847
 30
0.0
 10
5.741753626
 20
3.0878793602
 30
0.0
 10
5.7457860381
 20
3.0894587648
 30
0.0
 10
5.7487452699
 20
3.0907489157
 30
0.0
 10
5.7507774883
 20
3.0917019711
 30
0.0
 10
5.7526751722
 20
3.0926633894
 30
0.0
 10
5.7544372145
 20
3.0936326655
 30
0.0
 10
5.756062747
 20
3.0946091999
 30
0.0
 10
5.7575509763
 20
3.0955924863
 30
0.0
 10
5.7589011272
 20
3.0965820416
 30
0.0
 10
5.760112422
 20
3.0975774345
 30
0.0
 10
5.7611840952
 20
3.0985782835
 30
0.0
 10
5.7621153105
 20
3.0995843774
 30
0.0
 10
5.762905499
 20
3.1005953193
 30
0.0
 10
5.7635541496
 20
3.1016107327
 30
0.0
 10
5.7640605181
 20
3.1026302392
 30
0.0
 10
5.7644236074
 20
3.1036533802
 30
0.0
 10
5.7646422501
 20
3.1046789809
 30
0.0
 10
5.7646911621
 20
3.1053664032
 30
0.0
 10
5.7646911621
 20
3.1057063479
 30
0.0
 11
5.2896911621
 21
3.1057063479
 31
0.0
 11
5.289762811
 21
3.1046890338
 31
0.0
 11
5.2899775641
 21
3.1036718494
 31
0.0
 11
5.2903351312
 21
3.1026555185
 31
0.0
 11
5.290835222
 21
3.1016407651
 31
0.0
 11
5.291477546
 21
3.1006283129
 31
0.0
 11
5.2922618132
 21
3.0996188858
 31
0.0
 11
5.2931877313
 21
3.0986132071
 31
0.0
 11
5.294254823
 21
3.0976119488
 31
0.0
 11
5.2954622634
 21
3.096615687
 31
0.0
 11
5.2968091896
 21
3.0956249868
 31
0.0
 11
5.2982947385
 21
3.0946404138
 31
0.0
 11
5.2999180473
 21
3.0936625332
 31
0.0
 11
5.3016782528
 21
3.0926919105
 31
0.0
 11
5.3035744789
 21
3.0917291111
 31
0.0
 11
5.305605577
 21
3.090774703
 31
0.0
 11
5.3077701448
 21
3.0898292565
 31
0.0
 11
5.3124940409
 21
3.0879675301
 31
0.0
 11
5.3177348702
 21
3.0861484952
 31
0.0
 11
5.323480848
 21
3.0843766593
 31
0.0
 11
5.3297175091
 21
3.0826562232
 31
0.0
 11
5.3364294722
 21
3.0809912825
 31
0.0
 11
5.3436012663
 21
3.0793859215
 31
0.0
 11
5.3512156042
 21
3.0778439882
 31
0.0
 11
5.3592535036
 21
3.0763691101
 31
0.0
 11
5.3676959147
 21
3.0749649061
 31
0.0
 11
5.3765229825
 21
3.0736348405
 31
0.0
 11
5.3857128268
 21
3.0723819896
 31
0.0
 11
5.3952432541
 21
3.0712093698
 31
0.0
 11
5.4152346587
 21
3.0691162415
 31
0.0
 11
5.4363038645
 21
3.0673753722
 31
0.0
 11
5.4582486618
 21
3.0660037412
 31
0.0
 11
5.4808572564
 21
3.0650144444
 31
0.0
 11
5.5039121106
 21
3.0644169728
 31
0.0
 11
5.5271911621
 21
3.0642172633
 31
0.0
 11
5.5504702136
 21
3.0644169728
 31
0.0
 11
5.5735250678
 21
3.0650144444
 31
0.0
 11
5.5961336624
 21
3.0660037412
 31
0.0
 11
5.6180784597
 21
3.0673753722
 31
0.0
 11
5.6391476655
 21
3.0691162415
 31
0.0
 11
5.6591390701
 21
3.0712093698
 31
0.0
 11
5.6686694974
 21
3.0723819896
 31
0.0
 11
5.6778593417
 21
3.0736348405
 31
0.0
 11
5.6866864095
 21
3.0749649061
 31
0.0
 11
5.6951288207
 21
3.0763691101
 31
0.0
 11
5.70316672
 21
3.0778439882
 31
0.0
 11
5.710781058
 21
3.0793859215
 31
0.0
 11
5.717952852
 21
3.0809912825
 31
0.0
 11
5.7246648152
 21
3.0826562232
 31
0.0
 11
5.7309014762
 21
3.0843766593
 31
0.0
 11
5.736647454
 21
3.0861484952
 31
0.0
 11
5.7418882833
 21
3.0879675301
 31
0.0
 11
5.7466121794
 21
3.0898292565
 31
0.0
 11
5.7487767472
 21
3.090774703
 31
0.0
 11
5.7508078454
 21
3.0917291111
 31
0.0
 11
5.7527040714
 21
3.0926919105
 31
0.0
 11
5.7544642769
 21
3.0936625332
 31
0.0
 11
5.7560875857
 21
3.0946404138
 31
0.0
 11
5.7575731347
 21
3.0956249868
 31
0.0
 11
5.7589200608
 21
3.096615687
 31
0.0
 11
5.7601275013
 21
3.0976119488
 31
0.0
 11
5.7611945929
 21
3.0986132071
 31
0.0
 11
5.7621205111
 21
3.0996188858
 31
0.0
 11
5.7629047782
 21
3.1006283129
 31
0.0
 11
5.7635471023
 21
3.1016407651
 31
0.0
 11
5.764047193
 21
3.1026555185
 31
0.0
 11
5.7644047601
 21
3.1036718494
 31
0.0
 11
5.7646195132
 21
3.1046890338
 31
0.0
 11
5.7646911621
 21
3.1057063479
 31
0.0
  0
ENDSEC
  0
SECTION
  2
OBJECTS
  0
DICTIONARY
  5
C
100
AcDbDictionary
280
0
281
1
  3
ACAD_GROUP
350
D
  3
ACAD_MLINESTYLE
350
17
  3
ACAD_LAYOUT
350
1A
  3
ACAD_PLOTSETTINGS
350
19
  3
ACAD_PLOTSTYLENAME
350
E
  0
DICTIONARY
  5
D
102
{ACAD_REACTORS
330
C
102
}
100
AcDbDictionary
280
0
281
1
  0
ACDBDICTIONARYWDFLT
  5
E
102
{ACAD_REACTORS
330
C
102
}
100
AcDbDictionary
281
1
  3
Normal
350
F
100
AcDbDictionaryWithDefault
340
F
  0
DICTIONARY
  5
17
102
{ACAD_REACTORS
330
C
102
}
100
AcDbDictionary
280
0
281
1
  3
Standard
350
18
  0
DICTIONARY
  5
19
102
{ACAD_REACTORS
330
C
102
}
100
AcDbDictionary
281
1
  0
DICTIONARY
  5
1A
102
{ACAD_REACTORS
330
C
102
}
100
AcDbDictionary
281
1
  3
Model
350
27F
  3
Layout1
350
280
  0
ACDBPLACEHOLDER
  5
F
102
{ACAD_REACTORS
330
E
102
}
  0
MLINESTYLE
  5
18
102
{ACAD_REACTORS
330
17
102
}
100
AcDbMlineStyle
  2
STANDARD
 70
0
  3

 62
256
 51
90.0
 52
90.0
 71
2
 49
0.5
 62
256
  6
BYLAYER
 49
-0.5
 62
256
  6
BYLAYER
  0
LAYOUT
  5
27F
102
{ACAD_REACTORS
330
1A
102
}
100
AcDbPlotSettings
  1

  2
none_device
  4
ANSI_A_(11.00_x_8.50_Inches)
  6

 40
0.0
 41
0.0
 42
0.0
 43
0.0
 44
279.4
 45
215.9
 46
0.0
 47
0.0
 48
0.0
 49
0.0
140
0.0
141
0.0
142
1.0
143
1.0
 70
1024
 72
0
 73
0
 74
0
  7

 75
0
147
1.0
148
0.0
149
0.0
100
AcDbLayout
  1
Model
 70
0
 71
0
 10
0.0
 20
0.0
 11
11.0
 21
8.5
 12
0.0
 22
0.0
 32
0.0
 14
0.0
 24
0.0
 34
0.0
 15
0.0
 25
0.0
 35
0.0
146
0.0
 13
0.0
 23
0.0
 33
0.0
 16
1.0
 26
0.0
 36
0.0
 17
0.0
 27
1.0
 37
0.0
 76
0
330
203
345
0
346
0
  0
LAYOUT
  5
280
102
{ACAD_REACTORS
330
1A
102
}
100
AcDbPlotSettings
  1

  2
none_device
  4
ANSI_A_(11.00_x_8.50_Inches)
  6

 40
0.0
 41
0.0
 42
0.0
 43
0.0
 44
279.4
 45
215.9
 46
0.0
 47
0.0
 48
0.0
 49
0.0
140
0.0
141
0.0
142
1.0
143
1.0
 70
0
 72
0
 73
0
 74
0
  7

 75
0
147
1.0
148
0.0
149
0.0
100
AcDbLayout
  1
Layout1
 70
0
 71
1
 10
0.0
 20
0.0
 11
11.0
 21
8.5
 12
0.0
 22
0.0
 32
0.0
 14
0.0
 24
0.0
 34
0.0
 15
0.0
 25
0.0
 35
0.0
146
0.0
 13
0.0
 23
0.0
 33
0.0
 16
1.0
 26
0.0
 36
0.0
 17
0.0
 27
1.0
 37
0.0
 76
0
330
204
345
0
346
0
  0
ENDSEC
  0
EOF
