  0
SECTION
  2
HEADER
  9
$ACADVER
  1
AC1015
  9
$DWGCODEPAGE
  3
ANSI_1252
  9
$EXTMAX
 10
11.6929133858
 20
8.2677165354
 30
0.0
  9
$EXTMIN
 10
0.0
 20
0.0
 30
0.0
  9
$LIMMIN
 10
0.0
 20
0.0
  9
$LIMMAX
 10
11.6929133858
 20
8.2677165354
  9
$VIEWCTR
 10
5.8464566929
 20
4.1338582677
  9
$VIEWSIZE
 40
8.2677165354
  9
$CLAYER
  8
0
  9
$LTSCALE
 40
0.6431102362
  9
$CELTYPE
  6
BYLAYER
  9
$DIMSCALE
 40
1.0
  9
$DIMASZ
 40
0.1
  9
$DIMEXO
 40
0.0730807087
  9
$DIMDLI
 40
0.4443307087
  9
$DIMEXE
 40
0.2104724409
  9
$DIMCEN
 40
0.1052362205
  9
$DIMLFAC
 40
1.0
  9
$DIMBLK
  1
_FILLED
  9
$DIMTXT
 40
0.08
  9
$DIMTOL
 70
1
  9
$DIMLIM
 70
0
  9
$DIMTFAC
 40
1.0
  9
$DIMTP
 40
0.01
  9
$DIMTM
 40
0.01
  9
$PDMODE
 70
3
  9
$PDSIZE
 40
0.06
  9
$HANDSEED
  5
3C2
  9
$TILEMODE
 70
1
  9
$MEASUREMENT
 70
0
  9
$INSUNITS
 70
1
  0
ENDSEC
  0
SECTION
  2
CLASSES
  0
CLASS
  1
ACDBDICTIONARYWDFLT
  2
AcDbDictionaryWithDefault
  3
AutoCAD 2000
 90
0
280
0
281
0
  0
CLASS
  1
ACDBPLACEHOLDER
  2
AcDbPlaceHolder
  3
AutoCAD 2000
 90
0
280
0
281
0
  0
CLASS
  1
LAYOUT
  2
AcDbLayout
  3
AutoCAD 2000
 90
0
280
0
281
0
  0
ENDSEC
  0
SECTION
  2
TABLES
  0
TABLE
  2
VPORT
  5
8
100
AcDbSymbolTable
 70
2
  0
VPORT
  5
1F4
100
AcDbSymbolTableRecord
100
AcDbViewportTableRecord
  2
*ACTIVE
 70
0
 10
0.0
 20
0.0
 11
1.0
 21
1.0
 12
5.8464566929
 22
4.1338582677
 13
0.0
 23
0.0
 14
1.0
 24
1.0
 15
0.0
 25
0.0
 16
0.0
 26
0.0
 36
1.0
 17
0.0
 27
0.0
 37
0.0
 40
8.2677165354
 41
1.4142857143
 42
50.0
 43
0.0
 44
0.0
 50
0.0
 51
0.0
 71
0
 72
100
 73
1
 74
1
 75
0
 76
0
 77
0
 78
0
  0
ENDTAB
  0
TABLE
  2
LTYPE
  5
5
100
AcDbSymbolTable
 70
6
  0
LTYPE
  5
14
100
AcDbSymbolTableRecord
100
AcDbLinetypeTableRecord
  2
BYBLOCK
 70
0
  3

 72
65
 73
0
 40
0.0
  0
LTYPE
  5
15
100
AcDbSymbolTableRecord
100
AcDbLinetypeTableRecord
  2
BYLAYER
 70
0
  3

 72
65
 73
0
 40
0.0
  0
LTYPE
  5
16
100
AcDbSymbolTableRecord
100
AcDbLinetypeTableRecord
  2
CONTINUOUS
 70
64
  3
Solid line
 72
65
 73
0
 40
0.0
  0
LTYPE
  5
1F5
100
AcDbSymbolTableRecord
100
AcDbLinetypeTableRecord
  2
CENTER
 70
64
  3
____ _ ____ _ ____ _ ____ _ ____ _ ____ _ ____
 72
65
 73
4
 40
0.6
 49
0.375
 74
0
 49
-0.075
 74
0
 49
0.075
 74
0
 49
-0.075
 74
0
  0
LTYPE
  5
1F6
100
AcDbSymbolTableRecord
100
AcDbLinetypeTableRecord
  2
HIDDEN
 70
64
  3
- - - - - - - - - - - - - - - - - - - -
 72
65
 73
2
 40
0.2
 49
0.1
 74
0
 49
-0.1
 74
0
  0
LTYPE
  5
1F7
100
AcDbSymbolTableRecord
100
AcDbLinetypeTableRecord
  2
PHANTOM
 70
64
  3
_____ _ _ _____ _ _ _____ _ _ _____
 72
65
 73
6
 40
0.8
 49
0.45
 74
0
 49
-0.05
 74
0
 49
0.1
 74
0
 49
-0.05
 74
0
 49
0.1
 74
0
 49
-0.05
 74
0
  0
LTYPE
  5
1F8
100
AcDbSymbolTableRecord
100
AcDbLinetypeTableRecord
  2
DOT
 70
64
  3
. . . . . . . . . . . . . . . . . . . .
 72
65
 73
2
 40
0.2
 49
0.1
 74
0
 49
-0.1
 74
0
  0
LTYPE
  5
1F9
100
AcDbSymbolTableRecord
100
AcDbLinetypeTableRecord
  2
DASHED
 70
64
  3
- - - - - - - - - - - - - - - - - - - -
 72
65
 73
2
 40
0.2
 49
0.1
 74
0
 49
-0.1
 74
0
  0
ENDTAB
  0
TABLE
  2
LAYER
  5
2
100
AcDbSymbolTable
 70
36
  0
LAYER
  5
10
100
AcDbSymbolTableRecord
100
AcDbLayerTableRecord
  2
0
 70
0
 62
7
  6
CONTINUOUS
370
-3
390
F
  0
LAYER
  5
1FA
100
AcDbSymbolTableRecord
100
AcDbLayerTableRecord
  2
DEFAULT_1
 70
0
 62
7
  6
CENTER
370
-3
390
F
  0
LAYER
  5
1FB
100
AcDbSymbolTableRecord
100
AcDbLayerTableRecord
  2
DEFAULT_2
 70
0
 62
8
  6
HIDDEN
370
-3
390
F
  0
LAYER
  5
1FC
100
AcDbSymbolTableRecord
100
AcDbLayerTableRecord
  2
DEFAULT_3
 70
0
 62
7
  6
PHANTOM
370
-3
390
F
  0
LAYER
  5
1FD
100
AcDbSymbolTableRecord
100
AcDbLayerTableRecord
  2
DEFAULT_COORDINATE_SYSTEM
 70
0
 62
7
  6
CONTINUOUS
370
-3
390
F
  0
LAYER
  5
1FE
100
AcDbSymbolTableRecord
100
AcDbLayerTableRecord
  2
DEFAULT_DATUM_AXES
 70
0
 62
7
  6
CONTINUOUS
370
-3
390
F
  0
LAYER
  5
1FF
100
AcDbSymbolTableRecord
100
AcDbLayerTableRecord
  2
DEFAULT_DATUM_CURVES
 70
0
 62
7
  6
CONTINUOUS
370
-3
390
F
  0
LAYER
  5
200
100
AcDbSymbolTableRecord
100
AcDbLayerTableRecord
  2
DEFAULT_DATUM_PLANES
 70
0
 62
7
  6
CONTINUOUS
370
-3
390
F
  0
ENDTAB
  0
TABLE
  2
STYLE
  5
3
100
AcDbSymbolTable
 70
1
  0
STYLE
  5
11
100
AcDbSymbolTableRecord
100
AcDbTextStyleTableRecord
  2
STANDARD
 70
0
 40
0.0
 41
0.8
 50
0.0
 71
0
 42
0.2
  3
txt
  4

  0
STYLE
  5
201
100
AcDbSymbolTableRecord
100
AcDbTextStyleTableRecord
  2
TEXTSTYLE_1
 70
0
 40
0.0
 41
0.8
 50
0.0
 71
0
 42
0.2
  3
gdt
  4

  0
ENDTAB
  0
TABLE
  2
VIEW
  5
6
100
AcDbSymbolTable
 70
0
  0
ENDTAB
  0
TABLE
  2
UCS
  5
7
100
AcDbSymbolTable
 70
0
  0
ENDTAB
  0
TABLE
  2
APPID
  5
9
100
AcDbSymbolTable
 70
1
  0
APPID
  5
202
100
AcDbSymbolTableRecord
100
AcDbRegAppTableRecord
  2
ACAD
 70
0
  0
ENDTAB
  0
TABLE
  2
BLOCK_RECORD
  5
1
100
AcDbSymbolTable
 70
0
  0
BLOCK_RECORD
  5
203
100
AcDbSymbolTableRecord
100
AcDbBlockTableRecord
  2
*Model_Space
  0
BLOCK_RECORD
  5
204
100
AcDbSymbolTableRecord
100
AcDbBlockTableRecord
  2
*Paper_Space
  0
ENDTAB
  0
TABLE
  2
DIMSTYLE
  5
A
100
AcDbSymbolTable
 70
1
100
AcDbDimStyleTable
 71
0
  0
DIMSTYLE
105
205
100
AcDbSymbolTableRecord
100
AcDbDimStyleTableRecord
  2
STANDARD
 70
0
  3

  4

 40
1.0
 41
0.1
 42
0.0625
 43
0.38
 44
0.18
 45
0.0
 46
0.0
 47
0.01
 48
0.01
140
0.08
141
0.09
142
0.0
143
25.4
144
1.0
145
0.0
146
1.0
147
0.09
 71
1.0
 72
0.0
 73
1
 74
1
 75
0
 76
0
 77
0
 78
4
170
0
171
2
172
0
173
0
174
0
175
0
176
0
177
0
178
0
270
2
271
2
272
2
273
2
274
2
275
0
280
0
281
0
282
0
283
1
284
4
285
0
286
0
287
3
288
0
340
11
  0
ENDTAB
  0
ENDSEC
  0
SECTION
  2
BLOCKS
  0
BLOCK
  5
20
100
AcDbEntity
  8
0
100
AcDbBlockBegin
  2
*Model_Space
 70
0
 10
0.0
 20
0.0
 30
0.0
  3
*Model_Space
  1

  0
ENDBLK
  5
21
100
AcDbEntity
  8
0
100
AcDbBlockEnd
  0
BLOCK
  5
1C
100
AcDbEntity
  8
0
100
AcDbBlockBegin
  2
*Paper_Space
 70
0
 10
0.0
 20
0.0
 30
0.0
  3
*Paper_Space
  1

  0
ENDBLK
  5
1D
100
AcDbEntity
  8
0
100
AcDbBlockEnd
  0
ENDSEC
  0
SECTION
  2
ENTITIES
  0
LINE
  5
206
100
AcDbEntity
  8
0
100
AcDbLine
 62
6
  6
CONTINUOUS
 10
5.9101046501
 20
3.3309157965
 11
5.8488184363
 21
3.3309157965
  0
LINE
  5
207
100
AcDbEntity
  8
0
100
AcDbLine
 62
6
  6
CONTINUOUS
 10
5.1045248846
 20
3.3083218069
 11
5.1023075011
 21
3.3294188022
  0
LINE
  5
208
100
AcDbEntity
  8
0
100
AcDbLine
 62
6
  6
CONTINUOUS
 10
4.9197562264
 20
5.066278161
 11
4.9175388429
 21
5.0873751563
  0
LINE
  5
209
100
AcDbEntity
  8
0
100
AcDbLine
 62
6
  6
CONTINUOUS
 10
5.0707674481
 20
3.3359641846
 11
5.0692876898
 21
3.3571257137
  0
LINE
  5
20A
100
AcDbEntity
  8
0
100
AcDbLine
 62
6
  6
CONTINUOUS
 10
4.9474631379
 20
5.0992979723
 11
4.9459833796
 21
5.1204595015
  0
LINE
  5
20B
100
AcDbEntity
  8
0
100
AcDbLine
 62
6
  6
CONTINUOUS
 10
5.0379952807
 20
3.3647678407
 11
5.0372549505
 21
3.3859681217
  0
LINE
  5
20C
100
AcDbEntity
  8
0
100
AcDbLine
 62
6
  6
CONTINUOUS
 10
4.9763055459
 20
5.1313307116
 11
4.9755652157
 21
5.1525309925
  0
LINE
  5
20D
100
AcDbEntity
  8
0
100
AcDbLine
 62
6
  6
CONTINUOUS
 10
5.0062483103
 20
3.3946976827
 11
5.0062483103
 21
3.4159108861
  0
LINE
  5
20E
100
AcDbEntity
  8
0
100
AcDbLine
 62
6
  6
CONTINUOUS
 10
5.0062483103
 20
5.1623373518
 11
5.0062483103
 21
5.1835505553
  0
LINE
  5
20F
100
AcDbEntity
  8
0
100
AcDbLine
 62
6
  6
CONTINUOUS
 10
4.9755652157
 20
3.4257172454
 11
4.9763055459
 21
3.4469175263
  0
LINE
  5
210
100
AcDbEntity
  8
0
100
AcDbLine
 62
6
  6
CONTINUOUS
 10
5.0372549505
 20
5.1922801163
 11
5.0379952807
 21
5.2134803972
  0
LINE
  5
211
100
AcDbEntity
  8
0
100
AcDbLine
 62
6
  6
CONTINUOUS
 10
4.9459833796
 20
3.4577887365
 11
4.9474631379
 21
3.4789502656
  0
LINE
  5
212
100
AcDbEntity
  8
0
100
AcDbLine
 62
6
  6
CONTINUOUS
 10
5.0692876898
 20
5.2211225242
 11
5.0707674481
 21
5.2422840534
  0
LINE
  5
213
100
AcDbEntity
  8
0
100
AcDbLine
 62
6
  6
CONTINUOUS
 10
4.9175388429
 20
3.4908730816
 11
4.9197562264
 21
3.5119700769
  0
LINE
  5
214
100
AcDbEntity
  8
0
100
AcDbLine
 62
6
  6
CONTINUOUS
 10
5.1023075011
 20
5.2488294357
 11
5.1045248846
 21
5.269926431
  0
LINE
  5
215
100
AcDbEntity
  8
0
100
AcDbLine
 62
6
  6
CONTINUOUS
 10
4.8902662607
 20
3.5249299727
 11
4.893218568
 21
3.5459367307
  0
LINE
  5
216
100
AcDbEntity
  8
0
100
AcDbLine
 62
6
  6
CONTINUOUS
 10
5.1362741549
 20
5.2753670941
 11
5.1392264622
 21
5.2963738521
  0
LINE
  5
217
100
AcDbEntity
  8
0
100
AcDbLine
 62
6
  6
CONTINUOUS
 10
4.8641988607
 20
3.5599179166
 11
4.8678824948
 21
3.5808088438
  0
LINE
  5
218
100
AcDbEntity
  8
0
100
AcDbLine
 62
6
  6
CONTINUOUS
 10
5.171146268
 20
5.3007031673
 11
5.1748299021
 21
5.3215940945
  0
LINE
  5
219
100
AcDbEntity
  8
0
100
AcDbLine
 62
6
  6
CONTINUOUS
 10
4.8393684018
 20
3.595794286
 11
4.8437788748
 21
3.61654393
  0
LINE
  5
21A
100
AcDbEntity
  8
0
100
AcDbLine
 62
6
  6
CONTINUOUS
 10
5.2068813542
 20
5.3248067873
 11
5.2112918272
 21
5.3455564314
  0
LINE
  5
21B
100
AcDbEntity
  8
0
100
AcDbLine
 62
6
  6
CONTINUOUS
 10
4.8158051362
 20
3.6325153709
 11
4.8209370746
 21
3.6530984515
  0
LINE
  5
21C
100
AcDbEntity
  8
0
100
AcDbLine
 62
6
  6
CONTINUOUS
 10
5.2434358757
 20
5.3476485875
 11
5.2485678141
 21
5.3682316681
  0
LINE
  5
21D
100
AcDbEntity
  8
0
100
AcDbLine
 62
6
  6
CONTINUOUS
 10
4.7935377721
 20
3.6700364325
 11
4.7993849235
 21
3.6904278724
  0
LINE
  5
21E
100
AcDbEntity
  8
0
100
AcDbLine
 62
6
  6
CONTINUOUS
 10
5.2807652966
 20
5.3692007387
 11
5.2866124479
 21
5.3895921786
  0
LINE
  5
21F
100
AcDbEntity
  8
0
100
AcDbLine
 62
6
  6
CONTINUOUS
 10
4.7725934389
 20
3.708311757
 11
4.7791486793
 21
3.7284867124
  0
LINE
  5
220
100
AcDbEntity
  8
0
100
AcDbLine
 62
6
  6
CONTINUOUS
 10
5.3188241366
 20
5.3894369829
 11
5.325379377
 21
5.4096119382
  0
LINE
  5
221
100
AcDbEntity
  8
0
100
AcDbLine
 62
6
  6
CONTINUOUS
 10
4.7529976539
 20
3.747294712
 11
4.7602529968
 21
3.7672286027
  0
LINE
  5
222
100
AcDbEntity
  8
0
100
AcDbLine
 62
6
  6
CONTINUOUS
 10
5.3575660269
 20
5.4083326653
 11
5.3648213698
 21
5.428266556
  0
LINE
  5
223
100
AcDbEntity
  8
0
100
AcDbLine
 62
6
  6
CONTINUOUS
 10
4.7347742917
 20
3.7869378026
 11
4.7427208976
 21
3.8066063423
  0
LINE
  5
224
100
AcDbEntity
  8
0
100
AcDbLine
 62
6
  6
CONTINUOUS
 10
5.3969437665
 20
5.4258647646
 11
5.4048903724
 21
5.4455333043
  0
LINE
  5
225
100
AcDbEntity
  8
0
100
AcDbLine
 62
6
  6
CONTINUOUS
 10
4.7179455545
 20
3.8271927299
 11
4.7265737417
 21
3.8465719556
  0
LINE
  5
226
100
AcDbEntity
  8
0
100
AcDbLine
 62
6
  6
CONTINUOUS
 10
5.4369093797
 20
5.4420119204
 11
5.4455375669
 21
5.4613911461
  0
LINE
  5
227
100
AcDbEntity
  8
0
100
AcDbLine
 62
6
  6
CONTINUOUS
 10
4.7025319457
 20
3.8680104494
 11
4.711831202
 21
3.8870767504
  0
LINE
  5
228
100
AcDbEntity
  8
0
100
AcDbLine
 62
6
  6
CONTINUOUS
 10
5.4774141746
 20
5.4567544601
 11
5.4867134309
 21
5.475820761
  0
LINE
  5
229
100
AcDbEntity
  8
0
100
AcDbLine
 62
6
  6
CONTINUOUS
 10
4.6885522443
 20
3.9093412311
 11
4.6985112401
 21
3.928071378
  0
LINE
  5
22A
100
AcDbEntity
  8
0
100
AcDbLine
 62
6
  6
CONTINUOUS
 10
5.5184088022
 20
5.470074422
 11
5.528367798
 21
5.488804569
  0
LINE
  5
22B
100
AcDbEntity
  8
0
100
AcDbLine
 62
6
  6
CONTINUOUS
 10
4.6760234824
 20
3.9511347197
 11
4.6866300841
 21
3.9695058928
  0
LINE
  5
22C
100
AcDbEntity
  8
0
100
AcDbLine
 62
6
  6
CONTINUOUS
 10
5.559843317
 20
5.481955578
 11
5.5704499187
 21
5.500326751
  0
LINE
  5
22D
100
AcDbEntity
  8
0
100
AcDbLine
 62
6
  6
CONTINUOUS
 10
4.6649609245
 20
3.9933399964
 11
4.6762022096
 21
4.0113298132
  0
LINE
  5
22E
100
AcDbEntity
  8
0
100
AcDbLine
 62
6
  6
CONTINUOUS
 10
5.6016672374
 20
5.4923834525
 11
5.6129085225
 21
5.5103732693
  0
LINE
  5
22F
100
AcDbEntity
  8
0
100
AcDbLine
 62
6
  6
CONTINUOUS
 10
4.6553780484
 20
4.0359056404
 11
4.6672403212
 21
4.0534921831
  0
LINE
  5
230
100
AcDbEntity
  8
0
100
AcDbLine
 62
6
  6
CONTINUOUS
 10
5.6438296073
 20
5.5013453409
 11
5.6556918801
 21
5.5189318836
  0
LINE
  5
231
100
AcDbEntity
  8
0
100
AcDbLine
 62
6
  6
CONTINUOUS
 10
4.6472865295
 20
4.0787797922
 11
4.6597553377
 21
4.0959416342
  0
LINE
  5
232
100
AcDbEntity
  8
0
100
AcDbLine
 62
6
  6
CONTINUOUS
 10
5.6862790584
 20
5.5088303244
 11
5.6987478666
 21
5.5259921665
  0
LINE
  5
233
100
AcDbEntity
  8
0
100
AcDbLine
 62
6
  6
CONTINUOUS
 10
4.6406962261
 20
4.1219102161
 11
4.6537563783
 21
4.1386264485
  0
LINE
  5
234
100
AcDbEntity
  8
0
100
AcDbLine
 62
6
  6
CONTINUOUS
 10
5.7289638727
 20
5.5148292839
 11
5.7420240248
 21
5.5315455163
  0
LINE
  5
235
100
AcDbEntity
  8
0
100
AcDbLine
 62
6
  6
CONTINUOUS
 10
4.6356151674
 20
4.1652443644
 11
4.6492507518
 21
4.181494621
  0
LINE
  5
236
100
AcDbEntity
  8
0
100
AcDbLine
 62
6
  6
CONTINUOUS
 10
5.7718320452
 20
5.5193349104
 11
5.7854676295
 21
5.535585167
  0
LINE
  5
237
100
AcDbEntity
  8
0
100
AcDbLine
 62
6
  6
CONTINUOUS
 10
4.632049544
 20
4.208729441
 11
4.6462439476
 21
4.2244939234
  0
LINE
  5
238
100
AcDbEntity
  8
0
100
AcDbLine
 62
6
  6
CONTINUOUS
 10
5.8148313476
 20
5.5223417145
 11
5.8290257513
 21
5.5381061969
  0
LINE
  5
239
100
AcDbEntity
  8
0
100
AcDbLine
 62
6
  6
CONTINUOUS
 10
4.6300036998
 20
4.2523124663
 11
4.6447396292
 21
4.2675719678
  0
LINE
  5
23A
100
AcDbEntity
  8
0
100
AcDbLine
 62
6
  6
CONTINUOUS
 10
5.857909392
 20
5.5238460329
 11
5.8726453213
 21
5.5391055345
  0
LINE
  5
23B
100
AcDbEntity
  8
0
100
AcDbLine
 62
6
  6
CONTINUOUS
 10
4.6294801277
 20
4.2959403408
 11
4.6447396292
 21
4.3106762701
  0
LINE
  5
23C
100
AcDbEntity
  8
0
100
AcDbLine
 62
6
  6
CONTINUOUS
 10
5.9010136943
 20
5.5238460329
 11
5.9162731959
 21
5.5385819623
  0
LINE
  5
23D
100
AcDbEntity
  8
0
100
AcDbLine
 62
6
  6
CONTINUOUS
 10
4.6304794653
 20
4.3395599108
 11
4.6462439476
 21
4.3537543145
  0
LINE
  5
23E
100
AcDbEntity
  8
0
100
AcDbLine
 62
6
  6
CONTINUOUS
 10
5.9440917387
 20
5.5223417145
 11
5.9598562211
 21
5.5365361182
  0
LINE
  5
23F
100
AcDbEntity
  8
0
100
AcDbLine
 62
6
  6
CONTINUOUS
 10
4.6330004952
 20
4.3831180326
 11
4.6492507518
 21
4.396753617
  0
LINE
  5
240
100
AcDbEntity
  8
0
100
AcDbLine
 62
6
  6
CONTINUOUS
 10
5.9870910412
 20
5.5193349104
 11
6.0033412978
 21
5.5329704947
  0
LINE
  5
241
100
AcDbEntity
  8
0
100
AcDbLine
 62
6
  6
CONTINUOUS
 10
4.6370401458
 20
4.4265616373
 11
4.6537563783
 21
4.4396217894
  0
LINE
  5
242
100
AcDbEntity
  8
0
100
AcDbLine
 62
6
  6
CONTINUOUS
 10
6.0299592136
 20
5.5148292839
 11
6.0466754461
 21
5.527889436
  0
LINE
  5
243
100
AcDbEntity
  8
0
100
AcDbLine
 62
6
  6
CONTINUOUS
 10
4.6425934956
 20
4.4698377955
 11
4.6597553377
 21
4.4823066037
  0
LINE
  5
244
100
AcDbEntity
  8
0
100
AcDbLine
 62
6
  6
CONTINUOUS
 10
6.0726440279
 20
5.5088303244
 11
6.08980587
 21
5.5212991326
  0
LINE
  5
245
100
AcDbEntity
  8
0
100
AcDbLine
 62
6
  6
CONTINUOUS
 10
4.6496537785
 20
4.512893782
 11
4.6672403212
 21
4.5247560548
  0
LINE
  5
246
100
AcDbEntity
  8
0
100
AcDbLine
 62
6
  6
CONTINUOUS
 10
6.115093479
 20
5.5013453409
 11
6.1326800217
 21
5.5132076137
  0
LINE
  5
247
100
AcDbEntity
  8
0
100
AcDbLine
 62
6
  6
CONTINUOUS
 10
4.6582123928
 20
4.5556771396
 11
4.6762022096
 21
4.5669184248
  0
LINE
  5
248
100
AcDbEntity
  8
0
100
AcDbLine
 62
6
  6
CONTINUOUS
 10
6.157255849
 20
5.4923834525
 11
6.1752456657
 21
5.5036247377
  0
LINE
  5
249
100
AcDbEntity
  8
0
100
AcDbLine
 62
6
  6
CONTINUOUS
 10
4.6682589111
 20
4.5981357434
 11
4.6866300841
 21
4.6087423451
  0
LINE
  5
24A
100
AcDbEntity
  8
0
100
AcDbLine
 62
6
  6
CONTINUOUS
 10
6.1990797693
 20
5.481955578
 11
6.2174509424
 21
5.4925621797
  0
LINE
  5
24B
100
AcDbEntity
  8
0
100
AcDbLine
 62
6
  6
CONTINUOUS
 10
4.6797810932
 20
4.6402178641
 11
4.6985112401
 21
4.6501768599
  0
LINE
  5
24C
100
AcDbEntity
  8
0
100
AcDbLine
 62
6
  6
CONTINUOUS
 10
6.2405142841
 20
5.470074422
 11
6.259244431
 21
5.4800334178
  0
LINE
  5
24D
100
AcDbEntity
  8
0
100
AcDbLine
 62
6
  6
CONTINUOUS
 10
4.6927649011
 20
4.6818722312
 11
4.711831202
 21
4.6911714875
  0
LINE
  5
24E
100
AcDbEntity
  8
0
100
AcDbLine
 62
6
  6
CONTINUOUS
 10
6.2815089117
 20
5.4567544601
 11
6.3005752127
 21
5.4660537164
  0
LINE
  5
24F
100
AcDbEntity
  8
0
100
AcDbLine
 62
6
  6
CONTINUOUS
 10
4.7071945161
 20
4.7230480952
 11
4.7265737417
 21
4.7316762824
  0
LINE
  5
250
100
AcDbEntity
  8
0
100
AcDbLine
 62
6
  6
CONTINUOUS
 10
6.3220137066
 20
5.4420119204
 11
6.3413929322
 21
5.4506401076
  0
LINE
  5
251
100
AcDbEntity
  8
0
100
AcDbLine
 62
6
  6
CONTINUOUS
 10
4.7230523578
 20
4.7636952897
 11
4.7427208976
 21
4.7716418956
  0
LINE
  5
252
100
AcDbEntity
  8
0
100
AcDbLine
 62
6
  6
CONTINUOUS
 10
6.3619793198
 20
5.4258647646
 11
6.3816478595
 21
5.4338113704
  0
LINE
  5
253
100
AcDbEntity
  8
0
100
AcDbLine
 62
6
  6
CONTINUOUS
 10
4.7403191061
 20
4.8037642923
 11
4.7602529968
 21
4.8110196352
  0
LINE
  5
254
100
AcDbEntity
  8
0
100
AcDbLine
 62
6
  6
CONTINUOUS
 10
6.4013570594
 20
5.4083326653
 11
6.4212909501
 21
5.4155880082
  0
LINE
  5
255
100
AcDbEntity
  8
0
100
AcDbLine
 62
6
  6
CONTINUOUS
 10
4.7589737239
 20
4.8432062852
 11
4.7791486793
 21
4.8497615255
  0
LINE
  5
256
100
AcDbEntity
  8
0
100
AcDbLine
 62
6
  6
CONTINUOUS
 10
6.4400989497
 20
5.3894369829
 11
6.4602739051
 21
5.3959922232
  0
LINE
  5
257
100
AcDbEntity
  8
0
100
AcDbLine
 62
6
  6
CONTINUOUS
 10
4.7789934835
 20
4.8819732142
 11
4.7993849235
 21
4.8878203655
  0
LINE
  5
258
100
AcDbEntity
  8
0
100
AcDbLine
 62
6
  6
CONTINUOUS
 10
6.4781577897
 20
5.3692007387
 11
6.4985492296
 21
5.37504789
  0
LINE
  5
259
100
AcDbEntity
  8
0
100
AcDbLine
 62
6
  6
CONTINUOUS
 10
6.9585690923
 20
3.6582303899
 11
6.9379860117
 21
3.6530984515
  0
LINE
  5
25A
100
AcDbEntity
  8
0
100
AcDbLine
 62
6
  6
CONTINUOUS
 10
5.2434358757
 20
3.2305996504
 11
5.2228527951
 21
3.225467712
  0
LINE
  5
25B
100
AcDbEntity
  8
0
100
AcDbLine
 62
6
  6
CONTINUOUS
 10
6.9358938556
 20
3.620954403
 11
6.9151442115
 21
3.61654393
  0
LINE
  5
25C
100
AcDbEntity
  8
0
100
AcDbLine
 62
6
  6
CONTINUOUS
 10
5.2068813542
 20
3.2534414506
 11
5.1861317102
 21
3.2490309776
  0
LINE
  5
25D
100
AcDbEntity
  8
0
100
AcDbLine
 62
6
  6
CONTINUOUS
 10
6.9119315187
 20
3.5844924779
 11
6.8910405915
 21
3.5808088438
  0
LINE
  5
25E
100
AcDbEntity
  8
0
100
AcDbLine
 62
6
  6
CONTINUOUS
 10
5.171146268
 20
3.2775450706
 11
5.1502553408
 21
3.2738614365
  0
LINE
  5
25F
100
AcDbEntity
  8
0
100
AcDbLine
 62
6
  6
CONTINUOUS
 10
6.8867112763
 20
3.548889038
 11
6.8657045183
 21
3.5459367307
  0
LINE
  5
260
100
AcDbEntity
  8
0
100
AcDbLine
 62
6
  6
CONTINUOUS
 10
5.1362741549
 20
3.3028811438
 11
5.1152673969
 21
3.2999288365
  0
LINE
  5
261
100
AcDbEntity
  8
0
100
AcDbLine
 62
6
  6
CONTINUOUS
 10
6.8602638552
 20
3.5141874604
 11
6.8391668599
 21
3.5119700769
  0
LINE
  5
262
100
AcDbEntity
  8
0
100
AcDbLine
 62
6
  6
CONTINUOUS
 10
5.1023075011
 20
3.3294188022
 11
5.0812105058
 21
3.3272014187
  0
LINE
  5
263
100
AcDbEntity
  8
0
100
AcDbLine
 62
6
  6
CONTINUOUS
 10
6.8326214776
 20
3.4804300239
 11
6.8114599484
 21
3.4789502656
  0
LINE
  5
264
100
AcDbEntity
  8
0
100
AcDbLine
 62
6
  6
CONTINUOUS
 10
5.0692876898
 20
3.3571257137
 11
5.0481261607
 21
3.3556459554
  0
LINE
  5
265
100
AcDbEntity
  8
0
100
AcDbLine
 62
6
  6
CONTINUOUS
 10
6.8038178214
 20
3.4476578565
 11
6.7826175405
 21
3.4469175263
  0
LINE
  5
266
100
AcDbEntity
  8
0
100
AcDbLine
 62
6
  6
CONTINUOUS
 10
5.0372549505
 20
3.3859681217
 11
5.0160546696
 21
3.3852277915
  0
LINE
  5
267
100
AcDbEntity
  8
0
100
AcDbLine
 62
6
  6
CONTINUOUS
 10
6.7738879795
 20
3.4159108861
 11
6.752674776
 21
3.4159108861
  0
LINE
  5
268
100
AcDbEntity
  8
0
100
AcDbLine
 62
6
  6
CONTINUOUS
 10
5.0062483103
 20
3.4159108861
 11
4.9850351069
 21
3.4159108861
  0
LINE
  5
269
100
AcDbEntity
  8
0
100
AcDbLine
 62
6
  6
CONTINUOUS
 10
6.7428684167
 20
3.3852277915
 11
6.7216681358
 21
3.3859681217
  0
LINE
  5
26A
100
AcDbEntity
  8
0
100
AcDbLine
 62
6
  6
CONTINUOUS
 10
4.9763055459
 20
3.4469175263
 11
4.9551052649
 21
3.4476578565
  0
LINE
  5
26B
100
AcDbEntity
  8
0
100
AcDbLine
 62
6
  6
CONTINUOUS
 10
6.7107969257
 20
3.3556459554
 11
6.6896353965
 21
3.3571257137
  0
LINE
  5
26C
100
AcDbEntity
  8
0
100
AcDbLine
 62
6
  6
CONTINUOUS
 10
4.9474631379
 20
3.4789502656
 11
4.9263016088
 21
3.4804300239
  0
LINE
  5
26D
100
AcDbEntity
  8
0
100
AcDbLine
 62
6
  6
CONTINUOUS
 10
6.6777125805
 20
3.3272014187
 11
6.6566155852
 21
3.3294188022
  0
LINE
  5
26E
100
AcDbEntity
  8
0
100
AcDbLine
 62
6
  6
CONTINUOUS
 10
4.9197562264
 20
3.5119700769
 11
4.8986592311
 21
3.5141874604
  0
LINE
  5
26F
100
AcDbEntity
  8
0
100
AcDbLine
 62
6
  6
CONTINUOUS
 10
6.6436556895
 20
3.2999288365
 11
6.6226489315
 21
3.3028811438
  0
LINE
  5
270
100
AcDbEntity
  8
0
100
AcDbLine
 62
6
  6
CONTINUOUS
 10
4.893218568
 20
3.5459367307
 11
4.87221181
 21
3.548889038
  0
LINE
  5
271
100
AcDbEntity
  8
0
100
AcDbLine
 62
6
  6
CONTINUOUS
 10
6.6086677455
 20
3.2738614365
 11
6.5877768183
 21
3.2775450706
  0
LINE
  5
272
100
AcDbEntity
  8
0
100
AcDbLine
 62
6
  6
CONTINUOUS
 10
4.8678824948
 20
3.5808088438
 11
4.8469915676
 21
3.5844924779
  0
LINE
  5
273
100
AcDbEntity
  8
0
100
AcDbLine
 62
6
  6
CONTINUOUS
 10
6.5727913762
 20
3.2490309776
 11
6.5520417321
 21
3.2534414506
  0
LINE
  5
274
100
AcDbEntity
  8
0
100
AcDbLine
 62
6
  6
CONTINUOUS
 10
4.8437788748
 20
3.61654393
 11
4.8230292308
 21
3.620954403
  0
LINE
  5
275
100
AcDbEntity
  8
0
100
AcDbLine
 62
6
  6
CONTINUOUS
 10
6.5360702912
 20
3.225467712
 11
6.5154872106
 21
3.2305996504
  0
LINE
  5
276
100
AcDbEntity
  8
0
100
AcDbLine
 62
6
  6
CONTINUOUS
 10
4.8209370746
 20
3.6530984515
 11
4.800353994
 21
3.6582303899
  0
LINE
  5
277
100
AcDbEntity
  8
0
100
AcDbLine
 62
6
  6
CONTINUOUS
 10
6.4985492296
 20
3.2032003479
 11
6.4781577897
 21
3.2090474993
  0
LINE
  5
278
100
AcDbEntity
  8
0
100
AcDbLine
 62
6
  6
CONTINUOUS
 10
4.7993849235
 20
3.6904278724
 11
4.7789934835
 21
3.6962750237
  0
LINE
  5
279
100
AcDbEntity
  8
0
100
AcDbLine
 62
6
  6
CONTINUOUS
 10
6.4602739051
 20
3.1822560147
 11
6.4400989497
 21
3.1888112551
  0
LINE
  5
27A
100
AcDbEntity
  8
0
100
AcDbLine
 62
6
  6
CONTINUOUS
 10
4.7791486793
 20
3.7284867124
 11
4.7589737239
 21
3.7350419528
  0
LINE
  5
27B
100
AcDbEntity
  8
0
100
AcDbLine
 62
6
  6
CONTINUOUS
 10
6.4212909501
 20
3.1626602297
 11
6.4013570594
 21
3.1699155726
  0
LINE
  5
27C
100
AcDbEntity
  8
0
100
AcDbLine
 62
6
  6
CONTINUOUS
 10
4.7602529968
 20
3.7672286027
 11
4.7403191061
 21
3.7744839456
  0
LINE
  5
27D
100
AcDbEntity
  8
0
100
AcDbLine
 62
6
  6
CONTINUOUS
 10
6.3816478595
 20
3.1444368675
 11
6.3619793198
 21
3.1523834734
  0
LINE
  5
27E
100
AcDbEntity
  8
0
100
AcDbLine
 62
6
  6
CONTINUOUS
 10
4.7427208976
 20
3.8066063423
 11
4.7230523578
 21
3.8145529482
  0
LINE
  5
27F
100
AcDbEntity
  8
0
100
AcDbLine
 62
6
  6
CONTINUOUS
 10
6.3413929322
 20
3.1276081303
 11
6.3220137066
 21
3.1362363175
  0
LINE
  5
280
100
AcDbEntity
  8
0
100
AcDbLine
 62
6
  6
CONTINUOUS
 10
4.7265737417
 20
3.8465719556
 11
4.7071945161
 21
3.8552001427
  0
LINE
  5
281
100
AcDbEntity
  8
0
100
AcDbLine
 62
6
  6
CONTINUOUS
 10
6.3005752127
 20
3.1121945215
 11
6.2815089117
 21
3.1214937778
  0
LINE
  5
282
100
AcDbEntity
  8
0
100
AcDbLine
 62
6
  6
CONTINUOUS
 10
4.711831202
 20
3.8870767504
 11
4.6927649011
 21
3.8963760067
  0
LINE
  5
283
100
AcDbEntity
  8
0
100
AcDbLine
 62
6
  6
CONTINUOUS
 10
6.259244431
 20
3.0982148201
 11
6.2405142841
 21
3.1081738159
  0
LINE
  5
284
100
AcDbEntity
  8
0
100
AcDbLine
 62
6
  6
CONTINUOUS
 10
4.6985112401
 20
3.928071378
 11
4.6797810932
 21
3.9380303738
  0
LINE
  5
285
100
AcDbEntity
  8
0
100
AcDbLine
 62
6
  6
CONTINUOUS
 10
6.2174509424
 20
3.0856860582
 11
6.1990797693
 21
3.0962926599
  0
LINE
  5
286
100
AcDbEntity
  8
0
100
AcDbLine
 62
6
  6
CONTINUOUS
 10
4.6866300841
 20
3.9695058928
 11
4.6682589111
 21
3.9801124945
  0
LINE
  5
287
100
AcDbEntity
  8
0
100
AcDbLine
 62
6
  6
CONTINUOUS
 10
6.1752456657
 20
3.0746235003
 11
6.157255849
 21
3.0858647854
  0
LINE
  5
288
100
AcDbEntity
  8
0
100
AcDbLine
 62
6
  6
CONTINUOUS
 10
4.6762022096
 20
4.0113298132
 11
4.6582123928
 21
4.0225710983
  0
LINE
  5
289
100
AcDbEntity
  8
0
100
AcDbLine
 62
6
  6
CONTINUOUS
 10
6.1326800217
 20
3.0650406242
 11
6.115093479
 21
3.076902897
  0
LINE
  5
28A
100
AcDbEntity
  8
0
100
AcDbLine
 62
6
  6
CONTINUOUS
 10
4.6672403212
 20
4.0534921831
 11
4.6496537785
 21
4.0653544559
  0
LINE
  5
28B
100
AcDbEntity
  8
0
100
AcDbLine
 62
6
  6
CONTINUOUS
 10
6.08980587
 20
3.0569491053
 11
6.0726440279
 21
3.0694179135
  0
LINE
  5
28C
100
AcDbEntity
  8
0
100
AcDbLine
 62
6
  6
CONTINUOUS
 10
4.6597553377
 20
4.0959416342
 11
4.6425934956
 21
4.1084104424
  0
LINE
  5
28D
100
AcDbEntity
  8
0
100
AcDbLine
 62
6
  6
CONTINUOUS
 10
6.0466754461
 20
3.0503588019
 11
6.0299592136
 21
3.0634189541
  0
LINE
  5
28E
100
AcDbEntity
  8
0
100
AcDbLine
 62
6
  6
CONTINUOUS
 10
4.6537563783
 20
4.1386264485
 11
4.6370401458
 21
4.1516866006
  0
LINE
  5
28F
100
AcDbEntity
  8
0
100
AcDbLine
 62
6
  6
CONTINUOUS
 10
6.0033412978
 20
3.0452777432
 11
5.9870910412
 21
3.0589133276
  0
LINE
  5
290
100
AcDbEntity
  8
0
100
AcDbLine
 62
6
  6
CONTINUOUS
 10
4.6492507518
 20
4.181494621
 11
4.6330004952
 21
4.1951302053
  0
LINE
  5
291
100
AcDbEntity
  8
0
100
AcDbLine
 62
6
  6
CONTINUOUS
 10
5.9598562211
 20
3.0417121198
 11
5.9440917387
 21
3.0559065234
  0
LINE
  5
292
100
AcDbEntity
  8
0
100
AcDbLine
 62
6
  6
CONTINUOUS
 10
4.6462439476
 20
4.2244939234
 11
4.6304794653
 21
4.2386883271
  0
LINE
  5
293
100
AcDbEntity
  8
0
100
AcDbLine
 62
6
  6
CONTINUOUS
 10
5.9162731959
 20
3.0396662756
 11
5.9010136943
 21
3.054402205
  0
LINE
  5
294
100
AcDbEntity
  8
0
100
AcDbLine
 62
6
  6
CONTINUOUS
 10
4.6447396292
 20
4.2675719678
 11
4.6294801277
 21
4.2823078971
  0
LINE
  5
295
100
AcDbEntity
  8
0
100
AcDbLine
 62
6
  6
CONTINUOUS
 10
5.8726453213
 20
3.0391427035
 11
5.857909392
 21
3.054402205
  0
LINE
  5
296
100
AcDbEntity
  8
0
100
AcDbLine
 62
6
  6
CONTINUOUS
 10
4.6447396292
 20
4.3106762701
 11
4.6300036998
 21
4.3259357717
  0
LINE
  5
297
100
AcDbEntity
  8
0
100
AcDbLine
 62
6
  6
CONTINUOUS
 10
5.8290257513
 20
3.0401420411
 11
5.8148313476
 21
3.0559065234
  0
LINE
  5
298
100
AcDbEntity
  8
0
100
AcDbLine
 62
6
  6
CONTINUOUS
 10
4.6462439476
 20
4.3537543145
 11
4.632049544
 21
4.3695187969
  0
LINE
  5
299
100
AcDbEntity
  8
0
100
AcDbLine
 62
6
  6
CONTINUOUS
 10
5.7854676295
 20
3.042663071
 11
5.7718320452
 21
3.0589133276
  0
LINE
  5
29A
100
AcDbEntity
  8
0
100
AcDbLine
 62
6
  6
CONTINUOUS
 10
4.6492507518
 20
4.396753617
 11
4.6356151674
 21
4.4130038736
  0
LINE
  5
29B
100
AcDbEntity
  8
0
100
AcDbLine
 62
6
  6
CONTINUOUS
 10
5.7420240248
 20
3.0467027216
 11
5.7289638727
 21
3.0634189541
  0
LINE
  5
29C
100
AcDbEntity
  8
0
100
AcDbLine
 62
6
  6
CONTINUOUS
 10
4.6537563783
 20
4.4396217894
 11
4.6406962261
 21
4.4563380219
  0
LINE
  5
29D
100
AcDbEntity
  8
0
100
AcDbLine
 62
6
  6
CONTINUOUS
 10
5.6987478666
 20
3.0522560714
 11
5.6862790584
 21
3.0694179135
  0
LINE
  5
29E
100
AcDbEntity
  8
0
100
AcDbLine
 62
6
  6
CONTINUOUS
 10
4.6597553377
 20
4.4823066037
 11
4.6472865295
 21
4.4994684458
  0
LINE
  5
29F
100
AcDbEntity
  8
0
100
AcDbLine
 62
6
  6
CONTINUOUS
 10
5.6556918801
 20
3.0593163543
 11
5.6438296073
 21
3.076902897
  0
LINE
  5
2A0
100
AcDbEntity
  8
0
100
AcDbLine
 62
6
  6
CONTINUOUS
 10
4.6672403212
 20
4.5247560548
 11
4.6553780484
 21
4.5423425975
  0
LINE
  5
2A1
100
AcDbEntity
  8
0
100
AcDbLine
 62
6
  6
CONTINUOUS
 10
5.6129085225
 20
3.0678749686
 11
5.6016672374
 21
3.0858647854
  0
LINE
  5
2A2
100
AcDbEntity
  8
0
100
AcDbLine
 62
6
  6
CONTINUOUS
 10
4.6762022096
 20
4.5669184248
 11
4.6649609245
 21
4.5849082415
  0
LINE
  5
2A3
100
AcDbEntity
  8
0
100
AcDbLine
 62
6
  6
CONTINUOUS
 10
5.5704499187
 20
3.0779214869
 11
5.559843317
 21
3.0962926599
  0
LINE
  5
2A4
100
AcDbEntity
  8
0
100
AcDbLine
 62
6
  6
CONTINUOUS
 10
4.6866300841
 20
4.6087423451
 11
4.6760234824
 21
4.6271135182
  0
LINE
  5
2A5
100
AcDbEntity
  8
0
100
AcDbLine
 62
6
  6
CONTINUOUS
 10
5.528367798
 20
3.089443669
 11
5.5184088022
 21
3.1081738159
  0
LINE
  5
2A6
100
AcDbEntity
  8
0
100
AcDbLine
 62
6
  6
CONTINUOUS
 10
4.6985112401
 20
4.6501768599
 11
4.6885522443
 21
4.6689070068
  0
LINE
  5
2A7
100
AcDbEntity
  8
0
100
AcDbLine
 62
6
  6
CONTINUOUS
 10
5.4867134309
 20
3.1024274769
 11
5.4774141746
 21
3.1214937778
  0
LINE
  5
2A8
100
AcDbEntity
  8
0
100
AcDbLine
 62
6
  6
CONTINUOUS
 10
4.711831202
 20
4.6911714875
 11
4.7025319457
 21
4.7102377885
  0
LINE
  5
2A9
100
AcDbEntity
  8
0
100
AcDbLine
 62
6
  6
CONTINUOUS
 10
5.4455375669
 20
3.1168570919
 11
5.4369093797
 21
3.1362363175
  0
LINE
  5
2AA
100
AcDbEntity
  8
0
100
AcDbLine
 62
6
  6
CONTINUOUS
 10
4.7265737417
 20
4.7316762824
 11
4.7179455545
 21
4.751055508
  0
LINE
  5
2AB
100
AcDbEntity
  8
0
100
AcDbLine
 62
6
  6
CONTINUOUS
 10
5.4048903724
 20
3.1327149336
 11
5.3969437665
 21
3.1523834734
  0
LINE
  5
2AC
100
AcDbEntity
  8
0
100
AcDbLine
 62
6
  6
CONTINUOUS
 10
4.7427208976
 20
4.7716418956
 11
4.7347742917
 21
4.7913104353
  0
LINE
  5
2AD
100
AcDbEntity
  8
0
100
AcDbLine
 62
6
  6
CONTINUOUS
 10
5.3648213698
 20
3.1499816819
 11
5.3575660269
 21
3.1699155726
  0
LINE
  5
2AE
100
AcDbEntity
  8
0
100
AcDbLine
 62
6
  6
CONTINUOUS
 10
4.7602529968
 20
4.8110196352
 11
4.7529976539
 21
4.8309535259
  0
LINE
  5
2AF
100
AcDbEntity
  8
0
100
AcDbLine
 62
6
  6
CONTINUOUS
 10
5.325379377
 20
3.1686362997
 11
5.3188241366
 21
3.1888112551
  0
LINE
  5
2B0
100
AcDbEntity
  8
0
100
AcDbLine
 62
6
  6
CONTINUOUS
 10
4.7791486793
 20
4.8497615255
 11
4.7725934389
 21
4.8699364809
  0
LINE
  5
2B1
100
AcDbEntity
  8
0
100
AcDbLine
 62
6
  6
CONTINUOUS
 10
5.2866124479
 20
3.1886560593
 11
5.2807652966
 21
3.2090474993
  0
LINE
  5
2B2
100
AcDbEntity
  8
0
100
AcDbLine
 62
6
  6
CONTINUOUS
 10
4.7993849235
 20
4.8878203655
 11
4.7935377721
 21
4.9082118054
  0
LINE
  5
2B3
100
AcDbEntity
  8
0
100
AcDbLine
 62
6
  6
CONTINUOUS
 10
5.2485678141
 20
3.2100165698
 11
5.2434358757
 21
3.2305996504
  0
LINE
  5
2B4
100
AcDbEntity
  8
0
100
AcDbLine
 62
6
  6
CONTINUOUS
 10
4.8209370746
 20
4.9251497864
 11
4.8158051362
 21
4.945732867
  0
LINE
  5
2B5
100
AcDbEntity
  8
0
100
AcDbLine
 62
6
  6
CONTINUOUS
 10
5.2112918272
 20
3.2326918066
 11
5.2068813542
 21
3.2534414506
  0
LINE
  5
2B6
100
AcDbEntity
  8
0
100
AcDbLine
 62
6
  6
CONTINUOUS
 10
4.8437788748
 20
4.9617043079
 11
4.8393684018
 21
4.982453952
  0
LINE
  5
2B7
100
AcDbEntity
  8
0
100
AcDbLine
 62
6
  6
CONTINUOUS
 10
5.1748299021
 20
3.2566541434
 11
5.171146268
 21
3.2775450706
  0
LINE
  5
2B8
100
AcDbEntity
  8
0
100
AcDbLine
 62
6
  6
CONTINUOUS
 10
4.8678824948
 20
4.9974393941
 11
4.8641988607
 21
5.0183303213
  0
LINE
  5
2B9
100
AcDbEntity
  8
0
100
AcDbLine
 62
6
  6
CONTINUOUS
 10
5.1392264622
 20
3.2818743858
 11
5.1362741549
 21
3.3028811438
  0
LINE
  5
2BA
100
AcDbEntity
  8
0
100
AcDbLine
 62
6
  6
CONTINUOUS
 10
4.893218568
 20
5.0323115073
 11
4.8902662607
 21
5.0533182653
  0
LINE
  5
2BB
100
AcDbEntity
  8
0
100
AcDbLine
 62
6
  6
CONTINUOUS
 10
5.3894615432
 20
3.9923008169
 11
5.3894615432
 21
3.7030463925
  0
LINE
  5
2BC
100
AcDbEntity
  8
0
100
AcDbLine
 62
6
  6
CONTINUOUS
 10
5.3919615432
 20
4.289124119
 11
5.3919615432
 21
4.0296437102
  0
LINE
  5
2BD
100
AcDbEntity
  8
0
100
AcDbLine
 62
6
  6
CONTINUOUS
 10
5.9101046501
 20
4.0494654842
 11
5.8488184363
 21
4.0494654842
  0
LINE
  5
2BE
100
AcDbEntity
  8
0
100
AcDbLine
 62
6
  6
CONTINUOUS
 10
5.7375495986
 20
4.2680132715
 11
5.7375495986
 21
4.0623212364
  0
LINE
  5
2BF
100
AcDbEntity
  8
0
100
AcDbLine
 62
6
  6
CONTINUOUS
 10
6.0213734877
 20
4.2680132715
 11
5.7375495986
 21
4.2680132715
  0
LINE
  5
2C0
100
AcDbEntity
  8
0
100
AcDbLine
 62
6
  6
CONTINUOUS
 10
6.0213734877
 20
4.2680132715
 11
6.0213734877
 21
4.0623212364
  0
LINE
  5
2C1
100
AcDbEntity
  8
0
100
AcDbLine
 62
6
  6
CONTINUOUS
 10
6.3669615432
 20
4.289124119
 11
6.3669615432
 21
4.029634261
  0
LINE
  5
2C2
100
AcDbEntity
  8
0
100
AcDbLine
 62
6
  6
CONTINUOUS
 10
6.3694615432
 20
3.9923008169
 11
6.3694615432
 21
3.7030463925
  0
LINE
  5
2C3
100
AcDbEntity
  8
0
100
AcDbLine
 62
6
  6
CONTINUOUS
 10
6.3747064894
 20
4.055695986
 11
6.3746876738
 21
4.0556560708
  0
LINE
  5
2C4
100
AcDbEntity
  8
0
100
AcDbLine
 62
6
  6
CONTINUOUS
 10
6.3746876738
 20
4.5225921671
 11
6.3747063476
 21
4.5225525526
  0
LINE
  5
2C5
100
AcDbEntity
  8
0
100
AcDbLine
 62
6
  6
CONTINUOUS
 10
6.6543982017
 20
5.269926431
 11
6.6566155852
 21
5.2488294357
  0
LINE
  5
2C6
100
AcDbEntity
  8
0
100
AcDbLine
 62
6
  6
CONTINUOUS
 10
6.8391668599
 20
3.5119700769
 11
6.8413842435
 21
3.4908730816
  0
LINE
  5
2C7
100
AcDbEntity
  8
0
100
AcDbLine
 62
6
  6
CONTINUOUS
 10
6.6881556383
 20
5.2422840534
 11
6.6896353965
 21
5.2211225242
  0
LINE
  5
2C8
100
AcDbEntity
  8
0
100
AcDbLine
 62
6
  6
CONTINUOUS
 10
6.8114599484
 20
3.4789502656
 11
6.8129397067
 21
3.4577887365
  0
LINE
  5
2C9
100
AcDbEntity
  8
0
100
AcDbLine
 62
6
  6
CONTINUOUS
 10
6.7209278057
 20
5.2134803972
 11
6.7216681358
 21
5.1922801163
  0
LINE
  5
2CA
100
AcDbEntity
  8
0
100
AcDbLine
 62
6
  6
CONTINUOUS
 10
6.7826175405
 20
3.4469175263
 11
6.7833578706
 21
3.4257172454
  0
LINE
  5
2CB
100
AcDbEntity
  8
0
100
AcDbLine
 62
6
  6
CONTINUOUS
 10
6.752674776
 20
5.1835505553
 11
6.752674776
 21
5.1623373518
  0
LINE
  5
2CC
100
AcDbEntity
  8
0
100
AcDbLine
 62
6
  6
CONTINUOUS
 10
6.752674776
 20
3.4159108861
 11
6.752674776
 21
3.3946976827
  0
LINE
  5
2CD
100
AcDbEntity
  8
0
100
AcDbLine
 62
6
  6
CONTINUOUS
 10
6.7833578706
 20
5.1525309925
 11
6.7826175405
 21
5.1313307116
  0
LINE
  5
2CE
100
AcDbEntity
  8
0
100
AcDbLine
 62
6
  6
CONTINUOUS
 10
6.7216681358
 20
3.3859681217
 11
6.7209278057
 21
3.3647678407
  0
LINE
  5
2CF
100
AcDbEntity
  8
0
100
AcDbLine
 62
6
  6
CONTINUOUS
 10
6.8129397067
 20
5.1204595015
 11
6.8114599484
 21
5.0992979723
  0
LINE
  5
2D0
100
AcDbEntity
  8
0
100
AcDbLine
 62
6
  6
CONTINUOUS
 10
6.6896353965
 20
3.3571257137
 11
6.6881556383
 21
3.3359641846
  0
LINE
  5
2D1
100
AcDbEntity
  8
0
100
AcDbLine
 62
6
  6
CONTINUOUS
 10
6.8413842435
 20
5.0873751563
 11
6.8391668599
 21
5.066278161
  0
LINE
  5
2D2
100
AcDbEntity
  8
0
100
AcDbLine
 62
6
  6
CONTINUOUS
 10
6.6566155852
 20
3.3294188022
 11
6.6543982017
 21
3.3083218069
  0
LINE
  5
2D3
100
AcDbEntity
  8
0
100
AcDbLine
 62
6
  6
CONTINUOUS
 10
6.8686568256
 20
5.0533182653
 11
6.8657045183
 21
5.0323115073
  0
LINE
  5
2D4
100
AcDbEntity
  8
0
100
AcDbLine
 62
6
  6
CONTINUOUS
 10
6.6226489315
 20
3.3028811438
 11
6.6196966241
 21
3.2818743858
  0
LINE
  5
2D5
100
AcDbEntity
  8
0
100
AcDbLine
 62
6
  6
CONTINUOUS
 10
6.8947242256
 20
5.0183303213
 11
6.8910405915
 21
4.9974393941
  0
LINE
  5
2D6
100
AcDbEntity
  8
0
100
AcDbLine
 62
6
  6
CONTINUOUS
 10
6.5877768183
 20
3.2775450706
 11
6.5840931842
 21
3.2566541434
  0
LINE
  5
2D7
100
AcDbEntity
  8
0
100
AcDbLine
 62
6
  6
CONTINUOUS
 10
6.9195546845
 20
4.982453952
 11
6.9151442115
 21
4.9617043079
  0
LINE
  5
2D8
100
AcDbEntity
  8
0
100
AcDbLine
 62
6
  6
CONTINUOUS
 10
6.5520417321
 20
3.2534414506
 11
6.5476312591
 21
3.2326918066
  0
LINE
  5
2D9
100
AcDbEntity
  8
0
100
AcDbLine
 62
6
  6
CONTINUOUS
 10
6.9431179501
 20
4.945732867
 11
6.9379860117
 21
4.9251497864
  0
LINE
  5
2DA
100
AcDbEntity
  8
0
100
AcDbLine
 62
6
  6
CONTINUOUS
 10
6.5154872106
 20
3.2305996504
 11
6.5103552722
 21
3.2100165698
  0
LINE
  5
2DB
100
AcDbEntity
  8
0
100
AcDbLine
 62
6
  6
CONTINUOUS
 10
6.9653853142
 20
4.9082118054
 11
6.9595381629
 21
4.8878203655
  0
LINE
  5
2DC
100
AcDbEntity
  8
0
100
AcDbLine
 62
6
  6
CONTINUOUS
 10
6.4781577897
 20
3.2090474993
 11
6.4723106384
 21
3.1886560593
  0
LINE
  5
2DD
100
AcDbEntity
  8
0
100
AcDbLine
 62
6
  6
CONTINUOUS
 10
6.9863296474
 20
4.8699364809
 11
6.9797744071
 21
4.8497615255
  0
LINE
  5
2DE
100
AcDbEntity
  8
0
100
AcDbLine
 62
6
  6
CONTINUOUS
 10
6.4400989497
 20
3.1888112551
 11
6.4335437094
 21
3.1686362997
  0
LINE
  5
2DF
100
AcDbEntity
  8
0
100
AcDbLine
 62
6
  6
CONTINUOUS
 10
7.0059254324
 20
4.8309535259
 11
6.9986700895
 21
4.8110196352
  0
LINE
  5
2E0
100
AcDbEntity
  8
0
100
AcDbLine
 62
6
  6
CONTINUOUS
 10
6.4013570594
 20
3.1699155726
 11
6.3941017165
 21
3.1499816819
  0
LINE
  5
2E1
100
AcDbEntity
  8
0
100
AcDbLine
 62
6
  6
CONTINUOUS
 10
7.0241487946
 20
4.7913104353
 11
7.0162021888
 21
4.7716418956
  0
LINE
  5
2E2
100
AcDbEntity
  8
0
100
AcDbLine
 62
6
  6
CONTINUOUS
 10
6.3619793198
 20
3.1523834734
 11
6.3540327139
 21
3.1327149336
  0
LINE
  5
2E3
100
AcDbEntity
  8
0
100
AcDbLine
 62
6
  6
CONTINUOUS
 10
7.0409775318
 20
4.751055508
 11
7.0323493446
 21
4.7316762824
  0
LINE
  5
2E4
100
AcDbEntity
  8
0
100
AcDbLine
 62
6
  6
CONTINUOUS
 10
6.3220137066
 20
3.1362363175
 11
6.3133855194
 21
3.1168570919
  0
LINE
  5
2E5
100
AcDbEntity
  8
0
100
AcDbLine
 62
6
  6
CONTINUOUS
 10
7.0563911406
 20
4.7102377885
 11
7.0470918843
 21
4.6911714875
  0
LINE
  5
2E6
100
AcDbEntity
  8
0
100
AcDbLine
 62
6
  6
CONTINUOUS
 10
6.2815089117
 20
3.1214937778
 11
6.2722096554
 21
3.1024274769
  0
LINE
  5
2E7
100
AcDbEntity
  8
0
100
AcDbLine
 62
6
  6
CONTINUOUS
 10
7.070370842
 20
4.6689070068
 11
7.0604118462
 21
4.6501768599
  0
LINE
  5
2E8
100
AcDbEntity
  8
0
100
AcDbLine
 62
6
  6
CONTINUOUS
 10
6.2405142841
 20
3.1081738159
 11
6.2305552883
 21
3.089443669
  0
LINE
  5
2E9
100
AcDbEntity
  8
0
100
AcDbLine
 62
6
  6
CONTINUOUS
 10
7.0828996039
 20
4.6271135182
 11
7.0722930022
 21
4.6087423451
  0
LINE
  5
2EA
100
AcDbEntity
  8
0
100
AcDbLine
 62
6
  6
CONTINUOUS
 10
6.1990797693
 20
3.0962926599
 11
6.1884731676
 21
3.0779214869
  0
LINE
  5
2EB
100
AcDbEntity
  8
0
100
AcDbLine
 62
6
  6
CONTINUOUS
 10
7.0939621619
 20
4.5849082415
 11
7.0827208767
 21
4.5669184248
  0
LINE
  5
2EC
100
AcDbEntity
  8
0
100
AcDbLine
 62
6
  6
CONTINUOUS
 10
6.157255849
 20
3.0858647854
 11
6.1460145638
 21
3.0678749686
  0
LINE
  5
2ED
100
AcDbEntity
  8
0
100
AcDbLine
 62
6
  6
CONTINUOUS
 10
7.1035450379
 20
4.5423425975
 11
7.0916827651
 21
4.5247560548
  0
LINE
  5
2EE
100
AcDbEntity
  8
0
100
AcDbLine
 62
6
  6
CONTINUOUS
 10
6.115093479
 20
3.076902897
 11
6.1032312062
 21
3.0593163543
  0
LINE
  5
2EF
100
AcDbEntity
  8
0
100
AcDbLine
 62
6
  6
CONTINUOUS
 10
7.1116365568
 20
4.4994684458
 11
7.0991677486
 21
4.4823066037
  0
LINE
  5
2F0
100
AcDbEntity
  8
0
100
AcDbLine
 62
6
  6
CONTINUOUS
 10
6.0726440279
 20
3.0694179135
 11
6.0601752197
 21
3.0522560714
  0
LINE
  5
2F1
100
AcDbEntity
  8
0
100
AcDbLine
 62
6
  6
CONTINUOUS
 10
7.1182268602
 20
4.4563380219
 11
7.1051667081
 21
4.4396217894
  0
LINE
  5
2F2
100
AcDbEntity
  8
0
100
AcDbLine
 62
6
  6
CONTINUOUS
 10
6.0299592136
 20
3.0634189541
 11
6.0168990615
 21
3.0467027216
  0
LINE
  5
2F3
100
AcDbEntity
  8
0
100
AcDbLine
 62
6
  6
CONTINUOUS
 10
7.1233079189
 20
4.4130038736
 11
7.1096723346
 21
4.396753617
  0
LINE
  5
2F4
100
AcDbEntity
  8
0
100
AcDbLine
 62
6
  6
CONTINUOUS
 10
5.9870910412
 20
3.0589133276
 11
5.9734554568
 21
3.042663071
  0
LINE
  5
2F5
100
AcDbEntity
  8
0
100
AcDbLine
 62
6
  6
CONTINUOUS
 10
7.1268735424
 20
4.3695187969
 11
7.1126791387
 21
4.3537543145
  0
LINE
  5
2F6
100
AcDbEntity
  8
0
100
AcDbLine
 62
6
  6
CONTINUOUS
 10
5.9440917387
 20
3.0559065234
 11
5.929897335
 21
3.0401420411
  0
LINE
  5
2F7
100
AcDbEntity
  8
0
100
AcDbLine
 62
6
  6
CONTINUOUS
 10
7.1289193865
 20
4.3259357717
 11
7.1141834571
 21
4.3106762701
  0
LINE
  5
2F8
100
AcDbEntity
  8
0
100
AcDbLine
 62
6
  6
CONTINUOUS
 10
5.9010136943
 20
3.054402205
 11
5.886277765
 21
3.0391427035
  0
LINE
  5
2F9
100
AcDbEntity
  8
0
100
AcDbLine
 62
6
  6
CONTINUOUS
 10
7.1294429587
 20
4.2823078971
 11
7.1141834571
 21
4.2675719678
  0
LINE
  5
2FA
100
AcDbEntity
  8
0
100
AcDbLine
 62
6
  6
CONTINUOUS
 10
5.857909392
 20
3.054402205
 11
5.8426498905
 21
3.0396662756
  0
LINE
  5
2FB
100
AcDbEntity
  8
0
100
AcDbLine
 62
6
  6
CONTINUOUS
 10
7.1284436211
 20
4.2386883271
 11
7.1126791387
 21
4.2244939234
  0
LINE
  5
2FC
100
AcDbEntity
  8
0
100
AcDbLine
 62
6
  6
CONTINUOUS
 10
5.8148313476
 20
3.0559065234
 11
5.7990668652
 21
3.0417121198
  0
LINE
  5
2FD
100
AcDbEntity
  8
0
100
AcDbLine
 62
6
  6
CONTINUOUS
 10
7.1259225912
 20
4.1951302053
 11
7.1096723346
 21
4.181494621
  0
LINE
  5
2FE
100
AcDbEntity
  8
0
100
AcDbLine
 62
6
  6
CONTINUOUS
 10
5.7718320452
 20
3.0589133276
 11
5.7555817886
 21
3.0452777432
  0
LINE
  5
2FF
100
AcDbEntity
  8
0
100
AcDbLine
 62
6
  6
CONTINUOUS
 10
7.1218829405
 20
4.1516866006
 11
7.1051667081
 21
4.1386264485
  0
LINE
  5
300
100
AcDbEntity
  8
0
100
AcDbLine
 62
6
  6
CONTINUOUS
 10
5.7289638727
 20
3.0634189541
 11
5.7122476403
 21
3.0503588019
  0
LINE
  5
301
100
AcDbEntity
  8
0
100
AcDbLine
 62
6
  6
CONTINUOUS
 10
7.1163295907
 20
4.1084104424
 11
7.0991677486
 21
4.0959416342
  0
LINE
  5
302
100
AcDbEntity
  8
0
100
AcDbLine
 62
6
  6
CONTINUOUS
 10
5.6862790584
 20
3.0694179135
 11
5.6691172164
 21
3.0569491053
  0
LINE
  5
303
100
AcDbEntity
  8
0
100
AcDbLine
 62
6
  6
CONTINUOUS
 10
7.1092693078
 20
4.0653544559
 11
7.0916827651
 21
4.0534921831
  0
LINE
  5
304
100
AcDbEntity
  8
0
100
AcDbLine
 62
6
  6
CONTINUOUS
 10
5.6438296073
 20
3.076902897
 11
5.6262430646
 21
3.0650406242
  0
LINE
  5
305
100
AcDbEntity
  8
0
100
AcDbLine
 62
6
  6
CONTINUOUS
 10
7.1007106935
 20
4.0225710983
 11
7.0827208767
 21
4.0113298132
  0
LINE
  5
306
100
AcDbEntity
  8
0
100
AcDbLine
 62
6
  6
CONTINUOUS
 10
5.6016672374
 20
3.0858647854
 11
5.5836774206
 21
3.0746235003
  0
LINE
  5
307
100
AcDbEntity
  8
0
100
AcDbLine
 62
6
  6
CONTINUOUS
 10
7.0906641752
 20
3.9801124945
 11
7.0722930022
 21
3.9695058928
  0
LINE
  5
308
100
AcDbEntity
  8
0
100
AcDbLine
 62
6
  6
CONTINUOUS
 10
5.559843317
 20
3.0962926599
 11
5.5414721439
 21
3.0856860582
  0
LINE
  5
309
100
AcDbEntity
  8
0
100
AcDbLine
 62
6
  6
CONTINUOUS
 10
7.0791419932
 20
3.9380303738
 11
7.0604118462
 21
3.928071378
  0
LINE
  5
30A
100
AcDbEntity
  8
0
100
AcDbLine
 62
6
  6
CONTINUOUS
 10
5.5184088022
 20
3.1081738159
 11
5.4996786553
 21
3.0982148201
  0
LINE
  5
30B
100
AcDbEntity
  8
0
100
AcDbLine
 62
6
  6
CONTINUOUS
 10
7.0661581852
 20
3.8963760067
 11
7.0470918843
 21
3.8870767504
  0
LINE
  5
30C
100
AcDbEntity
  8
0
100
AcDbLine
 62
6
  6
CONTINUOUS
 10
5.4774141746
 20
3.1214937778
 11
5.4583478736
 21
3.1121945215
  0
LINE
  5
30D
100
AcDbEntity
  8
0
100
AcDbLine
 62
6
  6
CONTINUOUS
 10
7.0517285703
 20
3.8552001427
 11
7.0323493446
 21
3.8465719556
  0
LINE
  5
30E
100
AcDbEntity
  8
0
100
AcDbLine
 62
6
  6
CONTINUOUS
 10
5.4369093797
 20
3.1362363175
 11
5.4175301541
 21
3.1276081303
  0
LINE
  5
30F
100
AcDbEntity
  8
0
100
AcDbLine
 62
6
  6
CONTINUOUS
 10
7.0358707285
 20
3.8145529482
 11
7.0162021888
 21
3.8066063423
  0
LINE
  5
310
100
AcDbEntity
  8
0
100
AcDbLine
 62
6
  6
CONTINUOUS
 10
5.3969437665
 20
3.1523834734
 11
5.3772752268
 21
3.1444368675
  0
LINE
  5
311
100
AcDbEntity
  8
0
100
AcDbLine
 62
6
  6
CONTINUOUS
 10
7.0186039802
 20
3.7744839456
 11
6.9986700895
 21
3.7672286027
  0
LINE
  5
312
100
AcDbEntity
  8
0
100
AcDbLine
 62
6
  6
CONTINUOUS
 10
5.3575660269
 20
3.1699155726
 11
5.3376321362
 21
3.1626602297
  0
LINE
  5
313
100
AcDbEntity
  8
0
100
AcDbLine
 62
6
  6
CONTINUOUS
 10
6.9999493624
 20
3.7350419528
 11
6.9797744071
 21
3.7284867124
  0
LINE
  5
314
100
AcDbEntity
  8
0
100
AcDbLine
 62
6
  6
CONTINUOUS
 10
5.3188241366
 20
3.1888112551
 11
5.2986491812
 21
3.1822560147
  0
LINE
  5
315
100
AcDbEntity
  8
0
100
AcDbLine
 62
6
  6
CONTINUOUS
 10
6.9799296028
 20
3.6962750237
 11
6.9595381629
 21
3.6904278724
  0
LINE
  5
316
100
AcDbEntity
  8
0
100
AcDbLine
 62
6
  6
CONTINUOUS
 10
5.2807652966
 20
3.2090474993
 11
5.2603738567
 21
3.2032003479
  0
LINE
  5
317
100
AcDbEntity
  8
0
100
AcDbLine
 62
6
  6
CONTINUOUS
 10
4.800353994
 20
4.920017848
 11
4.8209370746
 21
4.9251497864
  0
LINE
  5
318
100
AcDbEntity
  8
0
100
AcDbLine
 62
6
  6
CONTINUOUS
 10
6.5154872106
 20
5.3476485875
 11
6.5360702912
 21
5.3527805259
  0
LINE
  5
319
100
AcDbEntity
  8
0
100
AcDbLine
 62
6
  6
CONTINUOUS
 10
4.8230292308
 20
4.9572938349
 11
4.8437788748
 21
4.9617043079
  0
LINE
  5
31A
100
AcDbEntity
  8
0
100
AcDbLine
 62
6
  6
CONTINUOUS
 10
6.5520417321
 20
5.3248067873
 11
6.5727913762
 21
5.3292172603
  0
LINE
  5
31B
100
AcDbEntity
  8
0
100
AcDbLine
 62
6
  6
CONTINUOUS
 10
4.8469915676
 20
4.99375576
 11
4.8678824948
 21
4.9974393941
  0
LINE
  5
31C
100
AcDbEntity
  8
0
100
AcDbLine
 62
6
  6
CONTINUOUS
 10
6.5877768183
 20
5.3007031673
 11
6.6086677455
 21
5.3043868014
  0
LINE
  5
31D
100
AcDbEntity
  8
0
100
AcDbLine
 62
6
  6
CONTINUOUS
 10
4.87221181
 20
5.0293591999
 11
4.893218568
 21
5.0323115073
  0
LINE
  5
31E
100
AcDbEntity
  8
0
100
AcDbLine
 62
6
  6
CONTINUOUS
 10
6.6226489315
 20
5.2753670941
 11
6.6436556895
 21
5.2783194014
  0
LINE
  5
31F
100
AcDbEntity
  8
0
100
AcDbLine
 62
6
  6
CONTINUOUS
 10
4.8986592311
 20
5.0640607775
 11
4.9197562264
 21
5.066278161
  0
LINE
  5
320
100
AcDbEntity
  8
0
100
AcDbLine
 62
6
  6
CONTINUOUS
 10
6.6566155852
 20
5.2488294357
 11
6.6777125805
 21
5.2510468193
  0
LINE
  5
321
100
AcDbEntity
  8
0
100
AcDbLine
 62
6
  6
CONTINUOUS
 10
4.9263016088
 20
5.0978182141
 11
4.9474631379
 21
5.0992979723
  0
LINE
  5
322
100
AcDbEntity
  8
0
100
AcDbLine
 62
6
  6
CONTINUOUS
 10
6.6896353965
 20
5.2211225242
 11
6.7107969257
 21
5.2226022825
  0
LINE
  5
323
100
AcDbEntity
  8
0
100
AcDbLine
 62
6
  6
CONTINUOUS
 10
4.9551052649
 20
5.1305903815
 11
4.9763055459
 21
5.1313307116
  0
LINE
  5
324
100
AcDbEntity
  8
0
100
AcDbLine
 62
6
  6
CONTINUOUS
 10
6.7216681358
 20
5.1922801163
 11
6.7428684167
 21
5.1930204464
  0
LINE
  5
325
100
AcDbEntity
  8
0
100
AcDbLine
 62
6
  6
CONTINUOUS
 10
4.9850351069
 20
5.1623373518
 11
5.0062483103
 21
5.1623373518
  0
LINE
  5
326
100
AcDbEntity
  8
0
100
AcDbLine
 62
6
  6
CONTINUOUS
 10
6.752674776
 20
5.1623373518
 11
6.7738879795
 21
5.1623373518
  0
LINE
  5
327
100
AcDbEntity
  8
0
100
AcDbLine
 62
6
  6
CONTINUOUS
 10
5.0160546696
 20
5.1930204464
 11
5.0372549505
 21
5.1922801163
  0
LINE
  5
328
100
AcDbEntity
  8
0
100
AcDbLine
 62
6
  6
CONTINUOUS
 10
6.7826175405
 20
5.1313307116
 11
6.8038178214
 21
5.1305903815
  0
LINE
  5
329
100
AcDbEntity
  8
0
100
AcDbLine
 62
6
  6
CONTINUOUS
 10
5.0481261607
 20
5.2226022825
 11
5.0692876898
 21
5.2211225242
  0
LINE
  5
32A
100
AcDbEntity
  8
0
100
AcDbLine
 62
6
  6
CONTINUOUS
 10
6.8114599484
 20
5.0992979723
 11
6.8326214776
 21
5.0978182141
  0
LINE
  5
32B
100
AcDbEntity
  8
0
100
AcDbLine
 62
6
  6
CONTINUOUS
 10
5.0812105058
 20
5.2510468193
 11
5.1023075011
 21
5.2488294357
  0
LINE
  5
32C
100
AcDbEntity
  8
0
100
AcDbLine
 62
6
  6
CONTINUOUS
 10
6.8391668599
 20
5.066278161
 11
6.8602638552
 21
5.0640607775
  0
LINE
  5
32D
100
AcDbEntity
  8
0
100
AcDbLine
 62
6
  6
CONTINUOUS
 10
5.1152673969
 20
5.2783194014
 11
5.1362741549
 21
5.2753670941
  0
LINE
  5
32E
100
AcDbEntity
  8
0
100
AcDbLine
 62
6
  6
CONTINUOUS
 10
6.8657045183
 20
5.0323115073
 11
6.8867112763
 21
5.0293591999
  0
LINE
  5
32F
100
AcDbEntity
  8
0
100
AcDbLine
 62
6
  6
CONTINUOUS
 10
5.1502553408
 20
5.3043868014
 11
5.171146268
 21
5.3007031673
  0
LINE
  5
330
100
AcDbEntity
  8
0
100
AcDbLine
 62
6
  6
CONTINUOUS
 10
6.8910405915
 20
4.9974393941
 11
6.9119315187
 21
4.99375576
  0
LINE
  5
331
100
AcDbEntity
  8
0
100
AcDbLine
 62
6
  6
CONTINUOUS
 10
5.1861317102
 20
5.3292172603
 11
5.2068813542
 21
5.3248067873
  0
LINE
  5
332
100
AcDbEntity
  8
0
100
AcDbLine
 62
6
  6
CONTINUOUS
 10
6.9151442115
 20
4.9617043079
 11
6.9358938556
 21
4.9572938349
  0
LINE
  5
333
100
AcDbEntity
  8
0
100
AcDbLine
 62
6
  6
CONTINUOUS
 10
5.2228527951
 20
5.3527805259
 11
5.2434358757
 21
5.3476485875
  0
LINE
  5
334
100
AcDbEntity
  8
0
100
AcDbLine
 62
6
  6
CONTINUOUS
 10
6.9379860117
 20
4.9251497864
 11
6.9585690923
 21
4.920017848
  0
LINE
  5
335
100
AcDbEntity
  8
0
100
AcDbLine
 62
6
  6
CONTINUOUS
 10
5.2603738567
 20
5.37504789
 11
5.2807652966
 21
5.3692007387
  0
LINE
  5
336
100
AcDbEntity
  8
0
100
AcDbLine
 62
6
  6
CONTINUOUS
 10
6.9595381629
 20
4.8878203655
 11
6.9799296028
 21
4.8819732142
  0
LINE
  5
337
100
AcDbEntity
  8
0
100
AcDbLine
 62
6
  6
CONTINUOUS
 10
5.2986491812
 20
5.3959922232
 11
5.3188241366
 21
5.3894369829
  0
LINE
  5
338
100
AcDbEntity
  8
0
100
AcDbLine
 62
6
  6
CONTINUOUS
 10
6.9797744071
 20
4.8497615255
 11
6.9999493624
 21
4.8432062852
  0
LINE
  5
339
100
AcDbEntity
  8
0
100
AcDbLine
 62
6
  6
CONTINUOUS
 10
5.3376321362
 20
5.4155880082
 11
5.3575660269
 21
5.4083326653
  0
LINE
  5
33A
100
AcDbEntity
  8
0
100
AcDbLine
 62
6
  6
CONTINUOUS
 10
6.9986700895
 20
4.8110196352
 11
7.0186039802
 21
4.8037642923
  0
LINE
  5
33B
100
AcDbEntity
  8
0
100
AcDbLine
 62
6
  6
CONTINUOUS
 10
5.3772752268
 20
5.4338113704
 11
5.3969437665
 21
5.4258647646
  0
LINE
  5
33C
100
AcDbEntity
  8
0
100
AcDbLine
 62
6
  6
CONTINUOUS
 10
7.0162021888
 20
4.7716418956
 11
7.0358707285
 21
4.7636952897
  0
LINE
  5
33D
100
AcDbEntity
  8
0
100
AcDbLine
 62
6
  6
CONTINUOUS
 10
5.4175301541
 20
5.4506401076
 11
5.4369093797
 21
5.4420119204
  0
LINE
  5
33E
100
AcDbEntity
  8
0
100
AcDbLine
 62
6
  6
CONTINUOUS
 10
7.0323493446
 20
4.7316762824
 11
7.0517285703
 21
4.7230480952
  0
LINE
  5
33F
100
AcDbEntity
  8
0
100
AcDbLine
 62
6
  6
CONTINUOUS
 10
5.4583478736
 20
5.4660537164
 11
5.4774141746
 21
5.4567544601
  0
LINE
  5
340
100
AcDbEntity
  8
0
100
AcDbLine
 62
6
  6
CONTINUOUS
 10
7.0470918843
 20
4.6911714875
 11
7.0661581852
 21
4.6818722312
  0
LINE
  5
341
100
AcDbEntity
  8
0
100
AcDbLine
 62
6
  6
CONTINUOUS
 10
5.4996786553
 20
5.4800334178
 11
5.5184088022
 21
5.470074422
  0
LINE
  5
342
100
AcDbEntity
  8
0
100
AcDbLine
 62
6
  6
CONTINUOUS
 10
7.0604118462
 20
4.6501768599
 11
7.0791419932
 21
4.6402178641
  0
LINE
  5
343
100
AcDbEntity
  8
0
100
AcDbLine
 62
6
  6
CONTINUOUS
 10
5.5414721439
 20
5.4925621797
 11
5.559843317
 21
5.481955578
  0
LINE
  5
344
100
AcDbEntity
  8
0
100
AcDbLine
 62
6
  6
CONTINUOUS
 10
7.0722930022
 20
4.6087423451
 11
7.0906641752
 21
4.5981357434
  0
LINE
  5
345
100
AcDbEntity
  8
0
100
AcDbLine
 62
6
  6
CONTINUOUS
 10
5.5836774206
 20
5.5036247377
 11
5.6016672374
 21
5.4923834525
  0
LINE
  5
346
100
AcDbEntity
  8
0
100
AcDbLine
 62
6
  6
CONTINUOUS
 10
7.0827208767
 20
4.5669184248
 11
7.1007106935
 21
4.5556771396
  0
LINE
  5
347
100
AcDbEntity
  8
0
100
AcDbLine
 62
6
  6
CONTINUOUS
 10
5.6262430646
 20
5.5132076137
 11
5.6438296073
 21
5.5013453409
  0
LINE
  5
348
100
AcDbEntity
  8
0
100
AcDbLine
 62
6
  6
CONTINUOUS
 10
7.0916827651
 20
4.5247560548
 11
7.1092693078
 21
4.512893782
  0
LINE
  5
349
100
AcDbEntity
  8
0
100
AcDbLine
 62
6
  6
CONTINUOUS
 10
5.6691172164
 20
5.5212991326
 11
5.6862790584
 21
5.5088303244
  0
LINE
  5
34A
100
AcDbEntity
  8
0
100
AcDbLine
 62
6
  6
CONTINUOUS
 10
7.0991677486
 20
4.4823066037
 11
7.1163295907
 21
4.4698377955
  0
LINE
  5
34B
100
AcDbEntity
  8
0
100
AcDbLine
 62
6
  6
CONTINUOUS
 10
5.7122476403
 20
5.527889436
 11
5.7289638727
 21
5.5148292839
  0
LINE
  5
34C
100
AcDbEntity
  8
0
100
AcDbLine
 62
6
  6
CONTINUOUS
 10
7.1051667081
 20
4.4396217894
 11
7.1218829405
 21
4.4265616373
  0
LINE
  5
34D
100
AcDbEntity
  8
0
100
AcDbLine
 62
6
  6
CONTINUOUS
 10
5.7555817886
 20
5.5329704947
 11
5.7718320452
 21
5.5193349104
  0
LINE
  5
34E
100
AcDbEntity
  8
0
100
AcDbLine
 62
6
  6
CONTINUOUS
 10
7.1096723346
 20
4.396753617
 11
7.1259225912
 21
4.3831180326
  0
LINE
  5
34F
100
AcDbEntity
  8
0
100
AcDbLine
 62
6
  6
CONTINUOUS
 10
5.7990668652
 20
5.5365361182
 11
5.8148313476
 21
5.5223417145
  0
LINE
  5
350
100
AcDbEntity
  8
0
100
AcDbLine
 62
6
  6
CONTINUOUS
 10
7.1126791387
 20
4.3537543145
 11
7.1284436211
 21
4.3395599108
  0
LINE
  5
351
100
AcDbEntity
  8
0
100
AcDbLine
 62
6
  6
CONTINUOUS
 10
5.8426498905
 20
5.5385819623
 11
5.857909392
 21
5.5238460329
  0
LINE
  5
352
100
AcDbEntity
  8
0
100
AcDbLine
 62
6
  6
CONTINUOUS
 10
7.1141834571
 20
4.3106762701
 11
7.1294429587
 21
4.2959403408
  0
LINE
  5
353
100
AcDbEntity
  8
0
100
AcDbLine
 62
6
  6
CONTINUOUS
 10
5.886277765
 20
5.5391055345
 11
5.9010136943
 21
5.5238460329
  0
LINE
  5
354
100
AcDbEntity
  8
0
100
AcDbLine
 62
6
  6
CONTINUOUS
 10
7.1141834571
 20
4.2675719678
 11
7.1289193865
 21
4.2523124663
  0
LINE
  5
355
100
AcDbEntity
  8
0
100
AcDbLine
 62
6
  6
CONTINUOUS
 10
5.929897335
 20
5.5381061969
 11
5.9440917387
 21
5.5223417145
  0
LINE
  5
356
100
AcDbEntity
  8
0
100
AcDbLine
 62
6
  6
CONTINUOUS
 10
7.1126791387
 20
4.2244939234
 11
7.1268735424
 21
4.208729441
  0
LINE
  5
357
100
AcDbEntity
  8
0
100
AcDbLine
 62
6
  6
CONTINUOUS
 10
5.9734554568
 20
5.535585167
 11
5.9870910412
 21
5.5193349104
  0
LINE
  5
358
100
AcDbEntity
  8
0
100
AcDbLine
 62
6
  6
CONTINUOUS
 10
7.1096723346
 20
4.181494621
 11
7.1233079189
 21
4.1652443644
  0
LINE
  5
359
100
AcDbEntity
  8
0
100
AcDbLine
 62
6
  6
CONTINUOUS
 10
6.0168990615
 20
5.5315455163
 11
6.0299592136
 21
5.5148292839
  0
LINE
  5
35A
100
AcDbEntity
  8
0
100
AcDbLine
 62
6
  6
CONTINUOUS
 10
7.1051667081
 20
4.1386264485
 11
7.1182268602
 21
4.1219102161
  0
LINE
  5
35B
100
AcDbEntity
  8
0
100
AcDbLine
 62
6
  6
CONTINUOUS
 10
6.0601752197
 20
5.5259921665
 11
6.0726440279
 21
5.5088303244
  0
LINE
  5
35C
100
AcDbEntity
  8
0
100
AcDbLine
 62
6
  6
CONTINUOUS
 10
7.0991677486
 20
4.0959416342
 11
7.1116365568
 21
4.0787797922
  0
LINE
  5
35D
100
AcDbEntity
  8
0
100
AcDbLine
 62
6
  6
CONTINUOUS
 10
6.1032312062
 20
5.5189318836
 11
6.115093479
 21
5.5013453409
  0
LINE
  5
35E
100
AcDbEntity
  8
0
100
AcDbLine
 62
6
  6
CONTINUOUS
 10
7.0916827651
 20
4.0534921831
 11
7.1035450379
 21
4.0359056404
  0
LINE
  5
35F
100
AcDbEntity
  8
0
100
AcDbLine
 62
6
  6
CONTINUOUS
 10
6.1460145638
 20
5.5103732693
 11
6.157255849
 21
5.4923834525
  0
LINE
  5
360
100
AcDbEntity
  8
0
100
AcDbLine
 62
6
  6
CONTINUOUS
 10
7.0827208767
 20
4.0113298132
 11
7.0939621619
 21
3.9933399964
  0
LINE
  5
361
100
AcDbEntity
  8
0
100
AcDbLine
 62
6
  6
CONTINUOUS
 10
6.1884731676
 20
5.500326751
 11
6.1990797693
 21
5.481955578
  0
LINE
  5
362
100
AcDbEntity
  8
0
100
AcDbLine
 62
6
  6
CONTINUOUS
 10
7.0722930022
 20
3.9695058928
 11
7.0828996039
 21
3.9511347197
  0
LINE
  5
363
100
AcDbEntity
  8
0
100
AcDbLine
 62
6
  6
CONTINUOUS
 10
6.2305552883
 20
5.488804569
 11
6.2405142841
 21
5.470074422
  0
LINE
  5
364
100
AcDbEntity
  8
0
100
AcDbLine
 62
6
  6
CONTINUOUS
 10
7.0604118462
 20
3.928071378
 11
7.070370842
 21
3.9093412311
  0
LINE
  5
365
100
AcDbEntity
  8
0
100
AcDbLine
 62
6
  6
CONTINUOUS
 10
6.2722096554
 20
5.475820761
 11
6.2815089117
 21
5.4567544601
  0
LINE
  5
366
100
AcDbEntity
  8
0
100
AcDbLine
 62
6
  6
CONTINUOUS
 10
7.0470918843
 20
3.8870767504
 11
7.0563911406
 21
3.8680104494
  0
LINE
  5
367
100
AcDbEntity
  8
0
100
AcDbLine
 62
6
  6
CONTINUOUS
 10
6.3133855194
 20
5.4613911461
 11
6.3220137066
 21
5.4420119204
  0
LINE
  5
368
100
AcDbEntity
  8
0
100
AcDbLine
 62
6
  6
CONTINUOUS
 10
7.0323493446
 20
3.8465719556
 11
7.0409775318
 21
3.8271927299
  0
LINE
  5
369
100
AcDbEntity
  8
0
100
AcDbLine
 62
6
  6
CONTINUOUS
 10
6.3540327139
 20
5.4455333043
 11
6.3619793198
 21
5.4258647646
  0
LINE
  5
36A
100
AcDbEntity
  8
0
100
AcDbLine
 62
6
  6
CONTINUOUS
 10
7.0162021888
 20
3.8066063423
 11
7.0241487946
 21
3.7869378026
  0
LINE
  5
36B
100
AcDbEntity
  8
0
100
AcDbLine
 62
6
  6
CONTINUOUS
 10
6.3941017165
 20
5.428266556
 11
6.4013570594
 21
5.4083326653
  0
LINE
  5
36C
100
AcDbEntity
  8
0
100
AcDbLine
 62
6
  6
CONTINUOUS
 10
6.9986700895
 20
3.7672286027
 11
7.0059254324
 21
3.747294712
  0
LINE
  5
36D
100
AcDbEntity
  8
0
100
AcDbLine
 62
6
  6
CONTINUOUS
 10
6.4335437094
 20
5.4096119382
 11
6.4400989497
 21
5.3894369829
  0
LINE
  5
36E
100
AcDbEntity
  8
0
100
AcDbLine
 62
6
  6
CONTINUOUS
 10
6.9797744071
 20
3.7284867124
 11
6.9863296474
 21
3.708311757
  0
LINE
  5
36F
100
AcDbEntity
  8
0
100
AcDbLine
 62
6
  6
CONTINUOUS
 10
6.4723106384
 20
5.3895921786
 11
6.4781577897
 21
5.3692007387
  0
LINE
  5
370
100
AcDbEntity
  8
0
100
AcDbLine
 62
6
  6
CONTINUOUS
 10
6.9595381629
 20
3.6904278724
 11
6.9653853142
 21
3.6700364325
  0
LINE
  5
371
100
AcDbEntity
  8
0
100
AcDbLine
 62
6
  6
CONTINUOUS
 10
6.5103552722
 20
5.3682316681
 11
6.5154872106
 21
5.3476485875
  0
LINE
  5
372
100
AcDbEntity
  8
0
100
AcDbLine
 62
6
  6
CONTINUOUS
 10
6.9379860117
 20
3.6530984515
 11
6.9431179501
 21
3.6325153709
  0
LINE
  5
373
100
AcDbEntity
  8
0
100
AcDbLine
 62
6
  6
CONTINUOUS
 10
6.5476312591
 20
5.3455564314
 11
6.5520417321
 21
5.3248067873
  0
LINE
  5
374
100
AcDbEntity
  8
0
100
AcDbLine
 62
6
  6
CONTINUOUS
 10
6.9151442115
 20
3.61654393
 11
6.9195546845
 21
3.595794286
  0
LINE
  5
375
100
AcDbEntity
  8
0
100
AcDbLine
 62
6
  6
CONTINUOUS
 10
6.5840931842
 20
5.3215940945
 11
6.5877768183
 21
5.3007031673
  0
LINE
  5
376
100
AcDbEntity
  8
0
100
AcDbLine
 62
6
  6
CONTINUOUS
 10
6.8910405915
 20
3.5808088438
 11
6.8947242256
 21
3.5599179166
  0
LINE
  5
377
100
AcDbEntity
  8
0
100
AcDbLine
 62
6
  6
CONTINUOUS
 10
6.6196966241
 20
5.2963738521
 11
6.6226489315
 21
5.2753670941
  0
LINE
  5
378
100
AcDbEntity
  8
0
100
AcDbLine
 62
6
  6
CONTINUOUS
 10
6.8657045183
 20
3.5459367307
 11
6.8686568256
 21
3.5249299727
  0
ARC
  5
379
100
AcDbEntity
  8
0
100
AcDbCircle
 62
6
  6
CONTINUOUS
 10
5.8789369654
 20
3.654317166
 40
0.6297783838
100
AcDbArc
 50
89.9522754917
 51
102.9738010635
  0
ARC
  5
37A
100
AcDbEntity
  8
0
100
AcDbCircle
 62
6
  6
CONTINUOUS
 10
5.6853781328
 20
3.9922962082
 40
0.2959165897
100
AcDbArc
 50
177.4864211554
 51
179.9991076504
  0
ARC
  5
37B
100
AcDbEntity
  8
0
100
AcDbCircle
 62
9
  6
CONTINUOUS
 10
5.6820163469
 20
3.9917416689
 40
0.2925895797
100
AcDbArc
 50
169.0444095662
 51
170.7759614567
  0
ARC
  5
37C
100
AcDbEntity
  8
0
100
AcDbCircle
 62
6
  6
CONTINUOUS
 10
5.6840679523
 20
4.0044272026
 40
0.2921548654
100
AcDbArc
 50
168.6794117713
 51
169.1506037127
  0
ARC
  5
37D
100
AcDbEntity
  8
0
100
AcDbCircle
 62
9
  6
CONTINUOUS
 10
5.6784816187
 20
3.9922437817
 40
0.2890200811
100
AcDbArc
 50
170.7618901834
 51
179.9886932218
  0
ARC
  5
37E
100
AcDbEntity
  8
0
100
AcDbCircle
 62
6
  6
CONTINUOUS
 10
5.8794615432
 20
4.289124119
 40
0.5475
100
AcDbArc
 50
28.4692271734
 51
207.2122768102
  0
ARC
  5
37F
100
AcDbEntity
  8
0
100
AcDbCircle
 62
6
  6
CONTINUOUS
 10
5.8794615432
 20
4.289124119
 40
0.5475
100
AcDbArc
 50
334.7590636219
 51
25.2409363781
  0
ARC
  5
380
100
AcDbEntity
  8
0
100
AcDbCircle
 62
6
  6
CONTINUOUS
 10
5.8794615432
 20
4.289124119
 40
1.25
100
AcDbArc
 50
269.6875658564
 51
270.3124341436
  0
ARC
  5
381
100
AcDbEntity
  8
0
100
AcDbCircle
 62
6
  6
CONTINUOUS
 10
5.8794615432
 20
4.289124119
 40
1.25
100
AcDbArc
 50
359.6875658564
 51
0.3124341436
  0
ARC
  5
382
100
AcDbEntity
  8
0
100
AcDbCircle
 62
6
  6
CONTINUOUS
 10
5.8794615432
 20
4.289124119
 40
1.25
100
AcDbArc
 50
89.6875658564
 51
90.3124341436
  0
ARC
  5
383
100
AcDbEntity
  8
0
100
AcDbCircle
 62
6
  6
CONTINUOUS
 10
5.8794615432
 20
4.289124119
 40
1.25
100
AcDbArc
 50
179.6875658564
 51
180.3124341436
  0
ARC
  5
384
100
AcDbEntity
  8
0
100
AcDbCircle
 62
6
  6
CONTINUOUS
 10
5.8794615432
 20
4.289124119
 40
1.25
100
AcDbArc
 50
337.6875658564
 51
359.6723445143
  0
ARC
  5
385
100
AcDbEntity
  8
0
100
AcDbCircle
 62
6
  6
CONTINUOUS
 10
5.8794615432
 20
4.289124119
 40
1.25
100
AcDbArc
 50
331.6875658564
 51
337.6795034889
  0
ARC
  5
386
100
AcDbEntity
  8
0
100
AcDbCircle
 62
6
  6
CONTINUOUS
 10
5.8794615432
 20
4.289124119
 40
1.25
100
AcDbArc
 50
320.325607144
 51
331.6781845752
  0
ARC
  5
387
100
AcDbEntity
  8
0
100
AcDbCircle
 62
6
  6
CONTINUOUS
 10
5.8794615432
 20
4.289124119
 40
1.25
100
AcDbArc
 50
309.6875658564
 51
320.3124341436
  0
ARC
  5
388
100
AcDbEntity
  8
0
100
AcDbCircle
 62
6
  6
CONTINUOUS
 10
5.8794615432
 20
4.289124119
 40
1.25
100
AcDbArc
 50
298.3218154248
 51
309.674392856
  0
ARC
  5
389
100
AcDbEntity
  8
0
100
AcDbCircle
 62
6
  6
CONTINUOUS
 10
5.8794615432
 20
4.289124119
 40
1.25
100
AcDbArc
 50
292.3204965111
 51
298.3124341436
  0
ARC
  5
38A
100
AcDbEntity
  8
0
100
AcDbCircle
 62
6
  6
CONTINUOUS
 10
5.8794615432
 20
4.289124119
 40
1.25
100
AcDbArc
 50
270.3276554857
 51
292.3124341436
  0
ARC
  5
38B
100
AcDbEntity
  8
0
100
AcDbCircle
 62
6
  6
CONTINUOUS
 10
5.8794615432
 20
4.289124119
 40
1.25
100
AcDbArc
 50
247.6875658564
 51
269.6723445143
  0
ARC
  5
38C
100
AcDbEntity
  8
0
100
AcDbCircle
 62
6
  6
CONTINUOUS
 10
5.8794615432
 20
4.289124119
 40
1.25
100
AcDbArc
 50
241.6875658564
 51
247.6795034889
  0
ARC
  5
38D
100
AcDbEntity
  8
0
100
AcDbCircle
 62
6
  6
CONTINUOUS
 10
5.8794615432
 20
4.289124119
 40
1.25
100
AcDbArc
 50
230.325607144
 51
241.6781845752
  0
ARC
  5
38E
100
AcDbEntity
  8
0
100
AcDbCircle
 62
6
  6
CONTINUOUS
 10
5.8794615432
 20
4.289124119
 40
1.25
100
AcDbArc
 50
219.6875658564
 51
230.3124341436
  0
ARC
  5
38F
100
AcDbEntity
  8
0
100
AcDbCircle
 62
6
  6
CONTINUOUS
 10
5.8794615432
 20
4.289124119
 40
1.25
100
AcDbArc
 50
208.3218154248
 51
219.674392856
  0
ARC
  5
390
100
AcDbEntity
  8
0
100
AcDbCircle
 62
6
  6
CONTINUOUS
 10
5.8794615432
 20
4.289124119
 40
1.25
100
AcDbArc
 50
202.3204965111
 51
208.3124341436
  0
ARC
  5
391
100
AcDbEntity
  8
0
100
AcDbCircle
 62
6
  6
CONTINUOUS
 10
5.8794615432
 20
4.289124119
 40
1.25
100
AcDbArc
 50
180.3276554857
 51
202.3124341436
  0
ARC
  5
392
100
AcDbEntity
  8
0
100
AcDbCircle
 62
6
  6
CONTINUOUS
 10
5.8794615432
 20
4.289124119
 40
1.25
100
AcDbArc
 50
0.3276554857
 51
22.3124341436
  0
ARC
  5
393
100
AcDbEntity
  8
0
100
AcDbCircle
 62
6
  6
CONTINUOUS
 10
5.8794615432
 20
4.289124119
 40
1.25
100
AcDbArc
 50
22.3204965111
 51
28.3124341436
  0
ARC
  5
394
100
AcDbEntity
  8
0
100
AcDbCircle
 62
6
  6
CONTINUOUS
 10
5.8794615432
 20
4.289124119
 40
1.25
100
AcDbArc
 50
28.3218154248
 51
39.674392856
  0
ARC
  5
395
100
AcDbEntity
  8
0
100
AcDbCircle
 62
6
  6
CONTINUOUS
 10
5.8794615432
 20
4.289124119
 40
1.25
100
AcDbArc
 50
39.6875658564
 51
50.3124341436
  0
ARC
  5
396
100
AcDbEntity
  8
0
100
AcDbCircle
 62
6
  6
CONTINUOUS
 10
5.8794615432
 20
4.289124119
 40
1.25
100
AcDbArc
 50
50.325607144
 51
61.6781845752
  0
ARC
  5
397
100
AcDbEntity
  8
0
100
AcDbCircle
 62
6
  6
CONTINUOUS
 10
5.8794615432
 20
4.289124119
 40
1.25
100
AcDbArc
 50
61.6875658564
 51
67.6795034889
  0
ARC
  5
398
100
AcDbEntity
  8
0
100
AcDbCircle
 62
6
  6
CONTINUOUS
 10
5.8794615432
 20
4.289124119
 40
1.25
100
AcDbArc
 50
67.6875658564
 51
89.6723445143
  0
ARC
  5
399
100
AcDbEntity
  8
0
100
AcDbCircle
 62
6
  6
CONTINUOUS
 10
5.8794615432
 20
4.289124119
 40
1.25
100
AcDbArc
 50
90.3276554857
 51
112.3124341436
  0
ARC
  5
39A
100
AcDbEntity
  8
0
100
AcDbCircle
 62
6
  6
CONTINUOUS
 10
5.8794615432
 20
4.289124119
 40
1.25
100
AcDbArc
 50
112.3204965111
 51
118.3124341436
  0
ARC
  5
39B
100
AcDbEntity
  8
0
100
AcDbCircle
 62
6
  6
CONTINUOUS
 10
5.8794615432
 20
4.289124119
 40
1.25
100
AcDbArc
 50
118.3218154248
 51
129.674392856
  0
ARC
  5
39C
100
AcDbEntity
  8
0
100
AcDbCircle
 62
6
  6
CONTINUOUS
 10
5.8794615432
 20
4.289124119
 40
1.25
100
AcDbArc
 50
129.6875658564
 51
140.3124341436
  0
ARC
  5
39D
100
AcDbEntity
  8
0
100
AcDbCircle
 62
6
  6
CONTINUOUS
 10
5.8794615432
 20
4.289124119
 40
1.25
100
AcDbArc
 50
140.325607144
 51
151.6781845752
  0
ARC
  5
39E
100
AcDbEntity
  8
0
100
AcDbCircle
 62
6
  6
CONTINUOUS
 10
5.8794615432
 20
4.289124119
 40
1.25
100
AcDbArc
 50
151.6875658564
 51
157.6795034889
  0
ARC
  5
39F
100
AcDbEntity
  8
0
100
AcDbCircle
 62
6
  6
CONTINUOUS
 10
5.8794615432
 20
4.289124119
 40
1.25
100
AcDbArc
 50
157.6875658564
 51
179.6723445143
  0
CIRCLE
  5
3A0
100
AcDbEntity
  8
0
100
AcDbCircle
 62
7
  6
CONTINUOUS
 10
5.8794615432
 20
4.289124119
 40
1.175
  0
CIRCLE
  5
3A1
100
AcDbEntity
  8
0
100
AcDbCircle
 62
6
  6
CONTINUOUS
 10
5.8794615432
 20
4.289124119
 40
1.075
  0
CIRCLE
  5
3A2
100
AcDbEntity
  8
0
100
AcDbCircle
 62
7
  6
CONTINUOUS
 10
5.8794615432
 20
4.289124119
 40
1.025
  0
ARC
  5
3A3
100
AcDbEntity
  8
0
100
AcDbCircle
 62
6
  6
CONTINUOUS
 10
5.8794615432
 20
4.289124119
 40
0.925
100
AcDbArc
 50
291.5764324668
 51
248.4237541473
  0
ARC
  5
3A4
100
AcDbEntity
  8
0
100
AcDbCircle
 62
6
  6
CONTINUOUS
 10
5.8794615432
 20
4.289124119
 40
0.875
100
AcDbArc
 50
299.9774321027
 51
240.0227787531
  0
ARC
  5
3A5
100
AcDbEntity
  8
0
100
AcDbCircle
 62
7
  6
CONTINUOUS
 10
5.8794615432
 20
4.289124119
 40
0.5475
100
AcDbArc
 50
25.2409363781
 51
28.4692271734
  0
ARC
  5
3A6
100
AcDbEntity
  8
0
100
AcDbCircle
 62
7
  6
CONTINUOUS
 10
5.8794615432
 20
4.289124119
 40
0.5475
100
AcDbArc
 50
151.5307728266
 51
154.7590636219
  0
ARC
  5
3A7
100
AcDbEntity
  8
0
100
AcDbCircle
 62
6
  6
CONTINUOUS
 10
5.8794615432
 20
4.289124119
 40
0.5475
100
AcDbArc
 50
332.7876792865
 51
333.0932171464
  0
ARC
  5
3A8
100
AcDbEntity
  8
0
100
AcDbCircle
 62
7
  6
CONTINUOUS
 10
5.8794615432
 20
4.289124119
 40
0.5475
100
AcDbArc
 50
333.0932171464
 51
334.7590636219
  0
ARC
  5
3A9
100
AcDbEntity
  8
0
100
AcDbCircle
 62
9
  6
CONTINUOUS
 10
5.8794615432
 20
4.289124119
 40
0.5175
100
AcDbArc
 50
340.7711902576
 51
199.2288097424
  0
ARC
  5
3AA
100
AcDbEntity
  8
0
100
AcDbCircle
 62
6
  6
CONTINUOUS
 10
5.8794615432
 20
4.289124119
 40
0.4875
100
AcDbArc
 50
0.0
 51
180.0
  0
ARC
  5
3AB
100
AcDbEntity
  8
0
100
AcDbCircle
 62
6
  6
CONTINUOUS
 10
5.879986112
 20
3.6543171671
 40
0.6297783838
100
AcDbArc
 50
77.0261981228
 51
90.0477236975
  0
ARC
  5
3AC
100
AcDbEntity
  8
0
100
AcDbCircle
 62
9
  6
CONTINUOUS
 10
6.0814240392
 20
3.7030523181
 40
0.2880370859
100
AcDbArc
 50
354.2692983902
 51
359.9988212619
  0
ARC
  5
3AD
100
AcDbEntity
  8
0
100
AcDbCircle
 62
6
  6
CONTINUOUS
 10
6.0736853697
 20
3.992299304
 40
0.2957761735
100
AcDbArc
 50
0.0002930696
 51
2.5141571653
  0
SPLINE
  5
3AE
100
AcDbEntity
  8
0
100
AcDbSpline
 62
6
  6
CONTINUOUS
 70
0
 71
3
 72
33
 73
29
 74
27
 42
0.0000001
 43
0.0000001
 44
0.0000000001
 12
0.5481943844
 22
0.1125014805
 32
0.0
 13
0.0
 23
0.5596192154
 33
0.0
 40
0.0
 40
0.0
 40
0.0
 40
0.0
 40
0.0700821739
 40
0.1394298781
 40
0.2078983237
 40
0.2753628397
 40
0.308691327
 40
0.3417327277
 40
0.3744786187
 40
0.4069222264
 40
0.4708729233
 40
0.533582585
 40
0.5644839168
 40
0.5950852948
 40
0.6253945237
 40
0.6554216293
 40
0.6851787406
 40
0.7146800665
 40
0.7439416843
 40
0.7729817007
 40
0.8018199371
 40
0.830477964
 40
0.8589784504
 40
0.8873452769
 40
0.9156042746
 40
0.9437827564
 40
0.9719070127
 40
1.0
 40
1.0
 40
1.0
 40
1.0
 10
6.0051019296
 20
3.3356767485
 30
0.0
 10
6.0179081476
 20
3.3383048646
 30
0.0
 10
6.0432259847
 20
3.3443563216
 30
0.0
 10
6.0802944349
 20
3.3558485901
 30
0.0
 10
6.1160475155
 20
3.3696447579
 30
0.0
 10
6.1446679778
 20
3.3830467855
 30
0.0
 10
6.1666741539
 20
3.3948465212
 30
0.0
 10
6.1826406054
 20
3.4041780348
 30
0.0
 10
6.198107952
 20
3.4140114186
 30
0.0
 10
6.2179334136
 20
3.4277045452
 30
0.0
 10
6.2413595429
 20
3.4459807479
 30
0.0
 10
6.2630172214
 20
3.4659043632
 30
0.0
 10
6.2790374564
 20
3.4826527484
 30
0.0
 10
6.2903326931
 20
3.495534185
 30
0.0
 10
6.3009446745
 20
3.50877565
 30
0.0
 10
6.3108548586
 20
3.5223560379
 30
0.0
 10
6.3200450741
 20
3.5362535184
 30
0.0
 10
6.3284979929
 20
3.5504456404
 30
0.0
 10
6.336198203
 20
3.564908684
 30
0.0
 10
6.3431300204
 20
3.5796188925
 30
0.0
 10
6.3492807784
 20
3.5945508928
 30
0.0
 10
6.3546371446
 20
3.6096793549
 30
0.0
 10
6.3591890255
 20
3.6249774156
 30
0.0
 10
6.3629264995
 20
3.6404181229
 30
0.0
 10
6.3658417645
 20
3.655973905
 30
0.0
 10
6.367928777
 20
3.6716168559
 30
0.0
 10
6.3691823447
 20
3.6873170623
 30
0.0
 10
6.3694615432
 20
3.697805934
 30
0.0
 10
6.3694615432
 20
3.7030463925
 30
0.0
 11
6.0051019296
 21
3.3356767485
 31
0.0
 11
6.0432438003
 21
3.3448065696
 31
0.0
 11
6.0803069498
 21
3.3563134243
 31
0.0
 11
6.1160472911
 21
3.3701251446
 31
0.0
 11
6.1502295341
 21
3.3861554897
 31
0.0
 11
6.1666654682
 21
3.3949719313
 31
0.0
 11
6.1826279722
 21
3.4043047152
 31
0.0
 11
6.1980907379
 21
3.4141391914
 31
0.0
 11
6.2130278933
 21
3.4244602443
 31
0.0
 11
6.241226402
 21
3.4464972094
 31
0.0
 11
6.2670331781
 21
3.4702788467
 31
0.0
 11
6.2789837823
 21
3.4827780541
 31
0.0
 11
6.2902713057
 21
3.4956567776
 31
0.0
 11
6.3008756454
 21
3.5088947822
 31
0.0
 11
6.3107779576
 21
3.5224708667
 31
0.0
 11
6.3199602422
 21
3.5363631827
 31
0.0
 11
6.3284054649
 21
3.5505491651
 31
0.0
 11
6.3360979343
 21
3.5650052519
 31
0.0
 11
6.3430226445
 21
3.579707456
 31
0.0
 11
6.3491664236
 21
3.5946306909
 31
0.0
 11
6.3545167342
 21
3.6097494948
 31
0.0
 11
6.3590630497
 21
3.6250372353
 31
0.0
 11
6.3627958274
 21
3.6404667514
 31
0.0
 11
6.3657073367
 21
3.6560107054
 31
0.0
 11
6.3677915285
 21
3.6716415864
 31
0.0
 11
6.3690436991
 21
3.6873305708
 31
0.0
 11
6.3694615432
 21
3.7030463925
 31
0.0
  0
SPLINE
  5
3AF
100
AcDbEntity
  8
0
100
AcDbSpline
 62
6
  6
CONTINUOUS
 70
0
 71
3
 72
19
 73
15
 74
13
 42
0.0000001
 43
0.0000001
 44
0.0000000001
 12
0.0932995698
 22
-0.0191503654
 32
0.0
 13
0.095244665
 23
0.0
 33
0.0
 40
0.0
 40
0.0
 40
0.0
 40
0.0
 40
0.0306051614
 40
0.0613754978
 40
0.1232601448
 40
0.1854506484
 40
0.2478329853
 40
0.3103391374
 40
0.3729262778
 40
0.4982398532
 40
0.6236469582
 40
0.7490897687
 40
0.8745437327
 40
1.0
 40
1.0
 40
1.0
 40
1.0
 10
5.7538211354
 20
3.3356767164
 30
0.0
 10
5.7547729516
 20
3.3354813498
 30
0.0
 10
5.7566872227
 20
3.335116059
 30
0.0
 10
5.7605469471
 20
3.3344693853
 30
0.0
 10
5.7654175537
 20
3.3337949677
 30
0.0
 10
5.7713022213
 20
3.3331471242
 30
0.0
 10
5.7772191599
 20
3.3326263449
 30
0.0
 10
5.7831567239
 20
3.3322083285
 30
0.0
 10
5.7910944557
 20
3.3317635393
 30
0.0
 10
5.8010348264
 20
3.3313817695
 30
0.0
 10
5.8129746572
 20
3.3311147898
 30
0.0
 10
5.8249210027
 20
3.3309773287
 30
0.0
 10
5.8368694622
 20
3.330922055
 30
0.0
 10
5.8448354229
 20
3.3309157965
 30
0.0
 10
5.8488184363
 20
3.3309157965
 30
0.0
 11
5.7538211354
 21
3.3356767164
 31
0.0
 11
5.7566839656
 21
3.3351278063
 31
0.0
 11
5.7595740853
 21
3.3346417286
 31
0.0
 11
5.7654111971
 21
3.333823491
 31
0.0
 11
5.7712982673
 21
3.3331692365
 31
0.0
 11
5.777216587
 21
3.3326439533
 31
0.0
 11
5.7831550401
 21
3.3322226715
 31
0.0
 11
5.7891066495
 21
3.3318865856
 31
0.0
 11
5.8010327294
 21
3.3314137495
 31
0.0
 11
5.8129738669
 21
3.3311364104
 31
0.0
 11
5.8249207408
 21
3.3309910322
 31
0.0
 11
5.8368694042
 21
3.3309297032
 31
0.0
 11
5.8488184363
 21
3.3309157965
 31
0.0
  0
SPLINE
  5
3B0
100
AcDbEntity
  8
0
100
AcDbSpline
 62
6
  6
CONTINUOUS
 70
0
 71
3
 72
33
 73
29
 74
27
 42
0.0000001
 43
0.0000001
 44
0.0000000001
 12
0.0
 22
-0.5596192129
 32
0.0
 13
0.548194378
 23
-0.1125014994
 33
0.0
 40
0.0
 40
0.0
 40
0.0
 40
0.0
 40
0.0280929731
 40
0.056217202
 40
0.0843956587
 40
0.1126546434
 40
0.1410214638
 40
0.1695219462
 40
0.1981799703
 40
0.2270182076
 40
0.256058228
 40
0.285319852
 40
0.3148211861
 40
0.3445783071
 40
0.3746054237
 40
0.4049146645
 40
0.4355160548
 40
0.4664173991
 40
0.5291270849
 40
0.593077803
 40
0.6255214193
 40
0.6582673177
 40
0.6913087236
 40
0.7246372144
 40
0.7921017309
 40
0.8605701685
 40
0.929917852
 40
1.0
 40
1.0
 40
1.0
 40
1.0
 10
5.3894615432
 20
3.7030463925
 30
0.0
 10
5.3894615432
 20
3.6978059367
 30
0.0
 10
5.3897407402
 20
3.6873170728
 30
0.0
 10
5.3909943059
 20
3.6716168788
 30
0.0
 10
5.3930813176
 20
3.6559739402
 30
0.0
 10
5.3959965767
 20
3.6404181654
 30
0.0
 10
5.3997340497
 20
3.6249774624
 30
0.0
 10
5.4042859248
 20
3.6096794026
 30
0.0
 10
5.4096422902
 20
3.5945509414
 30
0.0
 10
5.4157930453
 20
3.5796189396
 30
0.0
 10
5.4227248608
 20
3.5649087279
 30
0.0
 10
5.4304250714
 20
3.5504456809
 30
0.0
 10
5.4388779895
 20
3.5362535533
 30
0.0
 10
5.4480682074
 20
3.522356068
 30
0.0
 10
5.4579783934
 20
3.508775674
 30
0.0
 10
5.4685903778
 20
3.4955342031
 30
0.0
 10
5.4798856186
 20
3.4826527611
 30
0.0
 10
5.4959058588
 20
3.4659043684
 30
0.0
 10
5.5175635454
 20
3.445980746
 30
0.0
 10
5.5409896836
 20
3.4277045386
 30
0.0
 10
5.5608151499
 20
3.4140114069
 30
0.0
 10
5.5762825014
 20
3.4041780234
 30
0.0
 10
5.5922489551
 20
3.3948465077
 30
0.0
 10
5.6142551338
 20
3.3830467734
 30
0.0
 10
5.6428755954
 20
3.3696447466
 30
0.0
 10
5.6786286717
 20
3.355848583
 30
0.0
 10
5.7156971122
 20
3.3443563178
 30
0.0
 10
5.7410149411
 20
3.3383048651
 30
0.0
 10
5.7538211543
 20
3.3356767495
 30
0.0
 11
5.3894615432
 21
3.7030463925
 31
0.0
 11
5.3898793859
 21
3.6873305788
 31
0.0
 11
5.3911315545
 21
3.6716416097
 31
0.0
 11
5.3932157441
 21
3.6560107426
 31
0.0
 11
5.3961272492
 21
3.6404667953
 31
0.0
 11
5.3998600246
 21
3.6250372822
 31
0.0
 11
5.4044063359
 21
3.6097495429
 31
0.0
 11
5.4097566442
 21
3.59463074
 31
0.0
 11
5.415900421
 21
3.5797075036
 31
0.0
 11
5.4228251296
 21
3.5650052964
 31
0.0
 11
5.430517599
 21
3.5505492057
 31
0.0
 11
5.4389628217
 21
3.5363632181
 31
0.0
 11
5.4481451081
 21
3.5224708969
 31
0.0
 11
5.4580474225
 21
3.5088948065
 31
0.0
 11
5.4686517653
 21
3.4956567959
 31
0.0
 11
5.4799392927
 21
3.4827780668
 31
0.0
 11
5.491889901
 21
3.4702788538
 31
0.0
 11
5.517696687
 21
3.4464972075
 31
0.0
 11
5.5458952055
 21
3.424460236
 31
0.0
 11
5.5608323646
 21
3.4141391802
 31
0.0
 11
5.5762951347
 21
3.4043047032
 31
0.0
 11
5.5922576413
 21
3.3949719181
 31
0.0
 11
5.6086935776
 21
3.3861554767
 31
0.0
 11
5.6428758213
 21
3.370125133
 31
0.0
 11
5.6786161589
 21
3.356313416
 31
0.0
 11
5.7156792975
 21
3.3448065659
 31
0.0
 11
5.7538211543
 21
3.3356767495
 31
0.0
  0
SPLINE
  5
3B1
100
AcDbEntity
  8
0
100
AcDbSpline
 62
6
  6
CONTINUOUS
 70
0
 71
3
 72
31
 73
27
 74
25
 42
0.0000001
 43
0.0000001
 44
0.0000000001
 12
-0.0295146715
 22
0.6724274637
 32
0.0
 13
-0.6730748917
 23
0.0
 33
0.0
 40
0.0
 40
0.0
 40
0.0
 40
0.0
 40
0.0274268066
 40
0.0549157106
 40
0.0825022765
 40
0.1102226736
 40
0.138110308
 40
0.1661962172
 40
0.1945097359
 40
0.2230776019
 40
0.251923748
 40
0.2810690417
 40
0.3105312409
 40
0.3403248033
 40
0.3704607799
 40
0.4009468509
 40
0.4629656045
 40
0.5263938175
 40
0.5911747732
 40
0.6572054079
 40
0.7243417107
 40
0.792404861
 40
0.8267267782
 40
0.861200499
 40
0.9304752569
 40
1.0
 40
1.0
 40
1.0
 40
1.0
 10
6.3691768329
 20
4.0052738926
 30
0.0
 10
6.3689070019
 20
4.0114214053
 30
0.0
 10
6.3679829367
 20
4.0237169372
 30
0.0
 10
6.3654505489
 20
4.0420643149
 30
0.0
 10
6.3617793851
 20
4.0602859451
 30
0.0
 10
6.3569793661
 20
4.0783354218
 30
0.0
 10
6.3510655093
 20
4.0961691031
 30
0.0
 10
6.3440533798
 20
4.1137432596
 30
0.0
 10
6.3359635974
 20
4.1310164519
 30
0.0
 10
6.3268171682
 20
4.1479478892
 30
0.0
 10
6.3166392503
 20
4.1644991576
 30
0.0
 10
6.3054554827
 20
4.1806323993
 30
0.0
 10
6.2932948956
 20
4.1963121849
 30
0.0
 10
6.2801873243
 20
4.2115036039
 30
0.0
 10
6.2661648244
 20
4.2261743411
 30
0.0
 10
6.2461822923
 20
4.245103591
 30
0.0
 10
6.2190526719
 20
4.2672832683
 30
0.0
 10
6.1836209992
 20
4.2911760857
 30
0.0
 10
6.1454455707
 20
4.3123065693
 30
0.0
 10
6.10487507
 20
4.3304964851
 30
0.0
 10
6.0622769069
 20
4.3455935344
 30
0.0
 10
6.0255043408
 20
4.3554651938
 30
0.0
 10
5.995436666
 20
4.3617210705
 30
0.0
 10
5.9648854915
 20
4.3668812398
 30
0.0
 10
5.9262123196
 20
4.3711917739
 30
0.0
 10
5.8950599961
 20
4.3723417052
 30
0.0
 10
5.8794615432
 20
4.3723417052
 30
0.0
 11
6.3691768329
 21
4.0052738926
 31
0.0
 11
6.3677940221
 21
4.0236823233
 31
0.0
 11
6.3652663337
 21
4.0420109394
 31
0.0
 11
6.3616015371
 21
4.0602135047
 31
0.0
 11
6.3568098687
 21
4.0782456224
 31
0.0
 11
6.3509053819
 21
4.0960632387
 31
0.0
 11
6.3439042406
 21
4.1136229147
 31
0.0
 11
6.3358260026
 21
4.1308831534
 31
0.0
 11
6.3266920416
 21
4.1478035194
 31
0.0
 11
6.3165266471
 21
4.1643453127
 31
0.0
 11
6.3053557188
 21
4.1804709349
 31
0.0
 11
6.2932076275
 21
4.1961445864
 31
0.0
 11
6.2801122454
 21
4.2113316124
 31
0.0
 11
6.2661015786
 21
4.2259990085
 31
0.0
 11
6.2512090931
 21
4.2401149577
 31
0.0
 11
6.2189214823
 21
4.2665726678
 31
0.0
 11
6.1835504236
 21
4.2904785196
 31
0.0
 11
6.1454211267
 21
4.3116286739
 31
0.0
 11
6.1048812238
 21
4.3298425835
 31
0.0
 11
6.0622987153
 21
4.3449642106
 31
0.0
 11
6.0180594723
 21
4.3568634475
 31
0.0
 11
5.9954430667
 21
4.3615713766
 31
0.0
 11
5.9725640154
 21
4.3654374586
 31
0.0
 11
5.9262249189
 21
4.3706118778
 31
0.0
 11
5.8794615432
 21
4.3723417052
 31
0.0
  0
SPLINE
  5
3B2
100
AcDbEntity
  8
0
100
AcDbSpline
 62
6
  6
CONTINUOUS
 70
0
 71
3
 72
31
 73
27
 74
25
 42
0.0000001
 43
0.0000001
 44
0.0000000001
 12
-0.6730748122
 22
0.0
 32
0.0
 13
-0.029514893
 23
-0.6724273744
 33
0.0
 40
0.0
 40
0.0
 40
0.0
 40
0.0
 40
0.0695247905
 40
0.1387995969
 40
0.1732733286
 40
0.207595259
 40
0.2756584248
 40
0.3427947299
 40
0.4088253564
 40
0.4736062941
 40
0.5370344821
 40
0.5990532055
 40
0.6295392606
 40
0.6596752212
 40
0.6894687679
 40
0.7189309523
 40
0.7480762324
 40
0.7769223668
 40
0.8054902232
 40
0.8338037352
 40
0.8618896409
 40
0.8897772757
 40
0.9174976744
 40
0.9450842473
 40
0.9725731707
 40
1.0
 40
1.0
 40
1.0
 40
1.0
 10
5.8794615432
 20
4.3723417052
 30
0.0
 10
5.8638630814
 20
4.3723417052
 30
0.0
 10
5.8327107402
 20
4.3711917716
 30
0.0
 10
5.7940375489
 20
4.3668812354
 30
0.0
 10
5.7634863628
 20
4.3617210585
 30
0.0
 10
5.7334186831
 20
4.35546518
 30
0.0
 10
5.6966461158
 20
4.3455935151
 30
0.0
 10
5.6540479575
 20
4.3304964621
 30
0.0
 10
5.6134774684
 20
4.3123065461
 30
0.0
 10
5.5753020565
 20
4.2911760671
 30
0.0
 10
5.5398704032
 20
4.2672832595
 30
0.0
 10
5.5127407981
 20
4.2451035952
 30
0.0
 10
5.4927582789
 20
4.2261743569
 30
0.0
 10
5.4787357861
 20
4.211503631
 30
0.0
 10
5.4656282221
 20
4.1963122226
 30
0.0
 10
5.4534676398
 20
4.1806324487
 30
0.0
 10
5.4422838758
 20
4.1644992184
 30
0.0
 10
5.4321059596
 20
4.1479479608
 30
0.0
 10
5.42295953
 20
4.1310165335
 30
0.0
 10
5.4148697455
 20
4.1137433496
 30
0.0
 10
5.4078576124
 20
4.0961691993
 30
0.0
 10
5.4019437503
 20
4.0783355224
 30
0.0
 10
5.3971437254
 20
4.0602860475
 30
0.0
 10
5.3934725536
 20
4.0420644147
 30
0.0
 10
5.39094016
 20
4.0237170288
 30
0.0
 10
5.3900160908
 20
4.0114214893
 30
0.0
 10
5.3897462575
 20
4.0052739723
 30
0.0
 11
5.8794615432
 21
4.3723417052
 31
0.0
 11
5.832698141
 21
4.3706118756
 31
0.0
 11
5.7863590179
 21
4.3654374512
 31
0.0
 11
5.7634799626
 21
4.3615713652
 31
0.0
 11
5.7408635512
 21
4.3568634335
 31
0.0
 11
5.6966243046
 21
4.3449641906
 31
0.0
 11
5.6540418015
 21
4.3298425598
 31
0.0
 11
5.6135019105
 21
4.3116286501
 31
0.0
 11
5.5753726305
 21
4.2904785006
 31
0.0
 11
5.5400015914
 21
4.2665726591
 31
0.0
 11
5.5077140003
 21
4.2401149646
 31
0.0
 11
5.4928215242
 21
4.2259990247
 31
0.0
 11
5.4788108651
 21
4.2113316395
 31
0.0
 11
5.46571549
 21
4.1961446244
 31
0.0
 11
5.4535674038
 21
4.1804709847
 31
0.0
 11
5.4423964791
 21
4.1643453739
 31
0.0
 11
5.4322310862
 21
4.1478035915
 31
0.0
 11
5.4230971249
 21
4.1308832355
 31
0.0
 11
5.4150188849
 21
4.1136230053
 31
0.0
 11
5.4080177399
 21
4.0960633356
 31
0.0
 11
5.4021132478
 21
4.0782457233
 31
0.0
 11
5.3973215734
 21
4.0602136083
 31
0.0
 11
5.3936567698
 21
4.0420110418
 31
0.0
 11
5.3911290747
 21
4.0236824157
 31
0.0
 11
5.3897462575
 21
4.0052739723
 31
0.0
  0
SPLINE
  5
3B3
100
AcDbEntity
  8
0
100
AcDbSpline
 62
6
  6
CONTINUOUS
 70
0
 71
3
 72
19
 73
15
 74
13
 42
0.0000001
 43
0.0000001
 44
0.0000000001
 12
0.0952446611
 22
0.0
 32
0.0
 13
0.0932996048
 23
0.019150175
 33
0.0
 40
0.0
 40
0.0
 40
0.0
 40
0.0
 40
0.1254563109
 40
0.2509103195
 40
0.3763531788
 40
0.5017603353
 40
0.6270739749
 40
0.6896611466
 40
0.7521673266
 40
0.8145496762
 40
0.8767401512
 40
0.9386247032
 40
0.9693949743
 40
1.0
 40
1.0
 40
1.0
 40
1.0
 10
5.9101046501
 20
3.3309157965
 30
0.0
 10
5.9140876647
 20
3.3309157965
 30
0.0
 10
5.9220536278
 20
3.330922055
 30
0.0
 10
5.9340020911
 20
3.3309773291
 30
0.0
 10
5.9459484408
 20
3.3311147894
 30
0.0
 10
5.9578882763
 20
3.3313817706
 30
0.0
 10
5.9678286513
 20
3.3317635393
 30
0.0
 10
5.9757663866
 20
3.3322083292
 30
0.0
 10
5.9817039526
 20
3.3326263458
 30
0.0
 10
5.9876208913
 20
3.3331471261
 30
0.0
 10
5.9935055551
 20
3.3337949711
 30
0.0
 10
5.9983761544
 20
3.334469394
 30
0.0
 10
6.0022358713
 20
3.3351160557
 30
0.0
 10
6.004150134
 20
3.3354813557
 30
0.0
 10
6.0051019463
 20
3.3356767195
 30
0.0
 11
5.9101046501
 21
3.3309157965
 31
0.0
 11
5.9220536858
 21
3.3309297032
 31
0.0
 11
5.9340023529
 21
3.3309910323
 31
0.0
 11
5.945949231
 21
3.3311364103
 31
0.0
 11
5.9578903729
 21
3.3314137501
 31
0.0
 11
5.9698164584
 21
3.3318865859
 31
0.0
 11
5.9757680706
 21
3.3322226721
 31
0.0
 11
5.9817065261
 21
3.3326439543
 31
0.0
 11
5.9876248466
 21
3.3331692386
 31
0.0
 11
5.9935119136
 21
3.3338234955
 31
0.0
 11
5.999349016
 21
3.3346417332
 31
0.0
 11
6.0022391298
 21
3.3351278073
 31
0.0
 11
6.0051019463
 21
3.3356767195
 31
0.0
  0
SPLINE
  5
3B4
100
AcDbEntity
  8
0
100
AcDbSpline
 62
9
  6
CONTINUOUS
 70
0
 71
3
 72
33
 73
29
 74
27
 42
0.0000001
 43
0.0000001
 44
0.0000000001
 12
0.5255012644
 22
-0.1218074468
 32
0.0
 13
0.0000000044
 23
-0.5394336225
 33
0.0
 40
0.0
 40
0.0
 40
0.0
 40
0.0
 40
0.0708395543
 40
0.1408721155
 40
0.1755278276
 40
0.2099195526
 40
0.2778494219
 40
0.3113731548
 40
0.3445838737
 40
0.4100190033
 40
0.4741183031
 40
0.5056671398
 40
0.5368791095
 40
0.5677572548
 40
0.5983069884
 40
0.6584414784
 40
0.6880634611
 40
0.7174029051
 40
0.7464770386
 40
0.7753049022
 40
0.8039079664
 40
0.8323097992
 40
0.8605353964
 40
0.888611443
 40
0.916566283
 40
0.9444291297
 40
0.9722300704
 40
1.0
 40
1.0
 40
1.0
 40
1.0
 10
6.0213734877
 20
4.0623212364
 30
0.0
 10
6.0337822461
 20
4.0594449746
 30
0.0
 10
6.0582849931
 20
4.0529452316
 30
0.0
 10
6.0882287069
 20
4.0428948249
 30
0.0
 10
6.1115136379
 20
4.0337603636
 30
0.0
 10
6.1341301808
 20
4.0239979031
 30
0.0
 10
6.1560536554
 20
4.0131736036
 30
0.0
 10
6.1771674968
 20
4.0013103249
 30
0.0
 10
6.1974576643
 20
3.9889277889
 30
0.0
 10
6.2215862859
 20
3.9723195251
 30
0.0
 10
6.2441459798
 20
3.9541026638
 30
0.0
 10
6.2610024517
 20
3.9387260761
 30
0.0
 10
6.2729728276
 20
3.9268783721
 30
0.0
 10
6.2843173339
 20
3.9146735665
 30
0.0
 10
6.2985063585
 20
3.8980403619
 30
0.0
 10
6.3114704023
 20
3.8806802821
 30
0.0
 10
6.3230845619
 20
3.8626814892
 30
0.0
 10
6.331046797
 20
3.8489929436
 30
0.0
 10
6.3382904052
 20
3.8350719429
 30
0.0
 10
6.344803067
 20
3.8209397189
 30
0.0
 10
6.350573904
 20
3.8066188396
 30
0.0
 10
6.3555949189
 20
3.7921326027
 30
0.0
 10
6.3598576294
 20
3.7775039156
 30
0.0
 10
6.3633538355
 20
3.7627558236
 30
0.0
 10
6.366079299
 20
3.7479123262
 30
0.0
 10
6.3680298838
 20
3.732996961
 30
0.0
 10
6.3692009254
 20
3.7180339565
 30
0.0
 10
6.369461125
 20
3.7080397371
 30
0.0
 10
6.369461125
 20
3.7030463925
 30
0.0
 11
6.0213734877
 21
4.0623212364
 31
0.0
 11
6.0583062467
 21
4.0525119132
 31
0.0
 11
6.0941151573
 21
4.0404747612
 31
0.0
 11
6.1115176627
 21
4.0336457422
 31
0.0
 11
6.1285495726
 21
4.0262909676
 31
0.0
 11
6.1613972268
 21
4.010049382
 31
0.0
 11
6.1771614631
 21
4.0011885856
 31
0.0
 11
6.1924519292
 21
3.9918532712
 31
0.0
 11
6.2215129461
 21
3.9718183098
 31
0.0
 11
6.2483964377
 21
3.9500727639
 31
0.0
 11
6.2609672979
 21
3.938600932
 31
0.0
 11
6.2729311336
 21
3.9267542449
 31
0.0
 11
6.2842685188
 21
3.9145513896
 31
0.0
 11
6.294960913
 21
3.9020115177
 31
0.0
 11
6.3143458628
 21
3.8760022065
 31
0.0
 11
6.3230068104
 21
3.8625739001
 31
0.0
 11
6.330961538
 21
3.8488915687
 31
0.0
 11
6.3381978142
 21
3.8349771689
 31
0.0
 11
6.3447034619
 21
3.8208526722
 31
0.0
 11
6.350467989
 21
3.8065404993
 31
0.0
 11
6.3554829937
 21
3.7920636276
 31
0.0
 11
6.3597402044
 21
3.7774450695
 31
0.0
 11
6.363232141
 21
3.7627079613
 31
0.0
 11
6.3659540443
 21
3.7478758669
 31
0.0
 11
6.3679017392
 21
3.7329724416
 31
0.0
 11
6.369071273
 21
3.7180213525
 31
0.0
 11
6.369461125
 21
3.7030463925
 31
0.0
  0
SPLINE
  5
3B5
100
AcDbEntity
  8
0
100
AcDbSpline
 62
6
  6
CONTINUOUS
 70
0
 71
3
 72
35
 73
31
 74
29
 42
0.0000001
 43
0.0000001
 44
0.0000000001
 12
0.0
 22
-0.1142600256
 32
0.0
 13
-0.1142600256
 23
-0.0
 33
0.0
 40
0.0
 40
0.0
 40
0.0
 40
0.0
 40
0.0051902811
 40
0.010584155
 40
0.0162521332
 40
0.0221990919
 40
0.0284364042
 40
0.0349362215
 40
0.0485052584
 40
0.0626713036
 40
0.0772452088
 40
0.0921213077
 40
0.1072129541
 40
0.122473493
 40
0.1378620103
 40
0.153354555
 40
0.1689295022
 40
0.2002705609
 40
0.2318012854
 40
0.2634677007
 40
0.2952337653
 40
0.3270743021
 40
0.3589711632
 40
0.4228833904
 40
0.4869000037
 40
0.5509787948
 40
0.6150941503
 40
0.7433772196
 40
0.8716861486
 40
1.0
 40
1.0
 40
1.0
 40
1.0
 10
6.0213734877
 20
4.0623212364
 30
0.0
 10
6.0213734877
 20
4.0621235558
 30
0.0
 10
6.0213185736
 20
4.061719183
 30
0.0
 10
6.0210973958
 20
4.0611367793
 30
0.0
 10
6.0207581175
 20
4.0605811817
 30
0.0
 10
6.0203166882
 20
4.060061224
 30
0.0
 10
6.0197933642
 20
4.0595771011
 30
0.0
 10
6.0189979866
 20
4.0589662377
 30
0.0
 10
6.0178849867
 20
4.0582808192
 30
0.0
 10
6.0164391052
 20
4.0575663985
 30
0.0
 10
6.0149046258
 20
4.0569276903
 30
0.0
 10
6.0133072282
 20
4.0563549771
 30
0.0
 10
6.0116645734
 20
4.0558352005
 30
0.0
 10
6.0099875617
 20
4.0553625407
 30
0.0
 10
6.0082842862
 20
4.054929176
 30
0.0
 10
6.0065601431
 20
4.0545311865
 30
0.0
 10
6.0042343369
 20
4.0540402978
 30
0.0
 10
6.0012960192
 20
4.0534962238
 30
0.0
 10
5.9977394054
 20
4.0529329091
 30
0.0
 10
5.9941556203
 20
4.0524433709
 30
0.0
 10
5.9905520316
 20
4.0520164294
 30
0.0
 10
5.9869336824
 20
4.0516433557
 30
0.0
 10
5.9820913404
 20
4.0512081446
 30
0.0
 10
5.976019663
 20
4.0507668289
 30
0.0
 10
5.9687174886
 20
4.0503653257
 30
0.0
 10
5.9614027743
 20
4.0500653694
 30
0.0
 10
5.9516386224
 20
4.0497734315
 30
0.0
 10
5.9394252122
 20
4.0495682646
 30
0.0
 10
5.9247656279
 20
4.049474689
 30
0.0
 10
5.914991698
 20
4.0494654842
 30
0.0
 10
5.9101046501
 20
4.0494654842
 30
0.0
 11
6.0213734877
 21
4.0623212364
 31
0.0
 11
6.021298197
 21
4.0617329935
 31
0.0
 11
6.0210844563
 21
4.0611549401
 31
0.0
 11
6.0207504624
 21
4.0606000851
 31
0.0
 11
6.0203143406
 21
4.0600790116
 31
0.0
 11
6.0197939166
 21
4.0595921182
 31
0.0
 11
6.0192069375
 21
4.0591371311
 31
0.0
 11
6.0178933517
 21
4.0583135852
 31
0.0
 11
6.0164460108
 21
4.0575889397
 31
0.0
 11
6.0149103425
 21
4.0569449962
 31
0.0
 11
6.0133115897
 21
4.0563678332
 31
0.0
 11
6.0116681242
 21
4.0558458371
 31
0.0
 11
6.0099903493
 21
4.0553710163
 31
0.0
 11
6.0082865975
 21
4.0549364797
 31
0.0
 11
6.0065620118
 21
4.0545373104
 31
0.0
 11
6.0048209232
 21
4.0541691191
 31
0.0
 11
6.0013005502
 21
4.053512803
 31
0.0
 11
5.9977426578
 21
4.0529463589
 31
0.0
 11
5.994158035
 21
4.052454536
 31
0.0
 11
5.9905538444
 21
4.0520258828
 31
0.0
 11
5.9869350602
 21
4.0516514806
 31
0.0
 11
5.9833052504
 21
4.0513241816
 31
0.0
 11
5.9760223105
 21
4.0507885151
 31
0.0
 11
5.9687190518
 21
4.0503824285
 31
0.0
 11
5.9614036996
 21
4.0500789528
 31
0.0
 11
5.9540812368
 21
4.0498571226
 31
0.0
 11
5.939425977
 21
4.0495937184
 31
0.0
 11
5.9247657767
 21
4.0494879855
 31
0.0
 11
5.9101046501
 21
4.0494654842
 31
0.0
  0
SPLINE
  5
3B6
100
AcDbEntity
  8
0
100
AcDbSpline
 62
9
  6
CONTINUOUS
 70
0
 71
3
 72
67
 73
63
 74
61
 42
0.0000001
 43
0.0000001
 44
0.0000000001
 12
1.246528229
 22
-0.0623901512
 32
0.0
 13
-1.246528229
 23
-0.0623901512
 33
0.0
 40
0.0
 40
0.0
 40
0.0
 40
0.0
 40
0.0176795635
 40
0.0353273059
 40
0.0704388565
 40
0.0878774358
 40
0.1052177652
 40
0.1224459897
 40
0.1395484687
 40
0.1565125104
 40
0.1733268985
 40
0.1899812251
 40
0.2064662829
 40
0.2388910807
 40
0.2548264373
 40
0.2705694252
 40
0.2861178367
 40
0.3014714128
 40
0.3166316068
 40
0.3316013797
 40
0.3463858956
 40
0.3609920256
 40
0.3754283275
 40
0.3897055516
 40
0.4038359986
 40
0.4178336456
 40
0.4317142989
 40
0.4454949737
 40
0.4591940432
 40
0.4728310054
 40
0.4864260315
 40
0.499999984
 40
0.5135739365
 40
0.5271689626
 40
0.5408059247
 40
0.5545049939
 40
0.5682856687
 40
0.5821663215
 40
0.5961639682
 40
0.610294415
 40
0.6245716385
 40
0.6390079401
 40
0.6536140698
 40
0.6683985851
 40
0.6833683579
 40
0.6985285516
 40
0.713882127
 40
0.7294305383
 40
0.7451735255
 40
0.7611088812
 40
0.7935336776
 40
0.8100187343
 40
0.8266730607
 40
0.8434874486
 40
0.860451491
 40
0.877553972
 40
0.8947821983
 40
0.9121225297
 40
0.9295611131
 40
0.9646726825
 40
0.9823204333
 40
1.0
 40
1.0
 40
1.0
 40
1.0
 10
5.9101046501
 20
4.0494654842
 30
0.0
 10
5.9174506751
 20
4.0490978073
 30
0.0
 10
5.9321179043
 20
4.0480978874
 30
0.0
 10
5.9612678874
 20
4.0450487412
 30
0.0
 10
5.990136328
 20
4.0404274549
 30
0.0
 10
6.0185527756
 20
4.034243316
 30
0.0
 10
6.0395127757
 20
4.0288533759
 30
0.0
 10
6.0601197251
 20
4.0227149583
 30
0.0
 10
6.0803281992
 20
4.0158413436
 30
0.0
 10
6.1000925359
 20
4.0082462339
 30
0.0
 10
6.1193694105
 20
3.9999483467
 30
0.0
 10
6.1381166689
 20
3.9909649107
 30
0.0
 10
6.162213214
 20
3.978171527
 30
0.0
 10
6.1852359906
 20
3.9640330095
 30
0.0
 10
6.2069908209
 20
3.948595285
 30
0.0
 10
6.2224918624
 20
3.9365108838
 30
0.0
 10
6.2372338627
 20
3.9238805292
 30
0.0
 10
6.2511848197
 20
3.9107320547
 30
0.0
 10
6.2643146295
 20
3.8970954179
 30
0.0
 10
6.2765926759
 20
3.8829991722
 30
0.0
 10
6.2879924442
 20
3.868475235
 30
0.0
 10
6.298489222
 20
3.8535560191
 30
0.0
 10
6.3080577893
 20
3.8382732221
 30
0.0
 10
6.3166782556
 20
3.8226616598
 30
0.0
 10
6.3243314174
 20
3.8067557392
 30
0.0
 10
6.3309983268
 20
3.7905899223
 30
0.0
 10
6.3366660299
 20
3.7742009594
 30
0.0
 10
6.3413210728
 20
3.7576248357
 30
0.0
 10
6.3449516398
 20
3.7408981786
 30
0.0
 10
6.3475517577
 20
3.7240587072
 30
0.0
 10
6.3491140711
 20
3.7071435884
 30
0.0
 10
6.3496345602
 20
3.6901906603
 30
0.0
 10
6.3491140753
 20
3.6732377321
 30
0.0
 10
6.3475517606
 20
3.6563226135
 30
0.0
 10
6.3449516477
 20
3.6394831416
 30
0.0
 10
6.3413210838
 20
3.6227564839
 30
0.0
 10
6.3366660402
 20
3.6061803607
 30
0.0
 10
6.3309983424
 20
3.5897913965
 30
0.0
 10
6.3243314347
 20
3.5736255792
 30
0.0
 10
6.3166782735
 20
3.5577196589
 30
0.0
 10
6.3080578122
 20
3.5421080943
 30
0.0
 10
6.2984892453
 20
3.5268252976
 30
0.0
 10
6.2879924692
 20
3.5119060811
 30
0.0
 10
6.2765927051
 20
3.4973821411
 30
0.0
 10
6.2643146586
 20
3.4832858961
 30
0.0
 10
6.2511848511
 20
3.4696492579
 30
0.0
 10
6.2372338974
 20
3.4565007804
 30
0.0
 10
6.2224918969
 20
3.4438704271
 30
0.0
 10
6.2069908584
 20
3.4317860233
 30
0.0
 10
6.1852360312
 20
3.4163482966
 30
0.0
 10
6.1622132565
 20
3.4022097787
 30
0.0
 10
6.1381167145
 20
3.3894163916
 30
0.0
 10
6.1193694563
 20
3.3804329566
 30
0.0
 10
6.1000925835
 20
3.372135065
 30
0.0
 10
6.0803282462
 20
3.3645399536
 30
0.0
 10
6.0601197703
 20
3.3576663386
 30
0.0
 10
6.0395128199
 20
3.3515279161
 30
0.0
 10
6.0185528168
 20
3.3461379743
 30
0.0
 10
5.9901363594
 20
3.3399538316
 30
0.0
 10
5.961267906
 20
3.3353325423
 30
0.0
 10
5.9321179104
 20
3.3322833944
 30
0.0
 10
5.9174506764
 20
3.3312834735
 30
0.0
 10
5.9101046501
 20
3.3309157965
 30
0.0
 11
5.9101046501
 21
4.0494654842
 31
0.0
 11
5.9321191958
 21
4.0479644175
 31
0.0
 11
5.9540254832
 21
4.04567163
 31
0.0
 11
5.9972949447
 21
4.038732612
 31
0.0
 11
6.0185615604
 21
4.0341021069
 31
0.0
 11
6.0395213266
 21
4.0287098953
 31
0.0
 11
6.0601280048
 21
4.0225685689
 31
0.0
 11
6.0803353044
 21
4.0156916848
 31
0.0
 11
6.1000977285
 21
4.0080938738
 31
0.0
 11
6.1193719902
 21
3.999792755
 31
0.0
 11
6.1381151944
 21
3.9908064754
 31
0.0
 11
6.1562855795
 21
3.9811545316
 31
0.0
 11
6.1907497693
 21
3.9599422416
 31
0.0
 11
6.2069667548
 21
3.9484282832
 31
0.0
 11
6.2224592649
 21
3.9363431133
 31
0.0
 11
6.2371923716
 21
3.9237129727
 31
0.0
 11
6.2511336839
 21
3.9105658839
 31
0.0
 11
6.2642528393
 21
3.8969312939
 31
0.0
 11
6.2765199201
 21
3.8828388936
 31
0.0
 11
6.2879083183
 21
3.8683201151
 31
0.0
 11
6.2983931016
 21
3.8534072717
 31
0.0
 11
6.3079501101
 21
3.8381329755
 31
0.0
 11
6.316559043
 21
3.8225313214
 31
0.0
 11
6.3242008232
 21
3.8066368743
 31
0.0
 11
6.3308576851
 21
3.7904845463
 31
0.0
 11
6.3365159331
 21
3.7741103262
 31
0.0
 11
6.3411626757
 21
3.7575504139
 31
0.0
 11
6.3447870428
 21
3.7408413241
 31
0.0
 11
6.3473820725
 21
3.7240201801
 31
0.0
 11
6.3489413289
 21
3.7071241788
 31
0.0
 11
6.3494611543
 21
3.6901906603
 31
0.0
 11
6.3489413322
 21
3.6732571418
 31
0.0
 11
6.3473820764
 21
3.6563611404
 31
0.0
 11
6.3447870504
 21
3.639539996
 31
0.0
 11
6.3411626861
 21
3.6228309059
 31
0.0
 11
6.3365159444
 21
3.6062709935
 31
0.0
 11
6.3308577001
 21
3.5898967727
 31
0.0
 11
6.3242008403
 21
3.5737444442
 31
0.0
 11
6.3165590615
 21
3.5578499967
 31
0.0
 11
6.3079501323
 21
3.5422483414
 31
0.0
 11
6.2983931251
 21
3.5269740448
 31
0.0
 11
6.2879083436
 21
3.5120612006
 31
0.0
 11
6.2765199487
 21
3.4975424204
 31
0.0
 11
6.2642528687
 21
3.4834500198
 31
0.0
 11
6.2511337153
 21
3.4698154284
 31
0.0
 11
6.2371924059
 21
3.4566683378
 31
0.0
 11
6.2224592998
 21
3.4440381968
 31
0.0
 11
6.206966792
 21
3.4319530252
 31
0.0
 11
6.1907498091
 21
3.4204390652
 31
0.0
 11
6.1562856228
 21
3.399226773
 31
0.0
 11
6.1381152399
 21
3.3895748276
 31
0.0
 11
6.1193720363
 21
3.3805885475
 31
0.0
 11
6.1000977762
 21
3.3722874258
 31
0.0
 11
6.0803353518
 21
3.3646896128
 31
0.0
 11
6.0601280502
 21
3.3578127272
 31
0.0
 11
6.0395213707
 21
3.3516713973
 31
0.0
 11
6.0185616024
 21
3.3462791836
 31
0.0
 11
5.9972949819
 21
3.3416486762
 31
0.0
 11
5.9540254976
 21
3.3347096531
 31
0.0
 11
5.9321191997
 21
3.332416864
 31
0.0
 11
5.9101046501
 21
3.3309157965
 31
0.0
  0
SPLINE
  5
3B7
100
AcDbEntity
  8
0
100
AcDbSpline
 62
9
  6
CONTINUOUS
 70
0
 71
3
 72
67
 73
63
 74
61
 42
0.0000001
 43
0.0000001
 44
0.0000000001
 12
-1.246528229
 22
0.0623901512
 32
0.0
 13
1.246528229
 23
0.0623901512
 33
0.0
 40
0.0
 40
0.0
 40
0.0
 40
0.0
 40
0.0176795635
 40
0.0353273059
 40
0.0704388565
 40
0.0878774358
 40
0.1052177652
 40
0.1224459897
 40
0.1395484687
 40
0.1565125104
 40
0.1733268985
 40
0.1899812251
 40
0.2064662829
 40
0.2388910807
 40
0.2548264373
 40
0.2705694252
 40
0.2861178367
 40
0.3014714128
 40
0.3166316068
 40
0.3316013797
 40
0.3463858956
 40
0.3609920256
 40
0.3754283275
 40
0.3897055516
 40
0.4038359986
 40
0.4178336456
 40
0.4317142989
 40
0.4454949737
 40
0.4591940432
 40
0.4728310054
 40
0.4864260315
 40
0.499999984
 40
0.5135739365
 40
0.5271689626
 40
0.5408059247
 40
0.5545049939
 40
0.5682856687
 40
0.5821663215
 40
0.5961639682
 40
0.610294415
 40
0.6245716385
 40
0.6390079401
 40
0.6536140698
 40
0.6683985851
 40
0.6833683579
 40
0.6985285516
 40
0.713882127
 40
0.7294305383
 40
0.7451735255
 40
0.7611088812
 40
0.7935336776
 40
0.8100187343
 40
0.8266730607
 40
0.8434874486
 40
0.860451491
 40
0.877553972
 40
0.8947821983
 40
0.9121225297
 40
0.9295611131
 40
0.9646726825
 40
0.9823204333
 40
1.0
 40
1.0
 40
1.0
 40
1.0
 10
5.8488184363
 20
3.3309157965
 30
0.0
 10
5.8414724113
 20
3.3312834734
 30
0.0
 10
5.826805182
 20
3.3322833933
 30
0.0
 10
5.7976551989
 20
3.3353325395
 30
0.0
 10
5.7687867583
 20
3.3399538258
 30
0.0
 10
5.7403703107
 20
3.3461379647
 30
0.0
 10
5.7194103106
 20
3.3515279048
 30
0.0
 10
5.6988033612
 20
3.3576663224
 30
0.0
 10
5.6785948872
 20
3.3645399371
 30
0.0
 10
5.6588305504
 20
3.3721350468
 30
0.0
 10
5.6395536758
 20
3.380432934
 30
0.0
 10
5.6208064174
 20
3.38941637
 30
0.0
 10
5.5967098723
 20
3.4022097537
 30
0.0
 10
5.5736870958
 20
3.4163482713
 30
0.0
 10
5.5519322655
 20
3.4317859957
 30
0.0
 10
5.5364312239
 20
3.4438703969
 30
0.0
 10
5.5216892236
 20
3.4565007515
 30
0.0
 10
5.5077382666
 20
3.469649226
 30
0.0
 10
5.4946084568
 20
3.4832858628
 30
0.0
 10
5.4823304105
 20
3.4973821085
 30
0.0
 10
5.4709306421
 20
3.5119060457
 30
0.0
 10
5.4604338643
 20
3.5268252617
 30
0.0
 10
5.450865297
 20
3.5421080586
 30
0.0
 10
5.4422448307
 20
3.5577196209
 30
0.0
 10
5.434591669
 20
3.5736255415
 30
0.0
 10
5.4279247595
 20
3.5897913584
 30
0.0
 10
5.4222570565
 20
3.6061803213
 30
0.0
 10
5.4176020135
 20
3.622756445
 30
0.0
 10
5.4139714466
 20
3.6394831021
 30
0.0
 10
5.4113713286
 20
3.6563225735
 30
0.0
 10
5.4098090152
 20
3.6732376924
 30
0.0
 10
5.4092885261
 20
3.6901906204
 30
0.0
 10
5.409809011
 20
3.7071435486
 30
0.0
 10
5.4113713257
 20
3.7240586672
 30
0.0
 10
5.4139714386
 20
3.7408981391
 30
0.0
 10
5.4176020026
 20
3.7576247968
 30
0.0
 10
5.4222570461
 20
3.77420092
 30
0.0
 10
5.4279247439
 20
3.7905898842
 30
0.0
 10
5.4345916516
 20
3.8067557016
 30
0.0
 10
5.4422448128
 20
3.8226616218
 30
0.0
 10
5.4508652742
 20
3.8382731864
 30
0.0
 10
5.460433841
 20
3.8535559831
 30
0.0
 10
5.4709306171
 20
3.8684751996
 30
0.0
 10
5.4823303812
 20
3.8829991396
 30
0.0
 10
5.4946084278
 20
3.8970953846
 30
0.0
 10
5.5077382352
 20
3.9107320228
 30
0.0
 10
5.5216891889
 20
3.9238805003
 30
0.0
 10
5.5364311894
 20
3.9365108537
 30
0.0
 10
5.551932228
 20
3.9485952574
 30
0.0
 10
5.5736870551
 20
3.9640329842
 30
0.0
 10
5.5967098298
 20
3.978171502
 30
0.0
 10
5.6208063718
 20
3.9909648891
 30
0.0
 10
5.63955363
 20
3.9999483241
 30
0.0
 10
5.6588305029
 20
4.0082462157
 30
0.0
 10
5.6785948401
 20
4.0158413271
 30
0.0
 10
5.6988033161
 20
4.0227149421
 30
0.0
 10
5.7194102664
 20
4.0288533646
 30
0.0
 10
5.7403702696
 20
4.0342433064
 30
0.0
 10
5.7687867269
 20
4.0404274491
 30
0.0
 10
5.7976551803
 20
4.0450487384
 30
0.0
 10
5.8268051759
 20
4.0480978863
 30
0.0
 10
5.84147241
 20
4.0490978072
 30
0.0
 10
5.8488184363
 20
4.0494654842
 30
0.0
 11
5.8488184363
 21
3.3309157965
 31
0.0
 11
5.8268038905
 21
3.3324168633
 31
0.0
 11
5.8048976031
 21
3.3347096507
 31
0.0
 11
5.7616281416
 21
3.3416486687
 31
0.0
 11
5.7403615259
 21
3.3462791738
 31
0.0
 11
5.7194017597
 21
3.3516713854
 31
0.0
 11
5.6987950815
 21
3.3578127118
 31
0.0
 11
5.6785877819
 21
3.3646895959
 31
0.0
 11
5.6588253578
 21
3.3722874069
 31
0.0
 11
5.6395510961
 21
3.3805885257
 31
0.0
 11
5.620807892
 21
3.3895748053
 31
0.0
 11
5.6026375068
 21
3.3992267491
 31
0.0
 11
5.568173317
 21
3.4204390391
 31
0.0
 11
5.5519563315
 21
3.4319529975
 31
0.0
 11
5.5364638214
 21
3.4440381674
 31
0.0
 11
5.5217307147
 21
3.456668308
 31
0.0
 11
5.5077894024
 21
3.4698153969
 31
0.0
 11
5.4946702471
 21
3.4834499869
 31
0.0
 11
5.4824031662
 21
3.4975423871
 31
0.0
 11
5.471014768
 21
3.5120611656
 31
0.0
 11
5.4605299847
 21
3.526974009
 31
0.0
 11
5.4509729762
 21
3.5422483052
 31
0.0
 11
5.4423640433
 21
3.5578499593
 31
0.0
 11
5.4347222632
 21
3.5737444064
 31
0.0
 11
5.4280654012
 21
3.5898967345
 31
0.0
 11
5.4224071532
 21
3.6062709545
 31
0.0
 11
5.4177604106
 21
3.6228308668
 31
0.0
 11
5.4141360436
 21
3.6395399566
 31
0.0
 11
5.4115410139
 21
3.6563611006
 31
0.0
 11
5.4099817574
 21
3.6732571019
 31
0.0
 11
5.409461932
 21
3.6901906204
 31
0.0
 11
5.4099817541
 21
3.7071241389
 31
0.0
 11
5.4115410099
 21
3.7240201403
 31
0.0
 11
5.414136036
 21
3.7408412847
 31
0.0
 11
5.4177604002
 21
3.7575503748
 31
0.0
 11
5.422407142
 21
3.7741102872
 31
0.0
 11
5.4280653862
 21
3.790484508
 31
0.0
 11
5.434722246
 21
3.8066368365
 31
0.0
 11
5.4423640248
 21
3.822531284
 31
0.0
 11
5.450972954
 21
3.8381329393
 31
0.0
 11
5.4605299612
 21
3.8534072359
 31
0.0
 11
5.4710147427
 21
3.8683200801
 31
0.0
 11
5.4824031376
 21
3.8828388603
 31
0.0
 11
5.4946702177
 21
3.8969312609
 31
0.0
 11
5.507789371
 21
3.9105658524
 31
0.0
 11
5.5217306804
 21
3.923712943
 31
0.0
 11
5.5364637865
 21
3.9363430839
 31
0.0
 11
5.5519562943
 21
3.9484282555
 31
0.0
 11
5.5681732772
 21
3.9599422155
 31
0.0
 11
5.6026374635
 21
3.9811545077
 31
0.0
 11
5.6208078464
 21
3.9908064531
 31
0.0
 11
5.63955105
 21
3.9997927332
 31
0.0
 11
5.6588253102
 21
4.0080938549
 31
0.0
 11
5.6785877345
 21
4.0156916679
 31
0.0
 11
5.6987950361
 21
4.0225685535
 31
0.0
 11
5.7194017157
 21
4.0287098834
 31
0.0
 11
5.7403614839
 21
4.0341020971
 31
0.0
 11
5.7616281044
 21
4.0387326045
 31
0.0
 11
5.8048975887
 21
4.0456716276
 31
0.0
 11
5.8268038866
 21
4.0479644167
 31
0.0
 11
5.8488184363
 21
4.0494654842
 31
0.0
  0
SPLINE
  5
3B8
100
AcDbEntity
  8
0
100
AcDbSpline
 62
6
  6
CONTINUOUS
 70
0
 71
3
 72
36
 73
32
 74
30
 42
0.0000001
 43
0.0000001
 44
0.0000000001
 12
-0.1142606598
 22
0.0
 32
0.0
 13
0.0
 23
0.1142606598
 33
0.0
 40
0.0
 40
0.0
 40
0.0
 40
0.0
 40
0.1283125427
 40
0.2566201654
 40
0.3849019343
 40
0.4490166433
 40
0.5130947922
 40
0.5771107666
 40
0.6410223436
 40
0.6729188904
 40
0.7047590922
 40
0.7365248064
 40
0.7681908638
 40
0.7997212032
 40
0.8310618314
 40
0.8466366588
 40
0.8621289432
 40
0.8775173419
 40
0.8927776092
 40
0.9078692652
 40
0.9227457028
 40
0.9373194302
 40
0.9514845046
 40
0.9583571483
 40
0.9650612813
 40
0.9715625377
 40
0.9778001451
 40
0.9837473911
 40
0.9894158295
 40
0.9948098199
 40
1.0
 40
1.0
 40
1.0
 40
1.0
 10
5.8488184363
 20
4.0494654842
 30
0.0
 10
5.843931411
 20
4.0494654842
 30
0.0
 10
5.8341575265
 20
4.0494746889
 30
0.0
 10
5.81949801
 20
4.0495682631
 30
0.0
 10
5.8072846558
 20
4.0497734273
 30
0.0
 10
5.7975205482
 20
4.050065361
 30
0.0
 10
5.7902058666
 20
4.050365313
 30
0.0
 10
5.7829037247
 20
4.0507668077
 30
0.0
 10
5.7768320746
 20
4.0512081214
 30
0.0
 10
5.7719897541
 20
4.05164332
 30
0.0
 10
5.7683714224
 20
4.052016389
 30
0.0
 10
5.7647678526
 20
4.0524433238
 30
0.0
 10
5.7611840879
 20
4.0529328513
 30
0.0
 10
5.7576274958
 20
4.0534961466
 30
0.0
 10
5.7546891987
 20
4.054040225
 30
0.0
 10
5.7523634018
 20
4.0545310725
 30
0.0
 10
5.7506392716
 20
4.0549290781
 30
0.0
 10
5.7489360037
 20
4.0553624071
 30
0.0
 10
5.7472589906
 20
4.0558350584
 30
0.0
 10
5.7456163347
 20
4.0563548284
 30
0.0
 10
5.744018856
 20
4.0569275
 30
0.0
 10
5.7424845768
 20
4.0575662097
 30
0.0
 10
5.7412670375
 20
4.0581675292
 30
0.0
 10
5.7403549884
 20
4.058701881
 30
0.0
 10
5.7397176638
 20
4.0591253479
 30
0.0
 10
5.7391297597
 20
4.0595768608
 30
0.0
 10
5.7386064112
 20
4.0600610686
 30
0.0
 10
5.7381650572
 20
4.0605811497
 30
0.0
 10
5.737825781
 20
4.0611367824
 30
0.0
 10
5.7376045403
 20
4.0617191831
 30
0.0
 10
5.7375495986
 20
4.0621235586
 30
0.0
 10
5.7375495986
 20
4.0623212364
 30
0.0
 11
5.8488184363
 21
4.0494654842
 31
0.0
 11
5.8341573778
 21
4.0494879853
 31
0.0
 11
5.8194972454
 21
4.0495937165
 31
0.0
 11
5.8048420527
 21
4.0498571172
 31
0.0
 11
5.797519623
 21
4.0500789442
 31
0.0
 11
5.7902043034
 21
4.0503824151
 31
0.0
 11
5.7829010768
 21
4.0507884949
 31
0.0
 11
5.7756181702
 21
4.0513241543
 31
0.0
 11
5.7719883755
 21
4.0516514458
 31
0.0
 11
5.7683696089
 21
4.0520258422
 31
0.0
 11
5.7647654375
 21
4.0524544884
 31
0.0
 11
5.7611808342
 21
4.0529462999
 31
0.0
 11
5.7576229639
 21
4.0535127302
 31
0.0
 11
5.7541026179
 21
4.0541690314
 31
0.0
 11
5.7523615295
 21
4.0545372053
 31
0.0
 11
5.7506369636
 21
4.0549363722
 31
0.0
 11
5.7489332106
 21
4.0553708883
 31
0.0
 11
5.7472554528
 21
4.0558456914
 31
0.0
 11
5.7456119721
 21
4.0563676744
 31
0.0
 11
5.7440131627
 21
4.0569448225
 31
0.0
 11
5.7424775035
 21
4.057588759
 31
0.0
 11
5.7410302379
 21
4.0583133275
 31
0.0
 11
5.7403533932
 21
4.0587114915
 31
0.0
 11
5.7397163466
 21
4.0591368809
 31
0.0
 11
5.7391291865
 21
4.0595919096
 31
0.0
 11
5.7386087722
 21
4.0600788685
 31
0.0
 11
5.7381727049
 21
4.0606000353
 31
0.0
 11
5.7378387026
 21
4.0611549508
 31
0.0
 11
5.7376249166
 21
4.0617330053
 31
0.0
 11
5.7375495986
 21
4.0623212364
 31
0.0
  0
SPLINE
  5
3B9
100
AcDbEntity
  8
0
100
AcDbSpline
 62
9
  6
CONTINUOUS
 70
0
 71
3
 72
38
 73
34
 74
32
 42
0.0000001
 43
0.0000001
 44
0.0000000001
 12
0.6825612726
 22
0.0
 32
0.0
 13
0.0000005239
 23
-0.6825612726
 33
0.0
 40
0.0
 40
0.0
 40
0.0
 40
0.0
 40
0.0352155456
 40
0.0704073911
 40
0.1405344172
 40
0.1754154015
 40
0.2101283073
 40
0.2446408459
 40
0.2789218299
 40
0.3129426919
 40
0.3466766468
 40
0.380098831
 40
0.4131873583
 40
0.4459223335
 40
0.4782868423
 40
0.5102677011
 40
0.5418542595
 40
0.5730397729
 40
0.6038212483
 40
0.6341988554
 40
0.6641775034
 40
0.693765849
 40
0.7229763922
 40
0.7518266155
 40
0.7803375545
 40
0.8085344531
 40
0.8364468854
 40
0.8641075297
 40
0.8915528331
 40
0.9188221462
 40
0.9459570394
 40
0.9730013616
 40
1.0
 40
1.0
 40
1.0
 40
1.0
 10
5.8794615432
 20
4.367662594
 30
0.0
 10
5.887473799
 20
4.367662594
 30
0.0
 10
5.9034948794
 20
4.3673611971
 30
0.0
 10
5.9354236886
 20
4.3655591306
 30
0.0
 10
5.9671556405
 20
4.3619612399
 30
0.0
 10
5.9984912646
 20
4.3565745669
 30
0.0
 10
6.0216694015
 20
4.351663884
 30
0.0
 10
6.044506357
 20
4.3458892134
 30
0.0
 10
6.0669468165
 20
4.3392621121
 30
0.0
 10
6.0889366447
 20
4.3317998435
 30
0.0
 10
6.110423107
 20
4.3235208113
 30
0.0
 10
6.1313536255
 20
4.3144429206
 30
0.0
 10
6.1516785684
 20
4.3045899878
 30
0.0
 10
6.1713488111
 20
4.2939851042
 30
0.0
 10
6.1903162487
 20
4.2826524781
 30
0.0
 10
6.2085364266
 20
4.2706212569
 30
0.0
 10
6.2259647171
 20
4.2579188253
 30
0.0
 10
6.2425589983
 20
4.2445755465
 30
0.0
 10
6.2582804628
 20
4.2306247534
 30
0.0
 10
6.2730896151
 20
4.2160980305
 30
0.0
 10
6.2869514971
 20
4.2010312134
 30
0.0
 10
6.2998332221
 20
4.1854608547
 30
0.0
 10
6.3117016454
 20
4.1694227769
 30
0.0
 10
6.3225298141
 20
4.1529569907
 30
0.0
 10
6.3322909522
 20
4.1361025773
 30
0.0
 10
6.3409598162
 20
4.1188994076
 30
0.0
 10
6.3485175762
 20
4.1013901254
 30
0.0
 10
6.3549439987
 20
4.0836160919
 30
0.0
 10
6.3602231322
 20
4.0656203793
 30
0.0
 10
6.364343986
 20
4.0474470911
 30
0.0
 10
6.3672937398
 20
4.0291393717
 30
0.0
 10
6.3690665523
 20
4.0107430536
 30
0.0
 10
6.3694615384
 20
3.9984435586
 30
0.0
 10
6.3694615431
 20
3.9923008169
 30
0.0
 11
5.8794615432
 21
4.367662594
 31
0.0
 11
5.9034940614
 21
4.3672106359
 31
0.0
 11
5.9274764314
 21
4.365856119
 31
0.0
 11
5.9750364979
 21
4.3604530393
 31
0.0
 11
5.9985003917
 21
4.3564174437
 31
0.0
 11
6.0216790992
 21
4.3515043762
 31
0.0
 11
6.0445163874
 21
4.3457262402
 31
0.0
 11
6.0669562589
 21
4.339096053
 31
0.0
 11
6.0889447379
 21
4.3316303564
 31
0.0
 11
6.1104288089
 21
4.3233473655
 31
0.0
 11
6.1313561095
 21
4.3142662395
 31
0.0
 11
6.1516767603
 21
4.304409719
 31
0.0
 11
6.1713414871
 21
4.2938014131
 31
0.0
 11
6.1903024774
 21
4.2824663992
 31
0.0
 11
6.2085148719
 21
4.2704327225
 31
0.0
 11
6.2259342697
 21
4.2577288689
 31
0.0
 11
6.2425187712
 21
4.2443853644
 31
0.0
 11
6.2582290647
 21
4.2304348451
 31
0.0
 11
6.273026377
 21
4.2159103043
 31
0.0
 11
6.2868756407
 21
4.2008470329
 31
0.0
 11
6.2997437232
 21
4.1852815208
 31
0.0
 11
6.3115986135
 21
4.169250774
 31
0.0
 11
6.3224127874
 21
4.152793852
 31
0.0
 11
6.3321598764
 21
4.1359503407
 31
0.0
 11
6.3408157463
 21
4.1187605559
 31
0.0
 11
6.3483606929
 21
4.1012662596
 31
0.0
 11
6.3547756834
 21
4.0835094162
 31
0.0
 11
6.3600452595
 21
4.0655327466
 31
0.0
 11
6.3641576125
 21
4.047379745
 31
0.0
 11
6.3671016272
 21
4.0290939955
 31
0.0
 11
6.3688709085
 21
4.0107195744
 31
0.0
 11
6.3694615431
 21
3.9923008169
 31
0.0
  0
SPLINE
  5
3BA
100
AcDbEntity
  8
0
100
AcDbSpline
 62
9
  6
CONTINUOUS
 70
0
 71
3
 72
37
 73
33
 74
31
 42
0.0000001
 43
0.0000001
 44
0.0000000001
 12
0.1191794045
 22
0.6157587002
 32
0.0
 13
0.6271861823
 23
0.0
 33
0.0
 40
0.0
 40
0.0
 40
0.0
 40
0.0
 40
0.0268894553
 40
0.0539327927
 40
0.0811621333
 40
0.1086077371
 40
0.1362969938
 40
0.1642549256
 40
0.2210447643
 40
0.2499303031
 40
0.2791556532
 40
0.3087304853
 40
0.3386617592
 40
0.3689538093
 40
0.3996073082
 40
0.4306204351
 40
0.4619890529
 40
0.4937057255
 40
0.5257608635
 40
0.5581429162
 40
0.5908373111
 40
0.623827642
 40
0.6570960578
 40
0.6906224179
 40
0.7243851257
 40
0.7583614837
 40
0.7925267358
 40
0.8268549181
 40
0.8613198776
 40
0.9305481211
 40
0.9652654354
 40
1.0
 40
1.0
 40
1.0
 40
1.0
 10
5.3947592757
 20
4.0473477584
 30
0.0
 10
5.3958274988
 20
4.0528668971
 30
0.0
 10
5.3982884113
 20
4.0638777627
 30
0.0
 10
5.4029227072
 20
4.080209388
 30
0.0
 10
5.4085008942
 20
4.096366725
 30
0.0
 10
5.4150126148
 20
4.1123163263
 30
0.0
 10
5.422443309
 20
4.1280281405
 30
0.0
 10
5.4336124534
 20
4.1487211565
 30
0.0
 10
5.4465318484
 20
4.168716445
 30
0.0
 10
5.4610362174
 20
4.1878731201
 30
0.0
 10
5.4728068983
 20
4.2019367929
 30
0.0
 10
5.4853807242
 20
4.2155846121
 30
0.0
 10
5.4987336936
 20
4.2287902341
 30
0.0
 10
5.5128401082
 20
4.2415263638
 30
0.0
 10
5.5276707745
 20
4.2537693457
 30
0.0
 10
5.5431966498
 20
4.2654948075
 30
0.0
 10
5.5593878317
 20
4.2766785121
 30
0.0
 10
5.5762112913
 20
4.2872998876
 30
0.0
 10
5.5936340372
 20
4.2973378083
 30
0.0
 10
5.6116223167
 20
4.3067712045
 30
0.0
 10
5.6301397009
 20
4.3155829813
 30
0.0
 10
5.6491496523
 20
4.3237556456
 30
0.0
 10
5.6686151197
 20
4.3312715946
 30
0.0
 10
5.6884969528
 20
4.3381174684
 30
0.0
 10
5.708755808
 20
4.3442798228
 30
0.0
 10
5.7293519323
 20
4.3497449353
 30
0.0
 10
5.7502437545
 20
4.3545034675
 30
0.0
 10
5.7713901309
 20
4.3585462329
 30
0.0
 10
5.7999075163
 20
4.3629759402
 30
0.0
 10
5.8287198813
 20
4.365934027
 30
0.0
 10
5.8576786538
 20
4.3674149712
 30
0.0
 10
5.8721998635
 20
4.367662594
 30
0.0
 10
5.8794615432
 20
4.367662594
 30
0.0
 11
5.3947592757
 21
4.0473477584
 31
0.0
 11
5.3984351607
 21
4.0638069747
 31
0.0
 11
5.4030624975
 21
4.080124766
 31
0.0
 11
5.4086325737
 21
4.096268736
 31
0.0
 11
5.4151349787
 21
4.1122068485
 31
0.0
 11
5.4225558261
 21
4.127907806
 31
0.0
 11
5.4308807976
 21
4.1433404033
 31
0.0
 11
5.4501764437
 21
4.1732787712
 31
0.0
 11
5.4611082346
 21
4.1877254849
 31
0.0
 11
5.4728684837
 21
4.2017852058
 31
0.0
 11
5.4854330074
 21
4.2154305494
 31
0.0
 11
5.4987771245
 21
4.2286343593
 31
0.0
 11
5.5128750872
 21
4.2413701415
 31
0.0
 11
5.5276982009
 21
4.253613232
 31
0.0
 11
5.5432172653
 21
4.2653392809
 31
0.0
 11
5.5594022072
 21
4.2765246508
 31
0.0
 11
5.5762203564
 21
4.2871478246
 31
0.0
 11
5.5936385613
 21
4.2971876777
 31
0.0
 11
5.6116229522
 21
4.3066238083
 31
0.0
 11
5.6301373025
 21
4.3154381854
 31
0.0
 11
5.6491449031
 21
4.3236132632
 31
0.0
 11
5.6686085831
 21
4.3311321638
 31
0.0
 11
5.6884893259
 21
4.3379806775
 31
0.0
 11
5.7087476543
 21
4.3441452611
 31
0.0
 11
5.7293437463
 21
4.349612974
 31
0.0
 11
5.7502361814
 21
4.3543736697
 31
0.0
 11
5.7713830761
 21
4.358418012
 31
0.0
 11
5.7927426351
 21
4.3617374057
 31
0.0
 11
5.8359339003
 21
4.3661785744
 31
0.0
 11
5.8576796679
 21
4.3672913375
 31
0.0
 11
5.8794615432
 21
4.367662594
 31
0.0
  0
SPLINE
  5
3BB
100
AcDbEntity
  8
0
100
AcDbSpline
 62
9
  6
CONTINUOUS
 70
0
 71
3
 72
65
 73
61
 74
59
 42
0.0000001
 43
0.0000001
 44
0.0000000001
 12
0.0
 22
1.3581177481
 32
0.0
 13
0.0
 23
-1.3581177481
 33
0.0
 40
0.0
 40
0.0
 40
0.0
 40
0.0
 40
0.0134928287
 40
0.0270168308
 40
0.0405884429
 40
0.0542248152
 40
0.0679469864
 40
0.0817760675
 40
0.095731665
 40
0.1098301545
 40
0.1240856459
 40
0.1385107303
 40
0.1531159194
 40
0.1679096986
 40
0.1828988486
 40
0.1980876071
 40
0.2134780635
 40
0.2290707656
 40
0.2448640017
 40
0.260854126
 40
0.2933954335
 40
0.3099390923
 40
0.3266497126
 40
0.3435162322
 40
0.3605262334
 40
0.3949163443
 40
0.4122737394
 40
0.4297163781
 40
0.4472279801
 40
0.4647916209
 40
0.5
 40
0.5352083791
 40
0.5527720199
 40
0.5702836219
 40
0.5877262606
 40
0.6050836557
 40
0.6394737666
 40
0.6564837678
 40
0.6733502874
 40
0.6900609077
 40
0.7066045665
 40
0.739145874
 40
0.7551359983
 40
0.7709292344
 40
0.7865219365
 40
0.8019123929
 40
0.8171011514
 40
0.8320903014
 40
0.8468840806
 40
0.8614892697
 40
0.8759143541
 40
0.8901698455
 40
0.904268335
 40
0.9182239325
 40
0.9320530136
 40
0.9457751848
 40
0.9594115571
 40
0.9729831692
 40
0.9865071713
 40
1.0
 40
1.0
 40
1.0
 40
1.0
 10
6.3669615432
 20
4.137053007
 30
0.0
 10
6.3669615432
 20
4.1431612904
 30
0.0
 10
6.3665680615
 20
4.1553955568
 30
0.0
 10
6.3648042963
 20
4.1736972116
 30
0.0
 10
6.3618709593
 20
4.1919147277
 30
0.0
 10
6.3577713585
 20
4.2099973441
 30
0.0
 10
6.3525185788
 20
4.2279004905
 30
0.0
 10
6.3461260526
 20
4.2455825118
 30
0.0
 10
6.3386071004
 20
4.2630010973
 30
0.0
 10
6.3299823113
 20
4.2801154614
 30
0.0
 10
6.3202730605
 20
4.2968844386
 30
0.0
 10
6.3095003846
 20
4.3132657026
 30
0.0
 10
6.2976925162
 20
4.3292208958
 30
0.0
 10
6.2848786706
 20
4.3447124436
 30
0.0
 10
6.2710877529
 20
4.3597014809
 30
0.0
 10
6.2563546243
 20
4.3741533
 30
0.0
 10
6.2407153934
 20
4.3880340597
 30
0.0
 10
6.2242061435
 20
4.4013083304
 30
0.0
 10
6.2068672231
 20
4.4139458269
 30
0.0
 10
6.1825617221
 20
4.4299986045
 30
0.0
 10
6.1568920334
 20
4.4445469023
 30
0.0
 10
6.1300845471
 20
4.4575447276
 30
0.0
 10
6.1092615502
 20
4.4665757632
 30
0.0
 10
6.0878860376
 20
4.4748129592
 30
0.0
 10
6.0586149983
 20
4.4847482889
 30
0.0
 10
6.0285531814
 20
4.4929695534
 30
0.0
 10
5.9979053565
 20
4.4994642156
 30
0.0
 10
5.9745598948
 20
4.5034779983
 30
0.0
 10
5.9509859389
 20
4.5066092549
 30
0.0
 10
5.9193027783
 20
4.5096022707
 30
0.0
 10
5.8794615432
 20
4.5110975842
 30
0.0
 10
5.839620308
 20
4.5096022707
 30
0.0
 10
5.8079371475
 20
4.5066092549
 30
0.0
 10
5.7843631916
 20
4.5034779983
 30
0.0
 10
5.7610177298
 20
4.4994642156
 30
0.0
 10
5.730369905
 20
4.4929695534
 30
0.0
 10
5.700308088
 20
4.4847482889
 30
0.0
 10
5.6710370487
 20
4.4748129592
 30
0.0
 10
5.6496615361
 20
4.4665757632
 30
0.0
 10
5.6288385392
 20
4.4575447276
 30
0.0
 10
5.6020310529
 20
4.4445469023
 30
0.0
 10
5.5763613642
 20
4.4299986045
 30
0.0
 10
5.5520558632
 20
4.4139458269
 30
0.0
 10
5.5347169428
 20
4.4013083304
 30
0.0
 10
5.518207693
 20
4.3880340597
 30
0.0
 10
5.5025684621
 20
4.3741533
 30
0.0
 10
5.4878353335
 20
4.3597014809
 30
0.0
 10
5.4740444157
 20
4.3447124436
 30
0.0
 10
5.4612305701
 20
4.3292208958
 30
0.0
 10
5.4494227017
 20
4.3132657026
 30
0.0
 10
5.4386500258
 20
4.2968844386
 30
0.0
 10
5.428940775
 20
4.2801154614
 30
0.0
 10
5.4203159859
 20
4.2630010973
 30
0.0
 10
5.4127970337
 20
4.2455825118
 30
0.0
 10
5.4064045075
 20
4.2279004905
 30
0.0
 10
5.4011517279
 20
4.2099973441
 30
0.0
 10
5.397052127
 20
4.1919147277
 30
0.0
 10
5.39411879
 20
4.1736972116
 30
0.0
 10
5.3923550249
 20
4.1553955568
 30
0.0
 10
5.3919615432
 20
4.1431612904
 30
0.0
 10
5.3919615432
 20
4.137053007
 30
0.0
 11
6.3669615432
 21
4.137053007
 31
0.0
 11
6.3663738328
 21
4.1553684303
 31
0.0
 11
6.364613577
 21
4.1736510741
 31
0.0
 11
6.3616850889
 21
4.1918487925
 31
0.0
 11
6.3575939096
 21
4.2099110519
 31
0.0
 11
6.3523512477
 21
4.2277947617
 31
0.0
 11
6.345969946
 21
4.2454589769
 31
0.0
 11
6.3384638648
 21
4.2628626552
 31
0.0
 11
6.3298522883
 21
4.2799642346
 31
0.0
 11
6.3201563011
 21
4.2967219806
 31
0.0
 11
6.3093978046
 21
4.3130945366
 31
0.0
 11
6.297603734
 21
4.3290428782
 31
0.0
 11
6.2848029432
 21
4.3445288695
 31
0.0
 11
6.2710249198
 21
4.3595146884
 31
0.0
 11
6.256303669
 21
4.3739647475
 31
0.0
 11
6.2406751674
 21
4.3878444347
 31
0.0
 11
6.2241758659
 21
4.401119477
 31
0.0
 11
6.206846115
 21
4.413758406
 31
0.0
 11
6.1887282088
 21
4.4257311505
 31
0.0
 11
6.1503016785
 21
4.4475621688
 31
0.0
 11
6.1300865639
 21
4.4573688403
 31
0.0
 11
6.1092673377
 21
4.4664033512
 31
0.0
 11
6.0878943752
 21
4.474644363
 31
0.0
 11
6.0660196492
 21
4.4820726584
 31
0.0
 11
6.0209751339
 21
4.4944187209
 31
0.0
 11
5.9979143212
 21
4.4993078379
 31
0.0
 11
5.9745680565
 21
4.5033238176
 31
0.0
 11
5.9509925531
 21
4.5064571935
 31
0.0
 11
5.927244856
 21
4.5087012918
 31
0.0
 11
5.8794615432
 21
4.5104991831
 31
0.0
 11
5.8316782303
 21
4.5087012918
 31
0.0
 11
5.8079305333
 21
4.5064571935
 31
0.0
 11
5.7843550298
 21
4.5033238176
 31
0.0
 11
5.7610087651
 21
4.4993078379
 31
0.0
 11
5.7379479525
 21
4.4944187209
 31
0.0
 11
5.6929034372
 21
4.4820726584
 31
0.0
 11
5.6710287112
 21
4.474644363
 31
0.0
 11
5.6496557486
 21
4.4664033512
 31
0.0
 11
5.6288365224
 21
4.4573688403
 31
0.0
 11
5.6086214078
 21
4.4475621688
 31
0.0
 11
5.5701948776
 21
4.4257311505
 31
0.0
 11
5.5520769713
 21
4.413758406
 31
0.0
 11
5.5347472205
 21
4.401119477
 31
0.0
 11
5.5182479189
 21
4.3878444347
 31
0.0
 11
5.5026194173
 21
4.3739647475
 31
0.0
 11
5.4878981666
 21
4.3595146884
 31
0.0
 11
5.4741201431
 21
4.3445288695
 31
0.0
 11
5.4613193523
 21
4.3290428782
 31
0.0
 11
5.4495252817
 21
4.3130945366
 31
0.0
 11
5.4387667852
 21
4.2967219806
 31
0.0
 11
5.429070798
 21
4.2799642346
 31
0.0
 11
5.4204592215
 21
4.2628626552
 31
0.0
 11
5.4129531403
 21
4.2454589769
 31
0.0
 11
5.4065718386
 21
4.2277947617
 31
0.0
 11
5.4013291767
 21
4.2099110519
 31
0.0
 11
5.3972379974
 21
4.1918487925
 31
0.0
 11
5.3943095093
 21
4.1736510741
 31
0.0
 11
5.3925492535
 21
4.1553684303
 31
0.0
 11
5.3919615432
 21
4.137053007
 31
0.0
  0
SPLINE
  5
3BC
100
AcDbEntity
  8
0
100
AcDbSpline
 62
6
  6
CONTINUOUS
 70
0
 71
3
 72
22
 73
18
 74
16
 42
0.0000001
 43
0.0000001
 44
0.0000000001
 12
0.0186274917
 22
0.0038233788
 32
0.0
 13
0.0
 23
0.0190158269
 33
0.0
 40
0.0
 40
0.0
 40
0.0
 40
0.0
 40
0.1382081245
 40
0.2751498417
 40
0.4103223352
 40
0.4770110128
 40
0.5429167703
 40
0.6077991646
 40
0.6714360722
 40
0.7334051255
 40
0.7932482153
 40
0.8503097461
 40
0.9036667762
 40
0.9289951363
 40
0.9534044926
 40
0.976982669
 40
1.0
 40
1.0
 40
1.0
 40
1.0
 10
6.0051019463
 20
3.3356767195
 30
0.0
 10
6.0059601032
 20
3.3358528602
 30
0.0
 10
6.0076643709
 20
3.3362245745
 30
0.0
 10
6.0101875818
 20
3.3368572224
 30
0.0
 10
6.0122496588
 20
3.3374600351
 30
0.0
 10
6.0138589025
 20
3.3380001777
 30
0.0
 10
6.0150330936
 20
3.3384345956
 30
0.0
 10
6.016172015
 20
3.3389062861
 30
0.0
 10
6.0172658386
 20
3.3394188362
 30
0.0
 10
6.0182997954
 20
3.339979873
 30
0.0
 10
6.0192527498
 20
3.3405969526
 30
0.0
 10
6.0200960407
 20
3.3412742011
 30
0.0
 10
6.0206786551
 20
3.3419159251
 30
0.0
 10
6.0210270301
 20
3.3424707083
 30
0.0
 10
6.0212208248
 20
3.3428948431
 30
0.0
 10
6.0213439863
 20
3.3433296967
 30
0.0
 10
6.0213734877
 20
3.3436256509
 30
0.0
 10
6.0213734877
 20
3.3437715487
 30
0.0
 11
6.0051019463
 21
3.3356767195
 31
0.0
 11
6.0076691171
 21
3.3362395366
 31
0.0
 11
6.0101941213
 21
3.3368763117
 31
0.0
 11
6.0126595522
 21
3.3376034243
 31
0.0
 11
6.0138614646
 21
3.3380078826
 31
0.0
 11
6.0150362535
 21
3.3384443603
 31
0.0
 11
6.0161755215
 21
3.3389179761
 31
0.0
 11
6.0172700385
 21
3.3394341108
 31
0.0
 11
6.0183038336
 21
3.3399996877
 31
0.0
 11
6.0192560929
 21
3.3406227194
 31
0.0
 11
6.0200948974
 21
3.3413110425
 31
0.0
 11
6.0207659272
 21
3.3420720872
 31
0.0
 11
6.021020644
 21
3.3424808612
 31
0.0
 11
6.0212117389
 21
3.3429038636
 31
0.0
 11
6.0213318182
 21
3.3433358432
 31
0.0
 11
6.0213734877
 21
3.3437715487
 31
0.0
  0
SPLINE
  5
3BD
100
AcDbEntity
  8
0
100
AcDbSpline
 62
9
  6
CONTINUOUS
 70
0
 71
3
 72
33
 73
29
 74
27
 42
0.0000001
 43
0.0000001
 44
0.0000000001
 12
-0.000000004
 22
0.5394336223
 32
0.0
 13
0.5255012643
 23
0.1218074468
 33
0.0
 40
0.0
 40
0.0
 40
0.0
 40
0.0
 40
0.027769929
 40
0.0555708692
 40
0.0834337155
 40
0.1113885549
 40
0.1394646009
 40
0.1676901976
 40
0.1960920297
 40
0.2246950933
 40
0.2535229564
 40
0.2825970892
 40
0.3119365325
 40
0.3415585147
 40
0.4016930036
 40
0.4322427367
 40
0.4631208817
 40
0.4943328509
 40
0.5258816868
 40
0.5899809847
 40
0.6554161119
 40
0.6886268294
 40
0.7221505605
 40
0.7900804259
 40
0.8244721507
 40
0.8591278653
 40
0.9291604397
 40
1.0
 40
1.0
 40
1.0
 40
1.0
 10
5.3894619613
 20
3.7030463927
 30
0.0
 10
5.3894619613
 20
3.7080397372
 30
0.0
 10
5.3897221606
 20
3.7180339563
 30
0.0
 10
5.3908932027
 20
3.7329969606
 30
0.0
 10
5.3928437873
 20
3.7479123255
 30
0.0
 10
5.3955692504
 20
3.7627558226
 30
0.0
 10
5.3990654566
 20
3.7775039143
 30
0.0
 10
5.4033281671
 20
3.7921326011
 30
0.0
 10
5.4083491816
 20
3.8066188378
 30
0.0
 10
5.4141200182
 20
3.8209397169
 30
0.0
 10
5.4206326802
 20
3.8350719404
 30
0.0
 10
5.4278762879
 20
3.848992941
 30
0.0
 10
5.4358385225
 20
3.8626814865
 30
0.0
 10
5.4474526822
 20
3.8806802788
 30
0.0
 10
5.4604167251
 20
3.8980403588
 30
0.0
 10
5.4746057494
 20
3.9146735633
 30
0.0
 10
5.4859502556
 20
3.9268783686
 30
0.0
 10
5.497920631
 20
3.9387260727
 30
0.0
 10
5.5147771022
 20
3.9541026603
 30
0.0
 10
5.5373367952
 20
3.9723195212
 30
0.0
 10
5.5614654157
 20
3.9889277847
 30
0.0
 10
5.5817555823
 20
4.0013103204
 30
0.0
 10
5.602869422
 20
4.0131735993
 30
0.0
 10
5.6247928957
 20
4.0239978984
 30
0.0
 10
5.647409438
 20
4.0337603596
 30
0.0
 10
5.6706943714
 20
4.0428948223
 30
0.0
 10
5.7006380891
 20
4.0529452295
 30
0.0
 10
5.7251408391
 20
4.0594449744
 30
0.0
 10
5.7375495986
 20
4.0623212364
 30
0.0
 11
5.3894619613
 21
3.7030463927
 31
0.0
 11
5.3898518132
 21
3.7180213524
 31
0.0
 11
5.3910213472
 21
3.7329724412
 31
0.0
 11
5.392969042
 21
3.7478758662
 31
0.0
 11
5.395690945
 21
3.7627079604
 31
0.0
 11
5.3991828816
 21
3.7774450682
 31
0.0
 11
5.4034400922
 21
3.7920636261
 31
0.0
 11
5.4084550966
 21
3.8065404975
 31
0.0
 11
5.4142196234
 21
3.8208526702
 31
0.0
 11
5.4207252711
 21
3.8349771665
 31
0.0
 11
5.427961547
 21
3.8488915661
 31
0.0
 11
5.435916274
 21
3.8625738973
 31
0.0
 11
5.4445772215
 21
3.8760022034
 31
0.0
 11
5.4639621706
 21
3.9020115145
 31
0.0
 11
5.4746545645
 21
3.9145513863
 31
0.0
 11
5.4859919496
 21
3.9267542415
 31
0.0
 11
5.4979557848
 21
3.9386009286
 31
0.0
 11
5.5105266446
 21
3.9500727604
 31
0.0
 11
5.537410135
 21
3.971818306
 31
0.0
 11
5.5664711506
 21
3.9918532669
 31
0.0
 11
5.581761616
 21
4.0011885812
 31
0.0
 11
5.5975258512
 21
4.0100493776
 31
0.0
 11
5.6303735031
 21
4.0262909629
 31
0.0
 11
5.6474054127
 21
4.0336457379
 31
0.0
 11
5.6648079193
 21
4.0404747577
 31
0.0
 11
5.7006168366
 21
4.0525119118
 31
0.0
 11
5.7375495986
 21
4.0623212364
 31
0.0
  0
SPLINE
  5
3BE
100
AcDbEntity
  8
0
100
AcDbSpline
 62
6
  6
CONTINUOUS
 70
0
 71
3
 72
65
 73
61
 74
59
 42
0.0000001
 43
0.0000001
 44
0.0000000001
 12
-0.2345840401
 22
1.2232421422
 32
0.0
 13
-0.2487598429
 23
-1.2204382618
 33
0.0
 40
0.0
 40
0.0
 40
0.0
 40
0.0
 40
0.0134399301
 40
0.0269539671
 40
0.0405592977
 40
0.0542721897
 40
0.0681068684
 40
0.0820753396
 40
0.0961884354
 40
0.1104558125
 40
0.1248854673
 40
0.1394840194
 40
0.1691994493
 40
0.1843296641
 40
0.1996402352
 40
0.215130443
 40
0.2307978604
 40
0.2466390328
 40
0.262649485
 40
0.2788231486
 40
0.2951529491
 40
0.3282428637
 40
0.3618503312
 40
0.378824132
 40
0.3958936986
 40
0.4130465406
 40
0.4302698636
 40
0.4475503184
 40
0.464874189
 40
0.499591649
 40
0.5343148605
 40
0.5516458534
 40
0.5689362342
 40
0.5861722486
 40
0.6033404413
 40
0.6204279269
 40
0.6374221546
 40
0.654310956
 40
0.6710829852
 40
0.7042290903
 40
0.72058965
 40
0.7367955946
 40
0.7528397007
 40
0.7687156349
 40
0.7844186198
 40
0.7999450232
 40
0.8152921727
 40
0.8304589598
 40
0.845445902
 40
0.8602546073
 40
0.8748881382
 40
0.8893515709
 40
0.9036512826
 40
0.9177949553
 40
0.9317919327
 40
0.9456528332
 40
0.9593893878
 40
0.9730152637
 40
0.9865464661
 40
1.0
 40
1.0
 40
1.0
 40
1.0
 10
6.361781484
 20
4.059452061
 30
0.0
 10
6.360730553
 20
4.0649321573
 30
0.0
 10
6.3583069407
 20
4.0758645721
 30
0.0
 10
6.3537364229
 20
4.092080485
 30
0.0
 10
6.3482317422
 20
4.1081238332
 30
0.0
 10
6.341802358
 20
4.1239628852
 30
0.0
 10
6.3344614454
 20
4.1395671649
 30
0.0
 10
6.3262251166
 20
4.1549064777
 30
0.0
 10
6.3171087102
 20
4.1699499044
 30
0.0
 10
6.3071291689
 20
4.1846666053
 30
0.0
 10
6.2963078548
 20
4.199029298
 30
0.0
 10
6.2806967869
 20
4.2177772132
 30
0.0
 10
6.2635534819
 20
4.2355904638
 30
0.0
 10
6.2450557104
 20
4.2523802682
 30
0.0
 10
6.2303765429
 20
4.2645630957
 30
0.0
 10
6.2150068418
 20
4.2762334006
 30
0.0
 10
6.1989774501
 20
4.2873703675
 30
0.0
 10
6.1823196092
 20
4.297951517
 30
0.0
 10
6.1650652911
 20
4.3079547004
 30
0.0
 10
6.1472492285
 20
4.3173620576
 30
0.0
 10
6.1226871349
 20
4.3291369329
 30
0.0
 10
6.090766692
 20
4.3422415306
 30
0.0
 10
6.057717758
 20
4.3530470196
 30
0.0
 10
6.030587371
 20
4.3603340737
 30
0.0
 10
6.009872894
 20
4.3651197208
 30
0.0
 10
5.9889022271
 20
4.3691972099
 30
0.0
 10
5.9677160471
 20
4.3725569114
 30
0.0
 10
5.9463561268
 20
4.3751937939
 30
0.0
 10
5.9176835213
 20
4.3777412816
 30
0.0
 10
5.8816563898
 20
4.3790882775
 30
0.0
 10
5.8456178953
 20
4.3779896671
 30
0.0
 10
5.8169188881
 20
4.3756402717
 30
0.0
 10
5.7955288818
 20
4.3731506031
 30
0.0
 10
5.7743040921
 20
4.3699372748
 30
0.0
 10
5.7532863006
 20
4.3660047534
 30
0.0
 10
5.7325166816
 20
4.3613620409
 30
0.0
 10
5.7120359826
 20
4.3560190813
 30
0.0
 10
5.6918843273
 20
4.3499847183
 30
0.0
 10
5.6656149021
 20
4.3410692549
 30
0.0
 10
5.640052091
 20
4.3308006926
 30
0.0
 10
5.6153546857
 20
4.3191967438
 30
0.0
 10
5.5974288662
 20
4.3099124786
 30
0.0
 10
5.5800577653
 20
4.3000288225
 30
0.0
 10
5.5632761667
 20
4.2895632848
 30
0.0
 10
5.5471167579
 20
4.2785372926
 30
0.0
 10
5.5316105914
 20
4.2669733696
 30
0.0
 10
5.5167890541
 20
4.2548930708
 30
0.0
 10
5.502681879
 20
4.2423196094
 30
0.0
 10
5.4893155592
 20
4.2292791122
 30
0.0
 10
5.476716695
 20
4.215796825
 30
0.0
 10
5.4649117023
 20
4.2018978871
 30
0.0
 10
5.4539225249
 20
4.1876107772
 30
0.0
 10
5.4437703926
 20
4.1729636833
 30
0.0
 10
5.4344772539
 20
4.1579841902
 30
0.0
 10
5.4260611229
 20
4.1427023795
 30
0.0
 10
5.4185372363
 20
4.1271493976
 30
0.0
 10
5.4119215729
 20
4.1113555842
 30
0.0
 10
5.4062284945
 20
4.0953511071
 30
0.0
 10
5.4014676394
 20
4.0791678804
 30
0.0
 10
5.3989151598
 20
4.0682517422
 30
0.0
 10
5.3977995935
 20
4.0627786731
 30
0.0
 11
6.361781484
 21
4.059452061
 31
0.0
 11
6.3581610073
 21
4.075795725
 31
0.0
 11
6.3535977165
 21
4.0919975261
 31
0.0
 11
6.3481011064
 21
4.1080271906
 31
0.0
 11
6.3416808383
 21
4.1238544293
 31
0.0
 11
6.3343496673
 21
4.1394486568
 31
0.0
 11
6.3261230886
 21
4.1547790253
 31
0.0
 11
6.3170166974
 21
4.1698146802
 31
0.0
 11
6.3070476261
 21
4.1845254791
 31
0.0
 11
6.2962366755
 21
4.1988829789
 31
0.0
 11
6.2846051816
 21
4.2128589849
 31
0.0
 11
6.2589710808
 21
4.2395562944
 31
0.0
 11
6.2450202025
 21
4.2522256883
 31
0.0
 11
6.2303489756
 21
4.2644081697
 31
0.0
 11
6.2149861175
 21
4.276079669
 31
0.0
 11
6.1989627692
 21
4.2872178597
 31
0.0
 11
6.1823102119
 21
4.2978005158
 31
0.0
 11
6.165060527
 21
4.3078061782
 31
0.0
 11
6.1472484304
 21
4.3172159116
 31
0.0
 11
6.1289091797
 21
4.3260112993
 31
0.0
 11
6.0907928336
 21
4.3416888064
 31
0.0
 11
6.0510126084
 21
4.3547166802
 31
0.0
 11
6.0305955289
 21
4.3602032526
 31
0.0
 11
6.0098808981
 21
4.3649908797
 31
0.0
 11
5.9889094924
 21
4.3690699262
 31
0.0
 11
5.9677222939
 21
4.3724314459
 31
0.0
 11
5.9463612278
 21
4.3750696588
 31
0.0
 11
5.9248684897
 21
4.3769796928
 31
0.0
 11
5.8816570966
 21
4.3785989614
 31
0.0
 11
5.8384283894
 21
4.3772779801
 31
0.0
 11
5.8169140815
 21
4.3755163095
 31
0.0
 11
5.7955228827
 21
4.3730254713
 31
0.0
 11
5.7742969888
 21
4.3698103376
 31
0.0
 11
5.753278454
 21
4.3658762558
 31
0.0
 11
5.7325084183
 21
4.3612316411
 31
0.0
 11
5.7120276592
 21
4.3558861258
 31
0.0
 11
5.6918769124
 21
4.3498494254
 31
0.0
 11
5.672095837
 21
4.3431333555
 31
0.0
 11
5.6337966572
 21
4.3277195056
 31
0.0
 11
5.615354735
 21
4.3190510344
 31
0.0
 11
5.597432812
 21
4.3097644803
 31
0.0
 11
5.5800661458
 21
4.2998782598
 31
0.0
 11
5.5632897342
 21
4.2894110386
 31
0.0
 11
5.5471361712
 21
4.2783837846
 31
0.0
 11
5.5316367505
 21
4.2668187117
 31
0.0
 11
5.5168227166
 21
4.2547380721
 31
0.0
 11
5.5027234938
 21
4.2421654269
 31
0.0
 11
5.4893658906
 21
4.2291262182
 31
0.0
 11
5.476776513
 21
4.2156460341
 31
0.0
 11
5.4649811112
 21
4.2017508856
 31
0.0
 11
5.4540019228
 21
4.1874685218
 31
0.0
 11
5.4438602841
 21
4.1728271374
 31
0.0
 11
5.434577302
 21
4.1578550335
 31
0.0
 11
5.4261709218
 21
4.1425819759
 31
0.0
 11
5.4186567856
 21
4.1270387975
 31
0.0
 11
5.4120504674
 21
4.1112563537
 31
0.0
 11
5.4063656186
 21
4.0952653158
 31
0.0
 11
5.4016121621
 21
4.0790959979
 31
0.0
 11
5.3977995935
 21
4.0627786731
 31
0.0
  0
LINE
  5
3BF
100
AcDbEntity
  8
0
100
AcDbLine
 62
6
  6
CONTINUOUS
 10
5.3977995935
 20
4.0627786731
 11
5.3975971978
 21
4.0617767639
  0
ENDSEC
  0
SECTION
  2
OBJECTS
  0
DICTIONARY
  5
C
100
AcDbDictionary
280
0
281
1
  3
ACAD_GROUP
350
D
  3
ACAD_MLINESTYLE
350
17
  3
ACAD_LAYOUT
350
1A
  3
ACAD_PLOTSETTINGS
350
19
  3
ACAD_PLOTSTYLENAME
350
E
  0
DICTIONARY
  5
D
102
{ACAD_REACTORS
330
C
102
}
100
AcDbDictionary
280
0
281
1
  0
ACDBDICTIONARYWDFLT
  5
E
102
{ACAD_REACTORS
330
C
102
}
100
AcDbDictionary
281
1
  3
Normal
350
F
100
AcDbDictionaryWithDefault
340
F
  0
DICTIONARY
  5
17
102
{ACAD_REACTORS
330
C
102
}
100
AcDbDictionary
280
0
281
1
  3
Standard
350
18
  0
DICTIONARY
  5
19
102
{ACAD_REACTORS
330
C
102
}
100
AcDbDictionary
281
1
  0
DICTIONARY
  5
1A
102
{ACAD_REACTORS
330
C
102
}
100
AcDbDictionary
281
1
  3
Model
350
3C0
  3
Layout1
350
3C1
  0
ACDBPLACEHOLDER
  5
F
102
{ACAD_REACTORS
330
E
102
}
  0
MLINESTYLE
  5
18
102
{ACAD_REACTORS
330
17
102
}
100
AcDbMlineStyle
  2
STANDARD
 70
0
  3

 62
256
 51
90.0
 52
90.0
 71
2
 49
0.5
 62
256
  6
BYLAYER
 49
-0.5
 62
256
  6
BYLAYER
  0
LAYOUT
  5
3C0
102
{ACAD_REACTORS
330
1A
102
}
100
AcDbPlotSettings
  1

  2
none_device
  4
ISO_A4_(297.00_x_210.00_MM)
  6

 40
0.0
 41
0.0
 42
0.0
 43
0.0
 44
297.0
 45
210.0
 46
0.0
 47
0.0
 48
0.0
 49
0.0
140
0.0
141
0.0
142
1.0
143
1.0
 70
1024
 72
0
 73
0
 74
0
  7

 75
0
147
1.0
148
0.0
149
0.0
100
AcDbLayout
  1
Model
 70
0
 71
0
 10
0.0
 20
0.0
 11
11.6929133858
 21
8.2677165354
 12
0.0
 22
0.0
 32
0.0
 14
0.0
 24
0.0
 34
0.0
 15
0.0
 25
0.0
 35
0.0
146
0.0
 13
0.0
 23
0.0
 33
0.0
 16
1.0
 26
0.0
 36
0.0
 17
0.0
 27
1.0
 37
0.0
 76
0
330
203
345
0
346
0
  0
LAYOUT
  5
3C1
102
{ACAD_REACTORS
330
1A
102
}
100
AcDbPlotSettings
  1

  2
none_device
  4
ISO_A4_(297.00_x_210.00_MM)
  6

 40
0.0
 41
0.0
 42
0.0
 43
0.0
 44
297.0
 45
210.0
 46
0.0
 47
0.0
 48
0.0
 49
0.0
140
0.0
141
0.0
142
1.0
143
1.0
 70
0
 72
0
 73
0
 74
0
  7

 75
0
147
1.0
148
0.0
149
0.0
100
AcDbLayout
  1
Layout1
 70
0
 71
1
 10
0.0
 20
0.0
 11
11.6929133858
 21
8.2677165354
 12
0.0
 22
0.0
 32
0.0
 14
0.0
 24
0.0
 34
0.0
 15
0.0
 25
0.0
 35
0.0
146
0.0
 13
0.0
 23
0.0
 33
0.0
 16
1.0
 26
0.0
 36
0.0
 17
0.0
 27
1.0
 37
0.0
 76
0
330
204
345
0
346
0
  0
ENDSEC
  0
EOF
