  0
SECTION
  2
HEADER
  9
$ACADVER
  1
AC1021
  9
$DWGCODEPAGE
  3
ANSI_1252
  9
$EXTMAX
 10
11.6929133858
 20
8.2677165354
 30
0.0
  9
$EXTMIN
 10
0.0
 20
0.0
 30
0.0
  9
$LIMMIN
 10
0.0
 20
0.0
  9
$LIMMAX
 10
11.6929133858
 20
8.2677165354
  9
$VIEWCTR
 10
5.8464566929
 20
4.1338582677
  9
$VIEWSIZE
 40
8.2677165354
  9
$CLAYER
  8
0
  9
$LTSCALE
 40
0.6431102362
  9
$CELTYPE
  6
BYLAYER
  9
$DIMSCALE
 40
1.0
  9
$DIMASZ
 40
0.1875
  9
$DIMEXO
 40
0.0730807087
  9
$DIMDLI
 40
0.4443307087
  9
$DIMEXE
 40
0.2104724409
  9
$DIMCEN
 40
0.1052362205
  9
$DIMLFAC
 40
1.0
  9
$DIMBLK
  1
_CLOSED
  9
$DIMTXT
 40
0.15625
  9
$DIMTOL
 70
0
  9
$DIMLIM
 70
0
  9
$DIMTFAC
 40
1.0
  9
$PDMODE
 70
3
  9
$PDSIZE
 40
0.3125
  9
$HANDSEED
  5
281
  9
$TILEMODE
 70
1
  9
$MEASUREMENT
 70
0
  9
$INSUNITS
 70
1
  0
ENDSEC
  0
SECTION
  2
CLASSES
  0
CLASS
  1
ACDBDICTIONARYWDFLT
  2
AcDbDictionaryWithDefault
  3
AutoCAD 2000
 90
0
 91
1
280
0
281
0
  0
CLASS
  1
ACDBPLACEHOLDER
  2
AcDbPlaceHolder
  3
AutoCAD 2000
 90
0
 91
1
280
0
281
0
  0
CLASS
  1
LAYOUT
  2
AcDbLayout
  3
AutoCAD 2000
 90
0
 91
0
280
0
281
0
  0
ENDSEC
  0
SECTION
  2
TABLES
  0
TABLE
  2
VPORT
  5
8
100
AcDbSymbolTable
 70
2
  0
VPORT
  5
1F4
100
AcDbSymbolTableRecord
100
AcDbViewportTableRecord
  2
*ACTIVE
 70
0
 10
0.0
 20
0.0
 11
1.0
 21
1.0
 12
5.8464566929
 22
4.1338582677
 13
0.0
 23
0.0
 14
1.0
 24
1.0
 15
0.0
 25
0.0
 16
0.0
 26
0.0
 36
1.0
 17
0.0
 27
0.0
 37
0.0
 40
8.2677165354
 41
1.4142857143
 42
50.0
 43
0.0
 44
0.0
 50
0.0
 51
0.0
 71
0
 72
100
 73
1
 74
1
 75
0
 76
0
 77
0
 78
0
  0
ENDTAB
  0
TABLE
  2
LTYPE
  5
5
100
AcDbSymbolTable
 70
6
  0
LTYPE
  5
14
100
AcDbSymbolTableRecord
100
AcDbLinetypeTableRecord
  2
BYBLOCK
 70
0
  3

 72
65
 73
0
 40
0.0
  0
LTYPE
  5
15
100
AcDbSymbolTableRecord
100
AcDbLinetypeTableRecord
  2
BYLAYER
 70
0
  3

 72
65
 73
0
 40
0.0
  0
LTYPE
  5
16
100
AcDbSymbolTableRecord
100
AcDbLinetypeTableRecord
  2
CONTINUOUS
 70
64
  3
Solid line
 72
65
 73
0
 40
0.0
  0
LTYPE
  5
1F5
100
AcDbSymbolTableRecord
100
AcDbLinetypeTableRecord
  2
CENTER
 70
64
  3
____ _ ____ _ ____ _ ____ _ ____ _ ____ _ ____
 72
65
 73
4
 40
0.6
 49
0.375
 74
0
 49
-0.075
 74
0
 49
0.075
 74
0
 49
-0.075
 74
0
  0
LTYPE
  5
1F6
100
AcDbSymbolTableRecord
100
AcDbLinetypeTableRecord
  2
HIDDEN
 70
64
  3
- - - - - - - - - - - - - - - - - - - -
 72
65
 73
2
 40
0.2
 49
0.1
 74
0
 49
-0.1
 74
0
  0
LTYPE
  5
1F7
100
AcDbSymbolTableRecord
100
AcDbLinetypeTableRecord
  2
PHANTOM
 70
64
  3
_____ _ _ _____ _ _ _____ _ _ _____
 72
65
 73
6
 40
0.8
 49
0.45
 74
0
 49
-0.05
 74
0
 49
0.1
 74
0
 49
-0.05
 74
0
 49
0.1
 74
0
 49
-0.05
 74
0
  0
LTYPE
  5
1F8
100
AcDbSymbolTableRecord
100
AcDbLinetypeTableRecord
  2
DOT
 70
64
  3
. . . . . . . . . . . . . . . . . . . .
 72
65
 73
2
 40
0.2
 49
0.1
 74
0
 49
-0.1
 74
0
  0
LTYPE
  5
1F9
100
AcDbSymbolTableRecord
100
AcDbLinetypeTableRecord
  2
DASHED
 70
64
  3
- - - - - - - - - - - - - - - - - - - -
 72
65
 73
2
 40
0.2
 49
0.1
 74
0
 49
-0.1
 74
0
  0
ENDTAB
  0
TABLE
  2
LAYER
  5
2
100
AcDbSymbolTable
 70
36
  0
LAYER
  5
10
100
AcDbSymbolTableRecord
100
AcDbLayerTableRecord
  2
0
 70
0
 62
7
  6
CONTINUOUS
370
-3
390
F
  0
LAYER
  5
1FA
100
AcDbSymbolTableRecord
100
AcDbLayerTableRecord
  2
DEFAULT_1
 70
0
 62
7
  6
CENTER
370
-3
390
F
  0
LAYER
  5
1FB
100
AcDbSymbolTableRecord
100
AcDbLayerTableRecord
  2
DEFAULT_2
 70
0
 62
8
  6
HIDDEN
370
-3
390
F
  0
LAYER
  5
1FC
100
AcDbSymbolTableRecord
100
AcDbLayerTableRecord
  2
DEFAULT_3
 70
0
 62
7
  6
PHANTOM
370
-3
390
F
  0
LAYER
  5
1FD
100
AcDbSymbolTableRecord
100
AcDbLayerTableRecord
  2
DEFAULT_COORDINATE_SYSTEM
 70
0
 62
7
  6
CONTINUOUS
370
-3
390
F
  0
LAYER
  5
1FE
100
AcDbSymbolTableRecord
100
AcDbLayerTableRecord
  2
DEFAULT_DATUM_AXES
 70
0
 62
7
  6
CONTINUOUS
370
-3
390
F
  0
LAYER
  5
1FF
100
AcDbSymbolTableRecord
100
AcDbLayerTableRecord
  2
DEFAULT_DATUM_CURVES
 70
0
 62
7
  6
CONTINUOUS
370
-3
390
F
  0
LAYER
  5
200
100
AcDbSymbolTableRecord
100
AcDbLayerTableRecord
  2
DEFAULT_DATUM_PLANES
 70
0
 62
7
  6
CONTINUOUS
370
-3
390
F
  0
ENDTAB
  0
TABLE
  2
STYLE
  5
3
100
AcDbSymbolTable
 70
1
  0
STYLE
  5
11
100
AcDbSymbolTableRecord
100
AcDbTextStyleTableRecord
  2
STANDARD
 70
0
 40
0.0
 41
0.8
 50
0.0
 71
0
 42
0.2
  3
txt
  4

  0
STYLE
  5
201
100
AcDbSymbolTableRecord
100
AcDbTextStyleTableRecord
  2
TEXTSTYLE_1
 70
0
 40
0.0
 41
0.8
 50
0.0
 71
0
 42
0.2
  3
gdt
  4

  0
ENDTAB
  0
TABLE
  2
VIEW
  5
6
100
AcDbSymbolTable
 70
0
  0
ENDTAB
  0
TABLE
  2
UCS
  5
7
100
AcDbSymbolTable
 70
0
  0
ENDTAB
  0
TABLE
  2
APPID
  5
9
100
AcDbSymbolTable
 70
1
  0
APPID
  5
202
100
AcDbSymbolTableRecord
100
AcDbRegAppTableRecord
  2
ACAD
 70
0
  0
ENDTAB
  0
TABLE
  2
BLOCK_RECORD
  5
1
100
AcDbSymbolTable
 70
0
  0
BLOCK_RECORD
  5
203
100
AcDbSymbolTableRecord
100
AcDbBlockTableRecord
  2
*Model_Space
  0
BLOCK_RECORD
  5
204
100
AcDbSymbolTableRecord
100
AcDbBlockTableRecord
  2
*Paper_Space
  0
ENDTAB
  0
TABLE
  2
DIMSTYLE
  5
A
100
AcDbSymbolTable
 70
1
100
AcDbDimStyleTable
 71
0
  0
DIMSTYLE
105
205
100
AcDbSymbolTableRecord
100
AcDbDimStyleTableRecord
  2
STANDARD
 70
0
  3

  4

 40
1.0
 41
0.1875
 42
0.0625
 43
0.38
 44
0.18
 45
0.0
 46
0.0
 47
0.001
 48
0.001
140
0.15625
141
0.09
142
0.0
143
25.4
144
1.0
145
0.0
146
1.0
147
0.09
 71
0.0
 72
0.0
 73
1
 74
1
 75
0
 76
0
 77
0
 78
4
170
0
171
2
172
0
173
0
174
0
175
0
176
0
177
0
178
0
270
2
271
3
272
3
273
2
274
2
275
0
280
0
281
0
282
0
283
1
284
4
285
0
286
0
287
3
288
0
340
11
  0
ENDTAB
  0
ENDSEC
  0
SECTION
  2
BLOCKS
  0
BLOCK
  5
20
100
AcDbEntity
  8
0
100
AcDbBlockBegin
  2
*Model_Space
 70
0
 10
0.0
 20
0.0
 30
0.0
  3
*Model_Space
  1

  0
ENDBLK
  5
21
100
AcDbEntity
  8
0
100
AcDbBlockEnd
  0
BLOCK
  5
1C
100
AcDbEntity
  8
0
100
AcDbBlockBegin
  2
*Paper_Space
 70
0
 10
0.0
 20
0.0
 30
0.0
  3
*Paper_Space
  1

  0
ENDBLK
  5
1D
100
AcDbEntity
  8
0
100
AcDbBlockEnd
  0
ENDSEC
  0
SECTION
  2
ENTITIES
  0
LINE
  5
206
100
AcDbEntity
  8
0
100
AcDbLine
 62
6
  6
CONTINUOUS
 10
4.554626229
 20
5.0848005413
 11
4.554626229
 21
3.4086277982
  0
LINE
  5
207
100
AcDbEntity
  8
0
100
AcDbLine
 62
6
  6
CONTINUOUS
 10
4.8415398575
 20
3.1217141698
 11
6.5177126006
 21
3.1217141698
  0
LINE
  5
208
100
AcDbEntity
  8
0
100
AcDbLine
 62
6
  6
CONTINUOUS
 10
4.754626229
 20
5.2789367966
 11
4.754626229
 21
5.2036214343
  0
LINE
  5
209
100
AcDbEntity
  8
0
100
AcDbLine
 62
6
  6
CONTINUOUS
 10
4.754626229
 20
3.2898069052
 11
4.754626229
 21
3.2144915429
  0
LINE
  5
20A
100
AcDbEntity
  8
0
100
AcDbLine
 62
6
  6
CONTINUOUS
 10
4.6474036022
 20
3.3217141698
 11
4.7227189644
 21
3.3217141698
  0
LINE
  5
20B
100
AcDbEntity
  8
0
100
AcDbLine
 62
6
  6
CONTINUOUS
 10
6.6365334936
 20
3.3217141698
 11
6.7118488558
 21
3.3217141698
  0
LINE
  5
20C
100
AcDbEntity
  8
0
100
AcDbLine
 62
9
  6
CONTINUOUS
 10
5.162126229
 20
4.4416571101
 11
5.162126229
 21
4.0517712294
  0
LINE
  5
20D
100
AcDbEntity
  8
0
100
AcDbLine
 62
9
  6
CONTINUOUS
 10
6.804626229
 20
4.2467141698
 11
6.4296262063
 21
4.2467141698
  0
LINE
  5
20E
100
AcDbEntity
  8
0
100
AcDbLine
 62
9
  6
CONTINUOUS
 10
4.554626229
 20
4.2467141698
 11
4.9296262517
 21
4.2467141698
  0
LINE
  5
20F
100
AcDbEntity
  8
0
100
AcDbLine
 62
6
  6
CONTINUOUS
 10
6.197126229
 20
4.4416571101
 11
6.197126229
 21
4.0517712294
  0
LINE
  5
210
100
AcDbEntity
  8
0
100
AcDbLine
 62
6
  6
CONTINUOUS
 10
6.604626229
 20
3.2144915429
 11
6.604626229
 21
3.2898069052
  0
LINE
  5
211
100
AcDbEntity
  8
0
100
AcDbLine
 62
6
  6
CONTINUOUS
 10
6.604626229
 20
5.2036214343
 11
6.604626229
 21
5.2789367966
  0
LINE
  5
212
100
AcDbEntity
  8
0
100
AcDbLine
 62
6
  6
CONTINUOUS
 10
6.7118488558
 20
5.1717141698
 11
6.6365334936
 21
5.1717141698
  0
LINE
  5
213
100
AcDbEntity
  8
0
100
AcDbLine
 62
6
  6
CONTINUOUS
 10
4.7227189644
 20
5.1717141698
 11
4.6474036022
 21
5.1717141698
  0
LINE
  5
214
100
AcDbEntity
  8
0
100
AcDbLine
 62
6
  6
CONTINUOUS
 10
6.804626229
 20
3.4086277982
 11
6.804626229
 21
5.0848005413
  0
LINE
  5
215
100
AcDbEntity
  8
0
100
AcDbLine
 62
6
  6
CONTINUOUS
 10
6.5177126006
 20
5.3717141698
 11
4.8415398575
 21
5.3717141698
  0
ARC
  5
216
100
AcDbEntity
  8
0
100
AcDbCircle
 62
9
  6
CONTINUOUS
 10
4.9443327531
 20
3.2401338162
 40
2.005258815
100
AcDbArc
 50
53.4445257156
 51
53.5624672469
  0
ARC
  5
217
100
AcDbEntity
  8
0
100
AcDbCircle
 62
9
  6
CONTINUOUS
 10
4.7923005372
 20
3.5996531326
 40
1.8569125362
100
AcDbArc
 50
36.4328234461
 51
36.5601885365
  0
ARC
  5
218
100
AcDbEntity
  8
0
100
AcDbCircle
 62
9
  6
CONTINUOUS
 10
5.6443102389
 20
4.2460946904
 40
0.7876524637
100
AcDbArc
 50
0.0450635333
 51
35.4066865251
  0
ARC
  5
219
100
AcDbEntity
  8
0
100
AcDbCircle
 62
9
  6
CONTINUOUS
 10
5.674637271
 20
4.2212763902
 40
0.7705677936
100
AcDbArc
 50
133.4422363211
 51
141.0436570138
  0
ARC
  5
21A
100
AcDbEntity
  8
0
100
AcDbCircle
 62
9
  6
CONTINUOUS
 10
5.6542765134
 20
4.2416342911
 40
0.7704417232
100
AcDbArc
 50
308.9555011332
 51
316.5581661687
  0
ARC
  5
21B
100
AcDbEntity
  8
0
100
AcDbCircle
 62
9
  6
CONTINUOUS
 10
5.1120811736
 20
3.6791691143
 40
0.0468105489
100
AcDbArc
 50
44.3057473526
 51
45.6942526476
  0
ARC
  5
21C
100
AcDbEntity
  8
0
100
AcDbCircle
 62
9
  6
CONTINUOUS
 10
5.6444051678
 20
4.2473033987
 40
0.7875547341
100
AcDbArc
 50
324.5912884215
 51
359.9571318447
  0
ARC
  5
21D
100
AcDbEntity
  8
0
100
AcDbCircle
 62
9
  6
CONTINUOUS
 10
5.654496602
 20
4.2520475088
 40
0.7701063731
100
AcDbArc
 50
43.4393901058
 51
51.0455158844
  0
ARC
  5
21E
100
AcDbEntity
  8
0
100
AcDbCircle
 62
9
  6
CONTINUOUS
 10
5.6741930386
 20
4.2717570529
 40
0.7699741868
100
AcDbArc
 50
218.9541369114
 51
226.561571587
  0
ARC
  5
21F
100
AcDbEntity
  8
0
100
AcDbCircle
 62
9
  6
CONTINUOUS
 10
5.112081159
 20
4.8142592398
 40
0.0468105695
100
AcDbArc
 50
314.305747762
 51
315.6942523538
  0
ARC
  5
220
100
AcDbEntity
  8
0
100
AcDbCircle
 62
9
  6
CONTINUOUS
 10
5.7148472118
 20
4.2461249989
 40
0.787554645
100
AcDbArc
 50
144.5912885658
 51
179.9571360647
  0
ARC
  5
221
100
AcDbEntity
  8
0
100
AcDbCircle
 62
9
  6
CONTINUOUS
 10
5.6847917545
 20
4.2214342203
 40
0.7703313786
100
AcDbArc
 50
38.9553328604
 51
46.5592305683
  0
ARC
  5
222
100
AcDbEntity
  8
0
100
AcDbCircle
 62
9
  6
CONTINUOUS
 10
5.7047621681
 20
4.2413883794
 40
0.7701162117
100
AcDbArc
 50
223.4394755711
 51
231.0455037665
  0
ARC
  5
223
100
AcDbEntity
  8
0
100
AcDbCircle
 62
9
  6
CONTINUOUS
 10
6.2471712982
 20
3.6791691006
 40
0.0468105683
100
AcDbArc
 50
134.3057477292
 51
135.6942523753
  0
ARC
  5
224
100
AcDbEntity
  8
0
100
AcDbCircle
 62
9
  6
CONTINUOUS
 10
6.4147612543
 20
5.253080361
 40
2.0049924093
100
AcDbArc
 50
233.444517851
 51
233.5624750605
  0
ARC
  5
225
100
AcDbEntity
  8
0
100
AcDbCircle
 62
9
  6
CONTINUOUS
 10
6.5653738926
 20
4.892607602
 40
1.8549495201
100
AcDbArc
 50
216.4327544701
 51
216.5602539843
  0
ARC
  5
226
100
AcDbEntity
  8
0
100
AcDbCircle
 62
9
  6
CONTINUOUS
 10
5.7149422301
 20
4.2473336574
 40
0.7876524742
100
AcDbArc
 50
180.045064133
 51
215.4066871865
  0
ARC
  5
227
100
AcDbEntity
  8
0
100
AcDbCircle
 62
9
  6
CONTINUOUS
 10
5.6846016631
 20
4.2721641408
 40
0.7705859752
100
AcDbArc
 50
313.4423433805
 51
321.0435843406
  0
ARC
  5
228
100
AcDbEntity
  8
0
100
AcDbCircle
 62
9
  6
CONTINUOUS
 10
5.7049803204
 20
4.251789766
 40
0.7704478044
100
AcDbArc
 50
128.9555539742
 51
136.5581590541
  0
CIRCLE
  5
229
100
AcDbEntity
  8
0
100
AcDbCircle
 62
6
  6
CONTINUOUS
 10
5.679626229
 20
4.2467141698
 40
0.75
  0
CIRCLE
  5
22A
100
AcDbEntity
  8
0
100
AcDbCircle
 62
9
  6
CONTINUOUS
 10
5.679626229
 20
4.2467141698
 40
0.65
  0
CIRCLE
  5
22B
100
AcDbEntity
  8
0
100
AcDbCircle
 62
7
  6
CONTINUOUS
 10
5.679626229
 20
4.2467141698
 40
0.6225
  0
CIRCLE
  5
22C
100
AcDbEntity
  8
0
100
AcDbCircle
 62
6
  6
CONTINUOUS
 10
5.679626229
 20
4.2467141698
 40
0.619
  0
CIRCLE
  5
22D
100
AcDbEntity
  8
0
100
AcDbCircle
 62
6
  6
CONTINUOUS
 10
5.679626229
 20
4.2467141698
 40
0.593
  0
ARC
  5
22E
100
AcDbEntity
  8
0
100
AcDbCircle
 62
9
  6
CONTINUOUS
 10
5.679626229
 20
4.2467141698
 40
0.5632512627
100
AcDbArc
 50
194.739668522
 51
345.260331478
  0
ARC
  5
22F
100
AcDbEntity
  8
0
100
AcDbCircle
 62
9
  6
CONTINUOUS
 10
5.679626229
 20
4.2467141698
 40
0.5632512627
100
AcDbArc
 50
14.739668522
 51
165.260331478
  0
ARC
  5
230
100
AcDbEntity
  8
0
100
AcDbCircle
 62
9
  6
CONTINUOUS
 10
5.679626229
 20
4.2467141698
 40
0.553
100
AcDbArc
 50
198.8985985245
 51
341.1014014755
  0
ARC
  5
231
100
AcDbEntity
  8
0
100
AcDbCircle
 62
9
  6
CONTINUOUS
 10
5.679626229
 20
4.2467141698
 40
0.553
100
AcDbArc
 50
18.8985985245
 51
161.1014014755
  0
CIRCLE
  5
232
100
AcDbEntity
  8
0
100
AcDbCircle
 62
6
  6
CONTINUOUS
 10
5.679626229
 20
4.2467141698
 40
0.5125
  0
CIRCLE
  5
233
100
AcDbEntity
  8
0
100
AcDbCircle
 62
6
  6
CONTINUOUS
 10
5.679626229
 20
4.2467141698
 40
0.505
  0
ARC
  5
234
100
AcDbEntity
  8
0
100
AcDbCircle
 62
9
  6
CONTINUOUS
 10
6.2471712815
 20
4.8142592223
 40
0.0468105447
100
AcDbArc
 50
224.3057472615
 51
225.6942524634
  0
SPLINE
  5
235
100
AcDbEntity
  8
0
100
AcDbSpline
 62
6
  6
CONTINUOUS
 70
0
 71
3
 72
31
 73
27
 74
25
 42
0.0000001
 43
0.0000001
 44
0.0000000001
 12
-0.0000000172
 22
-0.1435418828
 32
0.0
 13
-0.1435418809
 23
0.0000235574
 33
0.0
 40
0.0
 40
0.0
 40
0.0
 40
0.0
 40
0.0624437881
 40
0.1249249895
 40
0.1561817682
 40
0.1874357524
 40
0.2186866903
 40
0.2499443066
 40
0.2812131393
 40
0.3124829516
 40
0.3437495548
 40
0.3750175529
 40
0.406290958
 40
0.4375653164
 40
0.4688359781
 40
0.5001005356
 40
0.5313640845
 40
0.5626299535
 40
0.5938940545
 40
0.6251502486
 40
0.6564061952
 40
0.6876656327
 40
0.7501500247
 40
0.8126314902
 40
0.8751307794
 40
1.0
 40
1.0
 40
1.0
 40
1.0
 10
6.804626229
 20
3.4086277982
 30
0.0
 10
6.8046262286
 20
3.4056400319
 30
0.0
 10
6.804398034
 20
3.3996599062
 30
0.0
 10
6.8034866675
 20
3.3922323923
 30
0.0
 10
6.8023496105
 20
3.386358964
 30
0.0
 10
6.8012858854
 20
3.3819987465
 30
0.0
 10
6.8000046784
 20
3.3776972547
 30
0.0
 10
6.7984991049
 20
3.3734681077
 30
0.0
 10
6.796765251
 20
3.3693262038
 30
0.0
 10
6.7948032314
 20
3.3652867826
 30
0.0
 10
6.7926130704
 20
3.3613662242
 30
0.0
 10
6.7901942712
 20
3.3575820633
 30
0.0
 10
6.787551879
 20
3.3539500284
 30
0.0
 10
6.7846966132
 20
3.350482712
 30
0.0
 10
6.7816384504
 20
3.3471934542
 30
0.0
 10
6.7783865471
 20
3.3440963449
 30
0.0
 10
6.7749553481
 20
3.3411996983
 30
0.0
 10
6.7713614863
 20
3.3385077844
 30
0.0
 10
6.7676204796
 20
3.3360251818
 30
0.0
 10
6.7637469312
 20
3.3337561672
 30
0.0
 10
6.7597571986
 20
3.3316990103
 30
0.0
 10
6.7543050339
 20
3.3292349823
 30
0.0
 10
6.7472714903
 20
3.3266677959
 30
0.0
 10
6.7385889519
 20
3.3243711807
 30
0.0
 10
6.7268089073
 20
3.3222780739
 30
0.0
 10
6.7178235101
 20
3.3217131892
 30
0.0
 10
6.7118488558
 20
3.3217141698
 30
0.0
 11
6.804626229
 21
3.4086277982
 31
0.0
 11
6.8042729825
 21
3.3996714628
 31
0.0
 11
6.803168622
 21
3.3907710461
 31
0.0
 11
6.8023144518
 21
3.3863664482
 31
0.0
 11
6.8012496039
 21
3.3820083993
 31
0.0
 11
6.7999674228
 21
3.3777097276
 31
0.0
 11
6.7984613051
 21
3.3734832896
 31
0.0
 11
6.7967272693
 21
3.3693433936
 31
0.0
 11
6.7947651338
 21
3.365306451
 31
0.0
 11
6.7925750148
 21
3.361389038
 31
0.0
 11
6.7901571863
 21
3.3576076825
 31
0.0
 11
6.7875164393
 21
3.3539775357
 31
0.0
 11
6.7846626328
 21
3.3505122033
 31
0.0
 11
6.7816058949
 21
3.3472252094
 31
0.0
 11
6.7783566014
 21
3.3441296961
 31
0.0
 11
6.7749283215
 21
3.3412338874
 31
0.0
 11
6.7713368437
 21
3.3385425889
 31
0.0
 11
6.7675980014
 21
3.3360605373
 31
0.0
 11
6.7637275254
 21
3.333791451
 31
0.0
 11
6.7597406255
 21
3.3317338681
 31
0.0
 11
6.7556523461
 21
3.3298846828
 31
0.0
 11
6.7472309401
 21
3.3267983964
 31
0.0
 11
6.7385637579
 21
3.3244923908
 31
0.0
 11
6.7297327246
 21
3.3229123723
 31
0.0
 11
6.7118488558
 21
3.3217141698
 31
0.0
  0
SPLINE
  5
236
100
AcDbEntity
  8
0
100
AcDbSpline
 62
6
  6
CONTINUOUS
 70
0
 71
3
 72
31
 73
27
 74
25
 42
0.0000001
 43
0.0000001
 44
0.0000000001
 12
0.1435418832
 22
0.0000130897
 32
0.0
 13
0.0000000355
 23
-0.1435418838
 33
0.0
 40
0.0
 40
0.0
 40
0.0
 40
0.0
 40
0.1248698347
 40
0.1873694069
 40
0.249851436
 40
0.3123359423
 40
0.3435955416
 40
0.3748516218
 40
0.4061077507
 40
0.4373717411
 40
0.4686376109
 40
0.4999011644
 40
0.5311655873
 40
0.5624360392
 40
0.5937102185
 40
0.6249835069
 40
0.6562514127
 40
0.6875178369
 40
0.718787444
 40
0.7500561105
 40
0.7813136124
 40
0.8125644001
 40
0.8438182272
 40
0.875074883
 40
0.9375560873
 40
1.0
 40
1.0
 40
1.0
 40
1.0
 10
6.7118488558
 20
5.1717141698
 30
0.0
 10
6.7178235396
 20
5.1717147146
 30
0.0
 10
6.7268089557
 20
5.1711501689
 30
0.0
 10
6.7385891178
 20
5.1690572126
 30
0.0
 10
6.7472716809
 20
5.1667605091
 30
0.0
 10
6.7543052469
 20
5.1641932685
 30
0.0
 10
6.7597574144
 20
5.1617291986
 30
0.0
 10
6.7637471494
 20
5.1596720239
 30
0.0
 10
6.7676207092
 20
5.157403033
 30
0.0
 10
6.7713617056
 20
5.1549204284
 30
0.0
 10
6.774955538
 20
5.1522284828
 30
0.0
 10
6.7783867103
 20
5.1493318161
 30
0.0
 10
6.7816386298
 20
5.1462347476
 30
0.0
 10
6.7846967653
 20
5.142945497
 30
0.0
 10
6.7875519853
 20
5.1394781741
 30
0.0
 10
6.7901943423
 20
5.1358461376
 30
0.0
 10
6.7926131546
 20
5.1320620074
 30
0.0
 10
6.7948032991
 20
5.1281414651
 30
0.0
 10
6.7967652922
 20
5.1241020603
 30
0.0
 10
6.7984991222
 20
5.1199601718
 30
0.0
 10
6.8000046913
 20
5.1157310453
 30
0.0
 10
6.8012858931
 20
5.1114295729
 30
0.0
 10
6.8023496136
 20
5.1070693754
 30
0.0
 10
6.8034866659
 20
5.1011959596
 30
0.0
 10
6.8043980292
 20
5.0937684453
 30
0.0
 10
6.8046262283
 20
5.0877883136
 30
0.0
 10
6.804626229
 20
5.0848005413
 30
0.0
 11
6.7118488558
 21
5.1717141698
 31
0.0
 11
6.7297328074
 21
5.1705158834
 31
0.0
 11
6.7385639011
 21
5.1689359715
 31
0.0
 11
6.7472311512
 21
5.1666299062
 31
0.0
 11
6.755652553
 21
5.1635435601
 31
0.0
 11
6.7597408431
 21
5.1616943422
 31
0.0
 11
6.7637277553
 21
5.1596367414
 31
0.0
 11
6.7675982302
 21
5.1573676715
 31
0.0
 11
6.7713370551
 21
5.1548856223
 31
0.0
 11
6.7749285119
 21
5.1521942956
 31
0.0
 11
6.778356778
 21
5.1492984694
 31
0.0
 11
6.7816060706
 21
5.1462029832
 31
0.0
 11
6.7846627808
 21
5.1429160046
 31
0.0
 11
6.787516545
 21
5.1394506707
 31
0.0
 11
6.7901572648
 21
5.1358205247
 31
0.0
 11
6.7925750965
 21
5.132039187
 31
0.0
 11
6.7947652007
 21
5.1281217952
 31
0.0
 11
6.79672731
 21
5.1240848725
 31
0.0
 11
6.7984613246
 21
5.1199449935
 31
0.0
 11
6.7999674361
 21
5.1157185707
 31
0.0
 11
6.8012496118
 21
5.1114199198
 31
0.0
 11
6.8023144544
 21
5.1070618928
 31
0.0
 11
6.80316862
 21
5.1026573119
 31
0.0
 11
6.8042729788
 21
5.0937568946
 31
0.0
 11
6.804626229
 21
5.0848005413
 31
0.0
  0
SPLINE
  5
237
100
AcDbEntity
  8
0
100
AcDbSpline
 62
6
  6
CONTINUOUS
 70
0
 71
3
 72
31
 73
27
 74
25
 42
0.0000001
 43
0.0000001
 44
0.0000000001
 12
0.1435418815
 22
-0.000000035
 32
0.0
 13
-0.0000130415
 23
-0.1435418809
 33
0.0
 40
0.0
 40
0.0
 40
0.0
 40
0.0
 40
0.0624437895
 40
0.1249249918
 40
0.1561817707
 40
0.1874357553
 40
0.2186866939
 40
0.2499443116
 40
0.2812131459
 40
0.3124829592
 40
0.3437495624
 40
0.3750175588
 40
0.4062909615
 40
0.4375653193
 40
0.4688359843
 40
0.5001005504
 40
0.5313641084
 40
0.5626299795
 40
0.5938940697
 40
0.6251502397
 40
0.6564061663
 40
0.6876656054
 40
0.7501500972
 40
0.8126316163
 40
0.8751307401
 40
1.0
 40
1.0
 40
1.0
 40
1.0
 10
6.5177126006
 20
5.3717141698
 30
0.0
 10
6.5207003669
 20
5.371714169
 30
0.0
 10
6.5266804927
 20
5.3714859743
 30
0.0
 10
6.5341080066
 20
5.3705746082
 30
0.0
 10
6.539981435
 20
5.3694375514
 30
0.0
 10
6.5443416526
 20
5.3683738265
 30
0.0
 10
6.5486431445
 20
5.3670926196
 30
0.0
 10
6.5528722917
 20
5.3655870464
 30
0.0
 10
6.5570141959
 20
5.3638531928
 30
0.0
 10
6.5610536173
 20
5.3618911736
 30
0.0
 10
6.5649741759
 20
5.359701013
 30
0.0
 10
6.5687583366
 20
5.3572822139
 30
0.0
 10
6.5723903712
 20
5.3546398216
 30
0.0
 10
6.5758576874
 20
5.3517845558
 30
0.0
 10
6.5791469457
 20
5.3487263928
 30
0.0
 10
6.5822440564
 20
5.3454744895
 30
0.0
 10
6.5851407047
 20
5.3420432907
 30
0.0
 10
6.5878326188
 20
5.338449429
 30
0.0
 10
6.5903152185
 20
5.3347084223
 30
0.0
 10
6.5925842255
 20
5.3308348724
 30
0.0
 10
6.5946413753
 20
5.3268451386
 30
0.0
 10
6.5971054025
 20
5.3213929695
 30
0.0
 10
6.5996726264
 20
5.3143594336
 30
0.0
 10
6.6019693094
 20
5.3056769127
 30
0.0
 10
6.6040622211
 20
5.2938968179
 30
0.0
 10
6.6046267718
 20
5.2849114527
 30
0.0
 10
6.604626229
 20
5.2789367966
 30
0.0
 11
6.5177126006
 21
5.3717141698
 31
0.0
 11
6.5266689361
 21
5.3713609229
 31
0.0
 11
6.5355693529
 21
5.3702565628
 31
0.0
 11
6.5399739508
 21
5.3694023927
 31
0.0
 11
6.5443319997
 21
5.368337545
 31
0.0
 11
6.5486306716
 21
5.3670553641
 31
0.0
 11
6.5528571098
 21
5.3655492465
 31
0.0
 11
6.5569970061
 21
5.3638152111
 31
0.0
 11
6.561033949
 21
5.361853076
 31
0.0
 11
6.5649513622
 21
5.3596629572
 31
0.0
 11
6.5687327174
 21
5.357245129
 31
0.0
 11
6.5723628638
 21
5.354604382
 31
0.0
 11
6.575828196
 21
5.3517505755
 31
0.0
 11
6.5791151905
 21
5.3486938375
 31
0.0
 11
6.5822107053
 21
5.3454445439
 31
0.0
 11
6.5851065157
 21
5.3420162637
 31
0.0
 11
6.5877978143
 21
5.3384247857
 31
0.0
 11
6.5902798626
 21
5.3346859431
 31
0.0
 11
6.5925489416
 21
5.3308154669
 31
0.0
 11
6.5946065178
 21
5.3268285668
 31
0.0
 11
6.5964557032
 21
5.3227402873
 31
0.0
 11
6.5995420308
 21
5.3143188811
 31
0.0
 11
6.601848066
 21
5.305651699
 31
0.0
 11
6.6034279492
 21
5.2968206657
 31
0.0
 11
6.604626229
 21
5.2789367966
 31
0.0
  0
SPLINE
  5
238
100
AcDbEntity
  8
0
100
AcDbSpline
 62
6
  6
CONTINUOUS
 70
0
 71
3
 72
30
 73
26
 74
24
 42
0.0000001
 43
0.0000001
 44
0.0000000001
 12
-0.0000234185
 22
0.1435389044
 32
0.0
 13
0.1435389063
 23
0.0000000157
 33
0.0
 40
0.0
 40
0.0
 40
0.0
 40
0.0
 40
0.124878005
 40
0.1873817087
 40
0.2498677091
 40
0.3123523457
 40
0.3748497226
 40
0.4061060766
 40
0.4373696961
 40
0.4686358156
 40
0.4998997381
 40
0.5311639293
 40
0.5624338756
 40
0.593707857
 40
0.6249813812
 40
0.6562496752
 40
0.6875159196
 40
0.718785243
 40
0.7500540274
 40
0.7813121023
 40
0.812562997
 40
0.8438166955
 40
0.8750733261
 40
0.9375550952
 40
1.0
 40
1.0
 40
1.0
 40
1.0
 10
4.754626229
 20
5.2789367966
 30
0.0
 10
4.7546252542
 20
5.2849117473
 30
0.0
 10
4.7551900893
 20
5.2938976665
 30
0.0
 10
4.7572835226
 20
5.3056780996
 30
0.0
 10
4.7595805084
 20
5.3143613203
 30
0.0
 10
4.7626602805
 20
5.3227995297
 30
0.0
 10
4.7659135837
 20
5.3295462873
 30
0.0
 10
4.7689380839
 20
5.3347099065
 30
0.0
 10
4.7714206905
 20
5.3384509022
 30
0.0
 10
4.774112774
 20
5.3420445059
 30
0.0
 10
4.7770095406
 20
5.3454754945
 30
0.0
 10
4.7801063706
 20
5.3487274836
 30
0.0
 10
4.7833955744
 20
5.3517854775
 30
0.0
 10
4.7868629527
 20
5.3546404503
 30
0.0
 10
4.7904950228
 20
5.3572826269
 30
0.0
 10
4.7942789897
 20
5.3597015582
 30
0.0
 10
4.7981994705
 20
5.3618916243
 30
0.0
 10
4.8022388269
 20
5.3638534664
 30
0.0
 10
4.8063806857
 20
5.3655871716
 30
0.0
 10
4.8106097444
 20
5.367092764
 30
0.0
 10
4.8149111561
 20
5.36837394
 30
0.0
 10
4.8192712661
 20
5.3694376168
 30
0.0
 10
4.8251445855
 20
5.3705746163
 30
0.0
 10
4.832572017
 20
5.3714859741
 30
0.0
 10
4.8385520997
 20
5.3717141694
 30
0.0
 10
4.8415398575
 20
5.3717141698
 30
0.0
 11
4.754626229
 21
5.2789367966
 31
0.0
 11
4.7558245015
 21
5.2968215519
 31
0.0
 11
4.7574047609
 21
5.3056529968
 31
0.0
 11
4.7597109969
 21
5.3143205988
 31
0.0
 11
4.7627973496
 21
5.3227418199
 31
0.0
 11
4.7667045032
 21
5.3308170595
 31
0.0
 11
4.7689735097
 21
5.334687501
 31
0.0
 11
4.7714555013
 21
5.3384261886
 31
0.0
 11
4.7741469509
 21
5.3420174818
 31
0.0
 11
4.7770428541
 21
5.3454456302
 31
0.0
 11
4.7801381793
 21
5.3486949018
 31
0.0
 11
4.7834250698
 21
5.3517514634
 31
0.0
 11
4.7868904304
 21
5.354605004
 31
0.0
 11
4.7905205969
 21
5.3572455949
 31
0.0
 11
4.794301854
 21
5.3596634833
 31
0.0
 11
4.7982191488
 21
5.3618535174
 31
0.0
 11
4.8022559948
 21
5.3638154783
 31
0.0
 11
4.8063958345
 21
5.3655493895
 31
0.0
 11
4.8106222433
 21
5.367055508
 31
0.0
 11
4.8149208202
 21
5.36833766
 31
0.0
 11
4.8192787436
 21
5.3694024567
 31
0.0
 11
4.8236832336
 21
5.3702565832
 31
0.0
 11
4.8325835477
 21
5.3713609217
 31
0.0
 11
4.8415398575
 21
5.3717141698
 31
0.0
  0
SPLINE
  5
239
100
AcDbEntity
  8
0
100
AcDbSpline
 62
6
  6
CONTINUOUS
 70
0
 71
3
 72
31
 73
27
 74
25
 42
0.0000001
 43
0.0000001
 44
0.0000000001
 12
0.0000000173
 22
0.1435418828
 32
0.0
 13
0.1435418809
 23
-0.000023455
 33
0.0
 40
0.0
 40
0.0
 40
0.0
 40
0.0
 40
0.0624437881
 40
0.1249249895
 40
0.1561817683
 40
0.1874357524
 40
0.2186866903
 40
0.2499443066
 40
0.2812131393
 40
0.3124829516
 40
0.3437495549
 40
0.375017553
 40
0.406290958
 40
0.4375653165
 40
0.4688359782
 40
0.5001005357
 40
0.5313640847
 40
0.5626299538
 40
0.5938940547
 40
0.6251502485
 40
0.6564061949
 40
0.6876656325
 40
0.7501500254
 40
0.8126314914
 40
0.875130779
 40
1.0
 40
1.0
 40
1.0
 40
1.0
 10
4.554626229
 20
5.0848005413
 30
0.0
 10
4.5546262294
 20
5.0877883076
 30
0.0
 10
4.554854424
 20
5.0937684334
 30
0.0
 10
4.5557657905
 20
5.1011959472
 30
0.0
 10
4.5569028475
 20
5.1070693755
 30
0.0
 10
4.5579665726
 20
5.1114295931
 30
0.0
 10
4.5592477796
 20
5.1157310849
 30
0.0
 10
4.5607533531
 20
5.1199602319
 30
0.0
 10
4.562487207
 20
5.1241021358
 30
0.0
 10
4.5644492266
 20
5.1281415569
 30
0.0
 10
4.5666393875
 20
5.1320621153
 30
0.0
 10
4.5690581868
 20
5.1358462762
 30
0.0
 10
4.571700579
 20
5.1394783112
 30
0.0
 10
4.5745558448
 20
5.1429456275
 30
0.0
 10
4.5776140076
 20
5.1462348853
 30
0.0
 10
4.5808659109
 20
5.1493319946
 30
0.0
 10
4.5842971099
 20
5.1522286413
 30
0.0
 10
4.5878909717
 20
5.1549205552
 30
0.0
 10
4.5916319783
 20
5.1574031578
 30
0.0
 10
4.5955055268
 20
5.1596721723
 30
0.0
 10
4.5994952594
 20
5.1617293291
 30
0.0
 10
4.6049474242
 20
5.1641933571
 30
0.0
 10
4.6119809677
 20
5.1667605438
 30
0.0
 10
4.6206635059
 20
5.1690571597
 30
0.0
 10
4.632443551
 20
5.1711502646
 30
0.0
 10
4.6414289479
 20
5.171715146
 30
0.0
 10
4.6474036022
 20
5.1717141698
 30
0.0
 11
4.554626229
 21
5.0848005413
 31
0.0
 11
4.5549794756
 21
5.0937568767
 31
0.0
 11
4.556083836
 21
5.1026572934
 31
0.0
 11
4.5569380063
 21
5.1070618914
 31
0.0
 11
4.5580028541
 21
5.1114199402
 31
0.0
 11
4.5592850352
 21
5.115718612
 31
0.0
 11
4.5607911529
 21
5.11994505
 31
0.0
 11
4.5625251887
 21
5.1240849459
 31
0.0
 11
4.5644873242
 21
5.1281218886
 31
0.0
 11
4.5666774432
 21
5.1320393016
 31
0.0
 11
4.5690952717
 21
5.135820657
 31
0.0
 11
4.5717360187
 21
5.1394508039
 31
0.0
 11
4.5745898252
 21
5.1429161362
 31
0.0
 11
4.5776465631
 21
5.1462031302
 31
0.0
 11
4.5808958566
 21
5.1492986434
 31
0.0
 11
4.5843241365
 21
5.1521944522
 31
0.0
 11
4.5879156143
 21
5.1548857507
 31
0.0
 11
4.5916544566
 21
5.1573678023
 31
0.0
 11
4.5955249326
 21
5.1596368885
 31
0.0
 11
4.5995118325
 21
5.1616944713
 31
0.0
 11
4.6036001119
 21
5.1635436566
 31
0.0
 11
4.6120215179
 21
5.1666299434
 31
0.0
 11
4.6206887001
 21
5.1689359493
 31
0.0
 11
4.6295197334
 21
5.1705159665
 31
0.0
 11
4.6474036022
 21
5.1717141698
 31
0.0
  0
SPLINE
  5
23A
100
AcDbEntity
  8
0
100
AcDbSpline
 62
6
  6
CONTINUOUS
 70
0
 71
3
 72
31
 73
27
 74
25
 42
0.0000001
 43
0.0000001
 44
0.0000000001
 12
-0.1435418832
 22
-0.0000130899
 32
0.0
 13
-0.0000000353
 23
0.1435418838
 33
0.0
 40
0.0
 40
0.0
 40
0.0
 40
0.0
 40
0.1248698347
 40
0.1873694069
 40
0.249851436
 40
0.3123359423
 40
0.3435955416
 40
0.3748516218
 40
0.4061077507
 40
0.4373717411
 40
0.468637611
 40
0.4999011644
 40
0.5311655873
 40
0.5624360392
 40
0.5937102185
 40
0.6249835069
 40
0.6562514127
 40
0.6875178369
 40
0.718787444
 40
0.7500561105
 40
0.7813136124
 40
0.8125644001
 40
0.8438182272
 40
0.875074883
 40
0.9375560873
 40
1.0
 40
1.0
 40
1.0
 40
1.0
 10
4.6474036022
 20
3.3217141698
 30
0.0
 10
4.6414289184
 20
3.3217136249
 30
0.0
 10
4.6324435023
 20
3.3222781707
 30
0.0
 10
4.6206633402
 20
3.3243711269
 30
0.0
 10
4.6119807771
 20
3.3266678304
 30
0.0
 10
4.6049472111
 20
3.329235071
 30
0.0
 10
4.5994950436
 20
3.3316991409
 30
0.0
 10
4.5955053086
 20
3.3337563156
 30
0.0
 10
4.5916317488
 20
3.3360253066
 30
0.0
 10
4.5878907524
 20
3.3385079112
 30
0.0
 10
4.58429692
 20
3.3411998567
 30
0.0
 10
4.5808657477
 20
3.3440965235
 30
0.0
 10
4.5776138283
 20
3.347193592
 30
0.0
 10
4.5745556927
 20
3.3504828425
 30
0.0
 10
4.5717004727
 20
3.3539501655
 30
0.0
 10
4.5690581158
 20
3.3575822019
 30
0.0
 10
4.5666393034
 20
3.3613663322
 30
0.0
 10
4.5644491589
 20
3.3652868745
 30
0.0
 10
4.5624871658
 20
3.3693262792
 30
0.0
 10
4.5607533358
 20
3.3734681677
 30
0.0
 10
4.5592477667
 20
3.3776972942
 30
0.0
 10
4.5579665649
 20
3.3819987666
 30
0.0
 10
4.5569028444
 20
3.3863589641
 30
0.0
 10
4.5557657921
 20
3.3922323799
 30
0.0
 10
4.5548544288
 20
3.3996598942
 30
0.0
 10
4.5546262297
 20
3.4056400259
 30
0.0
 10
4.554626229
 20
3.4086277982
 30
0.0
 11
4.6474036022
 21
3.3217141698
 31
0.0
 11
4.6295196506
 21
3.3229124561
 31
0.0
 11
4.6206885569
 21
3.3244923681
 31
0.0
 11
4.6120213068
 21
3.3267984333
 31
0.0
 11
4.6035999051
 21
3.3298847794
 31
0.0
 11
4.5995116149
 21
3.3317339973
 31
0.0
 11
4.5955247027
 21
3.3337915982
 31
0.0
 11
4.5916542279
 21
3.336060668
 31
0.0
 11
4.5879154029
 21
3.3385427172
 31
0.0
 11
4.5843239461
 21
3.341234044
 31
0.0
 11
4.5808956801
 21
3.3441298701
 31
0.0
 11
4.5776463874
 21
3.3472253563
 31
0.0
 11
4.5745896772
 21
3.3505123349
 31
0.0
 11
4.5717359131
 21
3.3539776688
 31
0.0
 11
4.5690951932
 21
3.3576078148
 31
0.0
 11
4.5666773615
 21
3.3613891525
 31
0.0
 11
4.5644872573
 21
3.3653065444
 31
0.0
 11
4.5625251481
 21
3.369343467
 31
0.0
 11
4.5607911335
 21
3.3734833461
 31
0.0
 11
4.5592850219
 21
3.3777097689
 31
0.0
 11
4.5580028462
 21
3.3820084198
 31
0.0
 11
4.5569380037
 21
3.3863664467
 31
0.0
 11
4.556083838
 21
3.3907710276
 31
0.0
 11
4.5549794792
 21
3.399671445
 31
0.0
 11
4.554626229
 21
3.4086277982
 31
0.0
  0
SPLINE
  5
23B
100
AcDbEntity
  8
0
100
AcDbSpline
 62
6
  6
CONTINUOUS
 70
0
 71
3
 72
31
 73
27
 74
25
 42
0.0000001
 43
0.0000001
 44
0.0000000001
 12
-0.1435418815
 22
0.000000035
 32
0.0
 13
0.0000130415
 23
0.1435418809
 33
0.0
 40
0.0
 40
0.0
 40
0.0
 40
0.0
 40
0.0624437895
 40
0.1249249918
 40
0.1561817707
 40
0.1874357553
 40
0.2186866939
 40
0.2499443116
 40
0.2812131459
 40
0.3124829592
 40
0.3437495624
 40
0.3750175588
 40
0.4062909615
 40
0.4375653193
 40
0.4688359843
 40
0.5001005504
 40
0.5313641084
 40
0.5626299795
 40
0.5938940697
 40
0.6251502397
 40
0.6564061663
 40
0.6876656054
 40
0.7501500972
 40
0.8126316163
 40
0.8751307401
 40
1.0
 40
1.0
 40
1.0
 40
1.0
 10
4.8415398575
 20
3.1217141698
 30
0.0
 10
4.8385520911
 20
3.1217141705
 30
0.0
 10
4.8325719654
 20
3.1219423652
 30
0.0
 10
4.8251444514
 20
3.1228537313
 30
0.0
 10
4.819271023
 20
3.1239907881
 30
0.0
 10
4.8149108055
 20
3.1250545131
 30
0.0
 10
4.8106093135
 20
3.1263357199
 30
0.0
 10
4.8063801663
 20
3.1278412931
 30
0.0
 10
4.8022382621
 20
3.1295751467
 30
0.0
 10
4.7981988407
 20
3.131537166
 30
0.0
 10
4.7942782821
 20
3.1337273266
 30
0.0
 10
4.7904941214
 20
3.1361461257
 30
0.0
 10
4.7868620868
 20
3.1387885179
 30
0.0
 10
4.7833947706
 20
3.1416437838
 30
0.0
 10
4.7801055123
 20
3.1447019467
 30
0.0
 10
4.7770084016
 20
3.1479538501
 30
0.0
 10
4.7741117533
 20
3.1513850489
 30
0.0
 10
4.7714198392
 20
3.1549789105
 30
0.0
 10
4.7689372395
 20
3.1587199173
 30
0.0
 10
4.7666682325
 20
3.1625934671
 30
0.0
 10
4.7646110827
 20
3.1665832009
 30
0.0
 10
4.7621470555
 20
3.17203537
 30
0.0
 10
4.7595798316
 20
3.1790689059
 30
0.0
 10
4.7572831487
 20
3.1877514268
 30
0.0
 10
4.7551902369
 20
3.1995315217
 30
0.0
 10
4.7546256862
 20
3.2085168868
 30
0.0
 10
4.754626229
 20
3.2144915429
 30
0.0
 11
4.8415398575
 21
3.1217141698
 31
0.0
 11
4.8325835219
 21
3.1220674167
 31
0.0
 11
4.8236831052
 21
3.1231717767
 31
0.0
 11
4.8192785072
 21
3.1240259468
 31
0.0
 11
4.8149204583
 21
3.1250907946
 31
0.0
 11
4.8106217864
 21
3.1263729755
 31
0.0
 11
4.8063953482
 21
3.127879093
 31
0.0
 11
4.8022554519
 21
3.1296131285
 31
0.0
 11
4.798218509
 21
3.1315752636
 31
0.0
 11
4.7943010958
 21
3.1337653823
 31
0.0
 11
4.7905197406
 21
3.1361832106
 31
0.0
 11
4.7868895942
 21
3.1388239575
 31
0.0
 11
4.783424262
 21
3.141677764
 31
0.0
 11
4.7801372675
 21
3.144734502
 31
0.0
 11
4.7770417528
 21
3.1479837957
 31
0.0
 11
4.7741459423
 21
3.1514120758
 31
0.0
 11
4.7714546438
 21
3.1550035538
 31
0.0
 11
4.7689725954
 21
3.1587423964
 31
0.0
 11
4.7667035164
 21
3.1626128726
 31
0.0
 11
4.7646459402
 21
3.1665997727
 31
0.0
 11
4.7627967548
 21
3.1706880522
 31
0.0
 11
4.7597104272
 21
3.1791094584
 31
0.0
 11
4.757404392
 21
3.1877766406
 31
0.0
 11
4.7558245089
 21
3.1966076739
 31
0.0
 11
4.754626229
 21
3.2144915429
 31
0.0
  0
SPLINE
  5
23C
100
AcDbEntity
  8
0
100
AcDbSpline
 62
6
  6
CONTINUOUS
 70
0
 71
3
 72
30
 73
26
 74
24
 42
0.0000001
 43
0.0000001
 44
0.0000000001
 12
0.0000235122
 22
-0.1435389044
 32
0.0
 13
-0.1435389063
 23
-0.0000000155
 33
0.0
 40
0.0
 40
0.0
 40
0.0
 40
0.0
 40
0.1248780046
 40
0.1873817099
 40
0.2498677099
 40
0.3123523455
 40
0.3748497225
 40
0.4061060767
 40
0.4373696964
 40
0.4686358159
 40
0.4998997382
 40
0.5311639293
 40
0.5624338757
 40
0.593707857
 40
0.6249813813
 40
0.6562496753
 40
0.6875159197
 40
0.7187852431
 40
0.7500540274
 40
0.7813121024
 40
0.8125629971
 40
0.8438166955
 40
0.8750733262
 40
0.9375550952
 40
1.0
 40
1.0
 40
1.0
 40
1.0
 10
6.604626229
 20
3.2144915429
 30
0.0
 10
6.6046272077
 20
3.2085165923
 30
0.0
 10
6.6040623698
 20
3.1995306727
 30
0.0
 10
6.6019689346
 20
3.1877502401
 30
0.0
 10
6.5996719493
 20
3.1790670193
 30
0.0
 10
6.5965921776
 20
3.1706288098
 30
0.0
 10
6.5933388743
 20
3.1638820523
 30
0.0
 10
6.5903143741
 20
3.158718433
 30
0.0
 10
6.5878317674
 20
3.1549774374
 30
0.0
 10
6.585139684
 20
3.1513838336
 30
0.0
 10
6.5822429174
 20
3.1479528451
 30
0.0
 10
6.5791460874
 20
3.144700856
 30
0.0
 10
6.5758568836
 20
3.141642862
 30
0.0
 10
6.5723895053
 20
3.1387878892
 30
0.0
 10
6.5687574352
 20
3.1361457127
 30
0.0
 10
6.5649734683
 20
3.1337267813
 30
0.0
 10
6.5610529875
 20
3.1315367152
 30
0.0
 10
6.5570136311
 20
3.1295748731
 30
0.0
 10
6.5528717723
 20
3.1278411679
 30
0.0
 10
6.5486427136
 20
3.1263355755
 30
0.0
 10
6.5443413019
 20
3.1250543996
 30
0.0
 10
6.539981192
 20
3.1239907227
 30
0.0
 10
6.5341078725
 20
3.1228537232
 30
0.0
 10
6.526680441
 20
3.1219423654
 30
0.0
 10
6.5207003583
 20
3.1217141701
 30
0.0
 10
6.5177126006
 20
3.1217141698
 30
0.0
 11
6.604626229
 21
3.2144915429
 31
0.0
 11
6.6034279573
 21
3.1966067877
 31
0.0
 11
6.6018476966
 21
3.1877753428
 31
0.0
 11
6.5995414608
 21
3.1791077407
 31
0.0
 11
6.5964551085
 21
3.1706865197
 31
0.0
 11
6.5925479548
 21
3.16261128
 31
0.0
 11
6.5902789483
 21
3.1587408385
 31
0.0
 11
6.5877969566
 21
3.155002151
 31
0.0
 11
6.5851055071
 21
3.1514108577
 31
0.0
 11
6.5822096039
 21
3.1479827093
 31
0.0
 11
6.5791142787
 21
3.1447334378
 31
0.0
 11
6.5758273882
 21
3.1416768762
 31
0.0
 11
6.5723620276
 21
3.1388233356
 31
0.0
 11
6.5687318611
 21
3.1361827447
 31
0.0
 11
6.564950604
 21
3.1337648563
 31
0.0
 11
6.5610333092
 21
3.1315748222
 31
0.0
 11
6.5569964632
 21
3.1296128613
 31
0.0
 11
6.5528566235
 21
3.1278789501
 31
0.0
 11
6.5486302147
 21
3.1263728315
 31
0.0
 11
6.5443316378
 21
3.1250906795
 31
0.0
 11
6.5399737144
 21
3.1240258828
 31
0.0
 11
6.5355692244
 21
3.1231717564
 31
0.0
 11
6.5266689103
 21
3.1220674178
 31
0.0
 11
6.5177126006
 21
3.1217141698
 31
0.0
  0
SPLINE
  5
23D
100
AcDbEntity
  8
0
100
AcDbSpline
 62
6
  6
CONTINUOUS
 70
0
 71
3
 72
25
 73
21
 74
19
 42
0.0000001
 43
0.0000001
 44
0.0000000001
 12
-0.0000058166
 22
-0.0508151228
 32
0.0
 13
0.0508151231
 23
0.0000000119
 33
0.0
 40
0.0
 40
0.0
 40
0.0
 40
0.0
 40
0.0623708153
 40
0.1248615162
 40
0.1873743973
 40
0.24991917
 40
0.3124673961
 40
0.3749565914
 40
0.4062039388
 40
0.4374661559
 40
0.5000056755
 40
0.5625460405
 40
0.5938090068
 40
0.6250563303
 40
0.6875428279
 40
0.7500873372
 40
0.8126295329
 40
0.8751402733
 40
0.9376295861
 40
1.0
 40
1.0
 40
1.0
 40
1.0
 10
6.604626229
 20
5.2036214343
 30
0.0
 10
6.6046261081
 20
5.2025649741
 30
0.0
 10
6.6047035891
 20
5.2004490519
 30
0.0
 10
6.6050702789
 20
5.1972930352
 30
0.0
 10
6.6057066836
 20
5.1941762819
 30
0.0
 10
6.6066326436
 20
5.1911311943
 30
0.0
 10
6.6078568158
 20
5.1881933336
 30
0.0
 10
6.6091284203
 20
5.1858650423
 30
0.0
 10
6.6102963743
 20
5.1840978065
 30
0.0
 10
6.6115653945
 20
5.1824006073
 30
0.0
 10
6.6133323075
 20
5.1804198307
 30
0.0
 10
6.6153132142
 20
5.1786530595
 30
0.0
 10
6.6170103973
 20
5.1773839771
 30
0.0
 10
6.6187775542
 20
5.176215963
 30
0.0
 10
6.6211057648
 20
5.1749444257
 30
0.0
 10
6.6240435369
 20
5.1737204355
 30
0.0
 10
6.6270885263
 20
5.1727946428
 30
0.0
 10
6.630205207
 20
5.172158405
 30
0.0
 10
6.6333611587
 20
5.1717917701
 30
0.0
 10
6.6354770402
 20
5.1717141695
 30
0.0
 10
6.6365334936
 20
5.1717141698
 30
0.0
 11
6.604626229
 21
5.2036214343
 31
0.0
 11
6.6047451526
 21
5.2004542856
 31
0.0
 11
6.605115105
 21
5.1973004369
 31
0.0
 11
6.6057547725
 21
5.1941889081
 31
0.0
 11
6.6066823605
 21
5.1911490619
 31
0.0
 11
6.6079075886
 21
5.188216313
 31
0.0
 11
6.6094329109
 21
5.1854312578
 31
0.0
 11
6.6103088009
 21
5.1841068539
 31
0.0
 11
6.6112600043
 21
5.182834517
 31
0.0
 11
6.6133750963
 21
5.1804626457
 31
0.0
 11
6.615747105
 21
5.1783476433
 31
0.0
 11
6.6170194538
 21
5.1773963923
 31
0.0
 11
6.6183438257
 21
5.1765204561
 31
0.0
 11
6.6211287642
 21
5.1749952061
 31
0.0
 11
6.6240613832
 21
5.1737701568
 31
0.0
 11
6.6271011432
 21
5.1728427352
 31
0.0
 11
6.6302125913
 21
5.1722032154
 31
0.0
 11
6.6333663729
 21
5.1718332962
 31
0.0
 11
6.6365334936
 21
5.1717141698
 31
0.0
  0
SPLINE
  5
23E
100
AcDbEntity
  8
0
100
AcDbSpline
 62
6
  6
CONTINUOUS
 70
0
 71
3
 72
25
 73
21
 74
19
 42
0.0000001
 43
0.0000001
 44
0.0000000001
 12
-0.0508151228
 22
0.0000058166
 32
0.0
 13
0.0000000119
 23
-0.0508151231
 33
0.0
 40
0.0
 40
0.0
 40
0.0
 40
0.0
 40
0.0623708153
 40
0.1248615162
 40
0.1873743973
 40
0.24991917
 40
0.3124673961
 40
0.3749565914
 40
0.4062039388
 40
0.4374661559
 40
0.5000056755
 40
0.5625460405
 40
0.5938090068
 40
0.6250563303
 40
0.6875428279
 40
0.7500873373
 40
0.8126295329
 40
0.8751402733
 40
0.9376295861
 40
1.0
 40
1.0
 40
1.0
 40
1.0
 10
6.6365334936
 20
3.3217141698
 30
0.0
 10
6.6354770334
 20
3.3217142907
 30
0.0
 10
6.6333611111
 20
3.3216368097
 30
0.0
 10
6.6302050944
 20
3.3212701199
 30
0.0
 10
6.6270883412
 20
3.3206337151
 30
0.0
 10
6.6240432536
 20
3.3197077551
 30
0.0
 10
6.6211053929
 20
3.318483583
 30
0.0
 10
6.6187771015
 20
3.3172119785
 30
0.0
 10
6.6170098657
 20
3.3160440245
 30
0.0
 10
6.6153126666
 20
3.3147750043
 30
0.0
 10
6.61333189
 20
3.3130080913
 30
0.0
 10
6.6115651187
 20
3.3110271846
 30
0.0
 10
6.6102960364
 20
3.3093300014
 30
0.0
 10
6.6091280223
 20
3.3075628446
 30
0.0
 10
6.6078564849
 20
3.3052346339
 30
0.0
 10
6.6066324947
 20
3.3022968619
 30
0.0
 10
6.6057067021
 20
3.2992518725
 30
0.0
 10
6.6050704642
 20
3.2961351918
 30
0.0
 10
6.6047038294
 20
3.2929792401
 30
0.0
 10
6.6046262288
 20
3.2908633586
 30
0.0
 10
6.604626229
 20
3.2898069052
 30
0.0
 11
6.6365334936
 21
3.3217141698
 31
0.0
 11
6.6333663449
 21
3.3215952462
 31
0.0
 11
6.6302124961
 21
3.3212252937
 31
0.0
 11
6.6271009673
 21
3.3205856262
 31
0.0
 11
6.6240611211
 21
3.3196580382
 31
0.0
 11
6.6211283723
 21
3.3184328101
 31
0.0
 11
6.618343317
 21
3.3169074879
 31
0.0
 11
6.6170189131
 21
3.3160315979
 31
0.0
 11
6.6157465763
 21
3.3150803945
 31
0.0
 11
6.613374705
 21
3.3129653025
 31
0.0
 11
6.6112597025
 21
3.3105932938
 31
0.0
 11
6.6103084515
 21
3.3093209449
 31
0.0
 11
6.6094325154
 21
3.307996573
 31
0.0
 11
6.6079072653
 21
3.3052116345
 31
0.0
 11
6.6066822161
 21
3.3022790156
 31
0.0
 11
6.6057547944
 21
3.2992392556
 31
0.0
 11
6.6051152746
 21
3.2961278075
 31
0.0
 11
6.6047453554
 21
3.2929740259
 31
0.0
 11
6.604626229
 21
3.2898069052
 31
0.0
  0
SPLINE
  5
23F
100
AcDbEntity
  8
0
100
AcDbSpline
 62
6
  6
CONTINUOUS
 70
0
 71
3
 72
25
 73
21
 74
19
 42
0.0000001
 43
0.0000001
 44
0.0000000001
 12
0.0000058166
 22
0.0508151228
 32
0.0
 13
-0.0508151231
 23
-0.0000000119
 33
0.0
 40
0.0
 40
0.0
 40
0.0
 40
0.0
 40
0.0623708153
 40
0.1248615162
 40
0.1873743973
 40
0.24991917
 40
0.3124673961
 40
0.3749565914
 40
0.4062039388
 40
0.4374661559
 40
0.5000056755
 40
0.5625460405
 40
0.5938090068
 40
0.6250563303
 40
0.6875428279
 40
0.7500873372
 40
0.8126295329
 40
0.8751402733
 40
0.9376295861
 40
1.0
 40
1.0
 40
1.0
 40
1.0
 10
4.754626229
 20
3.2898069052
 30
0.0
 10
4.7546263499
 20
3.2908633654
 30
0.0
 10
4.7545488689
 20
3.2929792877
 30
0.0
 10
4.7541821791
 20
3.2961353044
 30
0.0
 10
4.7535457744
 20
3.2992520576
 30
0.0
 10
4.7526198144
 20
3.3022971452
 30
0.0
 10
4.7513956423
 20
3.3052350059
 30
0.0
 10
4.7501240377
 20
3.3075632973
 30
0.0
 10
4.7489560837
 20
3.3093305331
 30
0.0
 10
4.7476870635
 20
3.3110277322
 30
0.0
 10
4.7459201505
 20
3.3130085088
 30
0.0
 10
4.7439392438
 20
3.3147752801
 30
0.0
 10
4.7422420607
 20
3.3160443624
 30
0.0
 10
4.7404749038
 20
3.3172123765
 30
0.0
 10
4.7381466932
 20
3.3184839139
 30
0.0
 10
4.7352089211
 20
3.319707904
 30
0.0
 10
4.7321639318
 20
3.3206336967
 30
0.0
 10
4.729047251
 20
3.3212699346
 30
0.0
 10
4.7258912993
 20
3.3216365694
 30
0.0
 10
4.7237754179
 20
3.32171417
 30
0.0
 10
4.7227189644
 20
3.3217141698
 30
0.0
 11
4.754626229
 21
3.2898069052
 31
0.0
 11
4.7545073054
 21
3.2929740539
 31
0.0
 11
4.754137353
 21
3.2961279026
 31
0.0
 11
4.7534976855
 21
3.2992394314
 31
0.0
 11
4.7525700975
 21
3.3022792776
 31
0.0
 11
4.7513448694
 21
3.3052120265
 31
0.0
 11
4.7498195471
 21
3.3079970818
 31
0.0
 11
4.7489436571
 21
3.3093214857
 31
0.0
 11
4.7479924537
 21
3.3105938225
 31
0.0
 11
4.7458773617
 21
3.3129656938
 31
0.0
 11
4.743505353
 21
3.3150806963
 31
0.0
 11
4.7422330042
 21
3.3160319473
 31
0.0
 11
4.7409086323
 21
3.3169078834
 31
0.0
 11
4.7381236938
 21
3.3184331335
 31
0.0
 11
4.7351910749
 21
3.3196581827
 31
0.0
 11
4.7321513148
 21
3.3205856044
 31
0.0
 11
4.7290398667
 21
3.3212251242
 31
0.0
 11
4.7258860851
 21
3.3215950434
 31
0.0
 11
4.7227189644
 21
3.3217141698
 31
0.0
  0
SPLINE
  5
240
100
AcDbEntity
  8
0
100
AcDbSpline
 62
6
  6
CONTINUOUS
 70
0
 71
3
 72
25
 73
21
 74
19
 42
0.0000001
 43
0.0000001
 44
0.0000000001
 12
0.0508151228
 22
-0.0000058166
 32
0.0
 13
-0.0000000119
 23
0.0508151231
 33
0.0
 40
0.0
 40
0.0
 40
0.0
 40
0.0
 40
0.0623708153
 40
0.1248615162
 40
0.1873743973
 40
0.24991917
 40
0.3124673961
 40
0.3749565914
 40
0.4062039388
 40
0.4374661559
 40
0.5000056755
 40
0.5625460405
 40
0.5938090068
 40
0.6250563303
 40
0.6875428279
 40
0.7500873373
 40
0.8126295329
 40
0.8751402733
 40
0.9376295861
 40
1.0
 40
1.0
 40
1.0
 40
1.0
 10
4.7227189644
 20
5.1717141698
 30
0.0
 10
4.7237754246
 20
5.1717140488
 30
0.0
 10
4.7258913469
 20
5.1717915299
 30
0.0
 10
4.7290473636
 20
5.1721582197
 30
0.0
 10
4.7321641168
 20
5.1727946244
 30
0.0
 10
4.7352092045
 20
5.1737205844
 30
0.0
 10
4.7381470652
 20
5.1749447565
 30
0.0
 10
4.7404753565
 20
5.1762163611
 30
0.0
 10
4.7422425923
 20
5.1773843151
 30
0.0
 10
4.7439397915
 20
5.1786533353
 30
0.0
 10
4.7459205681
 20
5.1804202482
 30
0.0
 10
4.7476873393
 20
5.1824011549
 30
0.0
 10
4.7489564216
 20
5.1840983381
 30
0.0
 10
4.7501244358
 20
5.185865495
 30
0.0
 10
4.7513959731
 20
5.1881937056
 30
0.0
 10
4.7526199633
 20
5.1911314777
 30
0.0
 10
4.7535457559
 20
5.194176467
 30
0.0
 10
4.7541819938
 20
5.1972931477
 30
0.0
 10
4.7545486286
 20
5.2004490994
 30
0.0
 10
4.7546262293
 20
5.2025649809
 30
0.0
 10
4.754626229
 20
5.2036214343
 30
0.0
 11
4.7227189644
 21
5.1717141698
 31
0.0
 11
4.7258861131
 21
5.1718330933
 31
0.0
 11
4.7290399619
 21
5.1722030458
 31
0.0
 11
4.7321514907
 21
5.1728427133
 31
0.0
 11
4.7351913369
 21
5.1737703013
 31
0.0
 11
4.7381240857
 21
5.1749955294
 31
0.0
 11
4.740909141
 21
5.1765208516
 31
0.0
 11
4.7422335449
 21
5.1773967416
 31
0.0
 11
4.7435058817
 21
5.1783479451
 31
0.0
 11
4.745877753
 21
5.1804630371
 31
0.0
 11
4.7479927555
 21
5.1828350458
 31
0.0
 11
4.7489440065
 21
5.1841073946
 31
0.0
 11
4.7498199426
 21
5.1854317665
 31
0.0
 11
4.7513451927
 21
5.188216705
 31
0.0
 11
4.7525702419
 21
5.1911493239
 31
0.0
 11
4.7534976636
 21
5.194189084
 31
0.0
 11
4.7541371834
 21
5.1973005321
 31
0.0
 11
4.7545071026
 21
5.2004543137
 31
0.0
 11
4.754626229
 21
5.2036214343
 31
0.0
  0
SPLINE
  5
241
100
AcDbEntity
  8
0
100
AcDbSpline
 62
9
  6
CONTINUOUS
 70
0
 71
3
 72
26
 73
22
 74
20
 42
0.0000001
 43
0.0000001
 44
0.0000000001
 12
-0.416290785
 22
-0.4928091397
 32
0.0
 13
-0.3190191144
 23
-0.5607010527
 33
0.0
 40
0.0
 40
0.0
 40
0.0
 40
0.0
 40
0.0699862721
 40
0.1389690639
 40
0.2069178664
 40
0.2738058956
 40
0.3396114912
 40
0.4043189508
 40
0.4679216442
 40
0.5304266641
 40
0.6522587308
 40
0.7117130588
 40
0.7411179934
 40
0.7703284743
 40
0.7993671617
 40
0.8282583587
 40
0.8570264593
 40
0.8856964754
 40
0.9142978363
 40
0.9428617988
 40
1.0
 40
1.0
 40
1.0
 40
1.0
 10
6.5177076291
 20
5.3717141698
 30
0.0
 10
6.5079960824
 20
5.3602175449
 30
0.0
 10
6.488756144
 20
5.3373520088
 30
0.0
 10
6.4602409561
 20
5.3031956656
 30
0.0
 10
6.4323127374
 20
5.2694177318
 30
0.0
 10
6.4050032275
 20
5.2360155116
 30
0.0
 10
6.3783451414
 20
5.2029819894
 30
0.0
 10
6.3523739424
 20
5.1703033628
 30
0.0
 10
6.3271242376
 20
5.1379595017
 30
0.0
 10
6.294743345
 20
5.0956028781
 30
0.0
 10
6.2636292843
 20
5.0534016604
 30
0.0
 10
6.2375896511
 20
5.0163241708
 30
0.0
 10
6.2232636971
 20
4.9953625968
 30
0.0
 10
6.2127668755
 20
4.9797069714
 30
0.0
 10
6.202473176
 20
4.9640490852
 30
0.0
 10
6.1923762017
 20
4.9483766569
 30
0.0
 10
6.1824689574
 20
4.9326772555
 30
0.0
 10
6.1727451906
 20
4.9169367797
 30
0.0
 10
6.1631885238
 20
4.9011456058
 30
0.0
 10
6.1506418411
 20
4.8800096398
 30
0.0
 10
6.1414228112
 20
4.8640513615
 30
0.0
 10
6.1353467517
 20
4.8533722117
 30
0.0
 11
6.5177076291
 21
5.3717141698
 31
0.0
 11
6.4886397163
 21
5.337168039
 31
0.0
 11
6.4601257438
 21
5.303002302
 31
0.0
 11
6.4321986774
 21
5.2692161955
 31
0.0
 11
6.4048918074
 21
5.2358061201
 31
0.0
 11
6.3782384159
 21
5.2027649147
 31
0.0
 11
6.3522740007
 21
5.170079607
 31
0.0
 11
6.3270343424
 21
5.1377307554
 31
0.0
 11
6.3025544804
 21
5.1056898742
 31
0.0
 11
6.2559985972
 21
5.0423683326
 31
0.0
 11
6.2339655767
 21
5.0109742011
 31
0.0
 11
6.2232634382
 21
4.9953122706
 31
0.0
 11
6.2127701058
 21
4.9796604834
 31
0.0
 11
6.202480009
 21
4.9640067957
 31
0.0
 11
6.1923864814
 21
4.948338706
 31
0.0
 11
6.182482857
 21
4.9326437131
 31
0.0
 11
6.1727615141
 21
4.916909498
 31
0.0
 11
6.1632068387
 21
4.9011252692
 31
0.0
 11
6.153799236
 21
4.8852809955
 31
0.0
 11
6.1353467517
 21
4.8533722117
 31
0.0
  0
SPLINE
  5
242
100
AcDbEntity
  8
0
100
AcDbSpline
 62
9
  6
CONTINUOUS
 70
0
 71
3
 72
20
 73
16
 74
14
 42
0.0000001
 43
0.0000001
 44
0.0000000001
 12
-0.3659586052
 22
0.4441378626
 32
0.0
 13
-0.4034229511
 23
0.4104071931
 33
0.0
 40
0.0
 40
0.0
 40
0.0
 40
0.0
 40
0.0518527805
 40
0.1055840657
 40
0.161055188
 40
0.2181369945
 40
0.3366840055
 40
0.4604830231
 40
0.5890132256
 40
0.6549376497
 40
0.7219230778
 40
0.7899425011
 40
0.8589732121
 40
0.928998428
 40
1.0
 40
1.0
 40
1.0
 40
1.0
 10
5.145579185
 20
4.7815634809
 30
0.0
 10
5.1392538613
 20
4.7892400753
 30
0.0
 10
5.1263022739
 20
4.8048123761
 30
0.0
 10
5.1063264402
 20
4.8283812824
 30
0.0
 10
5.085479956
 20
4.8525254296
 30
0.0
 10
5.0562161456
 20
4.8858265121
 30
0.0
 10
5.017771754
 20
4.9285057779
 30
0.0
 10
4.9694639643
 20
4.9807373259
 30
0.0
 10
4.927554246
 20
5.0251310855
 30
0.0
 10
4.892914112
 20
5.0613976068
 30
0.0
 10
4.866195706
 20
5.089178395
 30
0.0
 10
4.8389793448
 20
5.1173067263
 30
0.0
 10
4.8112815703
 20
5.14578044
 30
0.0
 10
4.783119749
 20
5.1746006608
 30
0.0
 10
4.7641741169
 20
5.1939120023
 30
0.0
 10
4.754626229
 20
5.2036251876
 30
0.0
 11
5.145579185
 21
4.7815634809
 31
0.0
 11
5.1264979462
 21
4.8045061207
 31
0.0
 11
5.1065069239
 21
4.828096469
 31
0.0
 11
5.0856473863
 21
4.8522614921
 31
0.0
 11
5.0639666497
 21
4.8769405065
 31
0.0
 11
5.0183381981
 21
4.9276584085
 31
0.0
 11
4.9699931527
 21
4.9799895646
 31
0.0
 11
4.9192410182
 21
5.0337983665
 31
0.0
 11
4.8930391028
 21
5.0612354899
 31
0.0
 11
4.8663193711
 21
5.0890220862
 31
0.0
 11
4.8391018613
 21
5.117155298
 31
0.0
 11
4.8114039616
 21
5.1456333239
 31
0.0
 11
4.7832411381
 21
5.1744573943
 31
0.0
 11
4.754626229
 21
5.2036251876
 31
0.0
  0
SPLINE
  5
243
100
AcDbEntity
  8
0
100
AcDbSpline
 62
9
  6
CONTINUOUS
 70
0
 71
3
 72
20
 73
16
 74
14
 42
0.0000001
 43
0.0000001
 44
0.0000000001
 12
0.4441385075
 22
0.365959021
 32
0.0
 13
0.4104077367
 23
0.4034234854
 33
0.0
 40
0.0
 40
0.0
 40
0.0
 40
0.0
 40
0.0518527474
 40
0.1055840051
 40
0.1610551083
 40
0.2181369001
 40
0.3366838971
 40
0.4604829158
 40
0.5890131315
 40
0.6549375659
 40
0.7219230066
 40
0.7899424447
 40
0.8589731725
 40
0.9289984073
 40
1.0
 40
1.0
 40
1.0
 40
1.0
 10
6.2144749528
 20
4.7807607281
 30
0.0
 10
6.2221515534
 20
4.787086055
 30
0.0
 10
6.2377238685
 20
4.800037649
 30
0.0
 10
6.2612927988
 20
4.820013494
 30
0.0
 10
6.2854369733
 20
4.8408599933
 30
0.0
 10
6.3187380979
 20
4.8701238308
 30
0.0
 10
6.3614174213
 20
4.9085682642
 30
0.0
 10
6.4136490426
 20
4.9568761136
 30
0.0
 10
6.4580428664
 20
4.9987858884
 30
0.0
 10
6.494309442
 20
5.0334260718
 30
0.0
 10
6.5220902728
 20
5.0601445177
 30
0.0
 10
6.5502186478
 20
5.0873609203
 30
0.0
 10
6.5786924065
 20
5.1150587379
 30
0.0
 10
6.6075126733
 20
5.143220604
 30
0.0
 10
6.6268240458
 20
5.1621662664
 30
0.0
 10
6.6365372468
 20
5.1717141698
 30
0.0
 11
6.2144749528
 21
4.7807607281
 31
0.0
 11
6.2374176119
 21
4.7998419757
 31
0.0
 11
6.2610079837
 21
4.8198330092
 31
0.0
 11
6.2851730346
 21
4.8406925624
 31
0.0
 11
6.309852079
 21
4.862373318
 31
0.0
 11
6.3605700482
 21
4.9080018179
 31
0.0
 11
6.4129012783
 21
4.9563469232
 31
0.0
 11
6.4667101595
 21
5.0070991273
 31
0.0
 11
6.4941473244
 21
5.0333010806
 31
0.0
 11
6.5219339634
 21
5.0600208521
 31
0.0
 11
6.550067219
 21
5.0872384034
 31
0.0
 11
6.5785452899
 21
5.1149363463
 31
0.0
 11
6.6073694063
 21
5.1430992145
 31
0.0
 11
6.6365372468
 21
5.1717141698
 31
0.0
  0
SPLINE
  5
244
100
AcDbEntity
  8
0
100
AcDbSpline
 62
9
  6
CONTINUOUS
 70
0
 71
3
 72
25
 73
21
 74
19
 42
0.0000001
 43
0.0000001
 44
0.0000000001
 12
0.4252248167
 22
-0.4709881904
 32
0.0
 13
0.5242884647
 23
-0.3574459764
 33
0.0
 40
0.0
 40
0.0
 40
0.0
 40
0.0
 40
0.0350736505
 40
0.0698806436
 40
0.1044212973
 40
0.1386890611
 40
0.2063841252
 40
0.2729395116
 40
0.3383360787
 40
0.402565861
 40
0.4656384793
 40
0.5275873359
 40
0.5884793964
 40
0.6484236215
 40
0.7075786324
 40
0.7661558987
 40
0.8244128667
 40
0.8826319814
 40
0.9410863801
 40
1.0
 40
1.0
 40
1.0
 40
1.0
 10
4.754626229
 20
5.2789226909
 30
0.0
 10
4.7595976245
 20
5.2734162658
 30
0.0
 10
4.7695197214
 20
5.2624607101
 30
0.0
 10
4.7843906661
 20
5.2461305131
 30
0.0
 10
4.7991878607
 20
5.2299637822
 30
0.0
 10
4.8187466217
 20
5.208725196
 30
0.0
 10
4.8430276688
 20
5.182630088
 30
0.0
 10
4.8720344763
 20
5.1519401323
 30
0.0
 10
4.9008146525
 20
5.1220466596
 30
0.0
 10
4.9294017026
 20
5.0929928311
 30
0.0
 10
4.9578400603
 20
5.0648198698
 30
0.0
 10
4.9861893875
 20
5.0375658227
 30
0.0
 10
5.0145254325
 20
5.0112604586
 30
0.0
 10
5.0429400889
 20
4.9859186223
 30
0.0
 10
5.0715389915
 20
4.9615321293
 30
0.0
 10
5.100434426
 20
4.9380592788
 30
0.0
 10
5.1297326729
 20
4.9154137123
 30
0.0
 10
5.1595171213
 20
4.893456475
 30
0.0
 10
5.1898309614
 20
4.8719967182
 30
0.0
 10
5.2102905106
 20
4.8579355834
 30
0.0
 10
5.220586421
 20
4.8509161046
 30
0.0
 11
4.754626229
 21
5.2789226909
 31
0.0
 11
4.769565093
 21
5.2624257288
 31
0.0
 11
4.7844355123
 21
5.2460951728
 31
0.0
 11
4.7992350704
 21
5.2299287682
 31
0.0
 11
4.8139662574
 21
5.2139346709
 31
0.0
 11
4.843233008
 21
5.1824921566
 31
0.0
 11
4.8722502138
 21
5.1518071372
 31
0.0
 11
4.9010402335
 21
5.1219217658
 31
0.0
 11
4.9296354899
 21
5.0928801861
 31
0.0
 11
4.9580795299
 21
5.0647248147
 31
0.0
 11
4.986429798
 21
5.0374946631
 31
0.0
 11
5.0147596081
 21
5.0112197681
 31
0.0
 11
5.0431580184
 21
4.9859143871
 31
0.0
 11
5.0717279337
 21
4.9615680255
 31
0.0
 11
5.100580376
 21
4.9381344107
 31
0.0
 11
5.1298234196
 21
4.915520822
 31
0.0
 11
5.1595461505
 21
4.8935819527
 31
0.0
 11
5.1898004998
 21
4.872123102
 31
0.0
 11
5.220586421
 21
4.8509161046
 31
0.0
  0
SPLINE
  5
245
100
AcDbEntity
  8
0
100
AcDbSpline
 62
9
  6
CONTINUOUS
 70
0
 71
3
 72
24
 73
20
 74
18
 42
0.0000001
 43
0.0000001
 44
0.0000000001
 12
0.4709880794
 22
-0.4252246989
 32
0.0
 13
0.3574456966
 23
-0.5242884601
 33
0.0
 40
0.0
 40
0.0
 40
0.0
 40
0.0
 40
0.0350737365
 40
0.0698806946
 40
0.1386889129
 40
0.2063840913
 40
0.2729394548
 40
0.3383360577
 40
0.4025658835
 40
0.4656384682
 40
0.5275873061
 40
0.5884794125
 40
0.6484236677
 40
0.707578662
 40
0.7661559028
 40
0.8244128595
 40
0.8826319701
 40
0.9410863729
 40
1.0
 40
1.0
 40
1.0
 40
1.0
 10
4.6474178625
 20
5.1717141698
 30
0.0
 10
4.6529242998
 20
5.1667427634
 30
0.0
 10
4.6638799649
 20
5.156820774
 30
0.0
 10
4.6855691397
 20
5.1370696473
 30
0.0
 10
4.712266671
 20
5.1125705058
 30
0.0
 10
4.743710422
 20
5.0833127371
 30
0.0
 10
4.7744003185
 20
5.0543058359
 30
0.0
 10
4.8042938181
 20
5.0255256879
 30
0.0
 10
4.8333476263
 20
4.9969386176
 30
0.0
 10
4.861520601
 20
4.9685002903
 30
0.0
 10
4.8887746233
 20
4.9401509547
 30
0.0
 10
4.9150799817
 20
4.9118149016
 30
0.0
 10
4.9404218443
 20
4.883400265
 30
0.0
 10
4.9648083439
 20
4.8548013836
 30
0.0
 10
4.9882811758
 20
4.8259059606
 30
0.0
 10
5.0109267272
 20
4.796607725
 30
0.0
 10
5.0328839535
 20
4.7668232831
 30
0.0
 10
5.0543436938
 20
4.7365094411
 30
0.0
 10
5.0684048222
 20
4.7160498922
 30
0.0
 10
5.0754242964
 20
4.7057539806
 30
0.0
 11
4.6474178625
 21
5.1717141698
 31
0.0
 11
4.6639149333
 21
5.1567753529
 31
0.0
 11
4.6802454143
 21
5.1419048925
 31
0.0
 11
4.7124057038
 21
5.1123740452
 31
0.0
 11
4.7438483567
 21
5.0831073533
 31
0.0
 11
4.7745333205
 21
5.0540901254
 31
0.0
 11
4.804418703
 21
5.0253000997
 31
0.0
 11
4.8334602897
 21
4.9967048259
 31
0.0
 11
4.8616156474
 21
4.9682608166
 31
0.0
 11
4.888845775
 21
4.9399105558
 31
0.0
 11
4.9151206797
 21
4.9115807284
 31
0.0
 11
4.9404260844
 21
4.8831823266
 31
0.0
 11
4.9647724456
 21
4.8546124373
 31
0.0
 11
4.9882060423
 21
4.8257600133
 31
0.0
 11
5.0108196166
 21
4.7965169796
 31
0.0
 11
5.0327584735
 21
4.7667942544
 31
0.0
 11
5.0542173107
 21
4.7365399039
 31
0.0
 11
5.0754242964
 21
4.7057539806
 31
0.0
  0
SPLINE
  5
246
100
AcDbEntity
  8
0
100
AcDbSpline
 62
9
  6
CONTINUOUS
 70
0
 71
3
 72
26
 73
22
 74
20
 42
0.0000001
 43
0.0000001
 44
0.0000000001
 12
-0.492809119
 22
-0.4162907692
 32
0.0
 13
-0.5607015095
 23
-0.319018259
 33
0.0
 40
0.0
 40
0.0
 40
0.0
 40
0.0
 40
0.0699862695
 40
0.1389690621
 40
0.20691788
 40
0.2738059168
 40
0.339611523
 40
0.4043189849
 40
0.4679216821
 40
0.53042672
 40
0.6522587977
 40
0.7117130775
 40
0.7411180467
 40
0.7703285606
 40
0.7993672212
 40
0.828258376
 40
0.8570264616
 40
0.8856964996
 40
0.9142978667
 40
0.9428618236
 40
1.0
 40
1.0
 40
1.0
 40
1.0
 10
6.804626229
 20
5.0847955197
 30
0.0
 10
6.7931296051
 20
5.0750839737
 30
0.0
 10
6.7702640541
 20
5.0558440553
 30
0.0
 10
6.7361076889
 20
5.0273288921
 30
0.0
 10
6.7023297726
 20
4.999400647
 30
0.0
 10
6.6689275392
 20
4.9720911445
 30
0.0
 10
6.6358940158
 20
4.9454330557
 30
0.0
 10
6.6032153927
 20
4.9194618492
 30
0.0
 10
6.5708715286
 20
4.8942121425
 30
0.0
 10
6.5285149003
 20
4.8618312483
 30
0.0
 10
6.486313707
 20
4.8307171642
 30
0.0
 10
6.4492362039
 20
4.8046775547
 30
0.0
 10
6.4282746459
 20
4.7903515717
 30
0.0
 10
6.4126190183
 20
4.7798547388
 30
0.0
 10
6.3969611228
 20
4.7695610689
 30
0.0
 10
6.3812887003
 20
4.7594641204
 30
0.0
 10
6.3655893242
 20
4.7495568523
 30
0.0
 10
6.3498488968
 20
4.7398330029
 30
0.0
 10
6.3340577209
 20
4.7302763311
 30
0.0
 10
6.312921741
 20
4.7177296838
 30
0.0
 10
6.2969634409
 20
4.7085107063
 30
0.0
 10
6.2862842869
 20
4.7024346657
 30
0.0
 11
6.804626229
 21
5.0847955197
 31
0.0
 11
6.7700800852
 21
5.0557276278
 31
0.0
 11
6.7359143346
 21
5.0272136736
 31
0.0
 11
6.7021282302
 21
4.9992865917
 31
0.0
 11
6.6687181499
 21
4.9719797229
 31
0.0
 11
6.6356769405
 21
4.9453263281
 31
0.0
 11
6.6029916363
 21
4.9193619088
 31
0.0
 11
6.5706427847
 21
4.8941222493
 31
0.0
 11
6.5386018967
 21
4.8696423797
 31
0.0
 11
6.4752803618
 21
4.8230864808
 31
0.0
 11
6.4438862561
 21
4.8010534804
 31
0.0
 11
6.4282243179
 21
4.7903513149
 31
0.0
 11
6.4125725161
 21
4.7798579674
 31
0.0
 11
6.3969188316
 21
4.7695678985
 31
0.0
 11
6.3812507591
 21
4.7594743959
 31
0.0
 11
6.3655557938
 21
4.7495707471
 31
0.0
 11
6.3498216042
 21
4.7398493377
 31
0.0
 11
6.3340373795
 21
4.7302946492
 31
0.0
 11
6.3181930962
 21
4.7208870711
 31
0.0
 11
6.2862842869
 21
4.7024346657
 31
0.0
  0
SPLINE
  5
247
100
AcDbEntity
  8
0
100
AcDbSpline
 62
9
  6
CONTINUOUS
 70
0
 71
3
 72
20
 73
16
 74
14
 42
0.0000001
 43
0.0000001
 44
0.0000000001
 12
-0.4441381622
 22
0.3659587939
 32
0.0
 13
-0.4104068823
 23
0.4034237684
 33
0.0
 40
0.0
 40
0.0
 40
0.0
 40
0.0
 40
0.0518527653
 40
0.1055840379
 40
0.1610551514
 40
0.2181369511
 40
0.3366839558
 40
0.4604829737
 40
0.5890131822
 40
0.6549376111
 40
0.7219230449
 40
0.7899424751
 40
0.8589731942
 40
0.9289984179
 40
1.0
 40
1.0
 40
1.0
 40
1.0
 10
5.1447771886
 20
4.7807609901
 30
0.0
 10
5.1371005913
 20
4.7870863153
 30
0.0
 10
5.1215282838
 20
4.8000379056
 30
0.0
 10
5.0979593662
 20
4.8200137443
 30
0.0
 10
5.0738152064
 20
4.8408602354
 30
0.0
 10
5.0405141044
 20
4.8701240583
 30
0.0
 10
4.9978348122
 20
4.9085684692
 30
0.0
 10
4.9456032307
 20
4.9568762867
 30
0.0
 10
4.9012094415
 20
4.9987860309
 30
0.0
 10
4.8649428957
 20
5.0334261882
 30
0.0
 10
4.8371620866
 20
5.0601446113
 30
0.0
 10
4.8090337342
 20
5.0873609907
 30
0.0
 10
4.7805600077
 20
5.1150587931
 30
0.0
 10
4.7517397544
 20
5.1432206234
 30
0.0
 10
4.7324283905
 20
5.1621662612
 30
0.0
 10
4.7227152112
 20
5.1717141698
 30
0.0
 11
5.1447771886
 21
4.7807609901
 31
0.0
 11
5.1218345398
 21
4.7998422328
 31
0.0
 11
5.0982441804
 21
4.8198332602
 31
0.0
 11
5.0740791445
 21
4.8406928049
 31
0.0
 11
5.0494001162
 21
4.8623735502
 31
0.0
 11
4.9986821833
 21
4.9080020242
 31
0.0
 11
4.9463509933
 21
4.9563470973
 31
0.0
 11
4.8925421551
 21
5.007099264
 31
0.0
 11
4.8651050126
 21
5.033301197
 31
0.0
 11
4.8373183957
 21
5.0600209461
 31
0.0
 11
4.8091851642
 21
5.0872384755
 31
0.0
 11
4.7807071207
 21
5.1149363986
 31
0.0
 11
4.7518830213
 21
5.1430992339
 31
0.0
 11
4.7227152112
 21
5.1717141698
 31
0.0
  0
SPLINE
  5
248
100
AcDbEntity
  8
0
100
AcDbSpline
 62
9
  6
CONTINUOUS
 70
0
 71
3
 72
29
 73
25
 74
23
 42
0.0000001
 43
0.0000001
 44
0.0000000001
 12
-0.4709921037
 22
-0.4252307909
 32
0.0
 13
-0.3573748323
 23
-0.5243453218
 33
0.0
 40
0.0
 40
0.0
 40
0.0
 40
0.0
 40
0.0698823899
 40
0.1386880021
 40
0.2063818903
 40
0.2729357211
 40
0.3383309951
 40
0.4025597471
 40
0.4656310852
 40
0.5275799136
 40
0.5884715272
 40
0.6185546334
 40
0.6484165326
 40
0.6780804125
 40
0.707572675
 40
0.7369200823
 40
0.7661513017
 40
0.7953017247
 40
0.8244081664
 40
0.8535070304
 40
0.882633854
 40
0.9118194691
 40
0.941091473
 40
1.0
 40
1.0
 40
1.0
 40
1.0
 10
6.7118394212
 20
5.1717141698
 30
0.0
 10
6.7008680699
 20
5.1618087885
 30
0.0
 10
6.6791490225
 20
5.142090094
 30
0.0
 10
6.6469889863
 20
5.1125712592
 30
0.0
 10
6.6155442474
 20
5.0833155363
 30
0.0
 10
6.5848550135
 20
5.0543085209
 30
0.0
 10
6.5549617828
 20
5.0255286291
 30
0.0
 10
6.5259080985
 20
4.9969418946
 30
0.0
 10
6.497734952
 20
4.9685037729
 30
0.0
 10
6.4704810656
 20
4.940154314
 30
0.0
 10
6.4484726759
 20
4.9164472358
 30
0.0
 10
6.4313660793
 20
4.8974565311
 30
0.0
 10
6.4188303474
 20
4.8832397659
 30
0.0
 10
6.4065344176
 20
4.868979692
 30
0.0
 10
6.3944732341
 20
4.8546624917
 30
0.0
 10
6.3826412076
 20
4.8402735822
 30
0.0
 10
6.3710318947
 20
4.8257969537
 30
0.0
 10
6.3596280046
 20
4.8112226605
 30
0.0
 10
6.3484109167
 20
4.796539364
 30
0.0
 10
6.3373614415
 20
4.78173578
 30
0.0
 10
6.3264626086
 20
4.7668002637
 30
0.0
 10
6.3156870026
 20
4.7517306526
 30
0.0
 10
6.3014137195
 20
4.7314190536
 30
0.0
 10
6.2908469004
 20
4.7160487459
 30
0.0
 10
6.2838294255
 20
4.705752609
 30
0.0
 11
6.7118394212
 21
5.1717141698
 31
0.0
 11
6.6790077147
 21
5.1419070699
 31
0.0
 11
6.6468493321
 21
5.1123758719
 31
0.0
 11
6.6154065757
 21
5.0831097903
 31
0.0
 11
6.5847219812
 21
5.0540929027
 31
0.0
 11
6.5548369162
 21
5.0253030965
 31
0.0
 11
6.5257953883
 21
4.9967080868
 31
0.0
 11
6.4976401512
 21
4.9682644439
 31
0.0
 11
6.4704097521
 21
4.9399138448
 31
0.0
 11
6.444134551
 21
4.9115841319
 31
0.0
 11
6.431360038
 21
4.8973992211
 31
0.0
 11
6.4188290915
 21
4.883185286
 31
0.0
 11
6.4065382225
 21
4.8689287466
 31
0.0
 11
6.39448206
 21
4.8546152745
 31
0.0
 11
6.3826552268
 21
4.8402305384
 31
0.0
 11
6.3710502335
 21
4.8257606309
 31
0.0
 11
6.3596505823
 21
4.8111934514
 31
0.0
 11
6.3484373736
 21
4.7965173816
 31
0.0
 11
6.3373917077
 21
4.7817208029
 31
0.0
 11
6.3264939943
 21
4.7667929486
 31
0.0
 11
6.3157182896
 21
4.7517308907
 31
0.0
 11
6.3050352267
 21
4.7365359243
 31
0.0
 11
6.2838294255
 21
4.705752609
 31
0.0
  0
SPLINE
  5
249
100
AcDbEntity
  8
0
100
AcDbSpline
 62
9
  6
CONTINUOUS
 70
0
 71
3
 72
25
 73
21
 74
19
 42
0.0000001
 43
0.0000001
 44
0.0000000001
 12
0.4928075083
 22
-0.4162897168
 32
0.0
 13
0.5606843511
 23
-0.3190445532
 33
0.0
 40
0.0
 40
0.0
 40
0.0
 40
0.0
 40
0.0351164731
 40
0.0699851758
 40
0.1046045628
 40
0.1389695868
 40
0.2069192308
 40
0.273808262
 40
0.3396146936
 40
0.4043227598
 40
0.4679261129
 40
0.530431025
 40
0.5918617264
 40
0.6522655378
 40
0.7117190065
 40
0.7703341742
 40
0.8282630277
 40
0.8856976075
 40
0.9428628924
 40
1.0
 40
1.0
 40
1.0
 40
1.0
 10
4.554626229
 20
5.0847919528
 30
0.0
 10
4.5603947829
 20
5.0799190773
 30
0.0
 10
4.5719018462
 20
5.0702203172
 30
0.0
 10
4.5891286871
 20
5.0557567287
 30
0.0
 10
4.6062574751
 20
5.0414277002
 30
0.0
 10
4.6288831265
 20
5.0225831586
 30
0.0
 10
4.6569250874
 20
4.9993992107
 30
0.0
 10
4.6903273794
 20
4.9720890869
 30
0.0
 10
4.7233612236
 20
4.9454307771
 30
0.0
 10
4.7560401633
 20
4.9194593924
 30
0.0
 10
4.7883841729
 20
4.8942098731
 30
0.0
 10
4.8204223401
 20
4.8697168838
 30
0.0
 10
4.8521942194
 20
4.8460124733
 30
0.0
 10
4.8837514615
 20
4.8231230785
 30
0.0
 10
4.9151591025
 20
4.8010656425
 30
0.0
 10
4.9464956682
 20
4.7798419307
 30
0.0
 10
4.9778511465
 20
4.7594310775
 30
0.0
 10
5.0093218278
 20
4.7397807648
 30
0.0
 10
5.0410011088
 20
4.7207983698
 30
0.0
 10
5.062288212
 20
4.7085089619
 30
0.0
 10
5.0729668394
 20
4.7024325342
 30
0.0
 11
4.554626229
 21
5.0847919528
 31
0.0
 11
4.5719472355
 21
5.0701915109
 31
0.0
 11
4.5891740756
 21
5.0557274212
 31
0.0
 11
4.6063045955
 21
5.0413987958
 31
0.0
 11
4.6233396871
 21
5.0272119164
 31
0.0
 11
4.6571263887
 21
4.9992849242
 31
0.0
 11
4.690536845
 21
4.9719777036
 31
0.0
 11
4.7235783443
 21
4.9453240202
 31
0.0
 11
4.7562639089
 21
4.9193595007
 31
0.0
 11
4.7886130706
 21
4.8941197483
 31
0.0
 11
4.8206537867
 21
4.8696399839
 31
0.0
 11
4.8524243962
 21
4.845952633
 31
0.0
 11
4.8839749688
 21
4.823084358
 31
0.0
 11
4.9153686244
 21
4.8010518249
 31
0.0
 11
4.9466819824
 21
4.7798556504
 31
0.0
 11
4.9780037074
 21
4.7594726395
 31
0.0
 11
5.0094301191
 21
4.7398469282
 31
0.0
 11
5.0410569394
 21
4.7208814579
 31
0.0
 11
5.0729668394
 21
4.7024325342
 31
0.0
  0
LINE
  5
24A
100
AcDbEntity
  8
0
100
AcDbLine
 62
9
  6
CONTINUOUS
 10
6.2838281556
 20
3.787674363
 11
6.2862856117
 21
3.7909958082
  0
LINE
  5
24B
100
AcDbEntity
  8
0
100
AcDbLine
 62
9
  6
CONTINUOUS
 10
6.1353445985
 20
3.6400547931
 11
6.1386660325
 21
3.6425122409
  0
LINE
  5
24C
100
AcDbEntity
  8
0
100
AcDbLine
 62
9
  6
CONTINUOUS
 10
5.0754243025
 20
4.7057539765
 11
5.0729668464
 21
4.7024325311
  0
LINE
  5
24D
100
AcDbEntity
  8
0
100
AcDbLine
 62
9
  6
CONTINUOUS
 10
5.2239078597
 20
4.8533735464
 11
5.2205864255
 21
4.8509160984
  0
SPLINE
  5
24E
100
AcDbEntity
  8
0
100
AcDbSpline
 62
6
  6
CONTINUOUS
 70
0
 71
3
 72
15
 73
11
 74
9
 42
0.0000001
 43
0.0000001
 44
0.0000000001
 12
0.0264121226
 22
-0.0326673693
 32
0.0
 13
0.0136064791
 23
-0.0397444457
 33
0.0
 40
0.0
 40
0.0
 40
0.0
 40
0.0
 40
0.133107177
 40
0.2635042116
 40
0.391155189
 40
0.5162214673
 40
0.6390981409
 40
0.7602911549
 40
0.8803853814
 40
1.0
 40
1.0
 40
1.0
 40
1.0
 10
5.1349105332
 20
4.1034075208
 30
0.0
 10
5.1360824142
 20
4.1019581004
 30
0.0
 10
5.1383832655
 20
4.0990732056
 30
0.0
 10
5.1417029743
 20
4.0947156962
 30
0.0
 10
5.1448167757
 20
4.0903455961
 30
0.0
 10
5.1476919175
 20
4.0859395627
 30
0.0
 10
5.150310917
 20
4.0814805957
 30
0.0
 10
5.1526527676
 20
4.0769476519
 30
0.0
 10
5.1547108668
 20
4.0723290058
 30
0.0
 10
5.155894133
 20
4.0691853071
 30
0.0
 10
5.1564366442
 20
4.0676006349
 30
0.0
 11
5.1349105332
 21
4.1034075208
 31
0.0
 11
5.1383904693
 21
4.0990306307
 31
0.0
 11
5.1417026027
 21
4.094667533
 31
0.0
 11
5.1448073053
 21
4.0902952179
 31
0.0
 11
5.1476733525
 21
4.0858918835
 31
0.0
 11
5.1502817745
 21
4.0814374886
 31
0.0
 11
5.1526155122
 21
4.0769126708
 31
0.0
 11
5.1546674901
 21
4.0723037865
 31
0.0
 11
5.1564366442
 21
4.0676006349
 31
0.0
  0
SPLINE
  5
24F
100
AcDbEntity
  8
0
100
AcDbSpline
 62
9
  6
CONTINUOUS
 70
0
 71
3
 72
26
 73
22
 74
20
 42
0.0000001
 43
0.0000001
 44
0.0000000001
 12
0.4928091186
 22
0.4162907688
 32
0.0
 13
0.5607014561
 23
0.3190183516
 33
0.0
 40
0.0
 40
0.0
 40
0.0
 40
0.0
 40
0.069986262
 40
0.1389690542
 40
0.2069178665
 40
0.2738059006
 40
0.3396115034
 40
0.4043189659
 40
0.4679216631
 40
0.5304266946
 40
0.652258772
 40
0.7117130746
 40
0.7411180295
 40
0.7703285287
 40
0.7993672002
 40
0.8282583727
 40
0.8570264646
 40
0.8856964928
 40
0.9142978558
 40
0.9428618134
 40
1.0
 40
1.0
 40
1.0
 40
1.0
 10
4.554626229
 20
3.4086328191
 30
0.0
 10
4.5661228517
 20
3.418344364
 30
0.0
 10
4.5889884094
 20
3.4375842716
 30
0.0
 10
4.6231447579
 20
3.4660994503
 30
0.0
 10
4.6569226816
 20
3.4940276835
 30
0.0
 10
4.6903249096
 20
3.5213371885
 30
0.0
 10
4.7233584315
 20
3.5479952773
 30
0.0
 10
4.756037056
 20
3.573966481
 30
0.0
 10
4.7883809181
 20
3.5992161882
 30
0.0
 10
4.8307375433
 20
3.6315970841
 30
0.0
 10
4.8729387458
 20
3.6627111611
 30
0.0
 10
4.9100162409
 20
3.6887507851
 30
0.0
 10
4.9309778046
 20
3.7030767573
 30
0.0
 10
4.9466334305
 20
3.7135735857
 30
0.0
 10
4.9622913209
 20
3.7238672688
 30
0.0
 10
4.9779637448
 20
3.7339642289
 30
0.0
 10
4.9936631304
 20
3.743871488
 30
0.0
 10
5.0094035769
 20
3.753595303
 30
0.0
 10
5.0251947517
 20
3.763151971
 30
0.0
 10
5.046330727
 20
3.775698629
 30
0.0
 10
5.0622890205
 20
3.7849176227
 30
0.0
 10
5.0729681753
 20
3.790993666
 30
0.0
 11
4.554626229
 21
3.4086328191
 31
0.0
 11
4.5891723726
 21
3.4377007035
 31
0.0
 11
4.6233381169
 21
3.466214665
 31
0.0
 11
4.6571242215
 21
3.4941417408
 31
0.0
 11
4.6905342995
 21
3.5214486096
 31
0.0
 11
4.7235755066
 21
3.5481020038
 31
0.0
 11
4.756260812
 21
3.5740664221
 31
0.0
 11
4.788609663
 21
3.5993060823
 31
0.0
 11
4.8206505471
 21
3.6237859503
 31
0.0
 11
4.8839720828
 21
3.6703418475
 31
0.0
 11
4.915366198
 21
3.6923748599
 31
0.0
 11
4.9310281321
 21
3.7030770151
 31
0.0
 11
4.9466799265
 21
3.7135703564
 31
0.0
 11
4.9623336114
 21
3.7238604377
 31
0.0
 11
4.97800169
 21
3.7339539517
 31
0.0
 11
4.9936966659
 21
3.7438575912
 31
0.0
 11
5.0094308653
 21
3.7535789728
 31
0.0
 11
5.0252150913
 21
3.763133654
 31
0.0
 11
5.041059371
 21
3.772541239
 31
0.0
 11
5.0729681753
 21
3.790993666
 31
0.0
  0
SPLINE
  5
250
100
AcDbEntity
  8
0
100
AcDbSpline
 62
6
  6
CONTINUOUS
 70
0
 71
3
 72
15
 73
11
 74
9
 42
0.0000001
 43
0.0000001
 44
0.0000000001
 12
-0.0264121226
 22
0.0326673692
 32
0.0
 13
-0.0136064791
 23
0.0397444456
 33
0.0
 40
0.0
 40
0.0
 40
0.0
 40
0.0
 40
0.1331071817
 40
0.2635042152
 40
0.3911551634
 40
0.5162213924
 40
0.6390980343
 40
0.7602910746
 40
0.8803853547
 40
1.0
 40
1.0
 40
1.0
 40
1.0
 10
6.2243419248
 20
4.3900208187
 30
0.0
 10
6.2231700437
 20
4.3914702392
 30
0.0
 10
6.2208691926
 20
4.3943551341
 30
0.0
 10
6.2175494843
 20
4.3987126434
 30
0.0
 10
6.2144356829
 20
4.4030827422
 30
0.0
 10
6.2115605401
 20
4.4074887731
 30
0.0
 10
6.2089415412
 20
4.4119477397
 30
0.0
 10
6.2065996946
 20
4.4164806862
 30
0.0
 10
6.2045415929
 20
4.4210993327
 30
0.0
 10
6.2033583252
 20
4.4242430321
 30
0.0
 10
6.2028158138
 20
4.4258277047
 30
0.0
 11
6.2243419248
 21
4.3900208187
 31
0.0
 11
6.2208619888
 21
4.3943977091
 31
0.0
 11
6.2175498554
 21
4.3987608069
 31
0.0
 11
6.2144451529
 21
4.4031331204
 31
0.0
 11
6.2115791056
 21
4.4075364523
 31
0.0
 11
6.2089706848
 21
4.4119908464
 31
0.0
 11
6.2066369492
 21
4.4165156664
 31
0.0
 11
6.2045849695
 21
4.4211245525
 31
0.0
 11
6.2028158138
 21
4.4258277047
 31
0.0
  0
SPLINE
  5
251
100
AcDbEntity
  8
0
100
AcDbSpline
 62
6
  6
CONTINUOUS
 70
0
 71
3
 72
24
 73
20
 74
18
 42
0.0000001
 43
0.0000001
 44
0.0000000001
 12
0.0
 22
-0.1477849827
 32
0.0
 13
0.0929161324
 23
-0.114921684
 33
0.0
 40
0.0
 40
0.0
 40
0.0
 40
0.0
 40
0.1257048333
 40
0.251407031
 40
0.3771025921
 40
0.4399478521
 40
0.5027852046
 40
0.5656085224
 40
0.6284070099
 40
0.6911610807
 40
0.753834073
 40
0.816354179
 40
0.8475182648
 40
0.8785782191
 40
0.9094790369
 40
0.9401337844
 40
0.955331634
 40
0.9704192258
 40
1.0
 40
1.0
 40
1.0
 40
1.0
 10
5.1068092651
 20
4.2467141698
 30
0.0
 10
5.1068092651
 20
4.2405217409
 30
0.0
 10
5.1070265348
 20
4.2281358508
 30
0.0
 10
5.1080155943
 20
4.2095817336
 30
0.0
 10
5.1094221866
 20
4.1941611102
 30
0.0
 10
5.1109313343
 20
4.1818692806
 30
0.0
 10
5.1122685883
 20
4.172679089
 30
0.0
 10
5.1138277818
 20
4.1635261393
 30
0.0
 10
5.1156310308
 20
4.1544220667
 30
0.0
 10
5.1177079419
 20
4.1453836418
 30
0.0
 10
5.1200994657
 20
4.1364370783
 30
0.0
 10
5.1224055498
 20
4.1290843961
 30
0.0
 10
5.124485094
 20
4.1233009856
 30
0.0
 10
5.1261765267
 20
4.1190356383
 30
0.0
 10
5.1280224192
 20
4.1148619498
 30
0.0
 10
5.1297155596
 20
4.1114788738
 30
0.0
 10
5.1311865166
 20
4.1088611123
 30
0.0
 10
5.1327238518
 20
4.1063443245
 30
0.0
 10
5.1339943562
 20
4.1045406783
 30
0.0
 10
5.1349105332
 20
4.1034075208
 30
0.0
 11
5.1068092651
 21
4.2467141698
 31
0.0
 11
5.1071370687
 21
4.2281397755
 31
0.0
 11
5.1081320994
 21
4.2095895459
 31
0.0
 11
5.1098315032
 21
4.1910915272
 31
0.0
 11
5.1109656493
 21
4.1818734493
 31
0.0
 11
5.1123057476
 21
4.172684234
 31
0.0
 11
5.1138688064
 21
4.1635324106
 31
0.0
 11
5.1156773638
 21
4.1544296627
 31
0.0
 11
5.1177619069
 21
4.1453928612
 31
0.0
 11
5.1201649253
 21
4.1364478905
 31
0.0
 11
5.1229481909
 21
4.127637533
 31
0.0
 11
5.1245101264
 21
4.1233048941
 31
0.0
 11
5.126206939
 21
4.1190398366
 31
0.0
 11
5.1280603455
 21
4.1148661785
 31
0.0
 11
5.1300991226
 21
4.1108205502
 31
0.0
 11
5.1312009367
 21
4.1088633623
 31
0.0
 11
5.1323657573
 21
4.1069620885
 31
0.0
 11
5.1349105332
 21
4.1034075208
 31
0.0
  0
SPLINE
  5
252
100
AcDbEntity
  8
0
100
AcDbSpline
 62
9
  6
CONTINUOUS
 70
0
 71
3
 72
20
 73
16
 74
14
 42
0.0000001
 43
0.0000001
 44
0.0000000001
 12
-0.4441393718
 22
-0.3659595785
 32
0.0
 13
-0.4104084652
 23
-0.4034242015
 33
0.0
 40
0.0
 40
0.0
 40
0.0
 40
0.0
 40
0.0518527027
 40
0.1055839236
 40
0.1610550012
 40
0.2181367732
 40
0.3366837515
 40
0.4604827718
 40
0.5890130051
 40
0.6549374534
 40
0.7219229111
 40
0.789942369
 40
0.8589731195
 40
0.9289983795
 40
1.0
 40
1.0
 40
1.0
 40
1.0
 10
5.14477829
 20
3.7126682654
 30
0.0
 10
5.1371016811
 20
3.7063429343
 30
0.0
 10
5.1215293503
 20
3.6933913274
 30
0.0
 10
5.097960387
 20
3.6734154684
 30
0.0
 10
5.0738161759
 20
3.652568949
 30
0.0
 10
5.040514995
 20
3.6233050749
 30
0.0
 10
4.9978355941
 20
3.5848605857
 30
0.0
 10
4.9456038748
 20
3.5365526562
 30
0.0
 10
4.9012099647
 20
3.4946428056
 30
0.0
 10
4.8649433165
 20
3.4600025559
 30
0.0
 10
4.8371624286
 20
3.4332840567
 30
0.0
 10
4.8090339948
 20
3.4060675985
 30
0.0
 10
4.7805601759
 20
3.378369723
 30
0.0
 10
4.7517398474
 20
3.350207797
 30
0.0
 10
4.7324284333
 20
3.3312620938
 30
0.0
 10
4.7227152112
 20
3.3217141698
 30
0.0
 11
5.14477829
 21
3.7126682654
 31
0.0
 11
5.1218356075
 21
3.6935870034
 31
0.0
 11
5.0982452045
 21
3.6735959546
 31
0.0
 11
5.0740801161
 21
3.6527363807
 31
0.0
 11
5.0494010316
 21
3.6310555996
 31
0.0
 11
4.9986829723
 21
3.5854270349
 31
0.0
 11
4.9463516431
 21
3.5370818491
 31
0.0
 11
4.8925426554
 21
3.4863295518
 31
0.0
 11
4.8651054348
 21
3.4601275476
 31
0.0
 11
4.8373187386
 21
3.4334077228
 31
0.0
 11
4.8091854242
 21
3.4061901159
 31
0.0
 11
4.7807072932
 21
3.3784921152
 31
0.0
 11
4.751883115
 21
3.350329187
 31
0.0
 11
4.7227152112
 21
3.3217141698
 31
0.0
  0
SPLINE
  5
253
100
AcDbEntity
  8
0
100
AcDbSpline
 62
6
  6
CONTINUOUS
 70
0
 71
3
 72
27
 73
23
 74
21
 42
0.0000001
 43
0.0000001
 44
0.0000000001
 12
0.0929169769
 22
0.1149227284
 32
0.0
 13
0.0
 23
0.1477863258
 33
0.0
 40
0.0
 40
0.0
 40
0.0
 40
0.0
 40
0.0295796029
 40
0.0446737812
 40
0.0598769895
 40
0.0905339646
 40
0.1214336187
 40
0.1369493533
 40
0.1524970872
 40
0.1836609167
 40
0.2148978396
 40
0.2461849541
 40
0.2775097051
 40
0.3088601968
 40
0.3716129359
 40
0.434409959
 40
0.4972315382
 40
0.560066958
 40
0.6229102581
 40
0.7486017455
 40
0.8742996511
 40
1.0
 40
1.0
 40
1.0
 40
1.0
 10
6.2243419248
 20
4.1034075208
 30
0.0
 10
6.2252580739
 20
4.1045406437
 30
0.0
 10
6.226529219
 20
4.1063442062
 30
0.0
 10
6.2280662112
 20
4.1088618624
 30
0.0
 10
6.2295377528
 20
4.1114801219
 30
0.0
 10
6.2312308647
 20
4.1148635929
 30
0.0
 10
6.2327671029
 20
4.118336884
 30
0.0
 10
6.2339196545
 20
4.121163516
 30
0.0
 10
6.2350265247
 20
4.1240223002
 30
0.0
 10
6.2363266528
 20
4.1276360853
 30
0.0
 10
6.2377674231
 20
4.1320212121
 30
0.0
 10
6.2391048429
 20
4.1364471445
 30
0.0
 10
6.2403474766
 20
4.1409063543
 30
0.0
 10
6.2418908641
 20
4.1468896599
 30
0.0
 10
6.2436218602
 20
4.1544241608
 30
0.0
 10
6.2454250332
 20
4.1635280544
 30
0.0
 10
6.2469841185
 20
4.1726808653
 30
0.0
 10
6.2483213477
 20
4.1818708614
 30
0.0
 10
6.2498304173
 20
4.1941624201
 30
0.0
 10
6.2512369254
 20
4.2095826805
 30
0.0
 10
6.2522259359
 20
4.2281363354
 30
0.0
 10
6.2524431929
 20
4.2405219055
 30
0.0
 10
6.2524431929
 20
4.2467141698
 30
0.0
 11
6.2243419248
 21
4.1034075208
 31
0.0
 11
6.2268868455
 21
4.1069618209
 31
0.0
 11
6.228051926
 21
4.1088641007
 31
0.0
 11
6.229154167
 21
4.1108219805
 31
0.0
 11
6.2311930696
 21
4.1148679603
 31
0.0
 11
6.2330463456
 21
4.1190415336
 31
0.0
 11
6.2339127581
 21
4.1211645597
 31
0.0
 11
6.2347430178
 21
4.1233070557
 31
0.0
 11
6.2363051866
 21
4.1276396148
 31
0.0
 11
6.2377490538
 21
4.1320243958
 31
0.0
 11
6.2390882661
 21
4.1364500153
 31
0.0
 11
6.2403327353
 21
4.1409089795
 31
0.0
 11
6.2414911698
 21
4.1453949945
 31
0.0
 11
6.2435755776
 21
4.1544317118
 31
0.0
 11
6.2453840066
 21
4.1635343506
 31
0.0
 11
6.2469469752
 21
4.1726860143
 31
0.0
 11
6.2482870277
 21
4.1818750329
 31
0.0
 11
6.249421122
 21
4.1910929104
 31
0.0
 11
6.25112043
 21
4.2095905028
 31
0.0
 11
6.2521154075
 21
4.2281402692
 31
0.0
 11
6.2524431929
 21
4.2467141698
 31
0.0
  0
SPLINE
  5
254
100
AcDbEntity
  8
0
100
AcDbSpline
 62
9
  6
CONTINUOUS
 70
0
 71
3
 72
29
 73
25
 74
23
 42
0.0000001
 43
0.0000001
 44
0.0000000001
 12
-0.4252308238
 22
-0.4709921242
 32
0.0
 13
-0.5243453019
 23
-0.3573749276
 33
0.0
 40
0.0
 40
0.0
 40
0.0
 40
0.0
 40
0.0698823877
 40
0.1386880108
 40
0.2063818767
 40
0.272935701
 40
0.3383309627
 40
0.4025597166
 40
0.4656310523
 40
0.5275798547
 40
0.5884715114
 40
0.6185546012
 40
0.6484164619
 40
0.6780803775
 40
0.7075726787
 40
0.7369200552
 40
0.7661512179
 40
0.7953016396
 40
0.8244081184
 40
0.853507045
 40
0.8826339249
 40
0.9118195413
 40
0.9410915152
 40
1.0
 40
1.0
 40
1.0
 40
1.0
 10
6.604626229
 20
5.2789274138
 30
0.0
 10
6.5947208472
 20
5.2679560624
 30
0.0
 10
6.5750021524
 20
5.2462370106
 30
0.0
 10
6.5454833652
 20
5.214076931
 30
0.0
 10
6.5162276067
 20
5.1826322268
 30
0.0
 10
6.4872206109
 20
5.1519429832
 30
0.0
 10
6.4584407207
 20
5.1220497523
 30
0.0
 10
6.4298539767
 20
5.0929960779
 30
0.0
 10
6.401415866
 20
5.064822925
 30
0.0
 10
6.373066393
 20
5.0375690455
 30
0.0
 10
6.3493593255
 20
5.0155606412
 30
0.0
 10
6.3303686093
 20
4.9984540586
 30
0.0
 10
6.3161518392
 20
4.9859183369
 30
0.0
 10
6.3018917793
 20
4.9736223779
 30
0.0
 10
6.2875745843
 20
4.9615611717
 30
0.0
 10
6.2731856358
 20
4.9497292066
 30
0.0
 10
6.2587089867
 20
4.9381199483
 30
0.0
 10
6.2441347348
 20
4.9267160112
 30
0.0
 10
6.2294514616
 20
4.9154988567
 30
0.0
 10
6.2146478527
 20
4.9044493572
 30
0.0
 10
6.1997122553
 20
4.8935505904
 30
0.0
 10
6.1846426349
 20
4.8827749859
 30
0.0
 10
6.1643310599
 20
4.8685016922
 30
0.0
 10
6.1489607843
 20
4.8579348514
 30
0.0
 10
6.1386646552
 20
4.8509173796
 30
0.0
 11
6.604626229
 21
5.2789274138
 31
0.0
 11
6.5748191378
 21
5.2460956979
 31
0.0
 11
6.5452879592
 21
5.2139372845
 31
0.0
 11
6.5160218715
 21
5.1824945497
 31
0.0
 11
6.4870049895
 21
5.1518099521
 31
0.0
 11
6.4582151883
 21
5.1219248897
 31
0.0
 11
6.4296201714
 21
5.0928833641
 31
0.0
 11
6.4011765303
 21
5.0647281239
 31
0.0
 11
6.3728259386
 21
5.0374977376
 31
0.0
 11
6.344496207
 21
5.0112225129
 31
0.0
 11
6.3303112961
 21
4.9984480139
 31
0.0
 11
6.3160973757
 21
4.985917086
 31
0.0
 11
6.3018408331
 21
4.9736261844
 31
0.0
 11
6.2875273458
 21
4.9615700001
 31
0.0
 11
6.2731425897
 21
4.9497432203
 31
0.0
 11
6.2586726852
 21
4.9381382789
 31
0.0
 11
6.2441055326
 21
4.9267385932
 31
0.0
 11
6.2294294771
 21
4.9155253251
 31
0.0
 11
6.2146328641
 21
4.9044796368
 31
0.0
 11
6.1997049401
 21
4.8935819566
 31
0.0
 11
6.1846428699
 21
4.8828062659
 31
0.0
 11
6.1694479267
 21
4.872123201
 31
0.0
 11
6.1386646552
 21
4.8509173796
 31
0.0
  0
SPLINE
  5
255
100
AcDbEntity
  8
0
100
AcDbSpline
 62
6
  6
CONTINUOUS
 70
0
 71
3
 72
27
 73
23
 74
21
 42
0.0000001
 43
0.0000001
 44
0.0000000001
 12
-0.0929171391
 22
-0.1149229291
 32
0.0
 13
0.0
 23
-0.1477865839
 33
0.0
 40
0.0
 40
0.0
 40
0.0
 40
0.0
 40
0.0295795994
 40
0.0446732058
 40
0.0598758847
 40
0.0751679581
 40
0.0905359081
 40
0.1214355905
 40
0.1524976893
 40
0.183661392
 40
0.2148982517
 40
0.2461853413
 40
0.2775100518
 40
0.3088604897
 40
0.3716131636
 40
0.4344101445
 40
0.4972316984
 40
0.5600670765
 40
0.6229103387
 40
0.7486017845
 40
0.8742996618
 40
1.0
 40
1.0
 40
1.0
 40
1.0
 10
5.1349105332
 20
4.3900208187
 30
0.0
 10
5.1339943826
 20
4.388887694
 30
0.0
 10
5.1327232975
 20
4.3870841155
 30
0.0
 10
5.1311862808
 20
4.3845665458
 30
0.0
 10
5.1300856718
 20
4.3826082976
 30
0.0
 10
5.1290420782
 20
4.3806041197
 30
0.0
 10
5.1277170186
 20
4.3778760133
 30
0.0
 10
5.1261755205
 20
4.3743909517
 30
0.0
 10
5.1244847412
 20
4.3701253701
 30
0.0
 10
5.1229258605
 20
4.3657923977
 30
0.0
 10
5.1214850703
 20
4.3614072582
 30
0.0
 10
5.1201476568
 20
4.3569813278
 30
0.0
 10
5.118905016
 20
4.3525221162
 30
0.0
 10
5.117361624
 20
4.3465388092
 30
0.0
 10
5.1156306194
 20
4.3390043043
 30
0.0
 10
5.1138274412
 20
4.3299004019
 30
0.0
 10
5.1122683615
 20
4.3207475791
 30
0.0
 10
5.1109311243
 20
4.3115575731
 30
0.0
 10
5.1094220439
 20
4.2992659998
 30
0.0
 10
5.1080155385
 20
4.2838457172
 30
0.0
 10
5.1070265234
 20
4.2652920342
 30
0.0
 10
5.1068092651
 20
4.2529064443
 30
0.0
 10
5.1068092651
 20
4.2467141698
 30
0.0
 11
5.1349105332
 21
4.3900208187
 31
0.0
 11
5.1323656333
 21
4.3864664951
 31
0.0
 11
5.1312005686
 21
4.3845643001
 31
0.0
 11
5.1300983466
 21
4.3826064949
 31
0.0
 11
5.1290531857
 21
4.3806027302
 31
0.0
 11
5.1280594556
 21
4.3785604902
 31
0.0
 11
5.1262061585
 21
4.374386913
 31
0.0
 11
5.1245094839
 21
4.370121406
 31
0.0
 11
5.1229473215
 21
4.3657888559
 31
0.0
 11
5.1215034448
 21
4.3614040794
 31
0.0
 11
5.1201642312
 21
4.3569784557
 31
0.0
 11
5.1189197577
 21
4.3525194905
 31
0.0
 11
5.1177613196
 21
4.3480334763
 31
0.0
 11
5.1156769032
 21
4.3389967542
 31
0.0
 11
5.1138684698
 21
4.3298941062
 31
0.0
 11
5.1123055023
 21
4.3207424297
 31
0.0
 11
5.1109654443
 21
4.3115534016
 31
0.0
 11
5.1098313432
 21
4.3023355143
 31
0.0
 11
5.1081320327
 21
4.2838378957
 31
0.0
 11
5.1071370523
 21
4.2652881012
 31
0.0
 11
5.1068092651
 21
4.2467141698
 31
0.0
  0
SPLINE
  5
256
100
AcDbEntity
  8
0
100
AcDbSpline
 62
6
  6
CONTINUOUS
 70
0
 71
3
 72
25
 73
21
 74
19
 42
0.0000001
 43
0.0000001
 44
0.0000000001
 12
0.0
 22
0.1477854159
 32
0.0
 13
-0.0929164048
 23
0.1149220208
 33
0.0
 40
0.0
 40
0.0
 40
0.0
 40
0.0
 40
0.1257045141
 40
0.2514063869
 40
0.3771016176
 40
0.4399467088
 40
0.5027838893
 40
0.5656070341
 40
0.6284053501
 40
0.6911592541
 40
0.7538320807
 40
0.8163520154
 40
0.8475160202
 40
0.8785758454
 40
0.9094766054
 40
0.9248431919
 40
0.9401341958
 40
0.9553319191
 40
0.9704193162
 40
1.0
 40
1.0
 40
1.0
 40
1.0
 10
6.2524431929
 20
4.2467141698
 30
0.0
 10
6.2524431929
 20
4.2529066011
 30
0.0
 10
6.2522259228
 20
4.2652924957
 30
0.0
 10
6.2512368625
 20
4.2838466193
 30
0.0
 10
6.2498302704
 20
4.2992672476
 30
0.0
 10
6.248321121
 20
4.3115590802
 30
0.0
 10
6.2469838655
 20
4.3207492736
 30
0.0
 10
6.245424671
 20
4.3299022248
 30
0.0
 10
6.2436214218
 20
4.3390062998
 30
0.0
 10
6.2415445085
 20
4.348044725
 30
0.0
 10
6.2391529874
 20
4.3569912974
 30
0.0
 10
6.2368468875
 20
4.3643439599
 30
0.0
 10
6.2347673662
 20
4.3701274108
 30
0.0
 10
6.2330758735
 20
4.3743926367
 30
0.0
 10
6.2315348483
 20
4.3778777404
 30
0.0
 10
6.2302091208
 20
4.3806054205
 30
0.0
 10
6.2291661441
 20
4.3826094808
 30
0.0
 10
6.2280659082
 20
4.3845672403
 30
0.0
 10
6.2265286072
 20
4.3870840177
 30
0.0
 10
6.2252581017
 20
4.3888876614
 30
0.0
 10
6.2243419248
 20
4.3900208187
 30
0.0
 11
6.2524431929
 21
4.2467141698
 31
0.0
 11
6.2521153889
 21
4.2652885713
 31
0.0
 11
6.2511203575
 21
4.2838388074
 31
0.0
 11
6.2494209532
 21
4.3023368316
 31
0.0
 11
6.2482868059
 21
4.3115549117
 31
0.0
 11
6.2469467062
 21
4.3207441286
 31
0.0
 11
6.2453836465
 21
4.3298959535
 31
0.0
 11
6.2435750885
 21
4.3389987031
 31
0.0
 11
6.2414905442
 21
4.348035507
 31
0.0
 11
6.2390875241
 21
4.35698048
 31
0.0
 11
6.236304255
 21
4.3657908382
 31
0.0
 11
6.2347423201
 21
4.3701234791
 31
0.0
 11
6.2330455055
 21
4.3743885297
 31
0.0
 11
6.2311920986
 21
4.3785621929
 31
0.0
 11
6.2301981823
 21
4.3806040983
 31
0.0
 11
6.2291533191
 21
4.3826078198
 31
0.0
 11
6.2280515114
 21
4.3845649974
 31
0.0
 11
6.2268866959
 21
4.3864662482
 31
0.0
 11
6.2243419248
 21
4.3900208187
 31
0.0
  0
SPLINE
  5
257
100
AcDbEntity
  8
0
100
AcDbSpline
 62
9
  6
CONTINUOUS
 70
0
 71
3
 72
29
 73
25
 74
23
 42
0.0000001
 43
0.0000001
 44
0.0000000001
 12
0.4709921091
 22
0.4252307966
 32
0.0
 13
0.3573747634
 23
0.5243453782
 33
0.0
 40
0.0
 40
0.0
 40
0.0
 40
0.0
 40
0.0698823824
 40
0.138688
 40
0.2063818788
 40
0.272935707
 40
0.3383309763
 40
0.40255973
 40
0.4656310678
 40
0.5275798851
 40
0.588471519
 40
0.618554619
 40
0.6484165012
 40
0.6780803966
 40
0.7075726764
 40
0.7369200713
 40
0.7661512666
 40
0.795301689
 40
0.8244081462
 40
0.853507036
 40
0.8826338825
 40
0.9118194975
 40
0.9410914887
 40
1.0
 40
1.0
 40
1.0
 40
1.0
 10
4.6474130261
 20
3.3217141698
 30
0.0
 10
4.6583843763
 20
3.3316195501
 30
0.0
 10
4.6801034155
 20
3.3513382535
 30
0.0
 10
4.7122634738
 20
3.3808570614
 30
0.0
 10
4.7437081965
 20
3.4101128006
 30
0.0
 10
4.7743974344
 20
3.4391198072
 30
0.0
 10
4.8042906658
 20
3.4678996976
 30
0.0
 10
4.8333443457
 20
3.4964864361
 30
0.0
 10
4.8615174957
 20
3.524924552
 30
0.0
 10
4.8887713796
 20
3.5532740166
 30
0.0
 10
4.9107797767
 20
3.5769810895
 30
0.0
 10
4.927886368
 20
3.5959717986
 30
0.0
 10
4.9404220956
 20
3.6101885657
 30
0.0
 10
4.9527180386
 20
3.6244486327
 30
0.0
 10
4.9647792327
 20
3.6387658302
 30
0.0
 10
4.9766112334
 20
3.6531547562
 30
0.0
 10
4.9882205216
 20
3.6676313945
 30
0.0
 10
4.9996244309
 20
3.6822056704
 30
0.0
 10
5.0108415467
 20
3.6968889566
 30
0.0
 10
5.0218910331
 20
3.7116925498
 30
0.0
 10
5.0327898394
 20
3.7266280985
 30
0.0
 10
5.0435654445
 20
3.741697713
 30
0.0
 10
5.0578387308
 20
3.7620093028
 30
0.0
 10
5.0684055567
 20
3.7773795988
 30
0.0
 10
5.0754230285
 20
3.787675734
 30
0.0
 11
4.6474130261
 21
3.3217141698
 31
0.0
 11
4.6802447273
 21
3.3515212692
 31
0.0
 11
4.7124031238
 21
3.3810524579
 31
0.0
 11
4.7438458707
 21
3.4103185418
 31
0.0
 11
4.7745304663
 21
3.4393354266
 31
0.0
 11
4.8044155305
 21
3.4681252301
 31
0.0
 11
4.8334570576
 21
3.4967202427
 31
0.0
 11
4.8616122967
 21
3.5251638841
 31
0.0
 11
4.8888426906
 21
3.5535144791
 31
0.0
 11
4.9151179033
 21
3.5818441996
 31
0.0
 11
4.9278924109
 21
3.5960291103
 31
0.0
 11
4.9404233493
 21
3.6102430383
 31
0.0
 11
4.952714233
 21
3.6244995784
 31
0.0
 11
4.9647704056
 21
3.6388130565
 31
0.0
 11
4.9765972163
 21
3.6531978012
 31
0.0
 11
4.9882021864
 21
3.6676677081
 31
0.0
 11
4.9996018515
 21
3.6822348765
 31
0.0
 11
5.0108150852
 21
3.6969109399
 31
0.0
 11
5.0218607614
 21
3.7117075317
 31
0.0
 11
5.0327584616
 21
3.7266354137
 31
0.0
 11
5.0435341602
 21
3.7416974763
 31
0.0
 11
5.0542172229
 21
3.7568924333
 31
0.0
 11
5.0754230285
 21
3.787675734
 31
0.0
  0
SPLINE
  5
258
100
AcDbEntity
  8
0
100
AcDbSpline
 62
9
  6
CONTINUOUS
 70
0
 71
3
 72
29
 73
25
 74
23
 42
0.0000001
 43
0.0000001
 44
0.0000000001
 12
0.4252308238
 22
0.4709921241
 32
0.0
 13
0.5243453019
 23
0.3573749275
 33
0.0
 40
0.0
 40
0.0
 40
0.0
 40
0.0
 40
0.0698823877
 40
0.1386880108
 40
0.2063818767
 40
0.272935701
 40
0.3383309627
 40
0.4025597166
 40
0.4656310523
 40
0.5275798547
 40
0.5884715114
 40
0.6185546012
 40
0.648416462
 40
0.6780803775
 40
0.7075726787
 40
0.7369200552
 40
0.766151218
 40
0.7953016397
 40
0.8244081185
 40
0.853507045
 40
0.8826339249
 40
0.9118195413
 40
0.9410915152
 40
1.0
 40
1.0
 40
1.0
 40
1.0
 10
4.754626229
 20
3.2145009257
 30
0.0
 10
4.7645316108
 20
3.2254722771
 30
0.0
 10
4.7842503056
 20
3.2471913289
 30
0.0
 10
4.8137690928
 20
3.2793514085
 30
0.0
 10
4.8430248513
 20
3.3107961127
 30
0.0
 10
4.8720318471
 20
3.3414853563
 30
0.0
 10
4.9008117373
 20
3.3713785873
 30
0.0
 10
4.9293984813
 20
3.4004322616
 30
0.0
 10
4.957836592
 20
3.4286054145
 30
0.0
 10
4.986186065
 20
3.455859294
 30
0.0
 10
5.0098931326
 20
3.4778676983
 30
0.0
 10
5.0288838487
 20
3.4949742809
 30
0.0
 10
5.0431006188
 20
3.5075100026
 30
0.0
 10
5.0573606787
 20
3.5198059616
 30
0.0
 10
5.0716778737
 20
3.5318671679
 30
0.0
 10
5.0860668222
 20
3.5436991329
 30
0.0
 10
5.1005434713
 20
3.5553083912
 30
0.0
 10
5.1151177232
 20
3.5667123283
 30
0.0
 10
5.1298009965
 20
3.5779294828
 30
0.0
 10
5.1446046053
 20
3.5889789823
 30
0.0
 10
5.1595402027
 20
3.5998777491
 30
0.0
 10
5.1746098231
 20
3.6106533537
 30
0.0
 10
5.194921398
 20
3.6249266474
 30
0.0
 10
5.2102916736
 20
3.6354934882
 30
0.0
 10
5.2205878027
 20
3.6425109601
 30
0.0
 11
4.754626229
 21
3.2145009257
 31
0.0
 11
4.7844333202
 21
3.2473326416
 31
0.0
 11
4.8139644989
 21
3.279491055
 31
0.0
 11
4.8432305865
 21
3.3109337899
 31
0.0
 11
4.8722474685
 21
3.3416183874
 31
0.0
 11
4.9010372697
 21
3.3715034499
 31
0.0
 11
4.9296322867
 21
3.4005449754
 31
0.0
 11
4.9580759277
 21
3.4287002156
 31
0.0
 11
4.9864265194
 21
3.4559306019
 31
0.0
 11
5.014756251
 21
3.4822058266
 31
0.0
 11
5.0289411619
 21
3.4949803256
 31
0.0
 11
5.0431550823
 21
3.5075112535
 31
0.0
 11
5.0574116249
 21
3.5198021552
 31
0.0
 11
5.0717251122
 21
3.5318583394
 31
0.0
 11
5.0861098683
 21
3.5436851192
 31
0.0
 11
5.1005797728
 21
3.5552900606
 31
0.0
 11
5.1151469255
 21
3.5666897464
 31
0.0
 11
5.129822981
 21
3.5779030144
 31
0.0
 11
5.1446195939
 21
3.5889487027
 31
0.0
 11
5.1595475178
 21
3.599846383
 31
0.0
 11
5.1746095881
 21
3.6106220737
 31
0.0
 11
5.1898045312
 21
3.6213051386
 31
0.0
 11
5.2205878027
 21
3.6425109601
 31
0.0
  0
SPLINE
  5
259
100
AcDbEntity
  8
0
100
AcDbSpline
 62
9
  6
CONTINUOUS
 70
0
 71
3
 72
25
 73
21
 74
19
 42
0.0000001
 43
0.0000001
 44
0.0000000001
 12
-0.0068939537
 22
0.0054687507
 32
0.0
 13
0.0052788867
 23
0.0070403968
 33
0.0
 40
0.0
 40
0.0
 40
0.0
 40
0.0
 40
0.2262834981
 40
0.4261377184
 40
0.5978122784
 40
0.6726153227
 40
0.7399131877
 40
0.7996070594
 40
0.851599762
 40
0.8957973368
 40
0.9321334153
 40
0.9473465534
 40
0.9605886345
 40
0.9718620115
 40
0.9811738925
 40
0.9885415093
 40
0.9940062991
 40
0.9960585751
 40
0.9976944941
 40
1.0
 40
1.0
 40
1.0
 40
1.0
 10
6.2862856496
 20
3.7909957825
 30
0.0
 10
6.2857656537
 20
3.7914082785
 30
0.0
 10
6.2847880935
 20
3.7921872386
 30
0.0
 10
6.2834230211
 20
3.7932878834
 30
0.0
 10
6.2824099832
 20
3.7941172097
 30
0.0
 10
6.2817026898
 20
3.7947061316
 30
0.0
 10
6.281250311
 20
3.7950878575
 30
0.0
 10
6.2808518404
 20
3.7954296956
 30
0.0
 10
6.2805079283
 20
3.795731036
 30
0.0
 10
6.2802191925
 20
3.7959913272
 30
0.0
 10
6.2800142937
 20
3.7961834496
 30
0.0
 10
6.2798788448
 20
3.7963167721
 30
0.0
 10
6.2797974573
 20
3.7964001901
 30
0.0
 10
6.2797301037
 20
3.7964730688
 30
0.0
 10
6.2796767116
 20
3.7965353382
 30
0.0
 10
6.2796373421
 20
3.7965870504
 30
0.0
 10
6.279613933
 20
3.7966240321
 30
0.0
 10
6.2796031979
 20
3.7966488269
 30
0.0
 10
6.2795984687
 20
3.7966655458
 30
0.0
 10
6.2795994348
 20
3.7966785425
 30
0.0
 10
6.2796034916
 20
3.7966839531
 30
0.0
 11
6.2862856496
 21
3.7909957825
 31
0.0
 11
6.2847287329
 21
3.7922371322
 31
0.0
 11
6.2833601525
 21
3.7933415902
 31
0.0
 11
6.2821919746
 21
3.7942994535
 31
0.0
 11
6.2816862589
 21
3.7947207993
 31
0.0
 11
6.281233817
 21
3.7951028915
 31
0.0
 11
6.2808353362
 21
3.795445145
 31
0.0
 11
6.2804915034
 21
3.795746975
 31
0.0
 11
6.2802030033
 21
3.7960077985
 31
0.0
 11
6.2799703574
 21
3.7962271444
 31
0.0
 11
6.2798750654
 21
3.7963211694
 31
0.0
 11
6.2797938354
 21
3.7964047153
 31
0.0
 11
6.2797266984
 21
3.7964777468
 31
0.0
 11
6.2796736852
 21
3.7965402287
 31
0.0
 11
6.279634827
 21
3.7965921255
 31
0.0
 11
6.2796101547
 21
3.7966334021
 31
0.0
 11
6.2796031479
 21
3.7966500467
 31
0.0
 11
6.2795996992
 21
3.796664023
 31
0.0
 11
6.2796034916
 21
3.7966839531
 31
0.0
  0
SPLINE
  5
25A
100
AcDbEntity
  8
0
100
AcDbSpline
 62
9
  6
CONTINUOUS
 70
0
 71
3
 72
23
 73
19
 74
17
 42
0.0000001
 43
0.0000001
 44
0.0000000001
 12
-0.007211009
 22
0.0051352564
 32
0.0
 13
-0.005329238
 23
-0.0070688564
 33
0.0
 40
0.0
 40
0.0
 40
0.0
 40
0.0
 40
0.2259759172
 40
0.4255852659
 40
0.5970743814
 40
0.7390485513
 40
0.798703659
 40
0.8506755441
 40
0.8948728802
 40
0.9312339279
 40
0.9464716695
 40
0.9597485439
 40
0.9710696121
 40
0.9804464442
 40
0.987903883
 40
0.9934980591
 40
0.9973752212
 40
1.0
 40
1.0
 40
1.0
 40
1.0
 10
6.2838271185
 20
3.7876751916
 30
0.0
 10
6.283283947
 20
3.7880620064
 30
0.0
 10
6.2822590991
 20
3.7887878677
 30
0.0
 10
6.2808144706
 20
3.7897965294
 30
0.0
 10
6.2795654755
 20
3.7906522882
 30
0.0
 10
6.2786496808
 20
3.7912635995
 30
0.0
 10
6.2780211754
 20
3.7916698326
 30
0.0
 10
6.2776319359
 20
3.7919146641
 30
0.0
 10
6.2772974863
 20
3.7921174016
 30
0.0
 10
6.2770524082
 20
3.7922583759
 30
0.0
 10
6.2768838164
 20
3.7923491046
 30
0.0
 10
6.2767790011
 20
3.7924023469
 30
0.0
 10
6.276688224
 20
3.7924449628
 30
0.0
 10
6.2766114948
 20
3.7924768943
 30
0.0
 10
6.2765488403
 20
3.7924985015
 30
0.0
 10
6.2764999455
 20
3.7925093401
 30
0.0
 10
6.2764640188
 20
3.7925112985
 30
0.0
 10
6.2764450024
 20
3.7925024434
 30
0.0
 10
6.2764403397
 20
3.7924962587
 30
0.0
 11
6.2838271185
 21
3.7876751916
 31
0.0
 11
6.2821942356
 21
3.7888308912
 31
0.0
 11
6.2807448409
 21
3.7898417331
 31
0.0
 11
6.2794917411
 21
3.7906987464
 31
0.0
 11
6.2784452461
 21
3.7913948183
 31
0.0
 11
6.2780015086
 21
3.7916811627
 31
0.0
 11
6.2776117956
 21
3.7919257151
 31
0.0
 11
6.277276868
 21
3.7921279794
 31
0.0
 11
6.2769973337
 21
3.7922875879
 31
0.0
 11
6.2768784561
 21
3.7923513424
 31
0.0
 11
6.2767735632
 21
3.7924043718
 31
0.0
 11
6.276682699
 21
3.7924466571
 31
0.0
 11
6.2766059072
 21
3.7924781794
 31
0.0
 11
6.2765432316
 21
3.7924989196
 31
0.0
 11
6.2764947159
 21
3.7925088589
 31
0.0
 11
6.276460404
 21
3.7925079782
 31
0.0
 11
6.2764403397
 21
3.7924962587
 31
0.0
  0
SPLINE
  5
25B
100
AcDbEntity
  8
0
100
AcDbSpline
 62
9
  6
CONTINUOUS
 70
0
 71
3
 72
21
 73
17
 74
15
 42
0.0000001
 43
0.0000001
 44
0.0000000001
 12
-0.0043408701
 22
0.0039689983
 32
0.0
 13
-0.0041590882
 23
-0.0041590968
 33
0.0
 40
0.0
 40
0.0
 40
0.0
 40
0.0
 40
0.2276714854
 40
0.4275004616
 40
0.598350757
 40
0.7393322544
 40
0.7984631115
 40
0.8499468659
 40
0.8937363893
 40
0.9298110748
 40
0.9581975938
 40
0.9695347802
 40
0.9789956822
 40
0.9866251788
 40
0.9925135923
 40
1.0
 40
1.0
 40
1.0
 40
1.0
 10
6.2144747211
 20
3.7126678043
 30
0.0
 10
6.2141452903
 20
3.7129690136
 30
0.0
 10
6.2135248924
 20
3.7135326087
 30
0.0
 10
6.2126498197
 20
3.7143139809
 30
0.0
 10
6.2118939714
 20
3.7149735922
 30
0.0
 10
6.2113385003
 20
3.7154431911
 30
0.0
 10
6.2109557044
 20
3.7157543367
 30
0.0
 10
6.210717717
 20
3.7159414611
 30
0.0
 10
6.2105118934
 20
3.7160962814
 30
0.0
 10
6.210338417
 20
3.7162186285
 30
0.0
 10
6.2102132428
 20
3.7162988777
 30
0.0
 10
6.21012884
 20
3.7163457142
 30
0.0
 10
6.2100787985
 20
3.7163700379
 30
0.0
 10
6.2100362653
 20
3.7163862487
 30
0.0
 10
6.2099974456
 20
3.7163963165
 30
0.0
 10
6.2099666938
 20
3.7163944628
 30
0.0
 10
6.2099563149
 20
3.7163840839
 30
0.0
 11
6.2144747211
 21
3.7126678043
 31
0.0
 11
6.2134831223
 21
3.7135678025
 31
0.0
 11
6.212605848
 21
3.7143500224
 31
0.0
 11
6.2118479633
 21
3.7150099201
 31
0.0
 11
6.211213546
 21
3.7155439044
 31
0.0
 11
6.2109434418
 21
3.7157630107
 31
0.0
 11
6.2107051432
 21
3.7159498619
 31
0.0
 11
6.210498951
 21
3.7161042108
 31
0.0
 11
6.2103251098
 21
3.7162258743
 31
0.0
 11
6.2101837763
 21
3.7163147686
 31
0.0
 11
6.2101253466
 21
3.7163469038
 31
0.0
 11
6.2100750998
 21
3.7163708184
 31
0.0
 11
6.2100330546
 21
3.7163865032
 31
0.0
 11
6.2099992296
 21
3.7163939486
 31
0.0
 11
6.2099563149
 21
3.7163840839
 31
0.0
  0
SPLINE
  5
25C
100
AcDbEntity
  8
0
100
AcDbSpline
 62
9
  6
CONTINUOUS
 70
0
 71
3
 72
24
 73
20
 74
18
 42
0.0000001
 43
0.0000001
 44
0.0000000001
 12
-0.0051364464
 22
0.0072126646
 32
0.0
 13
0.0070462191
 23
0.0053625002
 33
0.0
 40
0.0
 40
0.0
 40
0.0
 40
0.0
 40
0.2259397301
 40
0.4255231837
 40
0.5969972441
 40
0.6717264097
 40
0.7389685705
 40
0.798625867
 40
0.8506026825
 40
0.894807663
 40
0.9311790017
 40
0.9464228388
 40
0.9597064103
 40
0.9710347395
 40
0.9804193326
 40
0.987884908
 40
0.9934872996
 40
0.997371854
 40
1.0
 40
1.0
 40
1.0
 40
1.0
 10
6.1386659216
 20
3.6425123772
 30
0.0
 10
6.1382790792
 20
3.6430555864
 30
0.0
 10
6.1375531462
 20
3.6440805151
 30
0.0
 10
6.1365444109
 20
3.6455253033
 30
0.0
 10
6.1358006143
 20
3.6466107015
 30
0.0
 10
6.1352851043
 20
3.6473789287
 30
0.0
 10
6.1349573051
 20
3.6478756422
 30
0.0
 10
6.1346707168
 20
3.6483190652
 30
0.0
 10
6.1344257883
 20
3.6487084202
 30
0.0
 10
6.1342229545
 20
3.6490429957
 30
0.0
 10
6.1340818949
 20
3.6492881816
 30
0.0
 10
6.1339910948
 20
3.6494568624
 30
0.0
 10
6.1339377983
 20
3.649561747
 30
0.0
 10
6.1338951276
 20
3.6496525943
 30
0.0
 10
6.13386314
 20
3.6497293955
 30
0.0
 10
6.1338414785
 20
3.6497921205
 30
0.0
 10
6.1338305821
 20
3.6498410894
 30
0.0
 10
6.1338285751
 20
3.649877068
 30
0.0
 10
6.1338373638
 20
3.649896149
 30
0.0
 10
6.1338435367
 20
3.6499008468
 30
0.0
 11
6.1386659216
 21
3.6425123772
 31
0.0
 11
6.137510138
 21
3.6441453725
 31
0.0
 11
6.1364991885
 21
3.6455949088
 31
0.0
 11
6.1356420431
 21
3.6468481804
 31
0.0
 11
6.1352735341
 21
3.6473977741
 31
0.0
 11
6.1349458147
 21
3.6478948773
 31
0.0
 11
6.1346593833
 21
3.6483387265
 31
0.0
 11
6.1344147383
 21
3.648728558
 31
0.0
 11
6.1342123759
 21
3.6490636107
 31
0.0
 11
6.1340526641
 21
3.6493432764
 31
0.0
 11
6.1339888562
 21
3.6494622218
 31
0.0
 11
6.1339357722
 21
3.6495671838
 31
0.0
 11
6.1338934312
 21
3.6496581185
 31
0.0
 11
6.1338618523
 21
3.649734982
 31
0.0
 11
6.1338410543
 21
3.6497977304
 31
0.0
 11
6.1338310564
 21
3.64984632
 31
0.0
 11
6.1338318775
 21
3.6498807067
 31
0.0
 11
6.1338435367
 21
3.6499008468
 31
0.0
  0
SPLINE
  5
25D
100
AcDbEntity
  8
0
100
AcDbSpline
 62
9
  6
CONTINUOUS
 70
0
 71
3
 72
19
 73
15
 74
13
 42
0.0000001
 43
0.0000001
 44
0.0000000001
 12
-0.003977377
 22
0.0043316537
 32
0.0
 13
0.0041582946
 23
0.0041582855
 33
0.0
 40
0.0
 40
0.0
 40
0.0
 40
0.0
 40
0.2277059282
 40
0.4275834709
 40
0.5984780086
 40
0.7394852586
 40
0.850113803
 40
0.9300014201
 40
0.9584099645
 40
0.9697551359
 40
0.9792184947
 40
0.9868399681
 40
0.9927007625
 40
1.0
 40
1.0
 40
1.0
 40
1.0
 10
6.2136725944
 20
3.7118656776
 30
0.0
 10
6.2133707036
 20
3.7121944587
 30
0.0
 10
6.2128066446
 20
3.7128144455
 30
0.0
 10
6.2120262537
 20
3.7136904334
 30
0.0
 10
6.2113675481
 20
3.7144471081
 30
0.0
 10
6.2108326166
 20
3.7150795577
 30
0.0
 10
6.2104248238
 20
3.715585553
 30
0.0
 10
6.2101688055
 20
3.7159304329
 30
0.0
 10
6.2100426314
 20
3.7161282592
 30
0.0
 10
6.2099959364
 20
3.7162128005
 30
0.0
 10
6.2099716526
 20
3.7162628316
 30
0.0
 10
6.2099553363
 20
3.7163052902
 30
0.0
 10
6.2099452129
 20
3.716343501
 30
0.0
 10
6.2099461975
 20
3.7163739665
 30
0.0
 10
6.2099563149
 20
3.7163840839
 30
0.0
 11
6.2136725944
 21
3.7118656776
 31
0.0
 11
6.2127717795
 21
3.7128564591
 31
0.0
 11
6.2119902788
 21
3.713734453
 31
0.0
 11
6.2113310534
 21
3.7144930103
 31
0.0
 11
6.2107969981
 21
3.7151273566
 31
0.0
 11
6.210390905
 21
3.7156356238
 31
0.0
 11
6.2101153713
 21
3.7160161358
 31
0.0
 11
6.2100267851
 21
3.7161577773
 31
0.0
 11
6.2099947361
 21
3.7162162932
 31
0.0
 11
6.2099708293
 21
3.7162665479
 31
0.0
 11
6.2099550492
 21
3.7163084977
 31
0.0
 11
6.2099473804
 21
3.7163420993
 31
0.0
 11
6.2099563149
 21
3.7163840839
 31
0.0
  0
SPLINE
  5
25E
100
AcDbEntity
  8
0
100
AcDbSpline
 62
9
  6
CONTINUOUS
 70
0
 71
3
 72
25
 73
21
 74
19
 42
0.0000001
 43
0.0000001
 44
0.0000000001
 12
-0.0054679621
 22
0.0068929118
 32
0.0
 13
-0.0070204165
 23
-0.0053032626
 33
0.0
 40
0.0
 40
0.0
 40
0.0
 40
0.0
 40
0.226308083
 40
0.4261799774
 40
0.5978649167
 40
0.6726703329
 40
0.7399686923
 40
0.7996611866
 40
0.8516506479
 40
0.8958431282
 40
0.9321722918
 40
0.9473813114
 40
0.9606188489
 40
0.9718872751
 40
0.9811938275
 40
0.9885557966
 40
0.9940147648
 40
0.9960642014
 40
0.9976975084
 40
1.0
 40
1.0
 40
1.0
 40
1.0
 10
6.1353440931
 20
3.6400554899
 30
0.0
 10
6.1349316117
 20
3.6405754637
 30
0.0
 10
6.1341526863
 20
3.6415529728
 30
0.0
 10
6.1330521016
 20
3.6429179575
 30
0.0
 10
6.1322228355
 20
3.6439309089
 30
0.0
 10
6.1316339704
 20
3.6446381223
 30
0.0
 10
6.1312522937
 20
3.6450904333
 30
0.0
 10
6.130910509
 20
3.6454888312
 30
0.0
 10
6.1306092264
 20
3.6458326658
 30
0.0
 10
6.1303489969
 20
3.6461213194
 30
0.0
 10
6.1301569283
 20
3.6463261466
 30
0.0
 10
6.1300236505
 20
3.6464615359
 30
0.0
 10
6.1299402677
 20
3.6465428775
 30
0.0
 10
6.129867425
 20
3.6466101844
 30
0.0
 10
6.1298051926
 20
3.6466635294
 30
0.0
 10
6.1297535181
 20
3.6467028507
 30
0.0
 10
6.1297165677
 20
3.6467262206
 30
0.0
 10
6.1296917979
 20
3.6467369199
 30
0.0
 10
6.129675099
 20
3.6467416234
 30
0.0
 10
6.1296621199
 20
3.6467406186
 30
0.0
 10
6.1296567318
 20
3.6467365484
 30
0.0
 11
6.1353440931
 21
3.6400554899
 31
0.0
 11
6.1341027868
 21
3.6416123399
 31
0.0
 11
6.1329983884
 21
3.6429808327
 31
0.0
 11
6.1320406018
 21
3.6441489016
 31
0.0
 11
6.1316193009
 21
3.6446545547
 31
0.0
 11
6.131237258
 21
3.6451069288
 31
0.0
 11
6.1308950579
 21
3.6455053367
 31
0.0
 11
6.1305932854
 21
3.6458490917
 31
0.0
 11
6.1303325236
 21
3.6461375093
 31
0.0
 11
6.1301132433
 21
3.6463700682
 31
0.0
 11
6.1300192526
 21
3.6464653151
 31
0.0
 11
6.1299357418
 21
3.646546499
 31
0.0
 11
6.1298627462
 21
3.6466135891
 31
0.0
 11
6.1298003012
 21
3.6466665544
 31
0.0
 11
6.1297484419
 21
3.6467053639
 31
0.0
 11
6.1297072038
 21
3.6467299867
 31
0.0
 11
6.1296905786
 21
3.6467369684
 31
0.0
 11
6.1296766219
 21
3.6467403918
 31
0.0
 11
6.1296567318
 21
3.6467365484
 31
0.0
  0
SPLINE
  5
25F
100
AcDbEntity
  8
0
100
AcDbSpline
 62
9
  6
CONTINUOUS
 70
0
 71
3
 72
25
 73
21
 74
19
 42
0.0000001
 43
0.0000001
 44
0.0000000001
 12
0.005468916
 22
0.006894224
 32
0.0
 13
0.0070310663
 23
-0.0052918307
 33
0.0
 40
0.0
 40
0.0
 40
0.0
 40
0.0
 40
0.2262951039
 40
0.4261580039
 40
0.5978379694
 40
0.672642398
 40
0.7399407435
 40
0.7996341756
 40
0.8516255027
 40
0.8958207508
 40
0.9321535446
 40
0.9473646838
 40
0.9606045311
 40
0.9718754434
 40
0.981184637
 40
0.9885493634
 40
0.9940111154
 40
0.9960618754
 40
0.9976963621
 40
1.0
 40
1.0
 40
1.0
 40
1.0
 10
5.2239054259
 20
3.6400562406
 30
0.0
 10
5.2243179556
 20
3.6405762836
 30
0.0
 10
5.2250969762
 20
3.6415539288
 30
0.0
 10
5.2261977008
 20
3.6429191141
 30
0.0
 10
5.22702708
 20
3.6439322278
 30
0.0
 10
5.2276160324
 20
3.6446395663
 30
0.0
 10
5.2279977719
 20
3.6450919668
 30
0.0
 10
5.2283396173
 20
3.6454904508
 30
0.0
 10
5.2286409583
 20
3.645834368
 30
0.0
 10
5.2289012435
 20
3.6461231003
 30
0.0
 10
5.2290933567
 20
3.6463279908
 30
0.0
 10
5.2292266687
 20
3.6464634287
 30
0.0
 10
5.2293100761
 20
3.6465448048
 30
0.0
 10
5.2293829426
 20
3.646612145
 30
0.0
 10
5.229445198
 20
3.6466655218
 30
0.0
 10
5.2294968945
 20
3.6467048737
 30
0.0
 10
5.2295338623
 20
3.6467282677
 30
0.0
 10
5.2295586456
 20
3.6467389876
 30
0.0
 10
5.2295753541
 20
3.6467437055
 30
0.0
 10
5.2295883424
 20
3.6467427214
 30
0.0
 10
5.2295937414
 20
3.6467386579
 30
0.0
 11
5.2239054259
 21
3.6400562406
 31
0.0
 11
5.2251468767
 21
3.6416132985
 31
0.0
 11
5.2262514153
 21
3.6429819927
 31
0.0
 11
5.2272093366
 21
3.6441502544
 31
0.0
 11
5.2276307023
 21
3.644656
 31
0.0
 11
5.2280128081
 21
3.6451084635
 31
0.0
 11
5.2283550689
 21
3.6455069578
 31
0.0
 11
5.2286568996
 21
3.6458507956
 31
0.0
 11
5.2289177172
 21
3.6461392922
 31
0.0
 11
5.2291370505
 21
3.6463719259
 31
0.0
 11
5.2292310666
 21
3.6464672086
 31
0.0
 11
5.229314602
 21
3.6465484272
 31
0.0
 11
5.2293876214
 21
3.6466155507
 31
0.0
 11
5.2294500893
 21
3.6466685482
 31
0.0
 11
5.2295019706
 21
3.6467073886
 31
0.0
 11
5.22954323
 21
3.646732041
 31
0.0
 11
5.2295598653
 21
3.646739037
 31
0.0
 11
5.229573832
 21
3.6467424744
 31
0.0
 11
5.2295937414
 21
3.6467386579
 31
0.0
  0
SPLINE
  5
260
100
AcDbEntity
  8
0
100
AcDbSpline
 62
9
  6
CONTINUOUS
 70
0
 71
3
 72
23
 73
19
 74
17
 42
0.0000001
 43
0.0000001
 44
0.0000000001
 12
0.0051370939
 22
0.0072129779
 32
0.0
 13
-0.0070620373
 23
0.0053426972
 33
0.0
 40
0.0
 40
0.0
 40
0.0
 40
0.0
 40
0.2259638895
 40
0.4255655902
 40
0.5970511165
 40
0.7390254535
 40
0.7986819639
 40
0.8506560766
 40
0.8948564104
 40
0.9312211507
 40
0.9464609623
 40
0.9597400274
 40
0.9710633716
 40
0.9804425068
 40
0.9879021698
 40
0.9934982683
 40
0.9973764906
 40
1.0
 40
1.0
 40
1.0
 40
1.0
 10
5.2205870303
 20
3.6425099115
 30
0.0
 10
5.2209739629
 20
3.6430532024
 30
0.0
 10
5.2217000541
 20
3.6440782803
 30
0.0
 10
5.2227090568
 20
3.645523235
 30
0.0
 10
5.2235651359
 20
3.6467725244
 30
0.0
 10
5.2241767025
 20
3.6476885406
 30
0.0
 10
5.2245831281
 20
3.6483172036
 30
0.0
 10
5.2248280904
 20
3.6487065477
 30
0.0
 10
5.2250309507
 20
3.6490410916
 30
0.0
 10
5.2251720239
 20
3.6492862408
 30
0.0
 10
5.2252628287
 20
3.6494548839
 30
0.0
 10
5.2253161231
 20
3.6495597341
 30
0.0
 10
5.2253587889
 20
3.649650543
 30
0.0
 10
5.2253907678
 20
3.6497273016
 30
0.0
 10
5.2254124196
 20
3.6497899808
 30
0.0
 10
5.2254233003
 20
3.6498388989
 30
0.0
 10
5.2254252989
 20
3.6498748338
 30
0.0
 10
5.2254164825
 20
3.6498938738
 30
0.0
 10
5.2254103067
 20
3.649898546
 30
0.0
 11
5.2205870303
 21
3.6425099115
 31
0.0
 11
5.2217430888
 21
3.644143149
 31
0.0
 11
5.2227542741
 21
3.6455928713
 31
0.0
 11
5.2236116105
 21
3.6468462663
 31
0.0
 11
5.2243079805
 21
3.64789302
 31
0.0
 11
5.2245944637
 21
3.6483368723
 31
0.0
 11
5.2248391476
 21
3.6487266898
 31
0.0
 11
5.2250415356
 21
3.6490617116
 31
0.0
 11
5.2252012597
 21
3.6493413294
 31
0.0
 11
5.2252650689
 21
3.6494602446
 31
0.0
 11
5.2253181509
 21
3.6495651723
 31
0.0
 11
5.2253604866
 21
3.6496560686
 31
0.0
 11
5.2253920571
 21
3.6497328897
 31
0.0
 11
5.2254128433
 21
3.6497955919
 31
0.0
 11
5.2254228263
 21
3.6498441312
 31
0.0
 11
5.2254219871
 21
3.6498784638
 31
0.0
 11
5.2254103067
 21
3.649898546
 31
0.0
  0
SPLINE
  5
261
100
AcDbEntity
  8
0
100
AcDbSpline
 62
9
  6
CONTINUOUS
 70
0
 71
3
 72
21
 73
17
 74
15
 42
0.0000001
 43
0.0000001
 44
0.0000000001
 12
0.0039683508
 22
0.0043412802
 32
0.0
 13
-0.0041589976
 23
0.0041589976
 33
0.0
 40
0.0
 40
0.0
 40
0.0
 40
0.0
 40
0.2276780018
 40
0.4275126891
 40
0.5983677325
 40
0.7393527988
 40
0.7984848974
 40
0.8499694535
 40
0.8937592402
 40
0.9298334953
 40
0.9582186243
 40
0.9695545911
 40
0.9790137798
 40
0.9866408669
 40
0.992525825
 40
1.0
 40
1.0
 40
1.0
 40
1.0
 10
5.1455798636
 20
3.7118656776
 30
0.0
 10
5.1458810324
 20
3.7121951489
 30
0.0
 10
5.146444555
 20
3.7128156193
 30
0.0
 10
5.1472258409
 20
3.7136907776
 30
0.0
 10
5.147885398
 20
3.7144466793
 30
0.0
 10
5.1483549787
 20
3.7150021682
 30
0.0
 10
5.1486661298
 20
3.7153849592
 30
0.0
 10
5.1488532661
 20
3.715622934
 30
0.0
 10
5.1490081065
 20
3.7158287365
 30
0.0
 10
5.1491304817
 20
3.7160021833
 30
0.0
 10
5.1492107627
 20
3.716127325
 30
0.0
 10
5.1492576315
 20
3.716211698
 30
0.0
 10
5.1492819779
 20
3.7162617142
 30
0.0
 10
5.1492982148
 20
3.7163042225
 30
0.0
 10
5.1493083079
 20
3.7163429916
 30
0.0
 10
5.1493065048
 20
3.7163737222
 30
0.0
 10
5.1492961431
 20
3.7163840839
 30
0.0
 11
5.1455798636
 21
3.7118656776
 31
0.0
 11
5.1464797472
 21
3.7128573909
 31
0.0
 11
5.1472618827
 21
3.7137347497
 31
0.0
 11
5.1479217286
 21
3.714492686
 31
0.0
 11
5.1484556957
 21
3.7151271205
 31
0.0
 11
5.1486748063
 21
3.7153972204
 31
0.0
 11
5.1488616704
 21
3.7156355061
 31
0.0
 11
5.1490160409
 21
3.7158416767
 31
0.0
 11
5.1491377345
 21
3.7160154879
 31
0.0
 11
5.149226667
 21
3.7161567831
 31
0.0
 11
5.1492588243
 21
3.7162151907
 31
0.0
 11
5.149282763
 21
3.7162654135
 31
0.0
 11
5.1492984737
 21
3.7163074328
 31
0.0
 11
5.1493059469
 21
3.7163412301
 31
0.0
 11
5.1492961431
 21
3.7163840839
 31
0.0
  0
SPLINE
  5
262
100
AcDbEntity
  8
0
100
AcDbSpline
 62
9
  6
CONTINUOUS
 70
0
 71
3
 72
23
 73
19
 74
17
 42
0.0000001
 43
0.0000001
 44
0.0000000001
 12
0.0072126195
 22
0.0051365719
 32
0.0
 13
0.0053509314
 23
-0.0070550538
 33
0.0
 40
0.0
 40
0.0
 40
0.0
 40
0.0
 40
0.225952971
 40
0.4255462949
 40
0.5970265321
 40
0.7389990133
 40
0.798655904
 40
0.8506312777
 40
0.8948337633
 40
0.9312015432
 40
0.9464432017
 40
0.9597243294
 40
0.9710499511
 40
0.9804315785
 40
0.9878939463
 40
0.9934929438
 40
0.9973741419
 40
1.0
 40
1.0
 40
1.0
 40
1.0
 10
5.075422755
 20
3.7876760311
 30
0.0
 10
5.0759659926
 20
3.7880629057
 30
0.0
 10
5.0769909746
 20
3.7887888879
 30
0.0
 10
5.0784358047
 20
3.7897977355
 30
0.0
 10
5.0796850044
 20
3.7906536846
 30
0.0
 10
5.0806009695
 20
3.7912651586
 30
0.0
 10
5.0812296107
 20
3.7916715242
 30
0.0
 10
5.0816189522
 20
3.7919164536
 30
0.0
 10
5.081953503
 20
3.7921192887
 30
0.0
 10
5.0821986641
 20
3.7922603449
 30
0.0
 10
5.0823673212
 20
3.7923511397
 30
0.0
 10
5.0824721852
 20
3.7924044299
 30
0.0
 10
5.0825630102
 20
3.7924470931
 30
0.0
 10
5.0826397869
 20
3.7924790716
 30
0.0
 10
5.0827024862
 20
3.7925007238
 30
0.0
 10
5.0827514268
 20
3.792511608
 30
0.0
 10
5.082787382
 20
3.792513607
 30
0.0
 10
5.0828064396
 20
3.7925048003
 30
0.0
 10
5.0828111232
 20
3.7924986251
 30
0.0
 11
5.075422755
 21
3.7876760311
 31
0.0
 11
5.0770558349
 21
3.7888319122
 31
0.0
 11
5.0785054312
 21
3.789842941
 31
0.0
 11
5.0797587357
 21
3.7907001461
 31
0.0
 11
5.0808054367
 21
3.7913964134
 31
0.0
 11
5.0812492768
 21
3.7916828562
 31
0.0
 11
5.0816390917
 21
3.791927507
 31
0.0
 11
5.0819741204
 21
3.7921298696
 31
0.0
 11
5.0822537545
 21
3.7922895758
 31
0.0
 11
5.0823726813
 21
3.7923533789
 31
0.0
 11
5.0824776228
 21
3.7924064566
 31
0.0
 11
5.082568535
 21
3.7924487898
 31
0.0
 11
5.0826453742
 21
3.7924803597
 31
0.0
 11
5.0827080965
 21
3.7925011472
 31
0.0
 11
5.082756658
 21
3.7925111333
 31
0.0
 11
5.0827910148
 21
3.7925102989
 31
0.0
 11
5.0828111232
 21
3.7924986251
 31
0.0
  0
SPLINE
  5
263
100
AcDbEntity
  8
0
100
AcDbSpline
 62
9
  6
CONTINUOUS
 70
0
 71
3
 72
19
 73
15
 74
13
 42
0.0000001
 43
0.0000001
 44
0.0000000001
 12
0.0043312953
 22
0.0039779382
 32
0.0
 13
0.0041583718
 23
-0.0041583718
 33
0.0
 40
0.0
 40
0.0
 40
0.0
 40
0.0
 40
0.2277002969
 40
0.4275728834
 40
0.5984633082
 40
0.7394674769
 40
0.8500942465
 40
0.9299820015
 40
0.9583917868
 40
0.9697380333
 40
0.9792028902
 40
0.9868264534
 40
0.9926902235
 40
1.0
 40
1.0
 40
1.0
 40
1.0
 10
5.1447777368
 20
3.7126678044
 30
0.0
 10
5.1451064826
 20
3.7129697303
 30
0.0
 10
5.1457264064
 20
3.7135338523
 30
0.0
 10
5.1466023199
 20
3.7143143181
 30
0.0
 10
5.1473589484
 20
3.7149730708
 30
0.0
 10
5.147991381
 20
3.7155080208
 30
0.0
 10
5.1484973889
 20
3.7159158038
 30
0.0
 10
5.1488423038
 20
3.7161717898
 30
0.0
 10
5.1490401715
 20
3.7162979186
 30
0.0
 10
5.1491247387
 20
3.7163445856
 30
0.0
 10
5.1491747917
 20
3.7163688498
 30
0.0
 10
5.1492172719
 20
3.7163851432
 30
0.0
 10
5.1492555266
 20
3.7163952456
 30
0.0
 10
5.1492860109
 20
3.7163942161
 30
0.0
 10
5.1492961431
 20
3.7163840839
 30
0.0
 11
5.1447777368
 21
3.7126678044
 31
0.0
 11
5.1457684187
 21
3.7135687187
 31
0.0
 11
5.1466463392
 21
3.7143502927
 31
0.0
 11
5.1474048517
 21
3.715009563
 31
0.0
 11
5.1480391831
 21
3.7155436333
 31
0.0
 11
5.1485474652
 21
3.7159497114
 31
0.0
 11
5.148928022
 21
3.7162252003
 31
0.0
 11
5.1490696968
 21
3.7163137533
 31
0.0
 11
5.1491282319
 21
3.7163457831
 31
0.0
 11
5.1491785074
 21
3.716369669
 31
0.0
 11
5.1492204798
 21
3.7163854267
 31
0.0
 11
5.1492541056
 21
3.7163930713
 31
0.0
 11
5.1492961431
 21
3.7163840839
 31
0.0
  0
SPLINE
  5
264
100
AcDbEntity
  8
0
100
AcDbSpline
 62
9
  6
CONTINUOUS
 70
0
 71
3
 72
25
 73
21
 74
19
 42
0.0000001
 43
0.0000001
 44
0.0000000001
 12
0.006895162
 22
0.0054695485
 32
0.0
 13
-0.0052913917
 23
0.0070328083
 33
0.0
 40
0.0
 40
0.0
 40
0.0
 40
0.0
 40
0.2262945835
 40
0.4261575788
 40
0.5978379205
 40
0.6726425632
 40
0.7399411283
 40
0.7996347783
 40
0.8516263131
 40
0.8958217474
 40
0.9321546978
 40
0.947365902
 40
0.9606058023
 40
0.9718767501
 40
0.9811859511
 40
0.9885506359
 40
0.9940122529
 40
0.996062878
 40
0.9976971541
 40
1.0
 40
1.0
 40
1.0
 40
1.0
 10
5.0729668569
 20
3.7909925285
 30
0.0
 10
5.0734869695
 20
3.7914051049
 30
0.0
 10
5.0744647476
 20
3.7921842138
 30
0.0
 10
5.0758301232
 20
3.7932850603
 30
0.0
 10
5.0768433831
 20
3.794114529
 30
0.0
 10
5.0775508271
 20
3.7947035428
 30
0.0
 10
5.0780032967
 20
3.7950853209
 30
0.0
 10
5.0784018434
 20
3.7954271995
 30
0.0
 10
5.0787458165
 20
3.7957285683
 30
0.0
 10
5.079034598
 20
3.7959888758
 30
0.0
 10
5.0792395256
 20
3.7961810038
 30
0.0
 10
5.0793749901
 20
3.7963143246
 30
0.0
 10
5.0794563832
 20
3.7963977369
 30
0.0
 10
5.0795237387
 20
3.796470607
 30
0.0
 10
5.0795771291
 20
3.7965328645
 30
0.0
 10
5.0796164928
 20
3.7965845619
 30
0.0
 10
5.0796398959
 20
3.7966215291
 30
0.0
 10
5.0796506229
 20
3.7966463118
 30
0.0
 10
5.0796553455
 20
3.7966630174
 30
0.0
 10
5.0796543669
 20
3.7966760051
 30
0.0
 10
5.0796503052
 20
3.7966814036
 30
0.0
 11
5.0729668569
 21
3.7909925285
 31
0.0
 11
5.0745241247
 21
3.7922341181
 31
0.0
 11
5.0758930107
 21
3.7933387793
 31
0.0
 11
5.0770614422
 21
3.7942968042
 31
0.0
 11
5.0775672634
 21
3.7947182139
 31
0.0
 11
5.0780197963
 21
3.7951003583
 31
0.0
 11
5.0784183533
 21
3.7954426523
 31
0.0
 11
5.0787622472
 21
3.7957445108
 31
0.0
 11
5.0790507932
 21
3.7960053505
 31
0.0
 11
5.0792834695
 21
3.7962247004
 31
0.0
 11
5.079378771
 21
3.7963187227
 31
0.0
 11
5.0794600066
 21
3.796402263
 31
0.0
 11
5.0795271456
 21
3.7964752859
 31
0.0
 11
5.0795801568
 21
3.796537756
 31
0.0
 11
5.0796190094
 21
3.7965896382
 31
0.0
 11
5.0796436722
 21
3.796630897
 31
0.0
 11
5.0796506729
 21
3.7966475317
 31
0.0
 11
5.0796541145
 21
3.7966614973
 31
0.0
 11
5.0796503052
 21
3.7966814036
 31
0.0
  0
SPLINE
  5
265
100
AcDbEntity
  8
0
100
AcDbSpline
 62
9
  6
CONTINUOUS
 70
0
 71
3
 72
25
 73
21
 74
19
 42
0.0000001
 43
0.0000001
 44
0.0000000001
 12
0.0068939537
 22
-0.0054687506
 32
0.0
 13
-0.0052788868
 23
-0.0070403966
 33
0.0
 40
0.0
 40
0.0
 40
0.0
 40
0.0
 40
0.2262834982
 40
0.4261377186
 40
0.5978122787
 40
0.672615323
 40
0.739913188
 40
0.7996070596
 40
0.8515997622
 40
0.895797337
 40
0.9321334155
 40
0.9473465535
 40
0.9605886346
 40
0.9718620116
 40
0.9811738925
 40
0.9885415093
 40
0.9940062991
 40
0.9960585751
 40
0.9976944941
 40
1.0
 40
1.0
 40
1.0
 40
1.0
 10
5.0729668083
 20
4.7024325569
 30
0.0
 10
5.0734868043
 20
4.7020200609
 30
0.0
 10
5.0744643644
 20
4.7012411008
 30
0.0
 10
5.0758294369
 20
4.700140456
 30
0.0
 10
5.0768424748
 20
4.6993111297
 30
0.0
 10
5.0775497682
 20
4.6987222079
 30
0.0
 10
5.0780021469
 20
4.698340482
 30
0.0
 10
5.0784006175
 20
4.6979986438
 30
0.0
 10
5.0787445297
 20
4.6976973034
 30
0.0
 10
5.0790332655
 20
4.6974370122
 30
0.0
 10
5.0792381642
 20
4.6972448898
 30
0.0
 10
5.0793736132
 20
4.6971115673
 30
0.0
 10
5.0794550006
 20
4.6970281493
 30
0.0
 10
5.0795223543
 20
4.6969552706
 30
0.0
 10
5.0795757463
 20
4.6968930012
 30
0.0
 10
5.0796151158
 20
4.696841289
 30
0.0
 10
5.0796385249
 20
4.6968043074
 30
0.0
 10
5.07964926
 20
4.6967795125
 30
0.0
 10
5.0796539892
 20
4.6967627936
 30
0.0
 10
5.0796530231
 20
4.6967497969
 30
0.0
 10
5.0796489663
 20
4.6967443864
 30
0.0
 11
5.0729668083
 21
4.7024325569
 31
0.0
 11
5.0745237251
 21
4.7011912072
 31
0.0
 11
5.0758923054
 21
4.7000867492
 31
0.0
 11
5.0770604834
 21
4.6991288859
 31
0.0
 11
5.0775661991
 21
4.6987075401
 31
0.0
 11
5.0780186409
 21
4.6983254479
 31
0.0
 11
5.0784171218
 21
4.6979831944
 31
0.0
 11
5.0787609545
 21
4.6976813644
 31
0.0
 11
5.0790494547
 21
4.6974205409
 31
0.0
 11
5.0792821005
 21
4.697201195
 31
0.0
 11
5.0793773925
 21
4.69710717
 31
0.0
 11
5.0794586225
 21
4.6970236241
 31
0.0
 11
5.0795257596
 21
4.6969505926
 31
0.0
 11
5.0795787727
 21
4.6968881108
 31
0.0
 11
5.0796176309
 21
4.6968362139
 31
0.0
 11
5.0796423033
 21
4.6967949373
 31
0.0
 11
5.07964931
 21
4.6967782927
 31
0.0
 11
5.0796527587
 21
4.6967643164
 31
0.0
 11
5.0796489663
 21
4.6967443864
 31
0.0
  0
SPLINE
  5
266
100
AcDbEntity
  8
0
100
AcDbSpline
 62
9
  6
CONTINUOUS
 70
0
 71
3
 72
23
 73
19
 74
17
 42
0.0000001
 43
0.0000001
 44
0.0000000001
 12
0.0072110092
 22
-0.0051352565
 32
0.0
 13
0.0053292445
 23
0.0070688518
 33
0.0
 40
0.0
 40
0.0
 40
0.0
 40
0.0
 40
0.2259759101
 40
0.4255852537
 40
0.5970743662
 40
0.7390485352
 40
0.7987036433
 40
0.8506755294
 40
0.8948728669
 40
0.9312339167
 40
0.9464716595
 40
0.9597485352
 40
0.9710696049
 40
0.9804464386
 40
0.9879038789
 40
0.9934980568
 40
0.9973752204
 40
1.0
 40
1.0
 40
1.0
 40
1.0
 10
5.0754253395
 20
4.7057531481
 30
0.0
 10
5.075968511
 20
4.7053663334
 30
0.0
 10
5.0769933589
 20
4.7046404721
 30
0.0
 10
5.0784379874
 20
4.7036318104
 30
0.0
 10
5.0796869825
 20
4.7027760516
 30
0.0
 10
5.0806027772
 20
4.7021647402
 30
0.0
 10
5.0812312826
 20
4.7017585071
 30
0.0
 10
5.0816205221
 20
4.7015136756
 30
0.0
 10
5.0819549718
 20
4.701310938
 30
0.0
 10
5.0822000499
 20
4.7011699638
 30
0.0
 10
5.0823686417
 20
4.701079235
 30
0.0
 10
5.0824734571
 20
4.7010259928
 30
0.0
 10
5.0825642342
 20
4.7009833768
 30
0.0
 10
5.0826409634
 20
4.7009514454
 30
0.0
 10
5.0827036178
 20
4.7009298382
 30
0.0
 10
5.0827525127
 20
4.7009189995
 30
0.0
 10
5.0827884394
 20
4.7009170411
 30
0.0
 10
5.0828074558
 20
4.7009258962
 30
0.0
 10
5.0828121185
 20
4.7009320809
 30
0.0
 11
5.0754253395
 21
4.7057531481
 31
0.0
 11
5.0770582224
 21
4.7045974485
 31
0.0
 11
5.0785076171
 21
4.7035866067
 31
0.0
 11
5.0797607169
 21
4.7027295933
 31
0.0
 11
5.080807212
 21
4.7020335215
 31
0.0
 11
5.0812509495
 21
4.701747177
 31
0.0
 11
5.0816406624
 21
4.7015026246
 31
0.0
 11
5.08197559
 21
4.7013003603
 31
0.0
 11
5.0822551245
 21
4.7011407517
 31
0.0
 11
5.0823740021
 21
4.7010769972
 31
0.0
 11
5.0824788949
 21
4.7010239679
 31
0.0
 11
5.0825697591
 21
4.7009816825
 31
0.0
 11
5.082646551
 21
4.7009501603
 31
0.0
 11
5.0827092266
 21
4.70092942
 31
0.0
 11
5.0827577423
 21
4.7009194807
 31
0.0
 11
5.0827920542
 21
4.7009203614
 31
0.0
 11
5.0828121185
 21
4.7009320809
 31
0.0
  0
SPLINE
  5
267
100
AcDbEntity
  8
0
100
AcDbSpline
 62
9
  6
CONTINUOUS
 70
0
 71
3
 72
21
 73
17
 74
15
 42
0.0000001
 43
0.0000001
 44
0.0000000001
 12
0.0043408251
 22
-0.0039690694
 32
0.0
 13
0.0041590975
 23
0.0041591083
 33
0.0
 40
0.0
 40
0.0
 40
0.0
 40
0.0
 40
0.2276707707
 40
0.4274991202
 40
0.5983488943
 40
0.7393299995
 40
0.79846072
 40
0.849944386
 40
0.8937338801
 40
0.9298086125
 40
0.9581952838
 40
0.969532604
 40
0.9789936941
 40
0.9866234553
 40
0.9925122484
 40
1.0
 40
1.0
 40
1.0
 40
1.0
 10
5.1447777369
 20
4.7807605352
 30
0.0
 10
5.1451071632
 20
4.7804593215
 30
0.0
 10
5.1457275532
 20
4.7798957184
 30
0.0
 10
5.1466026165
 20
4.7791143367
 30
0.0
 10
5.147358459
 20
4.7784547194
 30
0.0
 10
5.1479139281
 20
4.7779851186
 30
0.0
 10
5.1482967246
 20
4.7776739736
 30
0.0
 10
5.1485347133
 20
4.7774868505
 30
0.0
 10
5.1487405393
 20
4.7773320324
 30
0.0
 10
5.1489140189
 20
4.7772096884
 30
0.0
 10
5.1490391967
 20
4.7771294427
 30
0.0
 10
5.1491236027
 20
4.7770826098
 30
0.0
 10
5.149173647
 20
4.7770582885
 30
0.0
 10
5.149216183
 20
4.7770420806
 30
0.0
 10
5.1492550082
 20
4.7770320156
 30
0.0
 10
5.1492857623
 20
4.7770338748
 30
0.0
 10
5.1492961431
 20
4.7770442556
 30
0.0
 11
5.1447777369
 21
4.7807605352
 31
0.0
 11
5.1457693231
 21
4.7798605244
 31
0.0
 11
5.1466465882
 21
4.7790782952
 31
0.0
 11
5.1474044672
 21
4.7784183919
 31
0.0
 11
5.1480388826
 21
4.7778844057
 31
0.0
 11
5.1483089873
 21
4.7776652999
 31
0.0
 11
5.1485472873
 21
4.7774784501
 31
0.0
 11
5.1487534819
 21
4.7773241035
 31
0.0
 11
5.1489273264
 21
4.7772024433
 31
0.0
 11
5.1490686641
 21
4.7771135533
 31
0.0
 11
5.1491270962
 21
4.7770814205
 31
0.0
 11
5.1491773456
 21
4.7770575085
 31
0.0
 11
5.1492193937
 21
4.7770418266
 31
0.0
 11
5.1492532217
 21
4.7770343842
 31
0.0
 11
5.1492961431
 21
4.7770442556
 31
0.0
  0
SPLINE
  5
268
100
AcDbEntity
  8
0
100
AcDbSpline
 62
9
  6
CONTINUOUS
 70
0
 71
3
 72
24
 73
20
 74
18
 42
0.0000001
 43
0.0000001
 44
0.0000000001
 12
0.0051364433
 22
-0.0072126608
 32
0.0
 13
-0.0070463826
 23
-0.0053622772
 33
0.0
 40
0.0
 40
0.0
 40
0.0
 40
0.0
 40
0.2259399711
 40
0.4255235968
 40
0.5969977577
 40
0.671726946
 40
0.738969111
 40
0.7986263934
 40
0.8506031765
 40
0.8948081062
 40
0.9311793763
 40
0.9464231725
 40
0.959706699
 40
0.971034979
 40
0.9804195196
 40
0.9878850395
 40
0.9934873748
 40
0.9973718782
 40
1.0
 40
1.0
 40
1.0
 40
1.0
 10
5.2205865673
 20
4.8509159231
 30
0.0
 10
5.22097341
 20
4.8503727136
 30
0.0
 10
5.2216993432
 20
4.8493477844
 30
0.0
 10
5.2227080787
 20
4.8479029957
 30
0.0
 10
5.2234518753
 20
4.8468175974
 30
0.0
 10
5.2239673851
 20
4.8460493702
 30
0.0
 10
5.2242951841
 20
4.845552657
 30
0.0
 10
5.224581772
 20
4.8451092342
 30
0.0
 10
5.2248267002
 20
4.8447198797
 30
0.0
 10
5.2250295336
 20
4.8443853046
 30
0.0
 10
5.2251705927
 20
4.8441401192
 30
0.0
 10
5.2252613924
 20
4.8439714389
 30
0.0
 10
5.2253146886
 20
4.8438665546
 30
0.0
 10
5.225357359
 20
4.8437757077
 30
0.0
 10
5.2253893462
 20
4.8436989069
 30
0.0
 10
5.2254110074
 20
4.8436361823
 30
0.0
 10
5.2254219034
 20
4.8435872139
 30
0.0
 10
5.2254239101
 20
4.8435512356
 30
0.0
 10
5.2254151209
 20
4.843532155
 30
0.0
 10
5.225408948
 20
4.8435274575
 30
0.0
 11
5.2205865673
 21
4.8509159231
 31
0.0
 11
5.2217423515
 21
4.8492829269
 31
0.0
 11
5.2227533012
 21
4.8478333901
 31
0.0
 11
5.2236104465
 21
4.8465801184
 31
0.0
 11
5.2239789553
 21
4.8460305248
 31
0.0
 11
5.2243066745
 21
4.8455334217
 31
0.0
 11
5.2245931056
 21
4.8450895729
 31
0.0
 11
5.2248377502
 21
4.8446997418
 31
0.0
 11
5.2250401122
 21
4.8443646896
 31
0.0
 11
5.2251998234
 21
4.8440850245
 31
0.0
 11
5.225263631
 21
4.8439660794
 31
0.0
 11
5.2253167147
 21
4.8438611178
 31
0.0
 11
5.2253590553
 21
4.8437701835
 31
0.0
 11
5.225390634
 21
4.8436933204
 31
0.0
 11
5.2254114315
 21
4.8436305724
 31
0.0
 11
5.2254214291
 21
4.8435819833
 31
0.0
 11
5.2254206076
 21
4.843547597
 31
0.0
 11
5.225408948
 21
4.8435274575
 31
0.0
  0
SPLINE
  5
269
100
AcDbEntity
  8
0
100
AcDbSpline
 62
9
  6
CONTINUOUS
 70
0
 71
3
 72
19
 73
15
 74
13
 42
0.0000001
 43
0.0000001
 44
0.0000000001
 12
0.0039773066
 22
-0.0043316987
 32
0.0
 13
-0.0041582855
 23
-0.0041582741
 33
0.0
 40
0.0
 40
0.0
 40
0.0
 40
0.0
 40
0.2277066366
 40
0.4275848023
 40
0.5984798568
 40
0.7394874938
 40
0.8501162608
 40
0.93000386
 40
0.9584122483
 40
0.9697572845
 40
0.979220455
 40
0.9868416658
 40
0.9927020864
 40
1.0
 40
1.0
 40
1.0
 40
1.0
 10
5.1455798636
 20
4.7815626619
 30
0.0
 10
5.14588175
 20
4.7812338764
 30
0.0
 10
5.1464458011
 20
4.7806138816
 30
0.0
 10
5.1472261826
 20
4.7797378845
 30
0.0
 10
5.1478848823
 20
4.7789812039
 30
0.0
 10
5.1484198115
 20
4.7783487522
 30
0.0
 10
5.1488276055
 20
4.7778427585
 30
0.0
 10
5.1490836278
 20
4.777497883
 30
0.0
 10
5.1492098076
 20
4.7773000618
 30
0.0
 10
5.1492565062
 20
4.7772155238
 30
0.0
 10
5.1492807924
 20
4.7771654955
 30
0.0
 10
5.1492971116
 20
4.7771230396
 30
0.0
 10
5.1493072376
 20
4.7770848343
 30
0.0
 10
5.1493062587
 20
4.7770543712
 30
0.0
 10
5.1492961431
 20
4.7770442556
 30
0.0
 11
5.1455798636
 21
4.7815626619
 31
0.0
 11
5.146480666
 21
4.7805718679
 31
0.0
 11
5.1472621575
 21
4.7796938648
 31
0.0
 11
5.1479213773
 21
4.7789353019
 31
0.0
 11
5.1484554307
 21
4.7783009536
 31
0.0
 11
5.1488615257
 21
4.7777926884
 31
0.0
 11
5.149137065
 21
4.777412182
 31
0.0
 11
5.1492256554
 21
4.7772705446
 31
0.0
 11
5.1492577068
 21
4.7772120312
 31
0.0
 11
5.1492816162
 21
4.7771617792
 31
0.0
 11
5.1492973992
 21
4.7771198321
 31
0.0
 11
5.149305071
 21
4.7770862335
 31
0.0
 11
5.1492961431
 21
4.7770442556
 31
0.0
  0
SPLINE
  5
26A
100
AcDbEntity
  8
0
100
AcDbSpline
 62
9
  6
CONTINUOUS
 70
0
 71
3
 72
25
 73
21
 74
19
 42
0.0000001
 43
0.0000001
 44
0.0000000001
 12
0.0054679621
 22
-0.0068929119
 32
0.0
 13
0.0070204192
 23
0.0053032592
 33
0.0
 40
0.0
 40
0.0
 40
0.0
 40
0.0
 40
0.2263080796
 40
0.4261799715
 40
0.5978649093
 40
0.6726703252
 40
0.7399686845
 40
0.799661179
 40
0.8516506407
 40
0.8958431217
 40
0.9321722862
 40
0.9473813064
 40
0.9606188445
 40
0.9718872714
 40
0.9811938245
 40
0.9885557945
 40
0.9940147635
 40
0.9960642005
 40
0.9976975079
 40
1.0
 40
1.0
 40
1.0
 40
1.0
 10
5.2239083651
 20
4.8533728498
 30
0.0
 10
5.2243208464
 20
4.8528528759
 30
0.0
 10
5.2250997718
 20
4.8518753669
 30
0.0
 10
5.2262003565
 20
4.8505103821
 30
0.0
 10
5.2270296226
 20
4.8494974307
 30
0.0
 10
5.2276184877
 20
4.8487902174
 30
0.0
 10
5.2280001644
 20
4.8483379063
 30
0.0
 10
5.2283419491
 20
4.8479395084
 30
0.0
 10
5.2286432318
 20
4.8475956738
 30
0.0
 10
5.2289034612
 20
4.8473070202
 30
0.0
 10
5.2290955298
 20
4.847102193
 30
0.0
 10
5.2292288076
 20
4.8469668037
 30
0.0
 10
5.2293121904
 20
4.8468854621
 30
0.0
 10
5.2293850331
 20
4.8468181552
 30
0.0
 10
5.2294472656
 20
4.8467648102
 30
0.0
 10
5.22949894
 20
4.8467254889
 30
0.0
 10
5.2295358904
 20
4.846702119
 30
0.0
 10
5.2295606603
 20
4.8466914197
 30
0.0
 10
5.2295773591
 20
4.8466867162
 30
0.0
 10
5.2295903383
 20
4.8466877209
 30
0.0
 10
5.2295957264
 20
4.8466917912
 30
0.0
 11
5.2239083651
 21
4.8533728498
 31
0.0
 11
5.2251496713
 21
4.8518159997
 31
0.0
 11
5.2262540697
 21
4.8504475069
 31
0.0
 11
5.2272118563
 21
4.849279438
 31
0.0
 11
5.2276331572
 21
4.8487737849
 31
0.0
 11
5.2280152001
 21
4.8483214109
 31
0.0
 11
5.2283574002
 21
4.8479230029
 31
0.0
 11
5.2286591727
 21
4.8475792479
 31
0.0
 11
5.2289199345
 21
4.8472908303
 31
0.0
 11
5.2291392148
 21
4.8470582714
 31
0.0
 11
5.2292332055
 21
4.8469630245
 31
0.0
 11
5.2293167164
 21
4.8468818406
 31
0.0
 11
5.2293897119
 21
4.8468147505
 31
0.0
 11
5.229452157
 21
4.8467617852
 31
0.0
 11
5.2295040162
 21
4.8467229757
 31
0.0
 11
5.2295452544
 21
4.8466983529
 31
0.0
 11
5.2295618796
 21
4.8466913712
 31
0.0
 11
5.2295758362
 21
4.8466879478
 31
0.0
 11
5.2295957264
 21
4.8466917912
 31
0.0
  0
SPLINE
  5
26B
100
AcDbEntity
  8
0
100
AcDbSpline
 62
9
  6
CONTINUOUS
 70
0
 71
3
 72
25
 73
21
 74
19
 42
0.0000001
 43
0.0000001
 44
0.0000000001
 12
-0.005468916
 22
-0.006894224
 32
0.0
 13
-0.0070310663
 23
0.0052918307
 33
0.0
 40
0.0
 40
0.0
 40
0.0
 40
0.0
 40
0.2262951039
 40
0.4261580039
 40
0.5978379694
 40
0.672642398
 40
0.7399407435
 40
0.7996341755
 40
0.8516255027
 40
0.8958207507
 40
0.9321535446
 40
0.9473646838
 40
0.960604531
 40
0.9718754434
 40
0.981184637
 40
0.9885493634
 40
0.9940111154
 40
0.9960618754
 40
0.9976963621
 40
1.0
 40
1.0
 40
1.0
 40
1.0
 10
6.1353470321
 20
4.853372099
 30
0.0
 10
6.1349345025
 20
4.8528520559
 30
0.0
 10
6.1341554818
 20
4.8518744108
 30
0.0
 10
6.1330547572
 20
4.8505092254
 30
0.0
 10
6.132225378
 20
4.8494961117
 30
0.0
 10
6.1316364256
 20
4.8487887732
 30
0.0
 10
6.1312546861
 20
4.8483363728
 30
0.0
 10
6.1309128408
 20
4.8479378887
 30
0.0
 10
6.1306114998
 20
4.8475939716
 30
0.0
 10
6.1303512145
 20
4.8473052393
 30
0.0
 10
6.1301591013
 20
4.8471003488
 30
0.0
 10
6.1300257893
 20
4.8469649109
 30
0.0
 10
6.1299423819
 20
4.8468835347
 30
0.0
 10
6.1298695154
 20
4.8468161945
 30
0.0
 10
6.12980726
 20
4.8467628177
 30
0.0
 10
6.1297555635
 20
4.8467234659
 30
0.0
 10
6.1297185957
 20
4.8467000719
 30
0.0
 10
6.1296938124
 20
4.8466893519
 30
0.0
 10
6.1296771039
 20
4.846684634
 30
0.0
 10
6.1296641156
 20
4.8466856182
 30
0.0
 10
6.1296587166
 20
4.8466896816
 30
0.0
 11
6.1353470321
 21
4.853372099
 31
0.0
 11
6.1341055814
 21
4.8518150411
 31
0.0
 11
6.1330010427
 21
4.8504463469
 31
0.0
 11
6.1320431214
 21
4.8492780852
 31
0.0
 11
6.1316217557
 21
4.8487723396
 31
0.0
 11
6.1312396499
 21
4.848319876
 31
0.0
 11
6.1308973891
 21
4.8479213817
 31
0.0
 11
6.1305955584
 21
4.847577544
 31
0.0
 11
6.1303347408
 21
4.8472890474
 31
0.0
 11
6.1301154075
 21
4.8470564136
 31
0.0
 11
6.1300213914
 21
4.8469611309
 31
0.0
 11
6.129937856
 21
4.8468799124
 31
0.0
 11
6.1298648366
 21
4.8468127888
 31
0.0
 11
6.1298023687
 21
4.8467597914
 31
0.0
 11
6.1297504874
 21
4.8467209509
 31
0.0
 11
6.129709228
 21
4.8466962985
 31
0.0
 11
6.1296925927
 21
4.8466893025
 31
0.0
 11
6.129678626
 21
4.8466858651
 31
0.0
 11
6.1296587166
 21
4.8466896816
 31
0.0
  0
SPLINE
  5
26C
100
AcDbEntity
  8
0
100
AcDbSpline
 62
9
  6
CONTINUOUS
 70
0
 71
3
 72
23
 73
19
 74
17
 42
0.0000001
 43
0.0000001
 44
0.0000000001
 12
-0.0051370942
 22
-0.0072129782
 32
0.0
 13
0.0070620329
 23
-0.0053427036
 33
0.0
 40
0.0
 40
0.0
 40
0.0
 40
0.0
 40
0.2259638826
 40
0.4255655783
 40
0.5970511018
 40
0.739025438
 40
0.7986819489
 40
0.8506560625
 40
0.8948563978
 40
0.9312211401
 40
0.9464609529
 40
0.9597400193
 40
0.9710633649
 40
0.9804425016
 40
0.9879021661
 40
0.9934982662
 40
0.99737649
 40
1.0
 40
1.0
 40
1.0
 40
1.0
 10
6.1386654279
 20
4.8509184282
 30
0.0
 10
6.1382784953
 20
4.8503751373
 30
0.0
 10
6.137552404
 20
4.8493500594
 30
0.0
 10
6.1365434014
 20
4.8479051047
 30
0.0
 10
6.1356873222
 20
4.8466558152
 30
0.0
 10
6.1350757556
 20
4.845739799
 30
0.0
 10
6.1346693299
 20
4.845111136
 30
0.0
 10
6.1344243677
 20
4.8447217919
 30
0.0
 10
6.1342215074
 20
4.844387248
 30
0.0
 10
6.1340804341
 20
4.8441420988
 30
0.0
 10
6.1339896294
 20
4.8439734557
 30
0.0
 10
6.1339363349
 20
4.8438686054
 30
0.0
 10
6.1338936691
 20
4.8437777965
 30
0.0
 10
6.1338616902
 20
4.8437010379
 30
0.0
 10
6.1338400384
 20
4.8436383587
 30
0.0
 10
6.1338291576
 20
4.8435894406
 30
0.0
 10
6.133827159
 20
4.8435535056
 30
0.0
 10
6.1338359754
 20
4.8435344656
 30
0.0
 10
6.1338421512
 20
4.8435297934
 30
0.0
 11
6.1386654279
 21
4.8509184282
 31
0.0
 11
6.1375093694
 21
4.8492851907
 31
0.0
 11
6.136498184
 21
4.8478354684
 31
0.0
 11
6.1356408476
 21
4.8465820733
 31
0.0
 11
6.1349444776
 21
4.8455353196
 31
0.0
 11
6.1346579944
 21
4.8450914673
 31
0.0
 11
6.1344133105
 21
4.8447016497
 31
0.0
 11
6.1342109224
 21
4.844366628
 31
0.0
 11
6.1340511983
 21
4.8440870102
 31
0.0
 11
6.1339873891
 21
4.8439680949
 31
0.0
 11
6.1339343071
 21
4.8438631672
 31
0.0
 11
6.1338919714
 21
4.8437722709
 31
0.0
 11
6.1338604009
 21
4.8436954498
 31
0.0
 11
6.1338396147
 21
4.8436327476
 31
0.0
 11
6.1338296316
 21
4.8435842083
 31
0.0
 11
6.1338304708
 21
4.8435498756
 31
0.0
 11
6.1338421512
 21
4.8435297934
 31
0.0
  0
SPLINE
  5
26D
100
AcDbEntity
  8
0
100
AcDbSpline
 62
9
  6
CONTINUOUS
 70
0
 71
3
 72
19
 73
15
 74
13
 42
0.0000001
 43
0.0000001
 44
0.0000000001
 12
-0.0039769561
 22
-0.0043319226
 32
0.0
 13
0.0041582423
 23
-0.0041582153
 33
0.0
 40
0.0
 40
0.0
 40
0.0
 40
0.0
 40
0.2277101626
 40
0.4275914295
 40
0.5984890554
 40
0.7394986162
 40
0.8501284879
 40
0.9300159952
 40
0.9584236053
 40
0.9697679685
 40
0.9792302021
 40
0.9868501068
 40
0.9927086686
 40
1.0
 40
1.0
 40
1.0
 40
1.0
 10
6.2136725944
 20
4.7815626619
 30
0.0
 10
6.2133707299
 20
4.7812338543
 30
0.0
 10
6.2128067181
 20
4.7806138202
 30
0.0
 10
6.2120263834
 20
4.7797377765
 30
0.0
 10
6.2113677131
 20
4.778981067
 30
0.0
 10
6.2108327954
 20
4.7783486047
 30
0.0
 10
6.2104249954
 20
4.777842619
 30
0.0
 10
6.2101689529
 20
4.7774977652
 30
0.0
 10
6.2100427448
 20
4.7772999699
 30
0.0
 10
6.2099960288
 20
4.777215448
 30
0.0
 10
6.2099717302
 20
4.7771654335
 30
0.0
 10
6.2099553968
 20
4.777122991
 30
0.0
 10
6.2099452577
 20
4.7770848133
 30
0.0
 10
6.2099462086
 20
4.7770543619
 30
0.0
 10
6.209956315
 20
4.7770442556
 30
0.0
 11
6.2136725944
 21
4.7815626619
 31
0.0
 11
6.2127718541
 21
4.7805718056
 31
0.0
 11
6.2119904084
 21
4.7796937567
 31
0.0
 11
6.2113312165
 21
4.7789351657
 31
0.0
 11
6.2107971725
 21
4.7783008081
 31
0.0
 11
6.2103910682
 21
4.7777925522
 31
0.0
 11
6.2101155008
 21
4.7774120739
 31
0.0
 11
6.2100268898
 21
4.7772704573
 31
0.0
 11
6.2099948264
 21
4.7772119558
 31
0.0
 11
6.2099709039
 21
4.7771617169
 31
0.0
 11
6.2099551069
 21
4.7771197839
 31
0.0
 11
6.2099474201
 21
4.7770862004
 31
0.0
 11
6.209956315
 21
4.7770442556
 31
0.0
  0
SPLINE
  5
26E
100
AcDbEntity
  8
0
100
AcDbSpline
 62
9
  6
CONTINUOUS
 70
0
 71
3
 72
23
 73
19
 74
17
 42
0.0000001
 43
0.0000001
 44
0.0000000001
 12
-0.0072127238
 22
-0.0051366509
 32
0.0
 13
-0.0053471784
 23
0.0070580628
 33
0.0
 40
0.0
 40
0.0
 40
0.0
 40
0.0
 40
0.2259569619
 40
0.4255532497
 40
0.597035298
 40
0.7390083456
 40
0.7986650416
 40
0.8506398978
 40
0.8948415407
 40
0.9312081547
 40
0.946449112
 40
0.9597294621
 40
0.9710542331
 40
0.9804349428
 40
0.9878963379
 40
0.9934943389
 40
0.9973746161
 40
1.0
 40
1.0
 40
1.0
 40
1.0
 10
6.2838290093
 20
4.7057517682
 30
0.0
 10
6.2832857543
 20
4.7053648808
 30
0.0
 10
6.2822607406
 20
4.7046388757
 30
0.0
 10
6.2808158679
 20
4.7036299984
 30
0.0
 10
6.2795666366
 20
4.702774028
 30
0.0
 10
6.2786506523
 20
4.7021625418
 30
0.0
 10
6.2780220016
 20
4.7017561713
 30
0.0
 10
6.2776326577
 20
4.7015112416
 30
0.0
 10
6.2772981076
 20
4.7013084086
 30
0.0
 10
6.277052949
 20
4.7011673558
 30
0.0
 10
6.2768842953
 20
4.7010765651
 30
0.0
 10
6.2767794352
 20
4.7010232786
 30
0.0
 10
6.2766886148
 20
4.7009806197
 30
0.0
 10
6.2766118435
 20
4.7009486461
 30
0.0
 10
6.2765491503
 20
4.700926999
 30
0.0
 10
6.2765002167
 20
4.7009161207
 30
0.0
 10
6.2764642667
 20
4.7009141269
 30
0.0
 10
6.2764452161
 20
4.7009229414
 30
0.0
 10
6.2764405366
 20
4.7009291181
 30
0.0
 11
6.2838290093
 21
4.7057517682
 31
0.0
 11
6.2821958768
 21
4.7045958491
 31
0.0
 11
6.2807462376
 21
4.7035847903
 31
0.0
 11
6.2794929011
 21
4.7027275638
 31
0.0
 11
6.27844618
 21
4.7020312842
 31
0.0
 11
6.2780023344
 21
4.7017448388
 31
0.0
 11
6.277612517
 21
4.7015001877
 31
0.0
 11
6.277277489
 21
4.7012978273
 31
0.0
 11
6.2769978586
 21
4.7011381257
 31
0.0
 11
6.2768789349
 21
4.7010743258
 31
0.0
 11
6.2767739973
 21
4.701021252
 31
0.0
 11
6.2766830896
 21
4.7009789231
 31
0.0
 11
6.2766062559
 21
4.7009473581
 31
0.0
 11
6.2765435398
 21
4.7009265762
 31
0.0
 11
6.2764949853
 21
4.7009165962
 31
0.0
 11
6.2764606363
 21
4.7009174371
 31
0.0
 11
6.2764405366
 21
4.7009291181
 31
0.0
  0
SPLINE
  5
26F
100
AcDbEntity
  8
0
100
AcDbSpline
 62
9
  6
CONTINUOUS
 70
0
 71
3
 72
21
 73
17
 74
15
 42
0.0000001
 43
0.0000001
 44
0.0000000001
 12
-0.0043406079
 22
-0.0039694123
 32
0.0
 13
-0.0041591404
 23
0.004159166
 33
0.0
 40
0.0
 40
0.0
 40
0.0
 40
0.0
 40
0.2276673314
 40
0.4274926645
 40
0.5983399284
 40
0.7393191438
 40
0.7984492055
 40
0.8499324448
 40
0.8937217966
 40
0.9297967533
 40
0.9581841568
 40
0.969522121
 40
0.9789841165
 40
0.9866151521
 40
0.9925057738
 40
1.0
 40
1.0
 40
1.0
 40
1.0
 10
6.214474721
 20
4.7807605353
 30
0.0
 10
6.2141453162
 20
4.7804593001
 30
0.0
 10
6.2135249645
 20
4.7798956585
 30
0.0
 10
6.2126499465
 20
4.7791142312
 30
0.0
 10
6.2118941322
 20
4.7784545851
 30
0.0
 10
6.2113386725
 20
4.7779849746
 30
0.0
 10
6.2109558734
 20
4.7776738326
 30
0.0
 10
6.2107178782
 20
4.7774867158
 30
0.0
 10
6.210512041
 20
4.7773319083
 30
0.0
 10
6.2103385457
 20
4.7772095792
 30
0.0
 10
6.2102133508
 20
4.7771293504
 30
0.0
 10
6.210128929
 20
4.7770825345
 30
0.0
 10
6.2100788713
 20
4.7770582253
 30
0.0
 10
6.2100363221
 20
4.7770420312
 30
0.0
 10
6.2099974701
 20
4.7770319797
 30
0.0
 10
6.2099667048
 20
4.7770338657
 30
0.0
 10
6.209956315
 20
4.7770442556
 30
0.0
 11
6.214474721
 21
4.7807605353
 31
0.0
 11
6.2134831954
 21
4.7798604637
 31
0.0
 11
6.212605975
 21
4.7790781898
 31
0.0
 11
6.2118481233
 21
4.7784182591
 31
0.0
 11
6.211213717
 21
4.7778842637
 31
0.0
 11
6.2109436101
 21
4.7776651602
 31
0.0
 11
6.2107053032
 21
4.7774783172
 31
0.0
 11
6.2104990973
 21
4.7773239821
 31
0.0
 11
6.2103252368
 21
4.7772023378
 31
0.0
 11
6.2101838789
 21
4.777113468
 31
0.0
 11
6.2101254351
 21
4.777081347
 31
0.0
 11
6.210075173
 21
4.7770574477
 31
0.0
 11
6.2100331113
 21
4.7770417796
 31
0.0
 11
6.2099992685
 21
4.7770343519
 31
0.0
 11
6.209956315
 21
4.7770442556
 31
0.0
  0
SPLINE
  5
270
100
AcDbEntity
  8
0
100
AcDbSpline
 62
9
  6
CONTINUOUS
 70
0
 71
3
 72
25
 73
21
 74
19
 42
0.0000001
 43
0.0000001
 44
0.0000000001
 12
-0.0068951545
 22
-0.0054695432
 32
0.0
 13
0.0052914228
 23
-0.0070327734
 33
0.0
 40
0.0
 40
0.0
 40
0.0
 40
0.0
 40
0.2262946206
 40
0.4261576398
 40
0.5978379933
 40
0.6726426377
 40
0.7399412018
 40
0.7996348483
 40
0.8516263772
 40
0.8958218032
 40
0.9321547433
 40
0.9473659416
 40
0.9606058355
 40
0.9718767765
 40
0.9811859705
 40
0.9885506481
 40
0.9940122583
 40
0.9960628804
 40
0.9976971542
 40
1.0
 40
1.0
 40
1.0
 40
1.0
 10
6.2862855989
 20
4.7024357981
 30
0.0
 10
6.2857654868
 20
4.7020232221
 30
0.0
 10
6.2847877097
 20
4.7012441138
 30
0.0
 10
6.2834223353
 20
4.7001432682
 30
0.0
 10
6.2824090765
 20
4.6993138003
 30
0.0
 10
6.2817016333
 20
4.698724787
 30
0.0
 10
6.2812491642
 20
4.6983430092
 30
0.0
 10
6.2808506181
 20
4.6980011309
 30
0.0
 10
6.2805066454
 20
4.6976997624
 30
0.0
 10
6.2802178643
 20
4.6974394552
 30
0.0
 10
6.280012937
 20
4.6972473274
 30
0.0
 10
6.2798774728
 20
4.6971140067
 30
0.0
 10
6.2797960798
 20
4.6970305945
 30
0.0
 10
6.2797287245
 20
4.6969577245
 30
0.0
 10
6.2796753343
 20
4.696895467
 30
0.0
 10
6.2796359707
 20
4.6968437697
 30
0.0
 10
6.2796125676
 20
4.6968068025
 30
0.0
 10
6.2796018407
 20
4.6967820199
 30
0.0
 10
6.2795971182
 20
4.6967653143
 30
0.0
 10
6.2795980968
 20
4.6967523266
 30
0.0
 10
6.2796021586
 20
4.6967469281
 30
0.0
 11
6.2862855989
 21
4.7024357981
 31
0.0
 11
6.2847283326
 21
4.7011942096
 31
0.0
 11
6.2833594479
 21
4.7000895493
 31
0.0
 11
6.2821910176
 21
4.6991315252
 31
0.0
 11
6.281685197
 21
4.6987101159
 31
0.0
 11
6.2812326647
 21
4.6983279718
 31
0.0
 11
6.2808341081
 21
4.6979856781
 31
0.0
 11
6.2804902147
 21
4.6976838199
 31
0.0
 11
6.2802016691
 21
4.6974229804
 31
0.0
 11
6.2799689932
 21
4.6972036308
 31
0.0
 11
6.2798736919
 21
4.6971096085
 31
0.0
 11
6.2797924564
 21
4.6970260684
 31
0.0
 11
6.2797253176
 21
4.6969530456
 31
0.0
 11
6.2796723065
 21
4.6968905755
 31
0.0
 11
6.2796334541
 21
4.6968386934
 31
0.0
 11
6.2796087913
 21
4.6967974346
 31
0.0
 11
6.2796017907
 21
4.6967808
 31
0.0
 11
6.2795983492
 21
4.6967668344
 31
0.0
 11
6.2796021586
 21
4.6967469281
 31
0.0
  0
SPLINE
  5
271
100
AcDbEntity
  8
0
100
AcDbSpline
 62
6
  6
CONTINUOUS
 70
0
 71
3
 72
15
 73
11
 74
9
 42
0.0000001
 43
0.0000001
 44
0.0000000001
 12
0.0136064791
 22
0.0397444456
 32
0.0
 13
0.0264121226
 23
0.0326673692
 33
0.0
 40
0.0
 40
0.0
 40
0.0
 40
0.0
 40
0.1196146453
 40
0.2397089254
 40
0.3609019657
 40
0.4837786076
 40
0.6088448366
 40
0.7364957848
 40
0.8668928183
 40
1.0
 40
1.0
 40
1.0
 40
1.0
 10
6.2028158138
 20
4.0676006349
 30
0.0
 10
6.2033583252
 20
4.0691853074
 30
0.0
 10
6.2045415929
 20
4.0723290068
 30
0.0
 10
6.2065996946
 20
4.0769476533
 30
0.0
 10
6.2089415412
 20
4.0814805999
 30
0.0
 10
6.2115605401
 20
4.0859395665
 30
0.0
 10
6.2144356829
 20
4.0903455973
 30
0.0
 10
6.2175494843
 20
4.0947156961
 30
0.0
 10
6.2208691926
 20
4.0990732054
 30
0.0
 10
6.2231700437
 20
4.1019581004
 30
0.0
 10
6.2243419248
 20
4.1034075208
 30
0.0
 11
6.2028158138
 21
4.0676006349
 31
0.0
 11
6.2045849695
 21
4.072303787
 31
0.0
 11
6.2066369492
 21
4.0769126731
 31
0.0
 11
6.2089706848
 21
4.0814374932
 31
0.0
 11
6.2115791056
 21
4.0858918872
 31
0.0
 11
6.2144451529
 21
4.0902952191
 31
0.0
 11
6.2175498554
 21
4.0946675327
 31
0.0
 11
6.2208619888
 21
4.0990306304
 31
0.0
 11
6.2243419248
 21
4.1034075208
 31
0.0
  0
SPLINE
  5
272
100
AcDbEntity
  8
0
100
AcDbSpline
 62
9
  6
CONTINUOUS
 70
0
 71
3
 72
20
 73
16
 74
14
 42
0.0000001
 43
0.0000001
 44
0.0000000001
 12
-0.3659592404
 22
-0.4441388543
 32
0.0
 13
-0.4034243419
 23
-0.4104074657
 33
0.0
 40
0.0
 40
0.0
 40
0.0
 40
0.0
 40
0.0518527295
 40
0.1055839726
 40
0.1610550657
 40
0.2181368496
 40
0.3366838392
 40
0.4604828584
 40
0.589013081
 40
0.654937521
 40
0.7219229684
 40
0.7899424145
 40
0.8589731517
 40
0.9289983956
 40
1.0
 40
1.0
 40
1.0
 40
1.0
 10
5.1455799321
 20
3.7118657582
 30
0.0
 10
5.1392546036
 20
3.7041891542
 30
0.0
 10
5.1263030033
 20
3.6886168338
 30
0.0
 10
5.1063271533
 20
3.6650478898
 30
0.0
 10
5.085480646
 20
3.6409037007
 30
0.0
 10
5.0562167938
 20
3.6076025536
 30
0.0
 10
5.0177723382
 20
3.5649231994
 30
0.0
 10
4.9694644566
 20
3.5126915392
 30
0.0
 10
4.9275546517
 20
3.468297681
 30
0.0
 10
4.8929144413
 20
3.4320310771
 30
0.0
 10
4.8661959755
 20
3.4042502222
 30
0.0
 10
4.8389795516
 20
3.3761218228
 30
0.0
 10
4.8112817029
 20
3.3476480481
 30
0.0
 10
4.7831198245
 20
3.3188277453
 30
0.0
 10
4.7641741542
 20
3.2995163481
 30
0.0
 10
4.754626229
 20
3.2898031519
 30
0.0
 11
5.1455799321
 21
3.7118657582
 31
0.0
 11
5.1264986781
 21
3.6889230903
 31
0.0
 11
5.1065076385
 21
3.6653327059
 31
0.0
 11
5.0856480772
 21
3.64116764
 31
0.0
 11
5.0639673114
 21
3.6164885796
 31
0.0
 11
5.0183387856
 21
3.5657705745
 31
0.0
 11
4.9699936481
 21
3.5134393051
 31
0.0
 11
4.9192414067
 21
3.4596303816
 31
0.0
 11
4.893039433
 21
3.4321931946
 31
0.0
 11
4.8663196412
 21
3.4044065319
 31
0.0
 11
4.8391020673
 21
3.3762732533
 31
0.0
 11
4.8114040978
 21
3.3477951616
 31
0.0
 11
4.7832412145
 21
3.3189710127
 31
0.0
 11
4.754626229
 21
3.2898031519
 31
0.0
  0
SPLINE
  5
273
100
AcDbEntity
  8
0
100
AcDbSpline
 62
9
  6
CONTINUOUS
 70
0
 71
3
 72
29
 73
25
 74
23
 42
0.0000001
 43
0.0000001
 44
0.0000000001
 12
0.791668457
 22
-0.5640687124
 32
0.0
 13
0.7916704727
 23
0.5640658833
 33
0.0
 40
0.0
 40
0.0
 40
0.0
 40
0.0
 40
0.0624831504
 40
0.1249939959
 40
0.1874876715
 40
0.2499778108
 40
0.2812306731
 40
0.3124843228
 40
0.3437384126
 40
0.3749928126
 40
0.4062472994
 40
0.4375018211
 40
0.5000000502
 40
0.5624982763
 40
0.5937527949
 40
0.6250072787
 40
0.6562616756
 40
0.6875157605
 40
0.7187694028
 40
0.7500222578
 40
0.8125123897
 40
0.8750060487
 40
0.9375168603
 40
1.0
 40
1.0
 40
1.0
 40
1.0
 10
5.2239057063
 20
3.6400561279
 30
0.0
 10
5.2403943527
 20
3.6283078645
 30
0.0
 10
5.2743189201
 20
3.606095485
 30
0.0
 10
5.327623924
 20
3.5768342944
 30
0.0
 10
5.3830325135
 20
3.5517747357
 30
0.0
 10
5.430675791
 20
3.5345003428
 30
0.0
 10
5.4694914996
 20
3.5229077542
 30
0.0
 10
5.4989216589
 20
3.5153369047
 30
0.0
 10
5.5286218912
 20
3.5089060563
 30
0.0
 10
5.5585487225
 20
3.503627574
 30
0.0
 10
5.5886577374
 20
3.4995096294
 30
0.0
 10
5.6289801418
 20
3.4955781862
 30
0.0
 10
5.6796250056
 20
3.4936100508
 30
0.0
 10
5.7302698771
 20
3.4955779952
 30
0.0
 10
5.7705922898
 20
3.4995093264
 30
0.0
 10
5.8007013117
 20
3.5036271989
 30
0.0
 10
5.8306281527
 20
3.5089056048
 30
0.0
 10
5.8603284006
 20
3.5153363566
 30
0.0
 10
5.8897585802
 20
3.522907101
 30
0.0
 10
5.9285743246
 20
3.5344995448
 30
0.0
 10
5.9762176551
 20
3.5517737625
 30
0.0
 10
6.031626303
 20
3.5768331519
 30
0.0
 10
6.084931327
 20
3.6060942688
 30
0.0
 10
6.1188559161
 20
3.6283065834
 30
0.0
 10
6.1353446017
 20
3.6400547859
 30
0.0
 11
5.2239057063
 21
3.6400561279
 31
0.0
 11
5.2747144077
 21
3.6067762504
 31
0.0
 11
5.3279791909
 21
3.5775323062
 31
0.0
 11
5.3833279772
 21
3.5524957493
 31
0.0
 11
5.4404342819
 21
3.5317889953
 31
0.0
 11
5.4695436376
 21
3.5230952889
 31
0.0
 11
5.4989664516
 21
3.5155269573
 31
0.0
 11
5.5286595148
 21
3.5090981458
 31
0.0
 11
5.5585790356
 21
3.5038210052
 31
0.0
 11
5.5886802866
 21
3.4997044828
 31
0.0
 11
5.6189184557
 21
3.4967572363
 31
0.0
 11
5.6796250084
 21
3.4943972395
 31
0.0
 11
5.7403315665
 21
3.4967570208
 31
0.0
 11
5.7705697408
 21
3.4997041818
 31
0.0
 11
5.8006709991
 21
3.5038206294
 31
0.0
 11
5.8305905309
 21
3.509097691
 31
0.0
 11
5.8602836096
 21
3.5155264081
 31
0.0
 11
5.8897064432
 21
3.523094635
 31
0.0
 11
5.9188158236
 21
3.5317882333
 31
0.0
 11
5.9759221942
 21
3.5524947845
 31
0.0
 11
6.0312710349
 21
3.5775311822
 31
0.0
 11
6.0845358353
 21
3.6067750265
 31
0.0
 11
6.1353446017
 21
3.6400547859
 31
0.0
  0
SPLINE
  5
274
100
AcDbEntity
  8
0
100
AcDbSpline
 62
9
  6
CONTINUOUS
 70
0
 71
3
 72
25
 73
21
 74
19
 42
0.0000001
 43
0.0000001
 44
0.0000000001
 12
-0.4162894098
 22
0.4928070596
 32
0.0
 13
-0.3190449049
 23
0.5606835287
 33
0.0
 40
0.0
 40
0.0
 40
0.0
 40
0.0
 40
0.0351162248
 40
0.0699847307
 40
0.1046042046
 40
0.1389692852
 40
0.2069188759
 40
0.2738079402
 40
0.3396143821
 40
0.4043224444
 40
0.4679258323
 40
0.5304307928
 40
0.5918614989
 40
0.6522653155
 40
0.7117188157
 40
0.7703340289
 40
0.8282629244
 40
0.8856975432
 40
0.942862864
 40
1.0
 40
1.0
 40
1.0
 40
1.0
 10
6.5177031795
 20
3.1217141698
 30
0.0
 10
6.512830342
 20
3.1274826776
 30
0.0
 10
6.5031320633
 20
3.1389900054
 30
0.0
 10
6.4886688557
 20
3.15621704
 30
0.0
 10
6.4743395931
 20
3.1733455927
 30
0.0
 10
6.4554949535
 20
3.1959711561
 30
0.0
 10
6.4323112155
 20
3.2240132611
 30
0.0
 10
6.4050010152
 20
3.2574154405
 30
0.0
 10
6.3783427498
 20
3.2904492861
 30
0.0
 10
6.3523713701
 20
3.3231281962
 30
0.0
 10
6.3271218745
 20
3.3554722025
 30
0.0
 10
6.3026289004
 20
3.3875103624
 30
0.0
 10
6.2789244983
 20
3.4192822222
 30
0.0
 10
6.256035131
 20
3.450839455
 30
0.0
 10
6.2339777193
 20
3.4822470953
 30
0.0
 10
6.212754019
 20
3.5135836613
 30
0.0
 10
6.1923431725
 20
3.544939139
 30
0.0
 10
6.1726928632
 20
3.5764098152
 30
0.0
 10
6.1537104594
 20
3.6080890807
 30
0.0
 10
6.1414210391
 20
3.6293761689
 30
0.0
 10
6.1353446017
 20
3.6400547859
 30
0.0
 11
6.5177031795
 21
3.1217141698
 31
0.0
 11
6.5031032158
 21
3.139035345
 31
0.0
 11
6.488639492
 21
3.1562623019
 31
0.0
 11
6.4743107135
 21
3.1733927424
 31
0.0
 11
6.460123739
 21
3.1904277782
 31
0.0
 11
6.4321968854
 21
3.224214502
 31
0.0
 11
6.4048896499
 21
3.2576249271
 31
0.0
 11
6.3782359847
 21
3.2906664038
 31
0.0
 11
6.3522714877
 21
3.3233519384
 31
0.0
 11
6.3270317505
 21
3.3557010968
 31
0.0
 11
6.3025519933
 21
3.3877418151
 31
0.0
 11
6.2788646611
 21
3.4195124008
 31
0.0
 11
6.2559964144
 21
3.4510629577
 31
0.0
 11
6.2339639022
 21
3.4824566136
 31
0.0
 11
6.2127677377
 21
3.5137699756
 31
0.0
 11
6.1923847335
 21
3.5450916999
 31
0.0
 11
6.172759024
 21
3.5765181057
 31
0.0
 11
6.1537935449
 21
3.6081449117
 31
0.0
 11
6.1353446017
 21
3.6400547859
 31
0.0
  0
SPLINE
  5
275
100
AcDbEntity
  8
0
100
AcDbSpline
 62
6
  6
CONTINUOUS
 70
0
 71
3
 72
15
 73
11
 74
9
 42
0.0000001
 43
0.0000001
 44
0.0000000001
 12
-0.0136064791
 22
-0.0397444457
 32
0.0
 13
-0.0264121226
 23
-0.0326673693
 33
0.0
 40
0.0
 40
0.0
 40
0.0
 40
0.0
 40
0.1196146186
 40
0.2397088451
 40
0.3609018591
 40
0.4837785327
 40
0.608844811
 40
0.7364957884
 40
0.866892823
 40
1.0
 40
1.0
 40
1.0
 40
1.0
 10
5.1564366442
 20
4.4258277047
 30
0.0
 10
5.155894133
 20
4.4242430324
 30
0.0
 10
5.1547108668
 20
4.4210993337
 30
0.0
 10
5.1526527676
 20
4.4164806876
 30
0.0
 10
5.150310917
 20
4.4119477438
 30
0.0
 10
5.1476919175
 20
4.4074887768
 30
0.0
 10
5.1448167757
 20
4.4030827434
 30
0.0
 10
5.1417029743
 20
4.3987126433
 30
0.0
 10
5.1383832655
 20
4.3943551339
 30
0.0
 10
5.1360824142
 20
4.3914702391
 30
0.0
 10
5.1349105332
 20
4.3900208187
 30
0.0
 11
5.1564366442
 21
4.4258277047
 31
0.0
 11
5.1546674901
 21
4.4211245531
 31
0.0
 11
5.1526155122
 21
4.4165156687
 31
0.0
 11
5.1502817745
 21
4.4119908509
 31
0.0
 11
5.1476733525
 21
4.407536456
 31
0.0
 11
5.1448073053
 21
4.4031331216
 31
0.0
 11
5.1417026027
 21
4.3987608066
 31
0.0
 11
5.1383904693
 21
4.3943977088
 31
0.0
 11
5.1349105332
 21
4.3900208187
 31
0.0
  0
SPLINE
  5
276
100
AcDbEntity
  8
0
100
AcDbSpline
 62
9
  6
CONTINUOUS
 70
0
 71
3
 72
20
 73
16
 74
14
 42
0.0000001
 43
0.0000001
 44
0.0000000001
 12
0.3659592761
 22
0.4441389098
 32
0.0
 13
0.4034243878
 23
0.4104075124
 33
0.0
 40
0.0
 40
0.0
 40
0.0
 40
0.0
 40
0.0518527266
 40
0.1055839674
 40
0.1610550588
 40
0.2181368415
 40
0.3366838299
 40
0.4604828492
 40
0.5890130729
 40
0.6549375138
 40
0.7219229623
 40
0.7899424096
 40
0.8589731483
 40
0.9289983938
 40
1.0
 40
1.0
 40
1.0
 40
1.0
 10
6.2136724841
 20
4.781562531
 30
0.0
 10
6.2199978128
 20
4.7892391355
 30
0.0
 10
6.2329494138
 20
4.804811457
 30
0.0
 10
6.2529252648
 20
4.8283804031
 30
0.0
 10
6.2737717734
 20
4.8525245946
 30
0.0
 10
6.3030356279
 20
4.8858257452
 30
0.0
 10
6.3414800871
 20
4.9285051044
 30
0.0
 10
6.3897879738
 20
4.9807367708
 30
0.0
 10
6.4316977835
 20
5.0251306346
 30
0.0
 10
6.4663379982
 20
5.0613972432
 30
0.0
 10
6.4930564674
 20
5.0891781017
 30
0.0
 10
6.520272895
 20
5.1173065049
 30
0.0
 10
6.5479707474
 20
5.1457802835
 30
0.0
 10
6.5761326295
 20
5.1746005902
 30
0.0
 10
6.5950783025
 20
5.1939119901
 30
0.0
 10
6.604626229
 20
5.2036251876
 30
0.0
 11
6.2136724841
 21
4.781562531
 31
0.0
 11
6.2327537389
 21
4.8045052004
 31
0.0
 11
6.2527447795
 21
4.8280955868
 31
0.0
 11
6.2736043421
 21
4.8522606551
 31
0.0
 11
6.2952851095
 21
4.8769397181
 31
0.0
 11
6.3409136395
 21
4.927657729
 31
0.0
 11
6.3892587822
 21
4.9799890047
 31
0.0
 11
6.4400110296
 21
5.033797935
 31
0.0
 11
6.4662130065
 21
5.0612351256
 31
0.0
 11
6.4929328017
 21
5.089021792
 31
0.0
 11
6.5201503792
 21
5.1171550743
 31
0.0
 11
6.5478483524
 21
5.14563317
 31
0.0
 11
6.5760112395
 21
5.1744573228
 31
0.0
 11
6.604626229
 21
5.2036251876
 31
0.0
  0
SPLINE
  5
277
100
AcDbEntity
  8
0
100
AcDbSpline
 62
9
  6
CONTINUOUS
 70
0
 71
3
 72
26
 73
22
 74
20
 42
0.0000001
 43
0.0000001
 44
0.0000000001
 12
0.416290785
 22
0.4928091397
 32
0.0
 13
0.3190191144
 23
0.5607010527
 33
0.0
 40
0.0
 40
0.0
 40
0.0
 40
0.0
 40
0.0699862721
 40
0.1389690638
 40
0.2069178664
 40
0.2738058956
 40
0.3396114912
 40
0.4043189508
 40
0.4679216442
 40
0.5304266641
 40
0.6522587308
 40
0.7117130588
 40
0.7411179934
 40
0.7703284743
 40
0.7993671617
 40
0.8282583587
 40
0.8570264593
 40
0.8856964754
 40
0.9142978363
 40
0.9428617988
 40
1.0
 40
1.0
 40
1.0
 40
1.0
 10
4.8415448289
 20
3.1217141698
 30
0.0
 10
4.8512563756
 20
3.1332107946
 30
0.0
 10
4.870496314
 20
3.1560763307
 30
0.0
 10
4.8990115019
 20
3.1902326739
 30
0.0
 10
4.9269397207
 20
3.2240106077
 30
0.0
 10
4.9542492305
 20
3.2574128279
 30
0.0
 10
4.9809073166
 20
3.2904463502
 30
0.0
 10
5.0068785157
 20
3.3231249768
 30
0.0
 10
5.0321282204
 20
3.3554688379
 30
0.0
 10
5.064509113
 20
3.3978254614
 30
0.0
 10
5.0956231737
 20
3.4400266791
 30
0.0
 10
5.1216628069
 20
3.4771041688
 30
0.0
 10
5.1359887609
 20
3.4980657427
 30
0.0
 10
5.1464855825
 20
3.5137213682
 30
0.0
 10
5.156779282
 20
3.5293792543
 30
0.0
 10
5.1668762563
 20
3.5450516827
 30
0.0
 10
5.1767835006
 20
3.560751084
 30
0.0
 10
5.1865072674
 20
3.5764915599
 30
0.0
 10
5.1960639342
 20
3.5922827338
 30
0.0
 10
5.2086106169
 20
3.6134186998
 30
0.0
 10
5.2178296468
 20
3.629376978
 30
0.0
 10
5.2239057063
 20
3.6400561279
 30
0.0
 11
4.8415448289
 21
3.1217141698
 31
0.0
 11
4.8706127417
 21
3.1562603005
 31
0.0
 11
4.8991267142
 21
3.1904260375
 31
0.0
 11
4.9270537807
 21
3.224212144
 31
0.0
 11
4.9543606506
 21
3.2576222194
 31
0.0
 11
4.9810140421
 21
3.2906634248
 31
0.0
 11
5.0069784573
 21
3.3233487326
 31
0.0
 11
5.0322181156
 21
3.3556975841
 31
0.0
 11
5.0566979776
 21
3.3877384654
 31
0.0
 11
5.1032538608
 21
3.4510600069
 31
0.0
 11
5.1252868813
 21
3.4824541384
 31
0.0
 11
5.1359890198
 21
3.4981160689
 31
0.0
 11
5.1464823522
 21
3.5137678561
 31
0.0
 11
5.1567724491
 21
3.5294215438
 31
0.0
 11
5.1668659766
 21
3.5450896335
 31
0.0
 11
5.176769601
 21
3.5607846265
 31
0.0
 11
5.1864909439
 21
3.5765188415
 31
0.0
 11
5.1960456193
 21
3.5923030703
 31
0.0
 11
5.205453222
 21
3.608147344
 31
0.0
 11
5.2239057063
 21
3.6400561279
 31
0.0
  0
SPLINE
  5
278
100
AcDbEntity
  8
0
100
AcDbSpline
 62
9
  6
CONTINUOUS
 70
0
 71
3
 72
20
 73
16
 74
14
 42
0.0000001
 43
0.0000001
 44
0.0000000001
 12
0.3659585829
 22
-0.444137828
 32
0.0
 13
0.4034229225
 23
-0.410407164
 33
0.0
 40
0.0
 40
0.0
 40
0.0
 40
0.0
 40
0.0518527823
 40
0.105584069
 40
0.1610551923
 40
0.2181369995
 40
0.3366840113
 40
0.4604830289
 40
0.5890132307
 40
0.6549376542
 40
0.7219230816
 40
0.7899425041
 40
0.8589732142
 40
0.9289984291
 40
1.0
 40
1.0
 40
1.0
 40
1.0
 10
6.2136732992
 20
3.7118648272
 30
0.0
 10
6.2199986228
 20
3.7041882332
 30
0.0
 10
6.2329502096
 20
3.688615933
 30
0.0
 10
6.2529260427
 20
3.665047028
 30
0.0
 10
6.2737725261
 20
3.6409028822
 30
0.0
 10
6.3030363351
 20
3.607601802
 30
0.0
 10
6.3414807244
 20
3.5649225393
 30
0.0
 10
6.389788511
 20
3.5126909952
 30
0.0
 10
6.4316982262
 20
3.4682972391
 30
0.0
 10
6.4663383575
 20
3.4320307207
 30
0.0
 10
6.4930567615
 20
3.4042499348
 30
0.0
 10
6.5202731203
 20
3.3761216059
 30
0.0
 10
6.5479708925
 20
3.3476478946
 30
0.0
 10
6.5761327115
 20
3.3188276763
 30
0.0
 10
6.5950783419
 20
3.2995163364
 30
0.0
 10
6.604626229
 20
3.289803152
 30
0.0
 11
6.2136732992
 21
3.7118648272
 31
0.0
 11
6.2327545374
 21
3.6889221884
 31
0.0
 11
6.2527455591
 21
3.6653318413
 31
0.0
 11
6.2736050958
 21
3.6411668198
 31
0.0
 11
6.2952858315
 21
3.6164878069
 31
0.0
 11
6.3409142805
 21
3.5657699086
 31
0.0
 11
6.3892593226
 21
3.5134387564
 31
0.0
 11
6.4400114534
 21
3.4596299588
 31
0.0
 11
6.4662133668
 21
3.4321928376
 31
0.0
 11
6.4929330964
 21
3.4044062436
 31
0.0
 11
6.5201506039
 21
3.3762730341
 31
0.0
 11
6.5478485013
 21
3.3477950106
 31
0.0
 11
6.5760113224
 21
3.3189709427
 31
0.0
 11
6.604626229
 21
3.289803152
 31
0.0
  0
SPLINE
  5
279
100
AcDbEntity
  8
0
100
AcDbSpline
 62
9
  6
CONTINUOUS
 70
0
 71
3
 72
29
 73
25
 74
23
 42
0.0000001
 43
0.0000001
 44
0.0000000001
 12
-0.7916684569
 22
0.5640687123
 32
0.0
 13
-0.7916704726
 23
-0.5640658832
 33
0.0
 40
0.0
 40
0.0
 40
0.0
 40
0.0
 40
0.0624831504
 40
0.1249939959
 40
0.1874876715
 40
0.2499778108
 40
0.2812306731
 40
0.3124843228
 40
0.3437384126
 40
0.3749928126
 40
0.4062472994
 40
0.4375018211
 40
0.5000000502
 40
0.5624982763
 40
0.5937527949
 40
0.6250072787
 40
0.6562616756
 40
0.6875157605
 40
0.7187694028
 40
0.7500222578
 40
0.8125123897
 40
0.8750060487
 40
0.9375168603
 40
1.0
 40
1.0
 40
1.0
 40
1.0
 10
6.1353467517
 20
4.8533722117
 30
0.0
 10
6.1188581053
 20
4.8651204751
 30
0.0
 10
6.0849335379
 20
4.8873328546
 30
0.0
 10
6.0316285341
 20
4.9165940451
 30
0.0
 10
5.9762199445
 20
4.9416536039
 30
0.0
 10
5.9285766671
 20
4.9589279967
 30
0.0
 10
5.8897609585
 20
4.9705205853
 30
0.0
 10
5.8603307992
 20
4.9780914349
 30
0.0
 10
5.8306305668
 20
4.9845222832
 30
0.0
 10
5.8007037356
 20
4.9898007655
 30
0.0
 10
5.7705947207
 20
4.9939187102
 30
0.0
 10
5.7302723162
 20
4.9978501534
 30
0.0
 10
5.6796274524
 20
4.9998182888
 30
0.0
 10
5.628982581
 20
4.9978503443
 30
0.0
 10
5.5886601682
 20
4.9939190132
 30
0.0
 10
5.5585511464
 20
4.9898011406
 30
0.0
 10
5.5286243054
 20
4.9845227348
 30
0.0
 10
5.4989240576
 20
4.9780919829
 30
0.0
 10
5.4694938779
 20
4.9705212386
 30
0.0
 10
5.4306781336
 20
4.9589287948
 30
0.0
 10
5.383034803
 20
4.9416545771
 30
0.0
 10
5.3276261551
 20
4.9165951877
 30
0.0
 10
5.2743211312
 20
4.8873340708
 30
0.0
 10
5.2403965421
 20
4.8651217562
 30
0.0
 10
5.2239078565
 20
4.8533735537
 30
0.0
 11
6.1353467517
 21
4.8533722117
 31
0.0
 11
6.0845380504
 21
4.8866520892
 31
0.0
 11
6.0312732671
 21
4.9158960333
 31
0.0
 11
5.9759244808
 21
4.9409325902
 31
0.0
 11
5.9188181762
 21
4.9616393442
 31
0.0
 11
5.8897088205
 21
4.9703330507
 31
0.0
 11
5.8602860065
 21
4.9779013822
 31
0.0
 11
5.8305929433
 21
4.9843301938
 31
0.0
 11
5.8006734224
 21
4.9896073343
 31
0.0
 11
5.7705721714
 21
4.9937238568
 31
0.0
 11
5.7403340024
 21
4.9966711032
 31
0.0
 11
5.6796274497
 21
4.9990311
 31
0.0
 11
5.6189208916
 21
4.9966713187
 31
0.0
 11
5.5886827172
 21
4.9937241578
 31
0.0
 11
5.558581459
 21
4.9896077101
 31
0.0
 11
5.5286619272
 21
4.9843306485
 31
0.0
 11
5.4989688485
 21
4.9779019315
 31
0.0
 11
5.4695460149
 21
4.9703337046
 31
0.0
 11
5.4404366345
 21
4.9616401062
 31
0.0
 11
5.3833302639
 21
4.9409335551
 31
0.0
 11
5.3279814232
 21
4.9158971574
 31
0.0
 11
5.2747166228
 21
4.8866533131
 31
0.0
 11
5.2239078565
 21
4.8533735537
 31
0.0
  0
SPLINE
  5
27A
100
AcDbEntity
  8
0
100
AcDbSpline
 62
9
  6
CONTINUOUS
 70
0
 71
3
 72
25
 73
21
 74
19
 42
0.0000001
 43
0.0000001
 44
0.0000000001
 12
-0.4252247839
 22
0.4709881785
 32
0.0
 13
-0.5242884326
 23
0.3574459688
 33
0.0
 40
0.0
 40
0.0
 40
0.0
 40
0.0
 40
0.0350736307
 40
0.0698806104
 40
0.1044212724
 40
0.1386890416
 40
0.2063841026
 40
0.2729394917
 40
0.3383360621
 40
0.4025658482
 40
0.4656384699
 40
0.5275873276
 40
0.5884793919
 40
0.6484236217
 40
0.707578634
 40
0.7661558994
 40
0.8244128667
 40
0.8826319809
 40
0.94108638
 40
1.0
 40
1.0
 40
1.0
 40
1.0
 10
6.604626229
 20
3.2145056904
 30
0.0
 10
6.5996548367
 20
3.2200121122
 30
0.0
 10
6.5897327222
 20
3.2309676416
 30
0.0
 10
6.5748617679
 20
3.2472978212
 30
0.0
 10
6.5600645897
 20
3.2634645658
 30
0.0
 10
6.5405058352
 20
3.2847031591
 30
0.0
 10
6.5162247778
 20
3.3107982567
 30
0.0
 10
6.4872179749
 20
3.3414882146
 30
0.0
 10
6.4584377992
 20
3.3713816879
 30
0.0
 10
6.4298507478
 20
3.4004355155
 30
0.0
 10
6.4014123908
 20
3.4286084772
 30
0.0
 10
6.3730630637
 20
3.4558625241
 30
0.0
 10
6.3447270173
 20
3.4821678871
 30
0.0
 10
6.3163123614
 20
3.5075097242
 30
0.0
 10
6.2877134604
 20
3.5318962179
 30
0.0
 10
6.258818027
 20
3.555369067
 30
0.0
 10
6.2295197816
 20
3.5780146317
 30
0.0
 10
6.1997353347
 20
3.5999718678
 30
0.0
 10
6.1694214955
 20
3.6214316226
 30
0.0
 10
6.1489619467
 20
3.6354927561
 30
0.0
 10
6.1386660369
 20
3.6425122348
 30
0.0
 11
6.604626229
 21
3.2145056904
 31
0.0
 11
6.5896873549
 21
3.2310026249
 31
0.0
 11
6.5748169297
 21
3.2473331626
 31
0.0
 11
6.5600173779
 21
3.2634995787
 31
0.0
 11
6.545286195
 21
3.279493683
 31
0.0
 11
6.5160194422
 21
3.3109361897
 31
0.0
 11
6.487002237
 21
3.3416212091
 31
0.0
 11
6.458212218
 21
3.3715065813
 31
0.0
 11
6.4296169608
 21
3.4005481608
 31
0.0
 11
6.4011729207
 21
3.4287035325
 31
0.0
 11
6.3728226534
 21
3.4559336831
 31
0.0
 11
6.3444928423
 21
3.4822085777
 31
0.0
 11
6.3160944315
 21
3.5075139599
 31
0.0
 11
6.2875245176
 21
3.5318603218
 31
0.0
 11
6.2586720771
 21
3.5552939351
 31
0.0
 11
6.229429035
 21
3.577907522
 31
0.0
 11
6.1997063056
 21
3.5998463899
 31
0.0
 11
6.1694519571
 21
3.6213052389
 31
0.0
 11
6.1386660369
 21
3.6425122348
 31
0.0
  0
SPLINE
  5
27B
100
AcDbEntity
  8
0
100
AcDbSpline
 62
9
  6
CONTINUOUS
 70
0
 71
3
 72
24
 73
20
 74
18
 42
0.0000001
 43
0.0000001
 44
0.0000000001
 12
-0.4709880659
 22
0.4252246626
 32
0.0
 13
-0.3574456864
 23
0.5242884256
 33
0.0
 40
0.0
 40
0.0
 40
0.0
 40
0.0
 40
0.0350737157
 40
0.0698806581
 40
0.1386888914
 40
0.2063840663
 40
0.2729394326
 40
0.3383360387
 40
0.4025658683
 40
0.4656384565
 40
0.5275872961
 40
0.5884794069
 40
0.6484236665
 40
0.7075786619
 40
0.7661559022
 40
0.8244128587
 40
0.8826319693
 40
0.9410863726
 40
1.0
 40
1.0
 40
1.0
 40
1.0
 10
6.7118345492
 20
3.3217141698
 30
0.0
 10
6.7063281154
 20
3.3266855727
 30
0.0
 10
6.6953724783
 20
3.3366075806
 30
0.0
 10
6.6736833263
 20
3.356358723
 30
0.0
 10
6.6469857643
 20
3.380857827
 30
0.0
 10
6.6155420314
 20
3.4101156162
 30
0.0
 10
6.5848521311
 20
3.4391225107
 30
0.0
 10
6.5549586315
 20
3.4679026586
 30
0.0
 10
6.5259048243
 20
3.4964897298
 30
0.0
 10
6.4977318492
 20
3.5249280564
 30
0.0
 10
6.4704778272
 20
3.5532773922
 30
0.0
 10
6.4441724698
 20
3.5816134464
 30
0.0
 10
6.4188306064
 20
3.6100280823
 30
0.0
 10
6.3944441065
 20
3.6386269622
 30
0.0
 10
6.3709712765
 20
3.6675223843
 30
0.0
 10
6.3483257266
 20
3.6968206184
 30
0.0
 10
6.3263685013
 20
3.7266050586
 30
0.0
 10
6.3049087629
 20
3.7569188997
 30
0.0
 10
6.2908476357
 20
3.777378448
 30
0.0
 10
6.2838281617
 20
3.787674359
 30
0.0
 11
6.7118345492
 21
3.3217141698
 31
0.0
 11
6.6953375077
 21
3.3366529974
 31
0.0
 11
6.679007048
 21
3.3515234648
 31
0.0
 11
6.6468467383
 21
3.3810543006
 31
0.0
 11
6.6154040938
 21
3.4103209949
 31
0.0
 11
6.58471913
 21
3.439338222
 31
0.0
 11
6.5548337469
 21
3.4681282468
 31
0.0
 11
6.5257921605
 21
3.4967235213
 31
0.0
 11
6.4976368027
 21
3.5251675305
 31
0.0
 11
6.470406676
 21
3.5535177909
 31
0.0
 11
6.4441317715
 21
3.5818476193
 31
0.0
 11
6.4188263658
 21
3.6102460212
 31
0.0
 11
6.3944800048
 21
3.638815909
 31
0.0
 11
6.3710464099
 21
3.6676683315
 31
0.0
 11
6.3484328372
 21
3.6969113637
 31
0.0
 11
6.3264939815
 21
3.7266340873
 31
0.0
 11
6.305035146
 21
3.7568884369
 31
0.0
 11
6.2838281617
 21
3.787674359
 31
0.0
  0
SPLINE
  5
27C
100
AcDbEntity
  8
0
100
AcDbSpline
 62
9
  6
CONTINUOUS
 70
0
 71
3
 72
25
 73
21
 74
19
 42
0.0000001
 43
0.0000001
 44
0.0000000001
 12
0.4162894284
 22
-0.4928070868
 32
0.0
 13
0.3190449091
 23
-0.560683564
 33
0.0
 40
0.0
 40
0.0
 40
0.0
 40
0.0
 40
0.0351162435
 40
0.069984762
 40
0.104604229
 40
0.1389693056
 40
0.2069188989
 40
0.2738079602
 40
0.339614399
 40
0.4043224582
 40
0.4679258422
 40
0.5304308008
 40
0.5918615043
 40
0.6522653174
 40
0.7117188153
 40
0.770334028
 40
0.8282629237
 40
0.8856975427
 40
0.9428628639
 40
1.0
 40
1.0
 40
1.0
 40
1.0
 10
4.8415492277
 20
5.3717141698
 30
0.0
 10
4.846422068
 20
5.3659456586
 30
0.0
 10
4.8561203818
 20
5.3544383505
 30
0.0
 10
4.870583611
 20
5.3372113257
 30
0.0
 10
4.8849128555
 20
5.3200827558
 30
0.0
 10
4.9037574884
 20
5.2974571873
 30
0.0
 10
4.926941239
 20
5.2694150916
 30
0.0
 10
4.9542514353
 20
5.236012907
 30
0.0
 10
4.980909701
 20
5.2029790615
 30
0.0
 10
5.0068810813
 20
5.1703001519
 30
0.0
 10
5.0321305771
 20
5.1379561456
 30
0.0
 10
5.0566235511
 20
5.1059179852
 30
0.0
 10
5.0803279541
 20
5.0741461258
 30
0.0
 10
5.1032173216
 20
5.042588893
 30
0.0
 10
5.1252747332
 20
5.0111812518
 30
0.0
 10
5.1464984339
 20
4.9798446845
 30
0.0
 10
5.1669092815
 20
4.9484892052
 30
0.0
 10
5.1865595917
 20
4.9170185271
 30
0.0
 10
5.2055419972
 20
4.8853392603
 30
0.0
 10
5.217831419
 20
4.8640521714
 30
0.0
 10
5.2239078565
 20
4.8533735537
 30
0.0
 11
4.8415492277
 21
5.3717141698
 31
0.0
 11
4.8561492256
 21
5.3543930061
 31
0.0
 11
4.8706129713
 21
5.3371660555
 31
0.0
 11
4.884941737
 21
5.3200356086
 31
0.0
 11
4.8991287047
 21
5.303000569
 31
0.0
 11
4.9270555667
 21
5.2692138471
 31
0.0
 11
4.9543628014
 21
5.2358034211
 31
0.0
 11
4.9810164662
 21
5.2027619438
 31
0.0
 11
5.0069809637
 21
5.1700764095
 31
0.0
 11
5.0322207008
 21
5.1377272515
 31
0.0
 11
5.0567004585
 21
5.1056865325
 31
0.0
 11
5.0803877913
 21
5.0739159469
 31
0.0
 11
5.103256038
 21
5.0423653903
 31
0.0
 11
5.1252885501
 21
5.0109717338
 31
0.0
 11
5.1464847152
 21
4.9796583703
 31
0.0
 11
5.1668677204
 21
4.9483366442
 31
0.0
 11
5.186493431
 21
4.9169102367
 31
0.0
 11
5.2054589118
 21
4.8852834293
 31
0.0
 11
5.2239078565
 21
4.8533735537
 31
0.0
  0
SPLINE
  5
27D
100
AcDbEntity
  8
0
100
AcDbSpline
 62
9
  6
CONTINUOUS
 70
0
 71
3
 72
20
 73
16
 74
14
 42
0.0000001
 43
0.0000001
 44
0.0000000001
 12
0.4441381361
 22
-0.3659587772
 32
0.0
 13
0.4104068603
 23
-0.4034237469
 33
0.0
 40
0.0
 40
0.0
 40
0.0
 40
0.0
 40
0.0518527666
 40
0.1055840403
 40
0.1610551547
 40
0.218136955
 40
0.3366839601
 40
0.4604829781
 40
0.589013186
 40
0.6549376145
 40
0.7219230478
 40
0.7899424774
 40
0.8589731958
 40
0.9289984187
 40
1.0
 40
1.0
 40
1.0
 40
1.0
 10
6.2144752931
 20
3.7126673298
 30
0.0
 10
6.2221518901
 20
3.7063420048
 30
0.0
 10
6.2377241971
 20
3.6933904147
 30
0.0
 10
6.2612931137
 20
3.6734145765
 30
0.0
 10
6.2854372724
 20
3.652568086
 30
0.0
 10
6.3187383727
 20
3.6233042642
 30
0.0
 10
6.3614176626
 20
3.584859855
 30
0.0
 10
6.4136492412
 20
3.5365520399
 30
0.0
 10
6.4580430278
 20
3.494642298
 30
0.0
 10
6.4943095714
 20
3.4600021426
 30
0.0
 10
6.5220903787
 20
3.4332837211
 30
0.0
 10
6.5502187293
 20
3.4060673434
 30
0.0
 10
6.578692454
 20
3.3783695428
 30
0.0
 10
6.6075127055
 20
3.3502077143
 30
0.0
 10
6.6268240682
 20
3.3312620778
 30
0.0
 10
6.6365372469
 20
3.3217141698
 30
0.0
 11
6.2144752931
 21
3.7126673298
 31
0.0
 11
6.2374179412
 21
3.6935860875
 31
0.0
 11
6.2610082996
 21
3.6735950606
 31
0.0
 11
6.2851733344
 21
3.6527355165
 31
0.0
 11
6.3098523614
 21
3.6310547719
 31
0.0
 11
6.3605702916
 21
3.5854262999
 31
0.0
 11
6.4129014786
 21
3.5370812292
 31
0.0
 11
6.4667103137
 21
3.4863290653
 31
0.0
 11
6.4941474545
 21
3.4601271339
 31
0.0
 11
6.5219340696
 21
3.4334073864
 31
0.0
 11
6.5500672994
 21
3.4061898587
 31
0.0
 11
6.5785453411
 21
3.3784919373
 31
0.0
 11
6.6073694387
 21
3.3503291038
 31
0.0
 11
6.6365372469
 21
3.3217141698
 31
0.0
  0
SPLINE
  5
27E
100
AcDbEntity
  8
0
100
AcDbSpline
 62
9
  6
CONTINUOUS
 70
0
 71
3
 72
25
 73
21
 74
19
 42
0.0000001
 43
0.0000001
 44
0.0000000001
 12
-0.4928074827
 22
0.4162896993
 32
0.0
 13
-0.5606843179
 23
0.3190445493
 33
0.0
 40
0.0
 40
0.0
 40
0.0
 40
0.0
 40
0.035116456
 40
0.069985146
 40
0.1046045388
 40
0.1389695669
 40
0.2069192085
 40
0.2738082424
 40
0.3396146768
 40
0.4043227461
 40
0.4679261028
 40
0.5304310171
 40
0.5918617213
 40
0.6522655361
 40
0.7117190067
 40
0.7703341747
 40
0.8282630282
 40
0.885697608
 40
0.9428628926
 40
1.0
 40
1.0
 40
1.0
 40
1.0
 10
6.804626229
 20
3.4086364345
 30
0.0
 10
6.7988576783
 20
3.4135093074
 30
0.0
 10
6.7873505975
 20
3.4232080358
 30
0.0
 10
6.7701237463
 20
3.4376716021
 30
0.0
 10
6.7529949741
 20
3.452000647
 30
0.0
 10
6.7303693289
 20
3.4708451964
 30
0.0
 10
6.7023273584
 20
3.4940291316
 30
0.0
 10
6.6689250714
 20
3.5213392592
 30
0.0
 10
6.6358912274
 20
3.5479975689
 30
0.0
 10
6.6032122871
 20
3.573968953
 30
0.0
 10
6.5708682775
 20
3.5992184722
 30
0.0
 10
6.5388301105
 20
3.6237114616
 30
0.0
 10
6.5070582308
 20
3.6474158714
 30
0.0
 10
6.4755009888
 20
3.6703052661
 30
0.0
 10
6.4440933485
 20
3.6923627022
 30
0.0
 10
6.412756784
 20
3.7135864133
 30
0.0
 10
6.3814013072
 20
3.7339972657
 30
0.0
 10
6.3499306276
 20
3.7536475777
 30
0.0
 10
6.3182513479
 20
3.772629971
 30
0.0
 10
6.2969642453
 20
3.7849193776
 30
0.0
 10
6.2862856186
 20
3.7909958052
 30
0.0
 11
6.804626229
 21
3.4086364345
 31
0.0
 11
6.7873052121
 21
3.4232368451
 31
0.0
 11
6.7700783658
 21
3.4377009131
 31
0.0
 11
6.7529478517
 21
3.4520295498
 31
0.0
 11
6.7359127641
 21
3.4662164364
 31
0.0
 11
6.7021260607
 21
3.4941434206
 31
0.0
 11
6.6687156052
 21
3.5214506418
 31
0.0
 11
6.6356741066
 21
3.5481043257
 31
0.0
 11
6.6029885417
 21
3.5740688447
 31
0.0
 11
6.5706393796
 21
3.5993085973
 31
0.0
 11
6.5385986639
 21
3.6237883613
 31
0.0
 11
6.5068280542
 21
3.6474757117
 31
0.0
 11
6.4752774813
 21
3.6703439868
 31
0.0
 11
6.4438838263
 21
3.69237652
 31
0.0
 11
6.4125704698
 21
3.7135726937
 31
0.0
 11
6.3812487463
 21
3.7339557037
 31
0.0
 11
6.3498223362
 21
3.7535814142
 31
0.0
 11
6.3181955172
 21
3.7725468829
 31
0.0
 11
6.2862856186
 21
3.7909958052
 31
0.0
  0
ENDSEC
  0
SECTION
  2
OBJECTS
  0
DICTIONARY
  5
C
100
AcDbDictionary
280
0
281
1
  3
ACAD_GROUP
350
D
  3
ACAD_MLINESTYLE
350
17
  3
ACAD_LAYOUT
350
1A
  3
ACAD_PLOTSETTINGS
350
19
  3
ACAD_PLOTSTYLENAME
350
E
  0
DICTIONARY
  5
D
102
{ACAD_REACTORS
330
C
102
}
100
AcDbDictionary
280
0
281
1
  0
ACDBDICTIONARYWDFLT
  5
E
102
{ACAD_REACTORS
330
C
102
}
100
AcDbDictionary
281
1
  3
Normal
350
F
100
AcDbDictionaryWithDefault
340
F
  0
DICTIONARY
  5
17
102
{ACAD_REACTORS
330
C
102
}
100
AcDbDictionary
280
0
281
1
  3
Standard
350
18
  0
DICTIONARY
  5
19
102
{ACAD_REACTORS
330
C
102
}
100
AcDbDictionary
281
1
  0
DICTIONARY
  5
1A
102
{ACAD_REACTORS
330
C
102
}
100
AcDbDictionary
281
1
  3
Model
350
27F
  3
Layout1
350
280
  0
ACDBPLACEHOLDER
  5
F
102
{ACAD_REACTORS
330
E
102
}
  0
MLINESTYLE
  5
18
102
{ACAD_REACTORS
330
17
102
}
100
AcDbMlineStyle
  2
STANDARD
 70
0
  3

 62
256
 51
90.0
 52
90.0
 71
2
 49
0.5
 62
256
  6
BYLAYER
 49
-0.5
 62
256
  6
BYLAYER
  0
LAYOUT
  5
27F
102
{ACAD_REACTORS
330
1A
102
}
100
AcDbPlotSettings
  1

  2
none_device
  4
ISO_A4_(297.00_x_210.00_MM)
  6

 40
0.0
 41
0.0
 42
0.0
 43
0.0
 44
297.0
 45
210.0
 46
0.0
 47
0.0
 48
0.0
 49
0.0
140
0.0
141
0.0
142
1.0
143
1.0
 70
1024
 72
0
 73
0
 74
0
  7

 75
0
147
1.0
148
0.0
149
0.0
100
AcDbLayout
  1
Model
 70
0
 71
0
 10
0.0
 20
0.0
 11
11.6929133858
 21
8.2677165354
 12
0.0
 22
0.0
 32
0.0
 14
0.0
 24
0.0
 34
0.0
 15
0.0
 25
0.0
 35
0.0
146
0.0
 13
0.0
 23
0.0
 33
0.0
 16
1.0
 26
0.0
 36
0.0
 17
0.0
 27
1.0
 37
0.0
 76
0
330
203
345
0
346
0
  0
LAYOUT
  5
280
102
{ACAD_REACTORS
330
1A
102
}
100
AcDbPlotSettings
  1

  2
none_device
  4
ISO_A4_(297.00_x_210.00_MM)
  6

 40
0.0
 41
0.0
 42
0.0
 43
0.0
 44
297.0
 45
210.0
 46
0.0
 47
0.0
 48
0.0
 49
0.0
140
0.0
141
0.0
142
1.0
143
1.0
 70
0
 72
0
 73
0
 74
0
  7

 75
0
147
1.0
148
0.0
149
0.0
100
AcDbLayout
  1
Layout1
 70
0
 71
1
 10
0.0
 20
0.0
 11
11.6929133858
 21
8.2677165354
 12
0.0
 22
0.0
 32
0.0
 14
0.0
 24
0.0
 34
0.0
 15
0.0
 25
0.0
 35
0.0
146
0.0
 13
0.0
 23
0.0
 33
0.0
 16
1.0
 26
0.0
 36
0.0
 17
0.0
 27
1.0
 37
0.0
 76
0
330
204
345
0
346
0
  0
ENDSEC
  0
EOF
