  0
SECTION
  2
HEADER
  9
$ACADVER
  1
AC1015
  9
$DWGCODEPAGE
  3
ANSI_1252
  9
$EXTMAX
 10
11.6929133858
 20
8.2677165354
 30
0.0
  9
$EXTMIN
 10
0.0
 20
0.0
 30
0.0
  9
$LIMMIN
 10
0.0
 20
0.0
  9
$LIMMAX
 10
11.6929133858
 20
8.2677165354
  9
$VIEWCTR
 10
5.8464566929
 20
4.1338582677
  9
$VIEWSIZE
 40
8.2677165354
  9
$CLAYER
  8
0
  9
$LTSCALE
 40
0.6431102362
  9
$CELTYPE
  6
BYLAYER
  9
$DIMSCALE
 40
1.0
  9
$DIMASZ
 40
0.1
  9
$DIMEXO
 40
0.0730807087
  9
$DIMDLI
 40
0.4443307087
  9
$DIMEXE
 40
0.2104724409
  9
$DIMCEN
 40
0.1052362205
  9
$DIMLFAC
 40
1.0
  9
$DIMBLK
  1
_FILLED
  9
$DIMTXT
 40
0.08
  9
$DIMTOL
 70
1
  9
$DIMLIM
 70
0
  9
$DIMTFAC
 40
1.0
  9
$DIMTP
 40
0.01
  9
$DIMTM
 40
0.01
  9
$PDMODE
 70
3
  9
$PDSIZE
 40
0.06
  9
$HANDSEED
  5
268
  9
$TILEMODE
 70
1
  9
$MEASUREMENT
 70
0
  9
$INSUNITS
 70
1
  0
ENDSEC
  0
SECTION
  2
CLASSES
  0
CLASS
  1
ACDBDICTIONARYWDFLT
  2
AcDbDictionaryWithDefault
  3
AutoCAD 2000
 90
0
280
0
281
0
  0
CLASS
  1
ACDBPLACEHOLDER
  2
AcDbPlaceHolder
  3
AutoCAD 2000
 90
0
280
0
281
0
  0
CLASS
  1
LAYOUT
  2
AcDbLayout
  3
AutoCAD 2000
 90
0
280
0
281
0
  0
ENDSEC
  0
SECTION
  2
TABLES
  0
TABLE
  2
VPORT
  5
8
100
AcDbSymbolTable
 70
2
  0
VPORT
  5
1F4
100
AcDbSymbolTableRecord
100
AcDbViewportTableRecord
  2
*ACTIVE
 70
0
 10
0.0
 20
0.0
 11
1.0
 21
1.0
 12
5.8464566929
 22
4.1338582677
 13
0.0
 23
0.0
 14
1.0
 24
1.0
 15
0.0
 25
0.0
 16
0.0
 26
0.0
 36
1.0
 17
0.0
 27
0.0
 37
0.0
 40
8.2677165354
 41
1.4142857143
 42
50.0
 43
0.0
 44
0.0
 50
0.0
 51
0.0
 71
0
 72
100
 73
1
 74
1
 75
0
 76
0
 77
0
 78
0
  0
ENDTAB
  0
TABLE
  2
LTYPE
  5
5
100
AcDbSymbolTable
 70
6
  0
LTYPE
  5
14
100
AcDbSymbolTableRecord
100
AcDbLinetypeTableRecord
  2
BYBLOCK
 70
0
  3

 72
65
 73
0
 40
0.0
  0
LTYPE
  5
15
100
AcDbSymbolTableRecord
100
AcDbLinetypeTableRecord
  2
BYLAYER
 70
0
  3

 72
65
 73
0
 40
0.0
  0
LTYPE
  5
16
100
AcDbSymbolTableRecord
100
AcDbLinetypeTableRecord
  2
CONTINUOUS
 70
64
  3
Solid line
 72
65
 73
0
 40
0.0
  0
LTYPE
  5
1F5
100
AcDbSymbolTableRecord
100
AcDbLinetypeTableRecord
  2
CENTER
 70
64
  3
____ _ ____ _ ____ _ ____ _ ____ _ ____ _ ____
 72
65
 73
4
 40
0.6
 49
0.375
 74
0
 49
-0.075
 74
0
 49
0.075
 74
0
 49
-0.075
 74
0
  0
LTYPE
  5
1F6
100
AcDbSymbolTableRecord
100
AcDbLinetypeTableRecord
  2
HIDDEN
 70
64
  3
- - - - - - - - - - - - - - - - - - - -
 72
65
 73
2
 40
0.2
 49
0.1
 74
0
 49
-0.1
 74
0
  0
LTYPE
  5
1F7
100
AcDbSymbolTableRecord
100
AcDbLinetypeTableRecord
  2
PHANTOM
 70
64
  3
_____ _ _ _____ _ _ _____ _ _ _____
 72
65
 73
6
 40
0.8
 49
0.45
 74
0
 49
-0.05
 74
0
 49
0.1
 74
0
 49
-0.05
 74
0
 49
0.1
 74
0
 49
-0.05
 74
0
  0
LTYPE
  5
1F8
100
AcDbSymbolTableRecord
100
AcDbLinetypeTableRecord
  2
DOT
 70
64
  3
. . . . . . . . . . . . . . . . . . . .
 72
65
 73
2
 40
0.2
 49
0.1
 74
0
 49
-0.1
 74
0
  0
LTYPE
  5
1F9
100
AcDbSymbolTableRecord
100
AcDbLinetypeTableRecord
  2
DASHED
 70
64
  3
- - - - - - - - - - - - - - - - - - - -
 72
65
 73
2
 40
0.2
 49
0.1
 74
0
 49
-0.1
 74
0
  0
ENDTAB
  0
TABLE
  2
LAYER
  5
2
100
AcDbSymbolTable
 70
36
  0
LAYER
  5
10
100
AcDbSymbolTableRecord
100
AcDbLayerTableRecord
  2
0
 70
0
 62
7
  6
CONTINUOUS
370
-3
390
F
  0
LAYER
  5
1FA
100
AcDbSymbolTableRecord
100
AcDbLayerTableRecord
  2
DEFAULT_1
 70
0
 62
7
  6
CENTER
370
-3
390
F
  0
LAYER
  5
1FB
100
AcDbSymbolTableRecord
100
AcDbLayerTableRecord
  2
DEFAULT_2
 70
0
 62
8
  6
HIDDEN
370
-3
390
F
  0
LAYER
  5
1FC
100
AcDbSymbolTableRecord
100
AcDbLayerTableRecord
  2
DEFAULT_3
 70
0
 62
7
  6
PHANTOM
370
-3
390
F
  0
LAYER
  5
1FD
100
AcDbSymbolTableRecord
100
AcDbLayerTableRecord
  2
3_ALL_SYMBOLS
 70
0
 62
7
  6
CONTINUOUS
370
-3
390
F
  0
LAYER
  5
1FE
100
AcDbSymbolTableRecord
100
AcDbLayerTableRecord
  2
DEFAULT_COORDINATE_SYSTEM
 70
0
 62
7
  6
CONTINUOUS
370
-3
390
F
  0
LAYER
  5
1FF
100
AcDbSymbolTableRecord
100
AcDbLayerTableRecord
  2
DEFAULT_DATUM_AXES
 70
0
 62
7
  6
CONTINUOUS
370
-3
390
F
  0
LAYER
  5
200
100
AcDbSymbolTableRecord
100
AcDbLayerTableRecord
  2
DEFAULT_DATUM_CURVES
 70
0
 62
7
  6
CONTINUOUS
370
-3
390
F
  0
LAYER
  5
201
100
AcDbSymbolTableRecord
100
AcDbLayerTableRecord
  2
DEFAULT_DATUM_PLANES
 70
0
 62
7
  6
CONTINUOUS
370
-3
390
F
  0
ENDTAB
  0
TABLE
  2
STYLE
  5
3
100
AcDbSymbolTable
 70
1
  0
STYLE
  5
11
100
AcDbSymbolTableRecord
100
AcDbTextStyleTableRecord
  2
STANDARD
 70
0
 40
0.0
 41
0.8
 50
0.0
 71
0
 42
0.2
  3
txt
  4

  0
STYLE
  5
202
100
AcDbSymbolTableRecord
100
AcDbTextStyleTableRecord
  2
TEXTSTYLE_1
 70
0
 40
0.0
 41
0.8
 50
0.0
 71
0
 42
0.2
  3
gdt
  4

  0
ENDTAB
  0
TABLE
  2
VIEW
  5
6
100
AcDbSymbolTable
 70
0
  0
ENDTAB
  0
TABLE
  2
UCS
  5
7
100
AcDbSymbolTable
 70
0
  0
ENDTAB
  0
TABLE
  2
APPID
  5
9
100
AcDbSymbolTable
 70
1
  0
APPID
  5
203
100
AcDbSymbolTableRecord
100
AcDbRegAppTableRecord
  2
ACAD
 70
0
  0
ENDTAB
  0
TABLE
  2
BLOCK_RECORD
  5
1
100
AcDbSymbolTable
 70
0
  0
BLOCK_RECORD
  5
204
100
AcDbSymbolTableRecord
100
AcDbBlockTableRecord
  2
*Model_Space
  0
BLOCK_RECORD
  5
205
100
AcDbSymbolTableRecord
100
AcDbBlockTableRecord
  2
*Paper_Space
  0
ENDTAB
  0
TABLE
  2
DIMSTYLE
  5
A
100
AcDbSymbolTable
 70
1
100
AcDbDimStyleTable
 71
0
  0
DIMSTYLE
105
206
100
AcDbSymbolTableRecord
100
AcDbDimStyleTableRecord
  2
STANDARD
 70
0
  3

  4

 40
1.0
 41
0.1
 42
0.0625
 43
0.38
 44
0.18
 45
0.0
 46
0.0
 47
0.01
 48
0.01
140
0.08
141
0.09
142
0.0
143
25.4
144
1.0
145
0.0
146
1.0
147
0.09
 71
1.0
 72
0.0
 73
1
 74
1
 75
0
 76
0
 77
0
 78
4
170
0
171
2
172
0
173
0
174
0
175
0
176
0
177
0
178
0
270
2
271
2
272
2
273
2
274
2
275
0
280
0
281
0
282
0
283
1
284
4
285
0
286
0
287
3
288
0
340
11
  0
ENDTAB
  0
ENDSEC
  0
SECTION
  2
BLOCKS
  0
BLOCK
  5
20
100
AcDbEntity
  8
0
100
AcDbBlockBegin
  2
*Model_Space
 70
0
 10
0.0
 20
0.0
 30
0.0
  3
*Model_Space
  1

  0
ENDBLK
  5
21
100
AcDbEntity
  8
0
100
AcDbBlockEnd
  0
BLOCK
  5
1C
100
AcDbEntity
  8
0
100
AcDbBlockBegin
  2
*Paper_Space
 70
0
 10
0.0
 20
0.0
 30
0.0
  3
*Paper_Space
  1

  0
ENDBLK
  5
1D
100
AcDbEntity
  8
0
100
AcDbBlockEnd
  0
ENDSEC
  0
SECTION
  2
ENTITIES
  0
LINE
  5
207
100
AcDbEntity
  8
0
100
AcDbLine
 62
6
  6
CONTINUOUS
 10
4.5063404982
 20
3.2428974182
 11
6.4100903581
 21
3.2428974182
  0
LINE
  5
208
100
AcDbEntity
  8
0
100
AcDbLine
 62
9
  6
CONTINUOUS
 10
4.4813975737
 20
3.2662090706
 11
6.4350332826
 21
3.2662090706
  0
LINE
  5
209
100
AcDbEntity
  8
0
100
AcDbLine
 62
6
  6
CONTINUOUS
 10
4.9107154281
 20
4.0750688497
 11
4.9107154281
 21
4.0411080964
  0
LINE
  5
20A
100
AcDbEntity
  8
0
100
AcDbLine
 62
6
  6
CONTINUOUS
 10
4.9682154281
 20
4.9078040847
 11
4.9682154281
 21
4.8082183071
  0
LINE
  5
20B
100
AcDbEntity
  8
0
100
AcDbLine
 62
6
  6
CONTINUOUS
 10
4.9707154281
 20
4.2178974182
 11
4.9707154281
 21
4.7762606727
  0
LINE
  5
20C
100
AcDbEntity
  8
0
100
AcDbLine
 62
6
  6
CONTINUOUS
 10
4.9892154281
 20
4.8165848451
 11
4.9892154281
 21
5.2466973368
  0
LINE
  5
20D
100
AcDbEntity
  8
0
100
AcDbLine
 62
9
  6
CONTINUOUS
 10
5.6778313294
 20
4.9437822561
 11
5.6778264343
 21
4.9437802162
  0
LINE
  5
20E
100
AcDbEntity
  8
0
100
AcDbLine
 62
9
  6
CONTINUOUS
 10
4.696009716
 20
4.0133661887
 11
6.2204211403
 21
4.0133661887
  0
LINE
  5
20F
100
AcDbEntity
  8
0
100
AcDbLine
 62
6
  6
CONTINUOUS
 10
4.7284013324
 20
4.0298974182
 11
6.1880295239
 21
4.0298974182
  0
LINE
  5
210
100
AcDbEntity
  8
0
100
AcDbLine
 62
9
  6
CONTINUOUS
 10
6.0057154281
 20
4.0750688497
 11
4.9107154281
 21
4.0750688497
  0
LINE
  5
211
100
AcDbEntity
  8
0
100
AcDbLine
 62
9
  6
CONTINUOUS
 10
5.9757154281
 20
4.146483134
 11
4.9407154281
 21
4.146483134
  0
LINE
  5
212
100
AcDbEntity
  8
0
100
AcDbLine
 62
6
  6
CONTINUOUS
 10
5.9457154281
 20
4.2178974182
 11
4.9707154281
 21
4.2178974182
  0
LINE
  5
213
100
AcDbEntity
  8
0
100
AcDbLine
 62
7
  6
CONTINUOUS
 10
5.7594393852
 20
5.0410012397
 11
5.7594393852
 21
5.0888795711
  0
LINE
  5
214
100
AcDbEntity
  8
0
100
AcDbLine
 62
6
  6
CONTINUOUS
 10
5.9272154281
 20
4.8165848451
 11
5.9272154281
 21
5.2466988704
  0
LINE
  5
215
100
AcDbEntity
  8
0
100
AcDbLine
 62
6
  6
CONTINUOUS
 10
5.9457154281
 20
4.2178974182
 11
5.9457154281
 21
4.7762640966
  0
LINE
  5
216
100
AcDbEntity
  8
0
100
AcDbLine
 62
6
  6
CONTINUOUS
 10
5.9482154281
 20
4.9078040847
 11
5.9482154281
 21
4.8082183071
  0
LINE
  5
217
100
AcDbEntity
  8
0
100
AcDbLine
 62
9
  6
CONTINUOUS
 10
5.238604422
 20
4.9437802162
 11
5.2385775097
 21
4.9437914318
  0
LINE
  5
218
100
AcDbEntity
  8
0
100
AcDbLine
 62
6
  6
CONTINUOUS
 10
6.0057154281
 20
4.0750688497
 11
6.0057154281
 21
4.0411080964
  0
ARC
  5
219
100
AcDbEntity
  8
0
100
AcDbCircle
 62
6
  6
CONTINUOUS
 10
5.2956404919
 20
3.3433327922
 40
1.142
100
AcDbArc
 50
356.1276448237
 51
35.9245410253
  0
ARC
  5
21A
100
AcDbEntity
  8
0
100
AcDbCircle
 62
6
  6
CONTINUOUS
 10
5.0107154281
 20
4.0750688497
 40
0.1
100
AcDbArc
 50
134.4270040008
 51
180.0
  0
ARC
  5
21B
100
AcDbEntity
  8
0
100
AcDbCircle
 62
6
  6
CONTINUOUS
 10
4.8707154281
 20
4.2178974182
 40
0.1
100
AcDbArc
 50
314.4270040008
 51
360.0
  0
ARC
  5
21C
100
AcDbEntity
  8
0
100
AcDbCircle
 62
6
  6
CONTINUOUS
 10
4.7284013324
 20
3.9898974182
 40
0.04
100
AcDbArc
 50
90.0
 51
144.0754589747
  0
ARC
  5
21D
100
AcDbEntity
  8
0
100
AcDbCircle
 62
6
  6
CONTINUOUS
 10
4.5063404982
 20
3.2678974182
 40
0.025
100
AcDbArc
 50
183.8723551763
 51
270.0
  0
ARC
  5
21E
100
AcDbEntity
  8
0
100
AcDbCircle
 62
9
  6
CONTINUOUS
 10
5.4243680481
 20
5.389770496
 40
0.4831308717
100
AcDbArc
 50
247.387323323
 51
249.2685435123
  0
ARC
  5
21F
100
AcDbEntity
  8
0
100
AcDbCircle
 62
6
  6
CONTINUOUS
 10
5.4212976951
 20
5.3822772382
 40
0.4750331255
100
AcDbArc
 50
247.3816736482
 51
249.2813122152
  0
ARC
  5
220
100
AcDbEntity
  8
0
100
AcDbCircle
 62
6
  6
CONTINUOUS
 10
5.4120521231
 20
5.3192133168
 40
0.4132632454
100
AcDbArc
 50
245.1643046822
 51
246.5551048077
  0
ARC
  5
221
100
AcDbEntity
  8
0
100
AcDbCircle
 62
6
  6
CONTINUOUS
 10
5.3884398493
 20
5.3238326771
 40
0.4097106117
100
AcDbArc
 50
237.9259505187
 51
242.2243682433
  0
ARC
  5
222
100
AcDbEntity
  8
0
100
AcDbCircle
 62
9
  6
CONTINUOUS
 10
5.3867101126
 20
5.3116057587
 40
0.3962962413
100
AcDbArc
 50
237.2299694896
 51
241.591141062
  0
ARC
  5
223
100
AcDbEntity
  8
0
100
AcDbCircle
 62
6
  6
CONTINUOUS
 10
5.1825917586
 20
4.8082213696
 40
0.2143763305
100
AcDbArc
 50
180.000818507
 51
184.1322228295
  0
ARC
  5
224
100
AcDbEntity
  8
0
100
AcDbCircle
 62
6
  6
CONTINUOUS
 10
5.216892604
 20
5.1657008669
 40
0.1698371757
100
AcDbArc
 50
180.0013943577
 51
182.5781286697
  0
ARC
  5
225
100
AcDbEntity
  8
0
100
AcDbCircle
 62
6
  6
CONTINUOUS
 10
5.2061433345
 20
5.157987267
 40
0.15908788
100
AcDbArc
 50
177.2466364312
 51
178.6327428224
  0
ARC
  5
226
100
AcDbEntity
  8
0
100
AcDbCircle
 62
6
  6
CONTINUOUS
 10
5.2260931802
 20
5.1338342328
 40
0.1520187067
100
AcDbArc
 50
198.696457462
 51
201.1276313551
  0
ARC
  5
227
100
AcDbEntity
  8
0
100
AcDbCircle
 62
6
  6
CONTINUOUS
 10
5.6207903644
 20
3.3433327922
 40
1.142
100
AcDbArc
 50
144.0754589747
 51
183.8723551763
  0
ARC
  5
228
100
AcDbEntity
  8
0
100
AcDbCircle
 62
6
  6
CONTINUOUS
 10
5.9057154281
 20
4.0750688497
 40
0.1
100
AcDbArc
 50
0.0
 51
45.5729959992
  0
ARC
  5
229
100
AcDbEntity
  8
0
100
AcDbCircle
 62
6
  6
CONTINUOUS
 10
6.0457154281
 20
4.2178974182
 40
0.1
100
AcDbArc
 50
180.0
 51
225.5729959992
  0
ARC
  5
22A
100
AcDbEntity
  8
0
100
AcDbCircle
 62
6
  6
CONTINUOUS
 10
6.1880295239
 20
3.9898974182
 40
0.04
100
AcDbArc
 50
35.9245410253
 51
90.0
  0
ARC
  5
22B
100
AcDbEntity
  8
0
100
AcDbCircle
 62
6
  6
CONTINUOUS
 10
6.4100903581
 20
3.2678974182
 40
0.025
100
AcDbArc
 50
270.0
 51
356.1276448237
  0
ARC
  5
22C
100
AcDbEntity
  8
0
100
AcDbCircle
 62
9
  6
CONTINUOUS
 10
5.4944328376
 20
5.3839010337
 40
0.4768013565
100
AcDbArc
 50
291.3229746212
 51
292.6209649971
  0
ARC
  5
22D
100
AcDbEntity
  8
0
100
AcDbCircle
 62
6
  6
CONTINUOUS
 10
5.4952382142
 20
5.3820603693
 40
0.4747925344
100
AcDbArc
 50
291.303633597
 51
292.6166891044
  0
ARC
  5
22E
100
AcDbEntity
  8
0
100
AcDbCircle
 62
6
  6
CONTINUOUS
 10
5.4938499586
 20
5.3567998879
 40
0.4520092592
100
AcDbArc
 50
293.1611131931
 51
294.0338894542
  0
ARC
  5
22F
100
AcDbEntity
  8
0
100
AcDbCircle
 62
6
  6
CONTINUOUS
 10
5.7336360044
 20
4.8082287142
 40
0.214579424
100
AcDbArc
 50
355.8697427528
 51
359.9972211484
  0
ARC
  5
230
100
AcDbEntity
  8
0
100
AcDbCircle
 62
6
  6
CONTINUOUS
 10
5.6656018981
 20
5.1135444549
 40
0.1651135301
100
AcDbArc
 50
357.6501440659
 51
359.9986781683
  0
LINE
  5
231
100
AcDbEntity
  8
0
100
AcDbLine
 62
7
  6
CONTINUOUS
 10
4.9225875889
 20
4.0303199275
 11
4.9107154281
 21
4.0411080971
  0
SPLINE
  5
232
100
AcDbEntity
  8
0
100
AcDbSpline
 62
6
  6
CONTINUOUS
 70
0
 71
3
 72
47
 73
43
 74
41
 42
0.0000001
 43
0.0000001
 44
0.0000000001
 12
-0.4569656597
 22
0.9964054003
 32
0.0
 13
-0.4569653818
 23
-0.9964055277
 33
0.0
 40
0.0
 40
0.0
 40
0.0
 40
0.0
 40
0.0126530954
 40
0.0254607147
 40
0.0384372915
 40
0.0515959231
 40
0.0784959602
 40
0.1062422312
 40
0.1348816965
 40
0.16443559
 40
0.1949004617
 40
0.2104694027
 40
0.2262543432
 40
0.242248902
 40
0.2584453418
 40
0.2914043068
 40
0.3250539572
 40
0.3592994206
 40
0.3940347033
 40
0.4291449949
 40
0.4645089081
 40
0.5000006988
 40
0.5354924821
 40
0.570856372
 40
0.6059666181
 40
0.640701838
 40
0.6749472278
 40
0.7085967928
 40
0.7415556597
 40
0.7577520394
 40
0.7737465466
 40
0.7895314279
 40
0.8051003046
 40
0.8355650534
 40
0.8651188247
 40
0.8937581642
 40
0.9215043156
 40
0.9484042455
 40
0.9615628267
 40
0.9745393604
 40
0.9873469385
 40
1.0
 40
1.0
 40
1.0
 40
1.0
 10
5.9272150568
 20
5.2466986999
 30
0.0
 10
5.9252877134
 20
5.2509012374
 30
0.0
 10
5.9211723788
 20
5.2592509973
 30
0.0
 10
5.914288656
 20
5.2715004409
 30
0.0
 10
5.9066733234
 20
5.2835286414
 30
0.0
 10
5.8954860798
 20
5.2993608203
 30
0.0
 10
5.8797022627
 20
5.3185115683
 30
0.0
 10
5.858255422
 20
5.3401561229
 30
0.0
 10
5.8343093737
 20
5.3605260018
 30
0.0
 10
5.8080239768
 20
5.379514307
 30
0.0
 10
5.7844785833
 20
5.3940010456
 30
0.0
 10
5.7646507955
 20
5.4048292678
 30
0.0
 10
5.7491927698
 20
5.412606881
 30
0.0
 10
5.7332804086
 20
5.4199701376
 30
0.0
 10
5.7113652392
 20
5.4292757579
 30
0.0
 10
5.6829732948
 20
5.4397927032
 30
0.0
 10
5.6477008136
 20
5.4505344149
 30
0.0
 10
5.6112450917
 20
5.4594099431
 30
0.0
 10
5.5738333548
 20
5.4663676518
 30
0.0
 10
5.5356983044
 20
5.4713669149
 30
0.0
 10
5.4970781887
 20
5.4743783176
 30
0.0
 10
5.458214655
 20
5.4753840837
 30
0.0
 10
5.4193511318
 20
5.4743782468
 30
0.0
 10
5.3807310495
 20
5.4713667698
 30
0.0
 10
5.3425960591
 20
5.4663674172
 30
0.0
 10
5.3051844033
 20
5.4594096388
 30
0.0
 10
5.2687287761
 20
5.450534064
 30
0.0
 10
5.2334564052
 20
5.4397923141
 30
0.0
 10
5.2050645582
 20
5.4292753602
 30
0.0
 10
5.1831494889
 20
5.4199697005
 30
0.0
 10
5.1672371917
 20
5.412606455
 30
0.0
 10
5.1517792379
 20
5.4048288407
 30
0.0
 10
5.1319515561
 20
5.3940006126
 30
0.0
 10
5.1084062797
 20
5.3795139005
 30
0.0
 10
5.0821210197
 20
5.3605256372
 30
0.0
 10
5.0581751003
 20
5.3401558149
 30
0.0
 10
5.0367283734
 20
5.3185113287
 30
0.0
 10
5.0209446454
 20
5.2993606397
 30
0.0
 10
5.0097574453
 20
5.2835285198
 30
0.0
 10
5.0021421535
 20
5.2715003517
 30
0.0
 10
4.9952584469
 20
5.2592509487
 30
0.0
 10
4.9911431299
 20
5.2509012106
 30
0.0
 10
4.9892157929
 20
5.2466986838
 30
0.0
 11
5.9272150568
 21
5.2466986999
 31
0.0
 11
5.9210875955
 21
5.2591420911
 31
0.0
 11
5.9142141864
 21
5.2713841342
 31
0.0
 11
5.906609777
 21
5.283405748
 31
0.0
 11
5.8982902752
 21
5.2951891935
 31
0.0
 11
5.8795718314
 21
5.3179738803
 31
0.0
 11
5.8581969459
 21
5.3396119145
 31
0.0
 11
5.8343126898
 21
5.3599871772
 31
0.0
 11
5.8080755176
 21
5.3789914803
 31
0.0
 11
5.7796521834
 21
5.3965233798
 31
0.0
 11
5.7646757533
 21
5.4047071867
 31
0.0
 11
5.7492204347
 21
5.4124878878
 31
0.0
 11
5.7333099634
 21
5.419854562
 31
0.0
 11
5.7169691539
 21
5.4267970476
 31
0.0
 11
5.6830982244
 21
5.4393706371
 31
0.0
 11
5.6478178691
 21
5.4501369632
 31
0.0
 11
5.6113476786
 21
5.4590337153
 31
0.0
 11
5.5739153792
 21
5.4660087523
 31
0.0
 11
5.5357554278
 21
5.4710207905
 31
0.0
 11
5.497107471
 21
5.4740400171
 31
0.0
 11
5.4582146526
 21
5.4750484134
 31
0.0
 11
5.4193218443
 21
5.4740399452
 31
0.0
 11
5.3806739191
 21
5.4710206414
 31
0.0
 11
5.342514029
 21
5.4660085191
 31
0.0
 11
5.3050818126
 21
5.459033413
 31
0.0
 11
5.2686117172
 21
5.4501366115
 31
0.0
 11
5.2333314705
 21
5.4393702499
 31
0.0
 11
5.1994606652
 21
5.4267966347
 31
0.0
 11
5.1831199346
 21
5.4198541324
 31
0.0
 11
5.1672095254
 21
5.4124874582
 31
0.0
 11
5.1517542794
 21
5.4047067576
 31
0.0
 11
5.1367779296
 21
5.3965229507
 31
0.0
 11
5.1083547389
 21
5.3789910751
 31
0.0
 11
5.0821177018
 21
5.3599868138
 31
0.0
 11
5.0582335765
 21
5.3396116102
 31
0.0
 11
5.0368588076
 21
5.317973645
 31
0.0
 11
5.0181404604
 21
5.295189031
 31
0.0
 11
5.0098209951
 21
5.2834056274
 31
0.0
 11
5.00221662
 21
5.2713840478
 31
0.0
 11
4.9953432333
 21
5.2591420438
 31
0.0
 11
4.9892157929
 21
5.2466986838
 31
0.0
  0
SPLINE
  5
233
100
AcDbEntity
  8
0
100
AcDbSpline
 62
6
  6
CONTINUOUS
 70
0
 71
3
 72
23
 73
19
 74
17
 42
0.0000001
 43
0.0000001
 44
0.0000000001
 12
0.3958320175
 22
-0.1498040458
 32
0.0
 13
0.3943059568
 23
0.1537759754
 33
0.0
 40
0.0
 40
0.0
 40
0.0
 40
0.0
 40
0.0594878641
 40
0.120186481
 40
0.181943828
 40
0.2445942988
 40
0.3079627167
 40
0.3718701138
 40
0.4361328832
 40
0.500564754
 40
0.5649782532
 40
0.6291860086
 40
0.6930021299
 40
0.7562438542
 40
0.8187330334
 40
0.8802953667
 40
0.9407688507
 40
1.0
 40
1.0
 40
1.0
 40
1.0
 10
5.253240508
 20
4.937965127
 30
0.0
 10
5.2610895751
 20
4.9349946194
 30
0.0
 10
5.277104937
 20
4.9294013935
 30
0.0
 10
5.3017328779
 20
4.9221352309
 30
0.0
 10
5.3271112842
 20
4.9159389288
 30
0.0
 10
5.3531171808
 20
4.9108455189
 30
0.0
 10
5.3796256302
 20
4.9068821966
 30
0.0
 10
5.4065092625
 20
4.9040698473
 30
0.0
 10
5.433639553
 20
4.9024228719
 30
0.0
 10
5.4608870223
 20
4.901949797
 30
0.0
 10
5.4881217602
 20
4.9026532984
 30
0.0
 10
5.5152138897
 20
4.9045296183
 30
0.0
 10
5.54203409
 20
4.9075688724
 30
0.0
 10
5.5684540808
 20
4.9117554209
 30
0.0
 10
5.5943467251
 20
4.9170673947
 30
0.0
 10
5.6195877562
 20
4.9234762308
 30
0.0
 10
5.6440544841
 20
4.9309476321
 30
0.0
 10
5.6599501749
 20
4.9366751594
 30
0.0
 10
5.6677352399
 20
4.9397112687
 30
0.0
 11
5.253240508
 21
4.937965127
 31
0.0
 11
5.2770056047
 21
4.9296521188
 31
0.0
 11
5.3016419663
 21
4.9223719352
 31
0.0
 11
5.3270315216
 21
4.9161634783
 31
0.0
 11
5.3530513326
 21
4.9110598848
 31
0.0
 11
5.3795751363
 21
4.9070885729
 31
0.0
 11
5.4064754975
 21
4.9042704542
 31
0.0
 11
5.4336233584
 21
4.9026201064
 31
0.0
 11
5.4608887852
 21
4.9021460998
 31
0.0
 11
5.4881414412
 21
4.9028510238
 31
0.0
 11
5.5152510172
 21
4.9047311557
 31
0.0
 11
5.5420877104
 21
4.9077766245
 31
0.0
 11
5.5685227636
 21
4.9119716408
 31
0.0
 11
5.5944289845
 21
4.9172941883
 31
0.0
 11
5.6196803944
 21
4.9237154803
 31
0.0
 11
5.6441554086
 21
4.9312013731
 31
0.0
 11
5.6677352399
 21
4.9397112687
 31
0.0
  0
SPLINE
  5
234
100
AcDbEntity
  8
0
100
AcDbSpline
 62
6
  6
CONTINUOUS
 70
0
 71
3
 72
57
 73
53
 74
51
 42
0.0000001
 43
0.0000001
 44
0.0000000001
 12
0.0906479208
 22
-1.2556504723
 32
0.0
 13
0.0906476526
 23
1.2556504917
 33
0.0
 40
0.0
 40
0.0
 40
0.0
 40
0.0
 40
0.0125201062
 40
0.025100288
 40
0.0377696479
 40
0.0505557183
 40
0.0634855129
 40
0.0765840132
 40
0.0898744193
 40
0.1033773083
 40
0.1171110448
 40
0.1310911068
 40
0.1453303484
 40
0.1598387099
 40
0.1746233124
 40
0.18968851
 40
0.2050358133
 40
0.2206642309
 40
0.2365700751
 40
0.252747477
 40
0.2858757246
 40
0.3199659928
 40
0.3549001776
 40
0.3905368547
 40
0.42671627
 40
0.4632650268
 40
0.5000006931
 40
0.5367363481
 40
0.5732850717
 40
0.6094644317
 40
0.6451010343
 40
0.6800351234
 40
0.7141252832
 40
0.7472534088
 40
0.7634307429
 40
0.7793365241
 40
0.7949648724
 40
0.8103121106
 40
0.8253772381
 40
0.8401617765
 40
0.8546700729
 40
0.8689092527
 40
0.8828892554
 40
0.8966229352
 40
0.9101257739
 40
0.9234161308
 40
0.936514591
 40
0.9494443485
 40
0.9622303878
 40
0.9748997188
 40
0.9874798884
 40
1.0
 40
1.0
 40
1.0
 40
1.0
 10
4.9687727175
 20
4.7927737568
 30
0.0
 10
4.9691510247
 20
4.7875334644
 30
0.0
 10
4.9702950398
 20
4.7770515648
 30
0.0
 10
4.9731565312
 20
4.7614491132
 30
0.0
 10
4.9771525278
 20
4.7459821974
 30
0.0
 10
4.982268957
 20
4.7306948949
 30
0.0
 10
4.9884846777
 20
4.7156261735
 30
0.0
 10
4.9957789097
 20
4.7008133525
 30
0.0
 10
5.0041261374
 20
4.6862900115
 30
0.0
 10
5.0135013937
 20
4.6720883141
 30
0.0
 10
5.0238764045
 20
4.6582371748
 30
0.0
 10
5.0352233871
 20
4.6447646135
 30
0.0
 10
5.0475121372
 20
4.6316960817
 30
0.0
 10
5.0607126131
 20
4.6190566959
 30
0.0
 10
5.0747926844
 20
4.606869483
 30
0.0
 10
5.0897199976
 20
4.595157542
 30
0.0
 10
5.1054601873
 20
4.5839420652
 30
0.0
 10
5.1219782799
 20
4.5732446101
 30
0.0
 10
5.1392376047
 20
4.563084579
 30
0.0
 10
5.1633766239
 20
4.5501803794
 30
0.0
 10
5.1952062738
 20
4.5355425546
 30
0.0
 10
5.2354063084
 20
4.5205547882
 30
0.0
 10
5.2775658625
 20
4.5081220594
 30
0.0
 10
5.3213153524
 20
4.4983449537
 30
0.0
 10
5.366271984
 20
4.4913029222
 30
0.0
 10
5.4120401992
 20
4.4870541567
 30
0.0
 10
5.4582163235
 20
4.4856339807
 30
0.0
 10
5.5043924306
 20
4.4870542659
 30
0.0
 10
5.550160594
 20
4.4913031361
 30
0.0
 10
5.5951171413
 20
4.4983452636
 30
0.0
 10
5.6388665155
 20
4.5081224527
 30
0.0
 10
5.6810259287
 20
4.5205552462
 30
0.0
 10
5.7212257981
 20
4.5355430618
 30
0.0
 10
5.7530553059
 20
4.5501808974
 30
0.0
 10
5.7771941926
 20
4.563085119
 30
0.0
 10
5.794453433
 20
4.5732451283
 30
0.0
 10
5.8109714222
 20
4.5839425905
 30
0.0
 10
5.8267115307
 20
4.5951580333
 30
0.0
 10
5.8416387434
 20
4.6068699669
 30
0.0
 10
5.8557187399
 20
4.6190571384
 30
0.0
 10
5.868919125
 20
4.631696503
 30
0.0
 10
5.8812078106
 20
4.6447649881
 30
0.0
 10
5.8925547152
 20
4.6582375174
 30
0.0
 10
5.9029296749
 20
4.6720886076
 30
0.0
 10
5.9123048695
 20
4.6862902671
 30
0.0
 10
5.9206520628
 20
4.7008135602
 30
0.0
 10
5.9279462505
 20
4.7156263439
 30
0.0
 10
5.9341619505
 20
4.7306950244
 30
0.0
 10
5.9392783533
 20
4.7459822928
 30
0.0
 10
5.9432743442
 20
4.7614491785
 30
0.0
 10
5.9461358232
 20
4.7770516173
 30
0.0
 10
5.9472798351
 20
4.7875335142
 30
0.0
 10
5.9476581414
 20
4.792773809
 30
0.0
 11
4.9687727175
 21
4.7927737568
 31
0.0
 11
4.9704808022
 21
4.7771047914
 31
0.0
 11
4.9733334091
 21
4.7615263923
 31
0.0
 11
4.9773182888
 21
4.7460825166
 31
0.0
 11
4.9824204811
 21
4.7308159282
 31
0.0
 11
4.9886206504
 21
4.7157654572
 31
0.0
 11
4.9958975991
 21
4.7009680191
 31
0.0
 11
5.0042272826
 21
4.6864573118
 31
0.0
 11
5.0135844547
 21
4.6722653963
 31
0.0
 11
5.0239420089
 21
4.6584215125
 31
0.0
 11
5.0352719803
 21
4.644953657
 31
0.0
 11
5.0475449626
 21
4.631887791
 31
0.0
 11
5.0607307638
 21
4.619248999
 31
0.0
 11
5.0747977432
 21
4.6070609234
 31
0.0
 11
5.0897134122
 21
4.5953465576
 31
0.0
 11
5.1054436401
 21
4.5841277797
 31
0.0
 11
5.1219533833
 21
4.5734259073
 31
0.0
 11
5.1392057901
 21
4.5632611966
 31
0.0
 11
5.1571630745
 21
4.5536533368
 31
0.0
 11
5.1950327341
 21
4.5361816762
 31
0.0
 11
5.2352306288
 21
4.5211488388
 31
0.0
 11
5.2774041211
 21
4.5086759144
 31
0.0
 11
5.3211819305
 21
4.4988651209
 31
0.0
 11
5.3661772335
 21
4.4917979295
 31
0.0
 11
5.4119910995
 21
4.48753362
 31
0.0
 11
5.4582163277
 21
4.4861081952
 31
0.0
 11
5.5044415384
 21
4.4875337296
 31
0.0
 11
5.5502553527
 21
4.4917981443
 31
0.0
 11
5.5952505699
 21
4.4988654318
 31
0.0
 11
5.6390282646
 21
4.5086763087
 31
0.0
 11
5.6812016122
 21
4.5211492982
 31
0.0
 11
5.7213993438
 21
4.5361821815
 31
0.0
 11
5.759268824
 21
4.5536538641
 31
0.0
 11
5.7772260085
 21
4.56326173
 31
0.0
 11
5.7944783284
 21
4.5734264319
 31
0.0
 11
5.8109879718
 21
4.5841282978
 31
0.0
 11
5.826718114
 21
4.5953470546
 31
0.0
 11
5.8416336867
 21
4.6070614003
 31
0.0
 11
5.8557005862
 21
4.619249445
 31
0.0
 11
5.8688863026
 21
4.6318882071
 31
0.0
 11
5.8811592139
 21
4.6449540329
 31
0.0
 11
5.8924891139
 21
4.6584218509
 31
0.0
 11
5.9028466102
 21
4.672265689
 31
0.0
 11
5.912203728
 21
4.6864575644
 31
0.0
 11
5.9205333695
 21
4.7009682244
 31
0.0
 11
5.9278102806
 21
4.7157656247
 31
0.0
 11
5.9340104242
 21
4.7308160557
 31
0.0
 11
5.939112595
 21
4.7460826102
 31
0.0
 11
5.9430974631
 21
4.7615264512
 31
0.0
 11
5.9459500606
 21
4.7771048363
 31
0.0
 11
5.9476581414
 21
4.792773809
 31
0.0
  0
SPLINE
  5
235
100
AcDbEntity
  8
0
100
AcDbSpline
 62
7
  6
CONTINUOUS
 70
0
 71
3
 72
15
 73
11
 74
9
 42
0.0000001
 43
0.0000001
 44
0.0000000001
 12
-0.0401886478
 22
-0.0853738336
 32
0.0
 13
0.0
 23
-0.0943600491
 33
0.0
 40
0.0
 40
0.0
 40
0.0
 40
0.0
 40
0.1288452687
 40
0.2562214352
 40
0.3822785763
 40
0.507199474
 40
0.6312085318
 40
0.7545389011
 40
0.8774031551
 40
1.0
 40
1.0
 40
1.0
 40
1.0
 10
4.9892154281
 20
4.9990233243
 30
0.0
 10
4.9874893891
 20
4.9953566528
 30
0.0
 10
4.9842416247
 20
4.9879763984
 30
0.0
 10
4.979978714
 20
4.9767277744
 30
0.0
 10
4.976360832
 20
4.9653843725
 30
0.0
 10
4.9733943285
 20
4.9539627765
 30
0.0
 10
4.9710826069
 20
4.9424782162
 30
0.0
 10
4.9694294701
 20
4.9309456685
 30
0.0
 10
4.9684365804
 20
4.9193825445
 30
0.0
 10
4.9682154281
 20
4.9116601661
 30
0.0
 10
4.9682154281
 20
4.9078040847
 30
0.0
 11
4.9892154281
 21
4.9990233243
 31
0.0
 11
4.9843217651
 21
4.9878938464
 31
0.0
 11
4.9800657427
 21
4.9766533858
 31
0.0
 11
4.9764545115
 21
4.9653200598
 31
0.0
 11
4.9734937487
 21
4.9539104134
 31
0.0
 11
4.9711868547
 21
4.9424385626
 31
0.0
 11
4.9695369403
 21
4.9309186559
 31
0.0
 11
4.9685460245
 21
4.9193676042
 31
0.0
 11
4.9682154281
 21
4.9078040847
 31
0.0
  0
SPLINE
  5
236
100
AcDbEntity
  8
0
100
AcDbSpline
 62
7
  6
CONTINUOUS
 70
0
 71
3
 72
15
 73
11
 74
9
 42
0.0000001
 43
0.0000001
 44
0.0000000001
 12
0.0
 22
-0.0943600491
 32
0.0
 13
0.0401886478
 23
-0.0853738336
 33
0.0
 40
0.0
 40
0.0
 40
0.0
 40
0.0
 40
0.1225968449
 40
0.2454610989
 40
0.3687914682
 40
0.492800526
 40
0.6177214237
 40
0.7437785648
 40
0.8711547313
 40
1.0
 40
1.0
 40
1.0
 40
1.0
 10
4.9682154281
 20
4.9078040847
 30
0.0
 10
4.9682154281
 20
4.9039480033
 30
0.0
 10
4.9684365804
 20
4.8962256249
 30
0.0
 10
4.9694294701
 20
4.8846625009
 30
0.0
 10
4.9710826069
 20
4.8731299532
 30
0.0
 10
4.9733943285
 20
4.8616453929
 30
0.0
 10
4.976360832
 20
4.850223797
 30
0.0
 10
4.979978714
 20
4.838880395
 30
0.0
 10
4.9842416247
 20
4.827631771
 30
0.0
 10
4.9874893891
 20
4.8202515166
 30
0.0
 10
4.9892154281
 20
4.8165848451
 30
0.0
 11
4.9682154281
 21
4.9078040847
 31
0.0
 11
4.9685460245
 21
4.8962405652
 31
0.0
 11
4.9695369403
 21
4.8846895135
 31
0.0
 11
4.9711868547
 21
4.8731696068
 31
0.0
 11
4.9734937487
 21
4.861697756
 31
0.0
 11
4.9764545115
 21
4.8502881096
 31
0.0
 11
4.9800657427
 21
4.8389547836
 31
0.0
 11
4.9843217651
 21
4.827714323
 31
0.0
 11
4.9892154281
 21
4.8165848451
 31
0.0
  0
SPLINE
  5
237
100
AcDbEntity
  8
0
100
AcDbSpline
 62
6
  6
CONTINUOUS
 70
0
 71
3
 72
63
 73
59
 74
57
 42
0.0000001
 43
0.0000001
 44
0.0000000001
 12
0.177481108
 22
0.8960453052
 32
0.0
 13
0.1685470069
 23
-0.8977687003
 33
0.0
 40
0.0
 40
0.0
 40
0.0
 40
0.0
 40
0.0116125124
 40
0.0233532336
 40
0.0352542054
 40
0.0473452916
 40
0.0596534972
 40
0.0722013697
 40
0.0850082779
 40
0.0980909603
 40
0.1114627379
 40
0.1251337803
 40
0.1533934929
 40
0.167996414
 40
0.1829118682
 40
0.198137103
 40
0.2136663935
 40
0.2294923054
 40
0.2456059957
 40
0.2619962985
 40
0.2786504804
 40
0.3126893526
 40
0.3475999342
 40
0.3653398297
 40
0.3832423489
 40
0.4012874893
 40
0.419454843
 40
0.4377231234
 40
0.4560706289
 40
0.4929119444
 40
0.5298058601
 40
0.5482192051
 40
0.5665797401
 40
0.5848658808
 40
0.6030564812
 40
0.6211312503
 40
0.6390703833
 40
0.6744613217
 40
0.7090919609
 40
0.7260847548
 40
0.7428425285
 40
0.7593529112
 40
0.7756050252
 40
0.7915902676
 40
0.8073014893
 40
0.822733175
 40
0.8378826447
 40
0.8673267856
 40
0.8816352951
 40
0.8956740736
 40
0.9094525622
 40
0.9229829522
 40
0.936280552
 40
0.9493629859
 40
0.9622505429
 40
0.9749675793
 40
0.9875411183
 40
1.0
 40
1.0
 40
1.0
 40
1.0
 10
5.0884893052
 20
5.1074410429
 30
0.0
 10
5.0891763057
 20
5.1109094887
 30
0.0
 10
5.0908090084
 20
5.1178374611
 30
0.0
 10
5.0940007524
 20
5.1280948596
 30
0.0
 10
5.0979381161
 20
5.1382464507
 30
0.0
 10
5.1026130173
 20
5.1482706469
 30
0.0
 10
5.1080166628
 20
5.1581462514
 30
0.0
 10
5.1141361432
 20
5.1678531045
 30
0.0
 10
5.1209585888
 20
5.1773706874
 30
0.0
 10
5.1284711214
 20
5.1866776237
 30
0.0
 10
5.1366576475
 20
5.1957549974
 30
0.0
 10
5.1485778768
 20
5.2076569418
 30
0.0
 10
5.1616724364
 20
5.2188792416
 30
0.0
 10
5.1757820616
 20
5.2293935354
 30
0.0
 10
5.187058462
 20
5.237047078
 30
0.0
 10
5.1988886359
 20
5.2443632346
 30
0.0
 10
5.2112481303
 20
5.2513280404
 30
0.0
 10
5.224111644
 20
5.2579263931
 30
0.0
 10
5.2374535491
 20
5.2641428995
 30
0.0
 10
5.2512462899
 20
5.2699651062
 30
0.0
 10
5.2703372083
 20
5.2772382764
 30
0.0
 10
5.295164296
 20
5.2852445517
 30
0.0
 10
5.320778499
 20
5.2916966869
 30
0.0
 10
5.3418352266
 20
5.2959655605
 30
0.0
 10
5.357951196
 20
5.2987201366
 30
0.0
 10
5.3742718579
 20
5.3010036627
 30
0.0
 10
5.3907642584
 20
5.3028095621
 30
0.0
 10
5.4073946811
 20
5.3041344503
 30
0.0
 10
5.4297357392
 20
5.3052566996
 30
0.0
 10
5.4577897596
 20
5.305434784
 30
0.0
 10
5.4858270652
 20
5.3039870603
 30
0.0
 10
5.5081583634
 20
5.301849257
 30
0.0
 10
5.5247954204
 20
5.2997623032
 30
0.0
 10
5.5412963227
 20
5.297194189
 30
0.0
 10
5.5576272547
 20
5.2941481529
 30
0.0
 10
5.5737552459
 20
5.2906306312
 30
0.0
 10
5.5948476191
 20
5.2853452218
 30
0.0
 10
5.6205118409
 20
5.2776196481
 30
0.0
 10
5.6453498121
 20
5.2683366965
 30
0.0
 10
5.6644515754
 20
5.2600427465
 30
0.0
 10
5.6782678751
 20
5.2534536475
 30
0.0
 10
5.691634875
 20
5.2464695608
 30
0.0
 10
5.7045248133
 20
5.2391027537
 30
0.0
 10
5.7169120131
 20
5.2313685713
 30
0.0
 10
5.7287711845
 20
5.2232822222
 30
0.0
 10
5.7400776902
 20
5.2148576587
 30
0.0
 10
5.7542483937
 20
5.2033088693
 30
0.0
 10
5.767384778
 20
5.1910520191
 30
0.0
 10
5.7793323238
 20
5.178125108
 30
0.0
 10
5.7875534484
 20
5.1682717303
 30
0.0
 10
5.7951013973
 20
5.1581880263
 30
0.0
 10
5.8019596696
 20
5.1478927321
 30
0.0
 10
5.8081153973
 20
5.1374072878
 30
0.0
 10
5.8135559053
 20
5.1267524139
 30
0.0
 10
5.8182682594
 20
5.1159483347
 30
0.0
 10
5.8222434155
 20
5.1050161024
 30
0.0
 10
5.825473531
 20
5.0939772116
 30
0.0
 10
5.8271311644
 20
5.0865309056
 30
0.0
 10
5.8278311334
 20
5.0828025076
 30
0.0
 11
5.0884893052
 21
5.1074410429
 31
0.0
 11
5.0909191229
 21
5.1177664851
 31
0.0
 11
5.0941008381
 21
5.1280082485
 31
0.0
 11
5.0980269406
 21
5.1381455036
 31
0.0
 11
5.1026897262
 21
5.1481576228
 31
0.0
 11
5.1080805082
 21
5.1580239208
 31
0.0
 11
5.1141872942
 21
5.1677235178
 31
0.0
 11
5.1209973961
 21
5.1772354932
 31
0.0
 11
5.1284978181
 21
5.1865390496
 31
0.0
 11
5.1366727782
 21
5.1956145035
 31
0.0
 11
5.1455050154
 21
5.204442763
 31
0.0
 11
5.165070061
 21
5.2212822315
 31
0.0
 11
5.1757622244
 21
5.2292577457
 31
0.0
 11
5.1870321576
 21
5.2369139517
 31
0.0
 11
5.1988573634
 21
5.2442340718
 31
0.0
 11
5.211212894
 21
5.2512027899
 31
0.0
 11
5.2240734223
 21
5.2578050162
 31
0.0
 11
5.2374132931
 21
5.264025933
 31
0.0
 11
5.2512048206
 21
5.2698524067
 31
0.0
 11
5.2654195434
 21
5.2752719468
 31
0.0
 11
5.2950030193
 21
5.2848420777
 31
0.0
 11
5.3259209565
 21
5.2926523981
 31
0.0
 11
5.3418019492
 21
5.2958745039
 31
0.0
 11
5.3579209675
 21
5.2986315976
 31
0.0
 11
5.3742451381
 21
5.3009171252
 31
0.0
 11
5.3907413932
 21
5.3027250231
 31
0.0
 11
5.4073758189
 21
5.304051356
 31
0.0
 11
5.4241142717
 21
5.304892767
 31
0.0
 11
5.4577663885
 21
5.3051098869
 31
0.0
 11
5.4914222681
 21
5.3033691762
 31
0.0
 11
5.5081654015
 21
5.3017658173
 31
0.0
 11
5.5248063501
 21
5.299677353
 31
0.0
 11
5.5413109588
 21
5.2971071542
 31
0.0
 11
5.5576452562
 21
5.2940590574
 31
0.0
 11
5.5737761146
 21
5.2905390363
 31
0.0
 11
5.5896706488
 21
5.2865536787
 31
0.0
 11
5.6206205805
 21
5.2772156335
 31
0.0
 11
5.650242663
 21
5.2661157002
 31
0.0
 11
5.664479146
 21
5.2599303291
 31
0.0
 11
5.678294
 21
5.2533373339
 31
0.0
 11
5.6916587563
 21
5.2463492169
 31
0.0
 11
5.7045455821
 21
5.2389790108
 31
0.0
 11
5.7169287367
 21
5.2312414924
 31
0.0
 11
5.7287829085
 21
5.2231517968
 31
0.0
 11
5.7400830584
 21
5.2147252149
 31
0.0
 11
5.7508065179
 21
5.2059783965
 31
0.0
 11
5.770437649
 21
5.1875934803
 31
0.0
 11
5.7793044597
 21
5.1779909501
 31
0.0
 11
5.7875149155
 21
5.168140193
 31
0.0
 11
5.7950517781
 21
5.1580603514
 31
0.0
 11
5.8018989662
 21
5.1477710249
 31
0.0
 11
5.8080434202
 21
5.1372930072
 31
0.0
 11
5.8134725674
 21
5.1266472838
 31
0.0
 11
5.8181743077
 21
5.1158547928
 31
0.0
 11
5.8221397108
 21
5.1049361513
 31
0.0
 11
5.8253611499
 21
5.0939118441
 31
0.0
 11
5.8278311334
 21
5.0828025076
 31
0.0
  0
SPLINE
  5
238
100
AcDbEntity
  8
0
100
AcDbSpline
 62
6
  6
CONTINUOUS
 70
0
 71
3
 72
38
 73
34
 74
32
 42
0.0000001
 43
0.0000001
 44
0.0000000001
 12
0.3775069012
 22
0.6110574728
 32
0.0
 13
0.5277192346
 23
-0.487252609
 33
0.0
 40
0.0
 40
0.0
 40
0.0
 40
0.0
 40
0.0239698002
 40
0.048704837
 40
0.0742592524
 40
0.1006694711
 40
0.114204002
 40
0.1279577594
 40
0.156117965
 40
0.1705249813
 40
0.1851448577
 40
0.2150047756
 40
0.2456635453
 40
0.2770716916
 40
0.3091720964
 40
0.3418979791
 40
0.3751768878
 40
0.4089302753
 40
0.4430754125
 40
0.4775256713
 40
0.5121912438
 40
0.546981072
 40
0.6165485106
 40
0.6855158954
 40
0.7531877204
 40
0.7863465451
 40
0.8189513951
 40
0.8509380494
 40
0.8822492357
 40
0.9128400797
 40
0.942680589
 40
0.9717441411
 40
1.0
 40
1.0
 40
1.0
 40
1.0
 10
5.1101996579
 20
5.0521030479
 30
0.0
 10
5.1132159129
 20
5.0569853564
 30
0.0
 10
5.1198032079
 20
5.0666292093
 30
0.0
 10
5.1310596035
 20
5.0804160089
 30
0.0
 10
5.1437850047
 20
5.0936809161
 30
0.0
 10
5.1554701412
 20
5.1041614453
 30
0.0
 10
5.1654786437
 20
5.1122345493
 30
0.0
 10
5.1760911062
 20
5.1202140754
 30
0.0
 10
5.1872690548
 20
5.1277758925
 30
0.0
 10
5.198954121
 20
5.1349150153
 30
0.0
 10
5.2112032686
 20
5.1418998644
 30
0.0
 10
5.2272201619
 20
5.15011439
 30
0.0
 10
5.2473429449
 20
5.1590554391
 30
0.0
 10
5.2684117785
 20
5.1671096872
 30
0.0
 10
5.2903328625
 20
5.1742350881
 30
0.0
 10
5.3130070202
 20
5.1804006657
 30
0.0
 10
5.3363332639
 20
5.1855731653
 30
0.0
 10
5.3602064968
 20
5.1897293057
 30
0.0
 10
5.3845201001
 20
5.1928461175
 30
0.0
 10
5.4091646352
 20
5.1949079627
 30
0.0
 10
5.4340301379
 20
5.1959029208
 30
0.0
 10
5.467323299
 20
5.1957963578
 30
0.0
 10
5.5087824492
 20
5.192985753
 30
0.0
 10
5.5576236803
 20
5.1853756864
 30
0.0
 10
5.5971318487
 20
5.1755272998
 30
0.0
 10
5.6275093441
 20
5.1656020709
 30
0.0
 10
5.6493814596
 20
5.1572469453
 30
0.0
 10
5.670395048
 20
5.1479672043
 30
0.0
 10
5.6904567268
 20
5.1378019407
 30
0.0
 10
5.7094768173
 20
5.1267917888
 30
0.0
 10
5.7273717395
 20
5.1149828048
 30
0.0
 10
5.7440555346
 20
5.1024260633
 30
0.0
 10
5.7544689984
 20
5.0934688181
 30
0.0
 10
5.7594393852
 20
5.0888795711
 30
0.0
 11
5.1101996579
 21
5.0521030479
 31
0.0
 11
5.1198923852
 21
5.0663320188
 31
0.0
 11
5.1311097351
 21
5.0801092356
 31
0.0
 11
5.1437999661
 21
5.0933703449
 31
0.0
 11
5.1579065584
 21
5.1060528527
 31
0.0
 11
5.1654714146
 21
5.1121584097
 31
0.0
 11
5.1733657436
 21
5.1180973269
 31
0.0
 11
5.1901078332
 21
5.1294468564
 31
0.0
 11
5.1989369508
 21
5.1348439424
 31
0.0
 11
5.2080579232
 21
5.1400475288
 31
0.0
 11
5.2271343715
 21
5.1498493422
 31
0.0
 11
5.2472521788
 21
5.1588048885
 31
0.0
 11
5.2683198034
 21
5.166872018
 31
0.0
 11
5.2902433572
 21
5.1740108198
 31
0.0
 11
5.312923128
 21
5.180187487
 31
0.0
 11
5.3362574466
 21
5.1853705813
 31
0.0
 11
5.360140946
 21
5.189534935
 31
0.0
 11
5.3844664197
 21
5.1926586072
 31
0.0
 11
5.4091243375
 21
5.1947252221
 31
0.0
 11
5.434003367
 21
5.1957227942
 31
0.0
 11
5.4589915118
 21
5.1956438346
 31
0.0
 11
5.5088441084
 21
5.1922532578
 31
0.0
 11
5.5577850905
 21
5.1845935241
 31
0.0
 11
5.6049342194
 21
5.1727815127
 31
0.0
 11
5.6275702246
 21
5.1653754184
 31
0.0
 11
5.6494433961
 21
5.157008324
 31
0.0
 11
5.6704551444
 21
5.1477158412
 31
0.0
 11
5.6905099993
 21
5.137537981
 31
0.0
 11
5.7095183174
 21
5.1265168443
 31
0.0
 11
5.727398015
 21
5.114697155
 31
0.0
 11
5.7440665823
 21
5.1021298663
 31
0.0
 11
5.7594393852
 21
5.0888795711
 31
0.0
  0
SPLINE
  5
239
100
AcDbEntity
  8
0
100
AcDbSpline
 62
6
  6
CONTINUOUS
 70
0
 71
3
 72
63
 73
59
 74
57
 42
0.0000001
 43
0.0000001
 44
0.0000000001
 12
0.315792279
 22
0.7945591243
 32
0.0
 13
0.2989684307
 23
-0.8010410994
 33
0.0
 40
0.0
 40
0.0
 40
0.0
 40
0.0
 40
0.0117736958
 40
0.0237322523
 40
0.035896083
 40
0.0482825541
 40
0.0609069746
 40
0.0737825638
 40
0.086919682
 40
0.1003264681
 40
0.1279653726
 40
0.1422098401
 40
0.156735833
 40
0.1715418504
 40
0.1866240287
 40
0.2175887331
 40
0.2334616678
 40
0.2495809367
 40
0.2825107058
 40
0.2993012064
 40
0.3162892963
 40
0.3334605651
 40
0.3508001143
 40
0.3682920635
 40
0.3859199672
 40
0.4036671238
 40
0.4215164046
 40
0.4394500573
 40
0.457450134
 40
0.4935741243
 40
0.5297458512
 40
0.5478056579
 40
0.5658229643
 40
0.6016553783
 40
0.6194391199
 40
0.6371112181
 40
0.6546554629
 40
0.6720561695
 40
0.6892986135
 40
0.7063686553
 40
0.7232527039
 40
0.7399382553
 40
0.7564141395
 40
0.7726699337
 40
0.8044800918
 40
0.8200254093
 40
0.8353218746
 40
0.8503657696
 40
0.8651555754
 40
0.8939672197
 40
0.9080008895
 40
0.9217913908
 40
0.9353463051
 40
0.9486751766
 40
0.9617900769
 40
0.9747049396
 40
0.9874354664
 40
1.0
 40
1.0
 40
1.0
 40
1.0
 10
5.0964915475
 20
5.0796985833
 30
0.0
 10
5.0977308949
 20
5.0828168824
 30
0.0
 10
5.1004245847
 20
5.0890265454
 30
0.0
 10
5.1050531026
 20
5.0981564861
 30
0.0
 10
5.1102904407
 20
5.1071541009
 30
0.0
 10
5.1161263949
 20
5.1160032318
 30
0.0
 10
5.1225512487
 20
5.1246879191
 30
0.0
 10
5.1295546918
 20
5.1331917132
 30
0.0
 10
5.1371236643
 20
5.1415004415
 30
0.0
 10
5.1480610996
 20
5.1524083497
 30
0.0
 10
5.1599868607
 20
5.1627462318
 30
0.0
 10
5.172777505
 20
5.1724912631
 30
0.0
 10
5.1829590881
 20
5.1796095389
 30
0.0
 10
5.1936144966
 20
5.186448793
 30
0.0
 10
5.2085584443
 20
5.1952569897
 30
0.0
 10
5.224250462
 20
5.2033699518
 30
0.0
 10
5.2405921535
 20
5.2107854761
 30
0.0
 10
5.2576896507
 20
5.2178669415
 30
0.0
 10
5.2753702
 20
5.2241966993
 30
0.0
 10
5.2935468536
 20
5.2297779619
 30
0.0
 10
5.3075521246
 20
5.2336221303
 30
0.0
 10
5.3218162185
 20
5.2370894451
 30
0.0
 10
5.3363151335
 20
5.2401724673
 30
0.0
 10
5.3510236683
 20
5.2428660832
 30
0.0
 10
5.3659164969
 20
5.2451654068
 30
0.0
 10
5.3809681739
 20
5.2470652398
 30
0.0
 10
5.3961528357
 20
5.248561321
 30
0.0
 10
5.4114443708
 20
5.2496514103
 30
0.0
 10
5.4319630685
 20
5.2505611318
 30
0.0
 10
5.4577106028
 20
5.2506666962
 30
0.0
 10
5.4834442664
 20
5.2494028036
 30
0.0
 10
5.5039557407
 20
5.2475665185
 30
0.0
 10
5.5243140164
 20
5.2451905796
 30
0.0
 10
5.5444917891
 20
5.2420024288
 30
0.0
 10
5.5644129718
 20
5.2379988506
 30
0.0
 10
5.579135093
 20
5.2346087969
 30
0.0
 10
5.5936491544
 20
5.2308291104
 30
0.0
 10
5.6079301257
 20
5.2266646621
 30
0.0
 10
5.6219536417
 20
5.2221228055
 30
0.0
 10
5.6356957326
 20
5.21721108
 30
0.0
 10
5.6491324984
 20
5.2119366716
 30
0.0
 10
5.6622405072
 20
5.2063076151
 30
0.0
 10
5.6749979865
 20
5.2003337498
 30
0.0
 10
5.6913907104
 20
5.1919831887
 30
0.0
 10
5.7071203368
 20
5.1829325557
 30
0.0
 10
5.7220879529
 20
5.173189467
 30
0.0
 10
5.7327748166
 20
5.1656462029
 30
0.0
 10
5.7429890028
 20
5.1578229556
 30
0.0
 10
5.7558410394
 20
5.1471321313
 30
0.0
 10
5.767812512
 20
5.1358486456
 30
0.0
 10
5.7787837501
 20
5.1240027195
 30
0.0
 10
5.7863900357
 20
5.1149842344
 30
0.0
 10
5.793431579
 20
5.1057697836
 30
0.0
 10
5.7998951913
 20
5.0963735261
 30
0.0
 10
5.8057704429
 20
5.0868118408
 30
0.0
 10
5.8110476584
 20
5.0771007722
 30
0.0
 10
5.8157166957
 20
5.0672565461
 30
0.0
 10
5.8184347576
 20
5.0605743142
 30
0.0
 10
5.8196868905
 20
5.0572194116
 30
0.0
 11
5.0964915475
 21
5.0796985833
 31
0.0
 11
5.1004937804
 21
5.08893547
 31
0.0
 11
5.1051126655
 21
5.0980574803
 31
0.0
 11
5.1103400638
 21
5.1070485547
 31
0.0
 11
5.1161662987
 21
5.1158925317
 31
0.0
 11
5.1225816574
 21
5.1245732477
 31
0.0
 11
5.12957579
 21
5.1330747763
 31
0.0
 11
5.1371359335
 21
5.1413820919
 31
0.0
 11
5.1452487525
 21
5.1494803823
 31
0.0
 11
5.1630775519
 21
5.1649913084
 31
0.0
 11
5.1727623451
 21
5.1723763044
 31
0.0
 11
5.1829387032
 21
5.1794964402
 31
0.0
 11
5.1935897929
 21
5.1863384787
 31
0.0
 11
5.2046968722
 21
5.192890275
 31
0.0
 11
5.2282008782
 21
5.2050763692
 31
0.0
 11
5.2405580215
 21
5.2106878608
 31
0.0
 11
5.2532899981
 21
5.2159647758
 31
0.0
 11
5.2797901551
 21
5.2254762962
 31
0.0
 11
5.2935130788
 21
5.2296928535
 31
0.0
 11
5.3075194727
 21
5.2335396899
 31
0.0
 11
5.3217852596
 21
5.2370094044
 31
0.0
 11
5.3362861855
 21
5.2400949034
 31
0.0
 11
5.3509970865
 21
5.2427906767
 31
0.0
 11
5.3658925062
 21
5.2450917226
 31
0.0
 11
5.3809469829
 21
5.2469930534
 31
0.0
 11
5.3961347177
 21
5.2484905821
 31
0.0
 11
5.4114293747
 21
5.2495816538
 31
0.0
 11
5.4268045703
 21
5.2502637414
 31
0.0
 11
5.4576908176
 21
5.2503930539
 31
0.0
 11
5.48858081
 21
5.2488737384
 31
0.0
 11
5.503960657
 21
5.2474965082
 31
0.0
 11
5.5192617758
 21
5.2457100833
 31
0.0
 11
5.5495222244
 21
5.2409200654
 31
0.0
 11
5.5644292731
 21
5.2379229811
 31
0.0
 11
5.5791534733
 21
5.2345308207
 31
0.0
 11
5.5936694109
 21
5.2307486505
 31
0.0
 11
5.6079518528
 21
5.2265818514
 31
0.0
 11
5.6219764766
 21
5.2220373873
 31
0.0
 11
5.635719246
 21
5.2171227188
 31
0.0
 11
5.6491561343
 21
5.2118453178
 31
0.0
 11
5.6622638281
 21
5.2062134469
 31
0.0
 11
5.6750202006
 21
5.2002366849
 31
0.0
 11
5.6874032375
 21
5.1939247356
 31
0.0
 11
5.7109632802
 21
5.1803356697
 31
0.0
 11
5.7221003986
 21
5.1730811801
 31
0.0
 11
5.7327829373
 21
5.1655356148
 31
0.0
 11
5.7429920517
 21
5.1577110323
 31
0.0
 11
5.7527107982
 21
5.149620642
 31
0.0
 11
5.7706109016
 21
5.1326961634
 31
0.0
 11
5.7787608103
 21
5.1238896537
 31
0.0
 11
5.7863589313
 21
5.114873117
 31
0.0
 11
5.793391947
 21
5.1056613591
 31
0.0
 11
5.7998469923
 21
5.0962693581
 31
0.0
 11
5.8057135774
 21
5.0867129964
 31
0.0
 11
5.8109819901
 21
5.0770084525
 31
0.0
 11
5.8156425387
 21
5.0671719035
 31
0.0
 11
5.8196868905
 21
5.0572194116
 31
0.0
  0
SPLINE
  5
23A
100
AcDbEntity
  8
0
100
AcDbSpline
 62
6
  6
CONTINUOUS
 70
0
 71
3
 72
14
 73
10
 74
8
 42
0.0000001
 43
0.0000001
 44
0.0000000001
 12
0.0869021882
 22
-0.1328175288
 32
0.0
 13
0.1440400573
 23
-0.0666704445
 33
0.0
 40
0.0
 40
0.0
 40
0.0
 40
0.0
 40
0.2269282291
 40
0.346055469
 40
0.4690583078
 40
0.5960093943
 40
0.7268884388
 40
0.8616012142
 40
1.0
 40
1.0
 40
1.0
 40
1.0
 10
5.1163691835
 20
5.0424991957
 30
0.0
 10
5.1229427034
 20
5.0324525135
 30
0.0
 10
5.1343904267
 20
5.0180218557
 30
0.0
 10
5.1519569742
 20
5.0004754878
 30
0.0
 10
5.1667581005
 20
4.987709654
 30
0.0
 10
5.1828946365
 20
4.975620191
 30
0.0
 10
5.2002942146
 20
4.9642556525
 30
0.0
 10
5.2188762446
 20
4.9536696941
 30
0.0
 10
5.2318293188
 20
4.9472460192
 30
0.0
 10
5.2384743085
 20
4.9441703163
 30
0.0
 11
5.1163691835
 21
5.0424991957
 31
0.0
 11
5.1386068568
 21
5.0141653154
 31
0.0
 11
5.1519672626
 21
5.0007857164
 31
0.0
 11
5.1667371112
 21
4.9880183248
 31
0.0
 11
5.182850319
 21
4.9759195143
 31
0.0
 11
5.2002320481
 21
4.9645438492
 31
0.0
 11
5.218801827
 21
4.9539445681
 31
0.0
 11
5.2384743085
 21
4.9441703163
 31
0.0
  0
SPLINE
  5
23B
100
AcDbEntity
  8
0
100
AcDbSpline
 62
6
  6
CONTINUOUS
 70
0
 71
3
 72
63
 73
59
 74
57
 42
0.0000001
 43
0.0000001
 44
0.0000000001
 12
0.747627852
 22
0.3334250071
 32
0.0
 13
-0.8185831282
 23
0.0064267167
 33
0.0
 40
0.0
 40
0.0
 40
0.0
 40
0.0
 40
0.0174551073
 40
0.0346714382
 40
0.0516395999
 40
0.0683515219
 40
0.0848011875
 40
0.1009837359
 40
0.132528779
 40
0.1478966168
 40
0.1629946485
 40
0.1923913397
 40
0.2067124263
 40
0.2207921563
 40
0.2346430426
 40
0.2482799808
 40
0.261719557
 40
0.2749803
 40
0.2880831427
 40
0.3010505836
 40
0.3139064485
 40
0.3266760836
 40
0.3393859707
 40
0.3520630916
 40
0.3647348302
 40
0.3774287015
 40
0.390171738
 40
0.4029903135
 40
0.4159099263
 40
0.4289545832
 40
0.4421467516
 40
0.4555073999
 40
0.4690554736
 40
0.482807682
 40
0.4967788972
 40
0.5109821069
 40
0.5254277412
 40
0.5401241937
 40
0.5550781926
 40
0.5702944038
 40
0.5857751952
 40
0.601521404
 40
0.633800275
 40
0.6671107929
 40
0.6841411414
 40
0.7014094224
 40
0.7366177258
 40
0.7545407775
 40
0.7726591127
 40
0.7909599252
 40
0.8094297778
 40
0.8280539769
 40
0.8468171114
 40
0.8846939944
 40
0.90378042
 40
0.922944165
 40
0.9614336185
 40
1.0
 40
1.0
 40
1.0
 40
1.0
 10
5.6779428966
 20
4.9439776979
 30
0.0
 10
5.6822928714
 20
4.9459176877
 30
0.0
 10
5.6908725029
 20
4.9499093647
 30
0.0
 10
5.7034477129
 20
4.9562723147
 30
0.0
 10
5.7156223337
 20
4.9629607502
 30
0.0
 10
5.7273755803
 20
4.9699642731
 30
0.0
 10
5.7386891296
 20
4.9772707789
 30
0.0
 10
5.7530388208
 20
4.9873135088
 30
0.0
 10
5.7665730206
 20
4.9979902487
 30
0.0
 10
5.7791828567
 20
5.0092799986
 30
0.0
 10
5.7908793493
 20
5.0206876188
 30
0.0
 10
5.8016244859
 20
5.0326449682
 30
0.0
 10
5.8113017098
 20
5.045104414
 30
0.0
 10
5.8179209671
 20
5.0545502496
 30
0.0
 10
5.8239527122
 20
5.0641618824
 30
0.0
 10
5.829388525
 20
5.0739235517
 30
0.0
 10
5.8342195472
 20
5.0838196196
 30
0.0
 10
5.8384368893
 20
5.0938346767
 30
0.0
 10
5.8420348845
 20
5.1039520987
 30
0.0
 10
5.8450084579
 20
5.1141554906
 30
0.0
 10
5.8473521387
 20
5.1244286541
 30
0.0
 10
5.8490618887
 20
5.1347550099
 30
0.0
 10
5.8501365876
 20
5.1451176592
 30
0.0
 10
5.8505748227
 20
5.1554999972
 30
0.0
 10
5.8503749017
 20
5.1658852933
 30
0.0
 10
5.8495384833
 20
5.176256757
 30
0.0
 10
5.8480682139
 20
5.1865978777
 30
0.0
 10
5.8459663475
 20
5.1968921074
 30
0.0
 10
5.843236035
 20
5.2071228028
 30
0.0
 10
5.8398836802
 20
5.2172740701
 30
0.0
 10
5.8359153888
 20
5.2273300466
 30
0.0
 10
5.8313370288
 20
5.2372745364
 30
0.0
 10
5.8261569346
 20
5.2470921033
 30
0.0
 10
5.8203848532
 20
5.2567679476
 30
0.0
 10
5.8140302006
 20
5.2662870018
 30
0.0
 10
5.8071027606
 20
5.2756339794
 30
0.0
 10
5.7996150869
 20
5.2847952049
 30
0.0
 10
5.7915797916
 20
5.2937568993
 30
0.0
 10
5.7830093866
 20
5.3025048888
 30
0.0
 10
5.7739178131
 20
5.3110256949
 30
0.0
 10
5.7643205073
 20
5.3193072843
 30
0.0
 10
5.7507595602
 20
5.3301017973
 30
0.0
 10
5.7326055536
 20
5.3429075016
 30
0.0
 10
5.7132868313
 20
5.3545642287
 30
0.0
 10
5.6970314228
 20
5.3632942472
 30
0.0
 10
5.6800362971
 20
5.3717198981
 30
0.0
 10
5.6624240245
 20
5.3794263743
 30
0.0
 10
5.6442791578
 20
5.3864140245
 30
0.0
 10
5.6302889722
 20
5.3913354939
 30
0.0
 10
5.6160214203
 20
5.3958986852
 30
0.0
 10
5.6014983772
 20
5.4000963435
 30
0.0
 10
5.5867428643
 20
5.4039233509
 30
0.0
 10
5.5667290501
 20
5.4085392755
 30
0.0
 10
5.5464126017
 20
5.4123725146
 30
0.0
 10
5.5258638615
 20
5.4154268513
 30
0.0
 10
5.5050769679
 20
5.4179712968
 30
0.0
 10
5.478901145
 20
5.4201586608
 30
0.0
 10
5.4578762173
 20
5.4208533945
 30
0.0
 10
5.4473529543
 20
5.4209360129
 30
0.0
 11
5.6779428966
 21
4.9439776979
 31
0.0
 11
5.6908969961
 21
4.9500079446
 31
0.0
 11
5.7034707343
 21
4.9563739435
 31
0.0
 11
5.7156430437
 21
4.9630653361
 31
0.0
 11
5.7273934585
 21
4.9700713586
 31
0.0
 11
5.7387032424
 21
4.9773800838
 31
0.0
 11
5.7495539681
 21
4.9849793764
 31
0.0
 11
5.7698064768
 21
5.0010001464
 31
0.0
 11
5.7791760193
 21
5.0093950333
 31
0.0
 11
5.7880204949
 21
5.0180280744
 31
0.0
 11
5.804077063
 21
5.0359523837
 31
0.0
 11
5.8112643411
 21
5.0452141454
 31
0.0
 11
5.817874803
 21
5.0546558352
 31
0.0
 11
5.8238979739
 21
5.0642621814
 31
0.0
 11
5.8293251067
 21
5.0740174751
 31
0.0
 11
5.834147538
 21
5.0839059859
 31
0.0
 11
5.8383570693
 21
5.0939119131
 31
0.0
 11
5.8419478987
 21
5.1040190933
 31
0.0
 11
5.8449149951
 21
5.1142112465
 31
0.0
 11
5.8472533539
 21
5.1244720914
 31
0.0
 11
5.8489593771
 21
5.134785267
 31
0.0
 11
5.8500315593
 21
5.1451342948
 31
0.0
 11
5.8504685652
 21
5.1555026866
 31
0.0
 11
5.8502693451
 21
5.1658739645
 31
0.0
 11
5.8494351376
 21
5.1762317346
 31
0.0
 11
5.8479682819
 21
5.1865596434
 31
0.0
 11
5.8458711283
 21
5.1968413379
 31
0.0
 11
5.8431470294
 21
5.2070605963
 31
0.0
 11
5.8398016098
 21
5.2172014929
 31
0.0
 11
5.8358408072
 21
5.227248143
 31
0.0
 11
5.8312706867
 21
5.2371846915
 31
0.0
 11
5.826099174
 21
5.2469957117
 31
0.0
 11
5.820335602
 21
5.2566661012
 31
0.0
 11
5.8139893384
 21
5.2661807658
 31
0.0
 11
5.8070703031
 21
5.2755247996
 31
0.0
 11
5.7995905484
 21
5.2846840239
 31
0.0
 11
5.7915626412
 21
5.2936444356
 31
0.0
 11
5.7829991817
 21
5.3023920474
 31
0.0
 11
5.7739139953
 21
5.3109134471
 31
0.0
 11
5.764322458
 21
5.3191959509
 31
0.0
 11
5.7542400457
 21
5.327226922
 31
0.0
 11
5.7326669811
 21
5.3424852849
 31
0.0
 11
5.7093345016
 21
5.3565974729
 31
0.0
 11
5.6970541479
 21
5.3631966828
 31
0.0
 11
5.6843906127
 21
5.3694784194
 31
0.0
 11
5.6579949117
 21
5.3810526917
 31
0.0
 11
5.6443041103
 21
5.3863279513
 31
0.0
 11
5.6303135189
 21
5.3912519999
 31
0.0
 11
5.6160449709
 21
5.3958176141
 31
0.0
 11
5.6015205243
 21
5.4000178545
 31
0.0
 11
5.5867633391
 21
5.4038471773
 31
0.0
 11
5.5717969132
 21
5.4073004668
 31
0.0
 11
5.5413300664
 21
5.4130592805
 31
0.0
 11
5.5258756966
 21
5.4153574179
 31
0.0
 11
5.5103043977
 21
5.4172641174
 31
0.0
 11
5.478906489
 21
5.4198931943
 31
0.0
 11
5.4473529543
 21
5.4209360129
 31
0.0
  0
SPLINE
  5
23C
100
AcDbEntity
  8
0
100
AcDbSpline
 62
7
  6
CONTINUOUS
 70
0
 71
3
 72
15
 73
11
 74
9
 42
0.0000001
 43
0.0000001
 44
0.0000000001
 12
0.0401886478
 22
0.0853738336
 32
0.0
 13
0.0
 23
0.0943600491
 33
0.0
 40
0.0
 40
0.0
 40
0.0
 40
0.0
 40
0.1288452687
 40
0.2562214352
 40
0.3822785763
 40
0.507199474
 40
0.6312085318
 40
0.7545389011
 40
0.8774031551
 40
1.0
 40
1.0
 40
1.0
 40
1.0
 10
5.9272154281
 20
4.8165848451
 30
0.0
 10
5.9289414672
 20
4.8202515166
 30
0.0
 10
5.9321892316
 20
4.827631771
 30
0.0
 10
5.9364521423
 20
4.838880395
 30
0.0
 10
5.9400700243
 20
4.850223797
 30
0.0
 10
5.9430365278
 20
4.8616453929
 30
0.0
 10
5.9453482494
 20
4.8731299532
 30
0.0
 10
5.9470013862
 20
4.8846625009
 30
0.0
 10
5.9479942759
 20
4.8962256249
 30
0.0
 10
5.9482154281
 20
4.9039480033
 30
0.0
 10
5.9482154281
 20
4.9078040847
 30
0.0
 11
5.9272154281
 21
4.8165848451
 31
0.0
 11
5.9321090912
 21
4.827714323
 31
0.0
 11
5.9363651136
 21
4.8389547836
 31
0.0
 11
5.9399763448
 21
4.8502881096
 31
0.0
 11
5.9429371076
 21
4.861697756
 31
0.0
 11
5.9452440016
 21
4.8731696068
 31
0.0
 11
5.946893916
 21
4.8846895135
 31
0.0
 11
5.9478848318
 21
4.8962405652
 31
0.0
 11
5.9482154281
 21
4.9078040847
 31
0.0
  0
SPLINE
  5
23D
100
AcDbEntity
  8
0
100
AcDbSpline
 62
6
  6
CONTINUOUS
 70
0
 71
3
 72
11
 73
7
 74
5
 42
0.0000001
 43
0.0000001
 44
0.0000000001
 12
0.0138771801
 22
0.043521234
 32
0.0
 13
0.0018725589
 23
0.0456417294
 33
0.0
 40
0.0
 40
0.0
 40
0.0
 40
0.0
 40
0.2528120747
 40
0.5033762189
 40
0.7522575776
 40
1.0
 40
1.0
 40
1.0
 40
1.0
 10
5.8225743287
 20
5.0619311194
 30
0.0
 10
5.8237437683
 20
5.0655986839
 30
0.0
 10
5.8258379329
 20
5.0729785104
 30
0.0
 10
5.8282300447
 20
5.0841887879
 30
0.0
 10
5.829853164
 20
5.0954580293
 30
0.0
 10
5.8304219462
 20
5.1030054668
 30
0.0
 10
5.8305765836
 20
5.1067745977
 30
0.0
 11
5.8225743287
 21
5.0619311194
 31
0.0
 11
5.8257228122
 21
5.0730421327
 31
0.0
 11
5.8281087355
 21
5.084236495
 31
0.0
 11
5.8297275437
 21
5.0954895867
 31
0.0
 11
5.8305765836
 21
5.1067745977
 31
0.0
  0
SPLINE
  5
23E
100
AcDbEntity
  8
0
100
AcDbSpline
 62
6
  6
CONTINUOUS
 70
0
 71
3
 72
21
 73
17
 74
15
 42
0.0000001
 43
0.0000001
 44
0.0000000001
 12
0.2621696203
 22
0.1911398726
 32
0.0
 13
0.3244393203
 23
-0.0025471813
 33
0.0
 40
0.0
 40
0.0
 40
0.0
 40
0.0
 40
0.0549965363
 40
0.1112748355
 40
0.1687855566
 40
0.2274871393
 40
0.2873396104
 40
0.3482894643
 40
0.4731762065
 40
0.6015482314
 40
0.6668278182
 40
0.7326963599
 40
0.7990550511
 40
0.8658064207
 40
0.9328360493
 40
1.0
 40
1.0
 40
1.0
 40
1.0
 10
5.1403333885
 20
5.3333196155
 30
0.0
 10
5.1451395289
 20
5.3368236258
 30
0.0
 10
5.1550493496
 20
5.3436621223
 30
0.0
 10
5.1705678369
 20
5.3532865571
 30
0.0
 10
5.1868713665
 20
5.3623666271
 30
0.0
 10
5.2039130226
 20
5.3708747946
 30
0.0
 10
5.2216475044
 20
5.37878686
 30
0.0
 10
5.2463515375
 20
5.388589276
 30
0.0
 10
5.2786810871
 20
5.3991786222
 30
0.0
 10
5.3121754022
 20
5.4073783522
 30
0.0
 10
5.3397656512
 20
5.4125568719
 30
0.0
 10
5.3608923214
 20
5.4157398952
 30
0.0
 10
5.3822763561
 20
5.4181894229
 30
0.0
 10
5.4038584682
 20
5.4198968977
 30
0.0
 10
5.4255736278
 20
5.4208552319
 30
0.0
 10
5.4400894121
 20
5.4209930391
 30
0.0
 10
5.4473529543
 20
5.4209360129
 30
0.0
 11
5.1403333885
 21
5.3333196155
 31
0.0
 11
5.1550136147
 21
5.3434628211
 31
0.0
 11
5.1705262361
 21
5.3530943478
 31
0.0
 11
5.1868235166
 21
5.3621810776
 31
0.0
 11
5.2038599094
 21
5.3706957457
 31
0.0
 11
5.2215910642
 21
5.3786145423
 31
0.0
 11
5.2399695007
 21
5.385914486
 31
0.0
 11
5.2784615384
 21
5.3985709593
 31
0.0
 11
5.3189085022
 21
5.4085099539
 31
0.0
 11
5.3397242962
 21
5.4124204046
 31
0.0
 11
5.3608563709
 21
5.4156071289
 31
0.0
 11
5.3822462707
 21
5.4180595709
 31
0.0
 11
5.4038361217
 21
5.4197692163
 31
0.0
 11
5.4255626367
 21
5.4207292974
 31
0.0
 11
5.4473529543
 21
5.4209360129
 31
0.0
  0
SPLINE
  5
23F
100
AcDbEntity
  8
0
100
AcDbSpline
 62
6
  6
CONTINUOUS
 70
0
 71
3
 72
21
 73
17
 74
15
 42
0.0000001
 43
0.0000001
 44
0.0000000001
 12
-0.1933339639
 22
0.1214134769
 32
0.0
 13
-0.0102670752
 23
0.2280654317
 33
0.0
 40
0.0
 40
0.0
 40
0.0
 40
0.0
 40
0.1431041838
 40
0.2802694717
 40
0.3466694526
 40
0.4116333216
 40
0.4752023276
 40
0.5374384289
 40
0.5984191283
 40
0.6582380966
 40
0.7170054234
 40
0.7748454989
 40
0.8319031532
 40
0.8883389705
 40
0.9443192826
 40
1.0
 40
1.0
 40
1.0
 40
1.0
 10
5.1708774324
 20
4.9766592621
 30
0.0
 10
5.1616551327
 20
4.9824508543
 30
0.0
 10
5.1440621898
 20
4.994565278
 30
0.0
 10
5.123795116
 20
5.011524042
 30
0.0
 10
5.1091792815
 20
5.0258172703
 30
0.0
 10
5.0991369782
 20
5.0367456232
 30
0.0
 10
5.0899218431
 20
5.0479732959
 30
0.0
 10
5.0815541306
 20
5.0594738566
 30
0.0
 10
5.0740537042
 20
5.0712213834
 30
0.0
 10
5.0674390697
 20
5.083189379
 30
0.0
 10
5.0617243169
 20
5.0953492516
 30
0.0
 10
5.0569244742
 20
5.1076737851
 30
0.0
 10
5.0530507196
 20
5.1201346953
 30
0.0
 10
5.0501120329
 20
5.1327039635
 30
0.0
 10
5.0481176521
 20
5.145350658
 30
0.0
 10
5.0474178946
 20
5.1538283614
 30
0.0
 10
5.0472273352
 20
5.1580613104
 30
0.0
 11
5.1708774324
 21
4.9766592621
 31
0.0
 11
5.1440042682
 21
4.9952380999
 31
0.0
 11
5.1200307645
 21
5.0153840485
 31
0.0
 11
5.1091988671
 21
5.0259888386
 31
0.0
 11
5.0991705679
 21
5.0369155181
 31
0.0
 11
5.0899700987
 21
5.0481389862
 31
0.0
 11
5.0816179887
 21
5.0596332217
 31
0.0
 11
5.0741335842
 21
5.0713719069
 31
0.0
 11
5.0675344535
 21
5.083328088
 31
0.0
 11
5.061835059
 21
5.0954737
 31
0.0
 11
5.0570492806
 21
5.1077806066
 31
0.0
 11
5.0531878128
 21
5.1202211554
 31
0.0
 11
5.0502592702
 21
5.1327680092
 31
0.0
 11
5.0482711977
 21
5.1453925346
 31
0.0
 11
5.0472273352
 21
5.1580613104
 31
0.0
  0
SPLINE
  5
240
100
AcDbEntity
  8
0
100
AcDbSpline
 62
7
  6
CONTINUOUS
 70
0
 71
3
 72
39
 73
35
 74
33
 42
0.0000001
 43
0.0000001
 44
0.0000000001
 12
-0.4305238868
 22
0.5504826112
 32
0.0
 13
-0.4391290287
 23
-0.5436429145
 33
0.0
 40
0.0
 40
0.0
 40
0.0
 40
0.0
 40
0.0257417326
 40
0.0522991217
 40
0.0796992251
 40
0.1079512873
 40
0.1370484173
 40
0.1669693414
 40
0.1976791178
 40
0.2291316515
 40
0.2612701065
 40
0.2940288938
 40
0.3273347454
 40
0.361107667
 40
0.3952626158
 40
0.4297099903
 40
0.4643572404
 40
0.4991095245
 40
0.5338709737
 40
0.5685455697
 40
0.6030382384
 40
0.6372558781
 40
0.6711082559
 40
0.7045094173
 40
0.7373782128
 40
0.7696401566
 40
0.8012279371
 40
0.8320830785
 40
0.8621572987
 40
0.8914133412
 40
0.9198273922
 40
0.9473894747
 40
0.9741058586
 40
1.0
 40
1.0
 40
1.0
 40
1.0
 10
5.7744988029
 20
5.0061767422
 30
0.0
 10
5.7708046593
 20
5.0109002009
 30
0.0
 10
5.7628915727
 20
5.0201840708
 30
0.0
 10
5.749772411
 20
5.0333443043
 30
0.0
 10
5.7352835156
 20
5.0458919019
 30
0.0
 10
5.7194946327
 20
5.0577678991
 30
0.0
 10
5.7024800026
 20
5.0689183467
 30
0.0
 10
5.6843191224
 20
5.0792907702
 30
0.0
 10
5.6650976808
 20
5.088838176
 30
0.0
 10
5.6449053799
 20
5.0975153622
 30
0.0
 10
5.6238370812
 20
5.1052824255
 30
0.0
 10
5.6019915652
 20
5.1121032623
 30
0.0
 10
5.5794711237
 20
5.1179454175
 30
0.0
 10
5.5563816111
 20
5.1227825317
 30
0.0
 10
5.5328311868
 20
5.1265910116
 30
0.0
 10
5.5089304935
 20
5.1293537285
 30
0.0
 10
5.484791693
 20
5.1310575435
 30
0.0
 10
5.4605281024
 20
5.1316941245
 30
0.0
 10
5.4362536537
 20
5.1312612742
 30
0.0
 10
5.4120823366
 20
5.1297600333
 30
0.0
 10
5.3881275921
 20
5.1271983078
 30
0.0
 10
5.3645019046
 20
5.1235876249
 30
0.0
 10
5.3413161866
 20
5.118944819
 30
0.0
 10
5.3186791197
 20
5.1132921984
 30
0.0
 10
5.2966971192
 20
5.1066552379
 30
0.0
 10
5.2754730147
 20
5.0990659148
 30
0.0
 10
5.2551065306
 20
5.0905588883
 30
0.0
 10
5.2356930785
 20
5.0811739812
 30
0.0
 10
5.2173234897
 20
5.0709551178
 30
0.0
 10
5.2000843246
 20
5.0599488211
 30
0.0
 10
5.1840559897
 20
5.0482070853
 30
0.0
 10
5.1693141879
 20
5.0357827687
 30
0.0
 10
5.1559291865
 20
5.022734959
 30
0.0
 10
5.1478280768
 20
5.0135182621
 30
0.0
 10
5.1440377871
 20
5.0088258733
 30
0.0
 11
5.7744988029
 21
5.0061767422
 31
0.0
 11
5.7628464215
 21
5.0198822828
 31
0.0
 11
5.7497590436
 21
5.0330418354
 31
0.0
 11
5.7352979875
 21
5.0455932591
 31
0.0
 11
5.7195314841
 21
5.0574774323
 31
0.0
 11
5.7025339622
 21
5.0686384973
 31
0.0
 11
5.6843851672
 21
5.0790236247
 31
0.0
 11
5.6651709996
 21
5.0885841713
 31
0.0
 11
5.6449816555
 21
5.097274856
 31
0.0
 11
5.6239124427
 21
5.1050548517
 31
0.0
 11
5.6020626063
 21
5.1118875612
 31
0.0
 11
5.5795349665
 21
5.1177405624
 31
0.0
 11
5.55643585
 21
5.122586616
 31
0.0
 11
5.5328738942
 21
5.1264025443
 31
0.0
 11
5.5089602515
 21
5.1291706193
 31
0.0
 11
5.4848075082
 21
5.1308777352
 31
0.0
 11
5.4605294889
 21
5.1315157084
 31
0.0
 11
5.4362405588
 21
5.1310818348
 31
0.0
 11
5.4120551731
 21
5.1295777771
 31
0.0
 11
5.3880872569
 21
5.1270109609
 31
0.0
 11
5.3644497245
 21
5.1233932946
 31
0.0
 11
5.341254007
 21
5.1187418106
 31
0.0
 11
5.3186092391
 21
5.113078621
 31
0.0
 11
5.2966223322
 21
5.1064300796
 31
0.0
 11
5.2753966352
 21
5.0988278552
 31
0.0
 11
5.2550323204
 21
5.0903075121
 31
0.0
 11
5.2356252981
 21
5.0809092948
 31
0.0
 11
5.2172668491
 21
5.0706775483
 31
0.0
 11
5.2000437972
 21
5.0596602711
 31
0.0
 11
5.184036868
 21
5.0479096365
 31
0.0
 11
5.1693218579
 21
5.0354807675
 31
0.0
 11
5.1559678696
 21
5.0224323575
 31
0.0
 11
5.1440377871
 21
5.0088258733
 31
0.0
  0
SPLINE
  5
241
100
AcDbEntity
  8
0
100
AcDbSpline
 62
6
  6
CONTINUOUS
 70
0
 71
3
 72
68
 73
64
 74
62
 42
0.0000001
 43
0.0000001
 44
0.0000000001
 12
-0.0394556233
 22
0.9615931514
 32
0.0
 13
-0.0238897338
 23
-0.9621057196
 33
0.0
 40
0.0
 40
0.0
 40
0.0
 40
0.0
 40
0.0125039538
 40
0.0250708083
 40
0.0377316199
 40
0.0505191467
 40
0.0634667503
 40
0.0766054503
 40
0.0899623755
 40
0.1035601038
 40
0.1174182329
 40
0.1315530298
 40
0.1606892592
 40
0.1757167261
 40
0.1910514321
 40
0.2066932611
 40
0.2226393552
 40
0.2388835357
 40
0.2554176531
 40
0.2722314249
 40
0.2893118003
 40
0.3066442069
 40
0.3242125237
 40
0.3419984552
 40
0.3599825661
 40
0.3781443762
 40
0.3964618281
 40
0.4149120509
 40
0.4334715549
 40
0.4521158761
 40
0.4708200353
 40
0.4895587938
 40
0.5083065469
 40
0.5270374719
 40
0.5457257981
 40
0.5643459969
 40
0.5828726434
 40
0.6012806498
 40
0.6195457764
 40
0.637644256
 40
0.6555529439
 40
0.6732501442
 40
0.6907150702
 40
0.7079278744
 40
0.7248707576
 40
0.7578762541
 40
0.7739177999
 40
0.7896352967
 40
0.8050202139
 40
0.8200673064
 40
0.8491313186
 40
0.8631611305
 40
0.8768616596
 40
0.8902432079
 40
0.9033204527
 40
0.9161120868
 40
0.9286401941
 40
0.9409312294
 40
0.9530155155
 40
0.964926451
 40
0.9767008984
 40
0.9883783569
 40
1.0
 40
1.0
 40
1.0
 40
1.0
 10
5.8305765508
 20
5.1134673957
 30
0.0
 10
5.8304121004
 20
5.1174753011
 30
0.0
 10
5.8297896236
 20
5.125502246
 30
0.0
 10
5.8279856134
 20
5.1374813717
 30
0.0
 10
5.8253119443
 20
5.1493905875
 30
0.0
 10
5.8217750214
 20
5.1611995567
 30
0.0
 10
5.8173856219
 20
5.1728824268
 30
0.0
 10
5.8121530482
 20
5.1844132032
 30
0.0
 10
5.8060900228
 20
5.1957662632
 30
0.0
 10
5.7992126598
 20
5.2069167458
 30
0.0
 10
5.7915356996
 20
5.2178390315
 30
0.0
 10
5.780145244
 20
5.232206755
 30
0.0
 10
5.7673138818
 20
5.2458708807
 30
0.0
 10
5.7532310798
 20
5.258762358
 30
0.0
 10
5.7418684582
 20
5.2681897061
 30
0.0
 10
5.7298426307
 20
5.2772517849
 30
0.0
 10
5.7171807326
 20
5.2859285387
 30
0.0
 10
5.7039135726
 20
5.294202039
 30
0.0
 10
5.6900716479
 20
5.3020534347
 30
0.0
 10
5.6756869428
 20
5.3094646003
 30
0.0
 10
5.6607938733
 20
5.3164207494
 30
0.0
 10
5.6454269489
 20
5.3229061189
 30
0.0
 10
5.6296217347
 20
5.3289055886
 30
0.0
 10
5.6134157804
 20
5.3344076454
 30
0.0
 10
5.5968467993
 20
5.3394000351
 30
0.0
 10
5.5799532414
 20
5.3438709706
 30
0.0
 10
5.5627750337
 20
5.3478124714
 30
0.0
 10
5.5453522611
 20
5.3512160612
 30
0.0
 10
5.5277254686
 20
5.3540735419
 30
0.0
 10
5.5099361488
 20
5.3563806514
 30
0.0
 10
5.4920258757
 20
5.3581328781
 30
0.0
 10
5.4740364479
 20
5.3593257892
 30
0.0
 10
5.4560100697
 20
5.3599589446
 30
0.0
 10
5.4379888904
 20
5.3600318956
 30
0.0
 10
5.4200150911
 20
5.3595440649
 30
0.0
 10
5.4021307154
 20
5.3584988536
 30
0.0
 10
5.3843775642
 20
5.3568998867
 30
0.0
 10
5.3667973217
 20
5.3547504453
 30
0.0
 10
5.3494310005
 20
5.3520577052
 30
0.0
 10
5.3323191319
 20
5.3488292883
 30
0.0
 10
5.315502048
 20
5.3450722531
 30
0.0
 10
5.2990188419
 20
5.3407973832
 30
0.0
 10
5.2829080286
 20
5.3360161928
 30
0.0
 10
5.267207219
 20
5.3307391274
 30
0.0
 10
5.2470472481
 20
5.3231285176
 30
0.0
 10
5.2276697671
 20
5.3145393858
 30
0.0
 10
5.2092249006
 20
5.3049658729
 30
0.0
 10
5.1961031818
 20
5.2974363189
 30
0.0
 10
5.1835946577
 20
5.2895065859
 30
0.0
 10
5.1679568276
 20
5.2785558331
 30
0.0
 10
5.1534467479
 20
5.266776574
 30
0.0
 10
5.1402559087
 20
5.25419791
 30
0.0
 10
5.1312209123
 20
5.244580063
 30
0.0
 10
5.1229520503
 20
5.2346910399
 30
0.0
 10
5.115468522
 20
5.2245546559
 30
0.0
 10
5.1087870088
 20
5.2141963018
 30
0.0
 10
5.1029249794
 20
5.2036400356
 30
0.0
 10
5.0978967816
 20
5.1929116386
 30
0.0
 10
5.0937131204
 20
5.1820379229
 30
0.0
 10
5.0903858914
 20
5.1710449121
 30
0.0
 10
5.0879237776
 20
5.1599595312
 30
0.0
 10
5.0863312542
 20
5.1488104249
 30
0.0
 10
5.0858523676
 20
5.1413423896
 30
0.0
 10
5.0857598216
 20
5.1376153065
 30
0.0
 11
5.8305765508
 21
5.1134673957
 31
0.0
 11
5.8296478574
 21
5.1254653404
 31
0.0
 11
5.8278491301
 21
5.1374252046
 31
0.0
 11
5.825183632
 21
5.1493148774
 31
0.0
 11
5.8216576239
 21
5.1611056889
 31
0.0
 11
5.8172802984
 21
5.1727723352
 31
0.0
 11
5.8120610634
 21
5.1842896438
 31
0.0
 11
5.8060120164
 21
5.1956321853
 31
0.0
 11
5.7991482932
 21
5.20677424
 31
0.0
 11
5.7914852519
 21
5.2176900954
 31
0.0
 11
5.7830405866
 21
5.2283549465
 31
0.0
 11
5.7638895958
 21
5.2488372444
 31
0.0
 11
5.7532271931
 21
5.2586084346
 31
0.0
 11
5.7418737268
 21
5.2680372186
 31
0.0
 11
5.7298553552
 21
5.2771021833
 31
0.0
 11
5.7171998086
 21
5.2857828491
 31
0.0
 11
5.7039375702
 21
5.2940603706
 31
0.0
 11
5.6900994095
 21
5.3019160742
 31
0.0
 11
5.6757172957
 21
5.3093322306
 31
0.0
 11
5.6608256418
 21
5.3162930353
 31
0.0
 11
5.6454591613
 21
5.322782921
 31
0.0
 11
5.6296534237
 21
5.328787249
 31
0.0
 11
5.6134460342
 21
5.3342935887
 31
0.0
 11
5.5968748949
 21
5.339289832
 31
0.0
 11
5.5799784612
 21
5.3437647428
 31
0.0
 11
5.5627967308
 21
5.3477095146
 31
0.0
 11
5.5453699676
 21
5.3511157605
 31
0.0
 11
5.5277387358
 21
5.3539758841
 31
0.0
 11
5.5099445822
 21
5.3562848763
 31
0.0
 11
5.4920292544
 21
5.3580382563
 31
0.0
 11
5.4740345985
 21
5.3592322352
 31
0.0
 11
5.4560028416
 21
5.3598656928
 31
0.0
 11
5.4379763024
 21
5.3599381526
 31
0.0
 11
5.4199972481
 21
5.3594497243
 31
0.0
 11
5.4021077115
 21
5.3584031865
 31
0.0
 11
5.3843496586
 21
5.3568020772
 31
0.0
 11
5.3667649005
 21
5.3546504156
 31
0.0
 11
5.3493944131
 21
5.3519548095
 31
0.0
 11
5.3322788929
 21
5.3487227337
 31
0.0
 11
5.3154588179
 21
5.3449620449
 31
0.0
 11
5.298973274
 21
5.3406830343
 31
0.0
 11
5.2828608002
 21
5.3358969485
 31
0.0
 11
5.2671596862
 21
5.3306153286
 31
0.0
 11
5.2519063387
 21
5.3248519299
 31
0.0
 11
5.2228848554
 21
5.3119391036
 31
0.0
 11
5.2091850023
 21
5.3048216011
 31
0.0
 11
5.1960685126
 21
5.2972869907
 31
0.0
 11
5.1835669118
 21
5.2893534035
 31
0.0
 11
5.171709127
 21
5.2810406052
 31
0.0
 11
5.1500340331
 21
5.2633606073
 31
0.0
 11
5.1402680884
 21
5.2540364963
 31
0.0
 11
5.1312469059
 21
5.2444201781
 31
0.0
 11
5.1229925364
 21
5.2345348653
 31
0.0
 11
5.115524135
 21
5.2244047343
 31
0.0
 11
5.1088584511
 21
5.2140547615
 31
0.0
 11
5.1030120249
 21
5.2035099783
 31
0.0
 11
5.0979984944
 21
5.1927960683
 31
0.0
 11
5.0938287123
 21
5.1819393412
 31
0.0
 11
5.0905133197
 21
5.1709661422
 31
0.0
 11
5.0880601976
 21
5.1599031018
 31
0.0
 11
5.086474168
 21
5.1487771669
 31
0.0
 11
5.0857598216
 21
5.1376153065
 31
0.0
  0
SPLINE
  5
242
100
AcDbEntity
  8
0
100
AcDbSpline
 62
6
  6
CONTINUOUS
 70
0
 71
3
 72
15
 73
11
 74
9
 42
0.0000001
 43
0.0000001
 44
0.0000000001
 12
-0.0000029395
 22
-0.1014129487
 32
0.0
 13
0.056647522
 23
-0.0841168498
 33
0.0
 40
0.0
 40
0.0
 40
0.0
 40
0.0
 40
0.1206125024
 40
0.2416678987
 40
0.3635972941
 40
0.4868194544
 40
0.6117372931
 40
0.7387239985
 40
0.8680733084
 40
1.0
 40
1.0
 40
1.0
 40
1.0
 10
5.0857154885
 20
5.1376175945
 30
0.0
 10
5.0857153703
 20
5.1335403713
 30
0.0
 10
5.0860409454
 20
5.1253672528
 30
0.0
 10
5.0875025301
 20
5.1131511176
 30
0.0
 10
5.0899328433
 20
5.1009997441
 30
0.0
 10
5.0933267773
 20
5.0889464705
 30
0.0
 10
5.0976735927
 20
5.0770215327
 30
0.0
 10
5.1029633148
 20
5.0652568318
 30
0.0
 10
5.1091786975
 20
5.0536855395
 30
0.0
 10
5.1138780768
 20
5.0461982816
 30
0.0
 10
5.1163691835
 20
5.0424991957
 30
0.0
 11
5.0857154885
 21
5.1376175945
 31
0.0
 11
5.0862012272
 21
5.1253955735
 31
0.0
 11
5.0876568274
 21
5.1132055874
 31
0.0
 11
5.0900779719
 21
5.1010797178
 31
0.0
 11
5.093459093
 21
5.0890495017
 31
0.0
 11
5.0977912867
 21
5.0771449825
 31
0.0
 11
5.1030647586
 21
5.0653961163
 31
0.0
 11
5.1092641077
 21
5.0538357534
 31
0.0
 11
5.1163691835
 21
5.0424991957
 31
0.0
  0
SPLINE
  5
243
100
AcDbEntity
  8
0
100
AcDbSpline
 62
7
  6
CONTINUOUS
 70
0
 71
3
 72
15
 73
11
 74
9
 42
0.0000001
 43
0.0000001
 44
0.0000000001
 12
0.0
 22
0.0943600491
 32
0.0
 13
-0.0401886478
 23
0.0853738336
 33
0.0
 40
0.0
 40
0.0
 40
0.0
 40
0.0
 40
0.1225968449
 40
0.2454610989
 40
0.3687914682
 40
0.492800526
 40
0.6177214237
 40
0.7437785648
 40
0.8711547313
 40
1.0
 40
1.0
 40
1.0
 40
1.0
 10
5.9482154281
 20
4.9078040847
 30
0.0
 10
5.9482154281
 20
4.9116601661
 30
0.0
 10
5.9479942759
 20
4.9193825445
 30
0.0
 10
5.9470013862
 20
4.9309456685
 30
0.0
 10
5.9453482494
 20
4.9424782162
 30
0.0
 10
5.9430365278
 20
4.9539627765
 30
0.0
 10
5.9400700243
 20
4.9653843725
 30
0.0
 10
5.9364521423
 20
4.9767277744
 30
0.0
 10
5.9321892316
 20
4.9879763984
 30
0.0
 10
5.9289414672
 20
4.9953566528
 30
0.0
 10
5.9272154281
 20
4.9990233243
 30
0.0
 11
5.9482154281
 21
4.9078040847
 31
0.0
 11
5.9478848318
 21
4.9193676042
 31
0.0
 11
5.946893916
 21
4.9309186559
 31
0.0
 11
5.9452440016
 21
4.9424385626
 31
0.0
 11
5.9429371076
 21
4.9539104134
 31
0.0
 11
5.9399763448
 21
4.9653200598
 31
0.0
 11
5.9363651136
 21
4.9766533858
 31
0.0
 11
5.9321090912
 21
4.9878938464
 31
0.0
 11
5.9272154281
 21
4.9990233243
 31
0.0
  0
LINE
  5
244
100
AcDbEntity
  8
0
100
AcDbLine
 62
7
  6
CONTINUOUS
 10
6.0057154281
 20
4.0411080964
 11
5.993843675
 21
4.0303203138
  0
SPLINE
  5
245
100
AcDbEntity
  8
0
100
AcDbSpline
 62
9
  6
CONTINUOUS
 70
0
 71
3
 72
23
 73
19
 74
17
 42
0.0000001
 43
0.0000001
 44
0.0000000001
 12
-0.3942583317
 22
-0.1539344963
 32
0.0
 13
-0.3958309511
 23
0.1498443171
 33
0.0
 40
0.0
 40
0.0
 40
0.0
 40
0.0
 40
0.0595605399
 40
0.1202300506
 40
0.1818771081
 40
0.2443578837
 40
0.3075205878
 40
0.3712051121
 40
0.4352467741
 40
0.4994763744
 40
0.5637234083
 40
0.6278167795
 40
0.6915871634
 40
0.754868378
 40
0.8174995202
 40
0.8793275587
 40
0.9402066651
 40
1.0
 40
1.0
 40
1.0
 40
1.0
 10
5.6678096324
 20
4.9397388779
 30
0.0
 10
5.6599822194
 20
4.9366827373
 30
0.0
 10
5.6440188868
 20
4.9309226824
 30
0.0
 10
5.6194729951
 20
4.9234129649
 30
0.0
 10
5.5941970852
 20
4.9169819666
 30
0.0
 10
5.5683065425
 20
4.9116574486
 30
0.0
 10
5.5419179238
 20
4.9074649459
 30
0.0
 10
5.5151507987
 20
4.9044217159
 30
0.0
 10
5.488126065
 20
4.9025431837
 30
0.0
 10
5.4609660387
 20
4.9018360943
 30
0.0
 10
5.4337935745
 20
4.9023054096
 30
0.0
 10
5.4067315388
 20
4.9039472232
 30
0.0
 10
5.3799025031
 20
4.9067559576
 30
0.0
 10
5.3534275976
 20
4.9107170102
 30
0.0
 10
5.3274267781
 20
4.9158144294
 30
0.0
 10
5.3020169597
 20
4.9220235467
 30
0.0
 10
5.2773146463
 20
4.929318032
 30
0.0
 10
5.2612346905
 20
4.9349358688
 30
0.0
 10
5.2533453397
 20
4.9379224326
 30
0.0
 11
5.6678096324
 21
4.9397388779
 31
0.0
 11
5.644101646
 21
4.9311710958
 31
0.0
 11
5.6195502245
 21
4.9236486207
 31
0.0
 11
5.5942663888
 21
4.9172060406
 31
0.0
 11
5.5683652932
 21
4.9118721175
 31
0.0
 11
5.5419641368
 21
4.9076715537
 31
0.0
 11
5.5151830118
 21
4.9046228869
 31
0.0
 11
5.4881432071
 21
4.9027404933
 31
0.0
 11
5.4609676406
 21
4.9020323518
 31
0.0
 11
5.4337795313
 21
4.9025022637
 31
0.0
 11
5.4067023356
 21
4.9041475069
 31
0.0
 11
5.3798589682
 21
4.9069612189
 31
0.0
 11
5.3533712502
 21
4.9109299615
 31
0.0
 11
5.3273594828
 21
4.9160363754
 31
0.0
 11
5.30194122
 21
4.92225684
 31
0.0
 11
5.2772322373
 21
4.9295636704
 31
0.0
 11
5.2533453397
 21
4.9379224326
 31
0.0
  0
SPLINE
  5
246
100
AcDbEntity
  8
0
100
AcDbSpline
 62
9
  6
CONTINUOUS
 70
0
 71
3
 72
65
 73
61
 74
59
 42
0.0000001
 43
0.0000001
 44
0.0000000001
 12
0.0
 22
-1.2792590688
 32
0.0
 13
-0.0
 23
1.2792590688
 33
0.0
 40
0.0
 40
0.0
 40
0.0
 40
0.0
 40
0.0120843943
 40
0.0242137986
 40
0.0364248317
 40
0.0487558578
 40
0.0612442429
 40
0.0739240644
 40
0.0868253002
 40
0.0999747502
 40
0.1133951964
 40
0.1271055945
 40
0.1411214602
 40
0.1554538494
 40
0.170110458
 40
0.1850957264
 40
0.2004102148
 40
0.2160519167
 40
0.232015765
 40
0.248293621
 40
0.2648754417
 40
0.2817484418
 40
0.3163008966
 40
0.3339514275
 40
0.3518233897
 40
0.3698957013
 40
0.3881456962
 40
0.4250792541
 40
0.4624314891
 40
0.4812025542
 40
0.5000001409
 40
0.5187977266
 40
0.5375687909
 40
0.5749210235
 40
0.6118545793
 40
0.6301045701
 40
0.6481768792
 40
0.6660488401
 40
0.6836993649
 40
0.7182518133
 40
0.7351248057
 40
0.751706625
 40
0.7679844744
 40
0.7839483162
 40
0.7995900185
 40
0.8149045008
 40
0.8298897658
 40
0.8445463741
 40
0.8588787561
 40
0.8728946187
 40
0.8866050098
 40
0.9000254415
 40
0.9131748787
 40
0.9260760964
 40
0.9387558992
 40
0.9512442673
 40
0.9635752631
 40
0.9757862528
 40
0.9879156195
 40
1.0
 40
1.0
 40
1.0
 40
1.0
 10
5.9482154281
 20
4.8082183071
 30
0.0
 10
5.9482154281
 20
4.8030652834
 30
0.0
 10
5.9478199779
 20
4.7927357573
 30
0.0
 10
5.9460457152
 20
4.7772909019
 30
0.0
 10
5.9430918352
 20
4.7619199047
 30
0.0
 10
5.9389675917
 20
4.7466628826
 30
0.0
 10
5.933682648
 20
4.7315565834
 30
0.0
 10
5.9272501666
 20
4.7166376644
 30
0.0
 10
5.9196878748
 20
4.70194139
 30
0.0
 10
5.9110122822
 20
4.6875046439
 30
0.0
 10
5.9012464443
 20
4.6733614355
 30
0.0
 10
5.8904146917
 20
4.6595451866
 30
0.0
 10
5.8785418212
 20
4.6460903728
 30
0.0
 10
5.8656585759
 20
4.6330275237
 30
0.0
 10
5.8517955974
 20
4.6203881963
 30
0.0
 10
5.8369856251
 20
4.6082035289
 30
0.0
 10
5.8212657359
 20
4.5965007473
 30
0.0
 10
5.804672764
 20
4.5853089724
 30
0.0
 10
5.7872466644
 20
4.5746548935
 30
0.0
 10
5.7690301232
 20
4.5645626258
 30
0.0
 10
5.7500655257
 20
4.5550579187
 30
0.0
 10
5.7236377318
 20
4.5431040737
 30
0.0
 10
5.6961093022
 20
4.5325331186
 30
0.0
 10
5.6676729005
 20
4.5233393704
 30
0.0
 10
5.6456878347
 20
4.5170794791
 30
0.0
 10
5.6232520607
 20
4.5115211454
 30
0.0
 10
5.592689906
 20
4.5050354512
 30
0.0
 10
5.5536998708
 20
4.4987764497
 30
0.0
 10
5.5141684173
 20
4.4950173797
 30
0.0
 10
5.4822520511
 20
4.493505369
 30
0.0
 10
5.4582152479
 20
4.4931257926
 30
0.0
 10
5.434178445
 20
4.4935053739
 30
0.0
 10
5.4022620821
 20
4.4950174176
 30
0.0
 10
5.362730632
 20
4.4987764919
 30
0.0
 10
5.3237406019
 20
4.5050355062
 30
0.0
 10
5.2931784561
 20
4.5115212248
 30
0.0
 10
5.2707426901
 20
4.5170795754
 30
0.0
 10
5.2487576262
 20
4.5233394587
 30
0.0
 10
5.2203212429
 20
4.5325332447
 30
0.0
 10
5.1927928167
 20
4.5431041847
 30
0.0
 10
5.1663650466
 20
4.5550580668
 30
0.0
 10
5.1474004525
 20
4.564562765
 30
0.0
 10
5.1291839246
 20
4.5746550451
 30
0.0
 10
5.1117578451
 20
4.5853091456
 30
0.0
 10
5.0951648716
 20
4.5965009087
 30
0.0
 10
5.0794450026
 20
4.6082037119
 30
0.0
 10
5.0646350468
 20
4.6203883916
 30
0.0
 10
5.050772066
 20
4.6330277102
 30
0.0
 10
5.0378888518
 20
4.6460905841
 30
0.0
 10
5.0260159923
 20
4.6595453966
 30
0.0
 10
5.0151842473
 20
4.6733616392
 30
0.0
 10
5.0054184523
 20
4.6875048592
 30
0.0
 10
4.9967428633
 20
4.7019415842
 30
0.0
 10
4.9891805952
 20
4.7166378481
 30
0.0
 10
4.9827481528
 20
4.7315567583
 30
0.0
 10
4.9774632127
 20
4.7466630288
 30
0.0
 10
4.9733389995
 20
4.7619200192
 30
0.0
 10
4.9703851289
 20
4.7772909693
 30
0.0
 10
4.9686108721
 20
4.7927357849
 30
0.0
 10
4.9682154281
 20
4.8030652893
 30
0.0
 10
4.9682154281
 20
4.8082183071
 30
0.0
 11
5.9482154281
 21
4.8082183071
 31
0.0
 11
5.9476254385
 21
4.7927704985
 31
0.0
 11
5.9458572414
 21
4.7773549247
 31
0.0
 11
5.9429142208
 21
4.7620135881
 31
0.0
 11
5.9388040185
 21
4.7467838961
 31
0.0
 11
5.9335359201
 21
4.7317015926
 31
0.0
 11
5.927122363
 21
4.7168026034
 31
0.0
 11
5.9195795386
 21
4.7021230744
 31
0.0
 11
5.91092444
 21
4.6876990001
 31
0.0
 11
5.9011786608
 21
4.6735650756
 31
0.0
 11
5.8903659791
 21
4.6597553785
 31
0.0
 11
5.8785114058
 21
4.6463035667
 31
0.0
 11
5.8656446263
 21
4.6332417022
 31
0.0
 11
5.8517964604
 21
4.6206014577
 31
0.0
 11
5.8369996443
 21
4.6084135667
 31
0.0
 11
5.8212907882
 21
4.5967068641
 31
0.0
 11
5.8047070782
 21
4.5855098903
 31
0.0
 11
5.7872883629
 21
4.5748495779
 31
0.0
 11
5.7690772458
 21
4.5647511959
 31
0.0
 11
5.7501167969
 21
4.5552396672
 31
0.0
 11
5.7304530848
 21
4.5463375329
 31
0.0
 11
5.6892070825
 21
4.530445915
 31
0.0
 11
5.6677240886
 21
4.5234946999
 31
0.0
 11
5.6457364385
 21
4.5172293942
 31
0.0
 11
5.6232967604
 21
4.5116655111
 31
0.0
 11
5.6004595709
 21
4.5068157161
 31
0.0
 11
5.5538127679
 21
4.499305029
 31
0.0
 11
5.5062453431
 21
4.4947692924
 31
0.0
 11
5.4822592336
 21
4.4936320254
 31
0.0
 11
5.4582152475
 21
4.4932523784
 31
0.0
 11
5.4341712627
 21
4.4936320336
 31
0.0
 11
5.4101851552
 21
4.4947693196
 31
0.0
 11
5.3626177351
 21
4.499305073
 31
0.0
 11
5.3159709378
 21
4.5068157789
 31
0.0
 11
5.2931337572
 21
4.5116655902
 31
0.0
 11
5.2706940856
 21
4.5172294864
 31
0.0
 11
5.2487064381
 21
4.5234947951
 31
0.0
 11
5.2272234579
 21
4.5304460271
 31
0.0
 11
5.1859774696
 21
4.5463376586
 31
0.0
 11
5.1663137752
 21
4.5552398083
 31
0.0
 11
5.1473533297
 21
4.5647513397
 31
0.0
 11
5.1291422275
 21
4.5748497312
 31
0.0
 11
5.1117235298
 21
4.5855100565
 31
0.0
 11
5.0951398209
 21
4.5967070327
 31
0.0
 11
5.0794309838
 21
4.6084137477
 31
0.0
 11
5.0646341816
 21
4.6206016488
 31
0.0
 11
5.0507860191
 21
4.6332418964
 31
0.0
 11
5.0379192649
 21
4.6463037729
 31
0.0
 11
5.026064703
 21
4.6597555893
 31
0.0
 11
5.0152520346
 21
4.6735652856
 31
0.0
 11
5.0055062881
 21
4.6876992102
 31
0.0
 11
4.9968512017
 21
4.7021232727
 31
0.0
 11
4.9893084013
 21
4.7168027879
 31
0.0
 11
4.9828948749
 21
4.7317017643
 31
0.0
 11
4.9776267882
 21
4.746784049
 31
0.0
 11
4.9735166088
 21
4.7620137069
 31
0.0
 11
4.9705736026
 21
4.7773549896
 31
0.0
 11
4.968805413
 21
4.792770516
 31
0.0
 11
4.9682154281
 21
4.8082183071
 31
0.0
  0
SPLINE
  5
247
100
AcDbEntity
  8
0
100
AcDbSpline
 62
9
  6
CONTINUOUS
 70
0
 71
3
 72
11
 73
7
 74
5
 42
0.0000001
 43
0.0000001
 44
0.0000000001
 12
0.0101102961
 22
0.0410795668
 32
0.0
 13
0.0176389769
 23
0.0384527683
 33
0.0
 40
0.0
 40
0.0
 40
0.0
 40
0.0
 40
0.2466752727
 40
0.4953641976
 40
0.7463780414
 40
1.0
 40
1.0
 40
1.0
 40
1.0
 10
4.9742342442
 20
4.8574329406
 30
0.0
 10
4.9750655642
 20
4.8608107117
 30
0.0
 10
4.9769013993
 20
4.8675540383
 30
0.0
 10
4.9801524267
 20
4.8775686855
 30
0.0
 10
4.9839080993
 20
4.8875099215
 30
0.0
 10
4.9867298726
 20
4.8940460227
 30
0.0
 10
4.9882210833
 20
4.8972968448
 30
0.0
 11
4.9742342442
 21
4.8574329406
 31
0.0
 11
4.9769737442
 21
4.8675026484
 31
0.0
 11
4.9802202384
 21
4.8775101161
 31
0.0
 11
4.9839707907
 21
4.8874449924
 31
0.0
 11
4.9882210833
 21
4.8972968448
 31
0.0
  0
SPLINE
  5
248
100
AcDbEntity
  8
0
100
AcDbSpline
 62
9
  6
CONTINUOUS
 70
0
 71
3
 72
11
 73
7
 74
5
 42
0.0000001
 43
0.0000001
 44
0.0000000001
 12
0.0176394875
 22
-0.0384521539
 32
0.0
 13
0.0101110844
 23
-0.0410790169
 33
0.0
 40
0.0
 40
0.0
 40
0.0
 40
0.0
 40
0.2536221416
 40
0.5046361577
 40
0.7533250625
 40
1.0
 40
1.0
 40
1.0
 40
1.0
 10
5.9282080093
 20
4.8973006958
 30
0.0
 10
5.9296992642
 20
4.8940499233
 30
0.0
 10
5.9325211292
 20
4.8875139198
 30
0.0
 10
5.9362769686
 20
4.8775728349
 30
0.0
 10
5.9395281758
 20
4.8675583393
 30
0.0
 10
5.9413641337
 20
4.8608151105
 30
0.0
 10
5.9421955174
 20
4.8574373892
 30
0.0
 11
5.9282080093
 21
4.8973006958
 31
0.0
 11
5.9324584436
 21
4.8874489916
 31
0.0
 11
5.9362091611
 21
4.8775142626
 31
0.0
 11
5.9394558338
 21
4.867506944
 31
0.0
 11
5.9421955174
 21
4.8574373892
 31
0.0
  0
SPLINE
  5
249
100
AcDbEntity
  8
0
100
AcDbSpline
 62
9
  6
CONTINUOUS
 70
0
 71
3
 72
66
 73
62
 74
60
 42
0.0000001
 43
0.0000001
 44
0.0000000001
 12
0.0
 22
1.1093771998
 32
0.0
 13
-0.0
 23
-1.1093771998
 33
0.0
 40
0.0
 40
0.0
 40
0.0
 40
0.0
 40
0.0120835043
 40
0.024209041
 40
0.0364159429
 40
0.0487436608
 40
0.0612286182
 40
0.0739044607
 40
0.0868017186
 40
0.0999472118
 40
0.1133640634
 40
0.1270714282
 40
0.1410846087
 40
0.1554152307
 40
0.1700707508
 40
0.1850556547
 40
0.2003706167
 40
0.2160130918
 40
0.2319781923
 40
0.2482576948
 40
0.2648410928
 40
0.2817160314
 40
0.2988674272
 40
0.3162785981
 40
0.3339314436
 40
0.3518057751
 40
0.3698803351
 40
0.3881328493
 40
0.425071358
 40
0.4437129578
 40
0.4624336559
 40
0.5000029179
 40
0.537572184
 40
0.556292875
 40
0.5749344737
 40
0.6118729714
 40
0.6481948452
 40
0.666069159
 40
0.6837220009
 40
0.7011331708
 40
0.7182845415
 40
0.7351594729
 40
0.7517428605
 40
0.768022328
 40
0.7839874154
 40
0.7996298642
 40
0.8149447815
 40
0.8299296649
 40
0.8445851412
 40
0.8589157151
 40
0.8729288617
 40
0.8866361787
 40
0.9000529951
 40
0.9131984509
 40
0.9260956788
 40
0.9387714904
 40
0.9512564209
 40
0.9635841167
 40
0.9757909985
 40
0.9879165075
 40
1.0
 40
1.0
 40
1.0
 40
1.0
 10
5.0332890213
 20
5.1682591954
 30
0.0
 10
5.0332890213
 20
5.1727275834
 30
0.0
 10
5.0336314538
 20
5.1816836415
 30
0.0
 10
5.0351700162
 20
5.1950741627
 30
0.0
 10
5.0377300749
 20
5.2083999532
 30
0.0
 10
5.0413049365
 20
5.2216271846
 30
0.0
 10
5.0458856587
 20
5.2347240201
 30
0.0
 10
5.0514605079
 20
5.2476586527
 30
0.0
 10
5.0580159552
 20
5.2603996772
 30
0.0
 10
5.0655351897
 20
5.27291682
 30
0.0
 10
5.0740003493
 20
5.2851797509
 30
0.0
 10
5.083390359
 20
5.2971594381
 30
0.0
 10
5.0936824542
 20
5.3088274103
 30
0.0
 10
5.104852308
 20
5.3201551931
 30
0.0
 10
5.116871851
 20
5.3311169714
 30
0.0
 10
5.1297133331
 20
5.341685158
 30
0.0
 10
5.1433450698
 20
5.3518351863
 30
0.0
 10
5.1577338993
 20
5.3615433301
 30
0.0
 10
5.1728461734
 20
5.3707846843
 30
0.0
 10
5.1886445744
 20
5.3795385135
 30
0.0
 10
5.2050911517
 20
5.387783891
 30
0.0
 10
5.2221470152
 20
5.3954995573
 30
0.0
 10
5.239770375
 20
5.402668658
 30
0.0
 10
5.2579190387
 20
5.4092736955
 30
0.0
 10
5.2765497921
 20
5.4152975564
 30
0.0
 10
5.2956171799
 20
5.4207274684
 30
0.0
 10
5.3150759125
 20
5.4255498925
 30
0.0
 10
5.3415826694
 20
5.4311746347
 30
0.0
 10
5.3685629801
 20
5.4355076998
 30
0.0
 10
5.395873337
 20
5.4385514496
 30
0.0
 10
5.4235000825
 20
5.440741038
 30
0.0
 10
5.4582157769
 20
5.4418336858
 30
0.0
 10
5.4929315458
 20
5.4407410298
 30
0.0
 10
5.5205581646
 20
5.4385513954
 30
0.0
 10
5.5478689821
 20
5.4355074867
 30
0.0
 10
5.581448725
 20
5.430114809
 30
0.0
 10
5.614323934
 20
5.4225757175
 30
0.0
 10
5.6398816199
 20
5.4152973667
 30
0.0
 10
5.658512486
 20
5.4092734586
 30
0.0
 10
5.6766611207
 20
5.4026684715
 30
0.0
 10
5.694284442
 20
5.3954992833
 30
0.0
 10
5.7113402847
 20
5.3877836192
 30
0.0
 10
5.7277868592
 20
5.379538275
 30
0.0
 10
5.7435851912
 20
5.3707843659
 30
0.0
 10
5.7586974503
 20
5.3615430432
 30
0.0
 10
5.7730862582
 20
5.3518349193
 30
0.0
 10
5.7867179082
 20
5.3416848326
 30
0.0
 10
5.7995593859
 20
5.3311167056
 30
0.0
 10
5.8115788738
 20
5.3201549256
 30
0.0
 10
5.8227486493
 20
5.3088271333
 30
0.0
 10
5.8330407383
 20
5.297159219
 30
0.0
 10
5.8424306676
 20
5.2851795235
 30
0.0
 10
5.8508958161
 20
5.2729166396
 30
0.0
 10
5.8584149975
 20
5.2603995088
 30
0.0
 10
5.8649704303
 20
5.247658518
 30
0.0
 10
5.8705452431
 20
5.234723905
 30
0.0
 10
5.8751259576
 20
5.2216270985
 30
0.0
 10
5.8787008
 20
5.2083998881
 30
0.0
 10
5.8812608491
 20
5.1950741223
 30
0.0
 10
5.8827994039
 20
5.1816836224
 30
0.0
 10
5.883141835
 20
5.1727275791
 30
0.0
 10
5.883141835
 20
5.1682591954
 30
0.0
 11
5.0332890213
 21
5.1682591954
 31
0.0
 11
5.0338003671
 21
5.1816546033
 31
0.0
 11
5.0353332456
 21
5.1950187734
 31
0.0
 11
5.0378840079
 21
5.2083184337
 31
0.0
 11
5.0414466894
 21
5.2215223238
 31
0.0
 11
5.0460128309
 21
5.2345985409
 31
0.0
 11
5.0515714993
 21
5.2475155538
 31
0.0
 11
5.0581096229
 21
5.2602422826
 31
0.0
 11
5.0656113572
 21
5.2727481582
 31
0.0
 11
5.0740590577
 21
5.2850029618
 31
0.0
 11
5.0834323377
 21
5.2969772451
 31
0.0
 11
5.0937087954
 21
5.308642129
 31
0.0
 11
5.1048641465
 21
5.3199693802
 31
0.0
 11
5.11687093
 21
5.3309318602
 31
0.0
 11
5.1297010498
 21
5.3415026897
 31
0.0
 11
5.1433231771
 21
5.3516565123
 31
0.0
 11
5.1577041026
 21
5.3613688579
 31
0.0
 11
5.1728099594
 21
5.3706156893
 31
0.0
 11
5.1886036128
 21
5.3793751438
 31
0.0
 11
5.2050468795
 21
5.3876260563
 31
0.0
 11
5.2221007911
 21
5.3953479512
 31
0.0
 11
5.2397235534
 21
5.4025228353
 31
0.0
 11
5.2578727349
 21
5.4091332755
 31
0.0
 11
5.2765050899
 21
5.4151628068
 31
0.0
 11
5.2955751453
 21
5.4205976147
 31
0.0
 11
5.3150370452
 21
5.4254243416
 31
0.0
 11
5.3348442072
 21
5.4296309106
 31
0.0
 11
5.3753016551
 21
5.436146429
 31
0.0
 11
5.3958547577
 21
5.4384389771
 31
0.0
 11
5.4165580746
 21
5.4400808077
 31
0.0
 11
5.4582157908
 21
5.4413963273
 31
0.0
 11
5.4998735109
 21
5.4400807844
 31
0.0
 11
5.5205768162
 21
5.4384389087
 31
0.0
 11
5.5411299136
 21
5.4361463251
 31
0.0
 11
5.581587344
 21
5.4296307743
 31
0.0
 11
5.6208564004
 21
5.4205974619
 31
0.0
 11
5.6399264217
 21
5.4151626065
 31
0.0
 11
5.6585587661
 21
5.4091330549
 31
0.0
 11
5.676707949
 21
5.4025226224
 31
0.0
 11
5.6943306633
 21
5.3953476942
 31
0.0
 11
5.7113845616
 21
5.387625789
 31
0.0
 11
5.727827818
 21
5.3793748818
 31
0.0
 11
5.7436214079
 21
5.3706153928
 31
0.0
 11
5.7587272506
 21
5.3613685661
 31
0.0
 11
5.7731081457
 21
5.3516562278
 31
0.0
 11
5.7867301989
 21
5.3415023886
 31
0.0
 11
5.7995603051
 21
5.3309315784
 31
0.0
 11
5.8115670327
 21
5.3199691094
 31
0.0
 11
5.8227223166
 21
5.3086418667
 31
0.0
 11
5.8329987499
 21
5.2969770115
 31
0.0
 11
5.8423719679
 21
5.2850027471
 31
0.0
 11
5.8508196413
 21
5.2727479722
 31
0.0
 11
5.8583213346
 21
5.2602421204
 31
0.0
 11
5.864859435
 21
5.247515417
 31
0.0
 11
5.8704180748
 21
5.2345984292
 31
0.0
 11
5.874984202
 21
5.2215222388
 31
0.0
 11
5.8785468684
 21
5.2083183699
 31
0.0
 11
5.8810976203
 21
5.1950187303
 31
0.0
 11
5.882630491
 21
5.1816545902
 31
0.0
 11
5.883141835
 21
5.1682591954
 31
0.0
  0
SPLINE
  5
24A
100
AcDbEntity
  8
0
100
AcDbSpline
 62
9
  6
CONTINUOUS
 70
0
 71
3
 72
35
 73
31
 74
29
 42
0.0000001
 43
0.0000001
 44
0.0000000001
 12
0.5377589267
 22
0.0093039674
 32
0.0
 13
-0.0
 23
-0.5378394063
 33
0.0
 40
0.0
 40
0.0
 40
0.0
 40
0.0
 40
0.0374654452
 40
0.0749261752
 40
0.11231032
 40
0.149552907
 40
0.2234036931
 40
0.2599248861
 40
0.2961068577
 40
0.3319007955
 40
0.3672617813
 40
0.4365080802
 40
0.4703311145
 40
0.5035730199
 40
0.5362055953
 40
0.5682066003
 40
0.6302296925
 40
0.6895832083
 40
0.7182740982
 40
0.7463183416
 40
0.7737378214
 40
0.8005632175
 40
0.8268326524
 40
0.8525929051
 40
0.8778983243
 40
0.9028112378
 40
0.9274005691
 40
0.9517410695
 40
0.9759137125
 40
1.0
 40
1.0
 40
1.0
 40
1.0
 10
5.4473529543
 20
5.4209360129
 30
0.0
 10
5.4540687468
 20
5.4210522053
 30
0.0
 10
5.4675042319
 20
5.4210684148
 30
0.0
 10
5.4876328387
 20
5.4204476388
 30
0.0
 10
5.5076918179
 20
5.4191826905
 30
0.0
 10
5.5341931306
 20
5.4166466471
 30
0.0
 10
5.5604058316
 20
5.4128413929
 30
0.0
 10
5.5861879656
 20
5.4077603387
 30
0.0
 10
5.6051370487
 20
5.4033511241
 30
0.0
 10
5.623720635
 20
5.3983390486
 30
0.0
 10
5.6477782543
 20
5.3909226502
 30
0.0
 10
5.6710892638
 20
5.3823253499
 30
0.0
 10
5.6934883281
 20
5.3725407325
 30
0.0
 10
5.7095727104
 20
5.3647339173
 30
0.0
 10
5.7250312778
 20
5.3564196741
 30
0.0
 10
5.7445523297
 20
5.3448094827
 30
0.0
 10
5.767232423
 20
5.329188962
 30
0.0
 10
5.7878368074
 20
5.3118092795
 30
0.0
 10
5.8026129145
 20
5.2971394702
 30
0.0
 10
5.812714165
 20
5.2859214084
 30
0.0
 10
5.8219319676
 20
5.2743916555
 30
0.0
 10
5.8302445755
 20
5.2625793518
 30
0.0
 10
5.8376298561
 20
5.2505128783
 30
0.0
 10
5.844070026
 20
5.2382227455
 30
0.0
 10
5.849547755
 20
5.2257389955
 30
0.0
 10
5.8540495068
 20
5.2130930838
 30
0.0
 10
5.8575630738
 20
5.2003166745
 30
0.0
 10
5.860079544
 20
5.1874416908
 30
0.0
 10
5.8615919953
 20
5.1745018923
 30
0.0
 10
5.8619286316
 20
5.1658463035
 30
0.0
 10
5.8619286316
 20
5.1615281187
 30
0.0
 11
5.4473529543
 21
5.4209360129
 31
0.0
 11
5.4675033318
 21
5.4209608145
 31
0.0
 11
5.4876415988
 21
5.4203392549
 31
0.0
 11
5.5077083257
 21
5.4190725678
 31
0.0
 11
5.5276476584
 21
5.4171633317
 31
0.0
 11
5.5669529724
 21
5.411439714
 31
0.0
 11
5.5862243085
 21
5.4076390752
 31
0.0
 11
5.605177221
 21
5.4032252088
 31
0.0
 11
5.6237634676
 21
5.3982084905
 31
0.0
 11
5.6419367296
 21
5.3926016114
 31
0.0
 11
5.6768649192
 21
5.3796752219
 31
0.0
 11
5.6935327983
 21
5.3723877388
 31
0.0
 11
5.7096141373
 21
5.3645747839
 31
0.0
 11
5.7250681668
 21
5.3562553155
 31
0.0
 11
5.7398570297
 21
5.3474506645
 31
0.0
 11
5.7672921688
 21
5.3284743583
 31
0.0
 11
5.7916459761
 21
5.307835844
 31
0.0
 11
5.8025900184
 21
5.2969571256
 31
0.0
 11
5.8126755066
 21
5.285741563
 31
0.0
 11
5.8218769167
 21
5.2742169709
 31
0.0
 11
5.8301720344
 21
5.2624122626
 31
0.0
 11
5.8375398687
 21
5.2503567147
 31
0.0
 11
5.8439626145
 21
5.2380804771
 31
0.0
 11
5.8494240791
 21
5.2256140681
 31
0.0
 11
5.8539110529
 21
5.2129885306
 31
0.0
 11
5.8574123192
 21
5.2002353073
 31
0.0
 11
5.8599193436
 21
5.187386321
 31
0.0
 11
5.8614260121
 21
5.1744729191
 31
0.0
 11
5.8619286316
 21
5.1615281187
 31
0.0
  0
SPLINE
  5
24B
100
AcDbEntity
  8
0
100
AcDbSpline
 62
6
  6
CONTINUOUS
 70
0
 71
3
 72
54
 73
50
 74
48
 42
0.0000001
 43
0.0000001
 44
0.0000000001
 12
0.0288011853
 22
-0.0190049175
 32
0.0
 13
-0.032663222
 23
0.0111269535
 33
0.0
 40
0.0
 40
0.0
 40
0.0
 40
0.0
 40
0.0647029127
 40
0.1294670182
 40
0.1942732859
 40
0.2590986334
 40
0.3239144685
 40
0.3886847065
 40
0.4533627009
 40
0.5178862366
 40
0.5821693454
 40
0.6460872081
 40
0.7094464995
 40
0.7719187956
 40
0.8026442409
 40
0.832860433
 40
0.8477112002
 40
0.8623365311
 40
0.8766751245
 40
0.8837103171
 40
0.8906375466
 40
0.8974343786
 40
0.9040761628
 40
0.9105284731
 40
0.9167497573
 40
0.9226617979
 40
0.9254637781
 40
0.9281423885
 40
0.9306767277
 40
0.9330448994
 40
0.9352285103
 40
0.9371790013
 40
0.9380342926
 40
0.9388009702
 40
0.9394899846
 40
0.940137266
 40
0.9408072579
 40
0.9415668559
 40
0.9424663914
 40
0.9435409551
 40
0.9463037789
 40
0.9499590852
 40
0.9543404629
 40
0.9591722417
 40
0.9641744481
 40
0.9692220455
 40
0.9794209016
 40
0.9897057197
 40
1.0
 40
1.0
 40
1.0
 40
1.0
 10
5.1722074547
 20
4.9783801285
 30
0.0
 10
5.1728286282
 20
4.9779702373
 30
0.0
 10
5.1740737888
 20
4.9771534356
 30
0.0
 10
5.1759486382
 20
4.9759376055
 30
0.0
 10
5.1778308012
 20
4.9747305179
 30
0.0
 10
5.1797192806
 20
4.9735322275
 30
0.0
 10
5.181612861
 20
4.9723427949
 30
0.0
 10
5.183510025
 20
4.9711622937
 30
0.0
 10
5.1854088268
 20
4.9699908219
 30
0.0
 10
5.1873066869
 20
4.9688285203
 30
0.0
 10
5.1892000396
 20
4.9676756172
 30
0.0
 10
5.191083693
 20
4.96653254
 30
0.0
 10
5.1929494472
 20
4.9654001192
 30
0.0
 10
5.1944863849
 20
4.964461752
 30
0.0
 10
5.195693553
 20
4.9637148842
 30
0.0
 10
5.196431983
 20
4.9632514901
 30
0.0
 10
5.1970106602
 20
4.9628819718
 30
0.0
 10
5.1974335318
 20
4.9626078129
 30
0.0
 10
5.1977789015
 20
4.9623793848
 30
0.0
 10
5.1980486548
 20
4.9621971771
 30
0.0
 10
5.1982455026
 20
4.9620620241
 30
0.0
 10
5.1984373326
 20
4.9619275739
 30
0.0
 10
5.1986231443
 20
4.9617940783
 30
0.0
 10
5.1988015862
 20
4.9616617056
 30
0.0
 10
5.1989707822
 20
4.9615310223
 30
0.0
 10
5.1991038816
 20
4.9614223478
 30
0.0
 10
5.1992025681
 20
4.961336118
 30
0.0
 10
5.1992703359
 20
4.9612735946
 30
0.0
 10
5.1993323179
 20
4.9612122327
 30
0.0
 10
5.1993875346
 20
4.9611522085
 30
0.0
 10
5.1994346802
 20
4.96109413
 30
0.0
 10
5.1994671681
 20
4.9610465616
 30
0.0
 10
5.1994851149
 20
4.9610094912
 30
0.0
 10
5.1994931652
 20
4.9609840222
 30
0.0
 10
5.1994954757
 20
4.9609596839
 30
0.0
 10
5.1994906203
 20
4.9609366621
 30
0.0
 10
5.1994774554
 20
4.9609161547
 30
0.0
 10
5.1994565242
 20
4.9608989222
 30
0.0
 10
5.1994281076
 20
4.9608849864
 30
0.0
 10
5.1993755801
 20
4.9608697759
 30
0.0
 10
5.1992889097
 20
4.9608631464
 30
0.0
 10
5.199164903
 20
4.9608725935
 30
0.0
 10
5.1990185306
 20
4.9608952689
 30
0.0
 10
5.198858304
 20
4.9609280194
 30
0.0
 10
5.1986917128
 20
4.9609674371
 30
0.0
 10
5.1984664124
 20
4.9610265326
 30
0.0
 10
5.1981846341
 20
4.9611094116
 30
0.0
 10
5.1978470764
 20
4.9612161208
 30
0.0
 10
5.1976225327
 20
4.9612910471
 30
0.0
 10
5.1975104512
 20
4.9613292284
 30
0.0
 11
5.1722074547
 21
4.9783801285
 31
0.0
 11
5.174074267
 21
4.9771554581
 31
0.0
 11
5.1759492524
 21
4.9759394528
 31
0.0
 11
5.1778315854
 21
4.9747321557
 31
0.0
 11
5.1797202818
 21
4.9735336087
 31
0.0
 11
5.1816141427
 21
4.972343856
 31
0.0
 11
5.1835116764
 21
4.971162945
 31
0.0
 11
5.1854109792
 21
4.9699909313
 31
0.0
 11
5.1873095397
 21
4.9688278865
 31
0.0
 11
5.1892039203
 21
4.9676739137
 31
0.0
 11
5.1910891698
 21
4.9665291816
 31
0.0
 11
5.1929576706
 21
4.9653940027
 31
0.0
 11
5.1947965542
 21
4.9642690415
 31
0.0
 11
5.1956979354
 21
4.9637108379
 31
0.0
 11
5.1965807035
 21
4.9631559983
 31
0.0
 11
5.1970125242
 21
4.9628800761
 31
0.0
 11
5.1974358744
 21
4.9626053678
 31
0.0
 11
5.1978483702
 21
4.9623321491
 31
0.0
 11
5.1980495096
 21
4.9621962258
 31
0.0
 11
5.1982465181
 21
4.9620608561
 31
0.0
 11
5.198438526
 21
4.9619261734
 31
0.0
 11
5.1986245666
 21
4.9617923288
 31
0.0
 11
5.1988032779
 21
4.961659537
 31
0.0
 11
5.1989729854
 21
4.9615280665
 31
0.0
 11
5.1991305972
 21
4.9613985444
 31
0.0
 11
5.19920334
 21
4.9613348519
 31
0.0
 11
5.1992711712
 21
4.9612720657
 31
0.0
 11
5.1993331739
 21
4.9612103943
 31
0.0
 11
5.1993883054
 21
4.9611500767
 31
0.0
 11
5.1994355178
 21
4.9610913536
 31
0.0
 11
5.1994722821
 21
4.9610349773
 31
0.0
 11
5.1994848655
 21
4.9610082812
 31
0.0
 11
5.1994924728
 21
4.9609829432
 31
0.0
 11
5.1994942714
 21
4.9609592359
 31
0.0
 11
5.1994894289
 21
4.9609374318
 31
0.0
 11
5.199477192
 21
4.9609178168
 31
0.0
 11
5.1994572921
 21
4.9609007577
 31
0.0
 11
5.1994296425
 21
4.960886652
 31
0.0
 11
5.1993941572
 21
4.960875897
 31
0.0
 11
5.1992993341
 21
4.9608660287
 31
0.0
 11
5.19917342
 21
4.9608734336
 31
0.0
 11
5.1990238686
 21
4.9608956041
 31
0.0
 11
5.1988604075
 21
4.9609284455
 31
0.0
 11
5.1986923896
 21
4.9609679884
 31
0.0
 11
5.1985238793
 21
4.9610120463
 31
0.0
 11
5.1981859336
 21
4.9611102542
 31
0.0
 11
5.1978474694
 21
4.9612169815
 31
0.0
 11
5.1975104512
 21
4.9613292284
 31
0.0
  0
SPLINE
  5
24C
100
AcDbEntity
  8
0
100
AcDbSpline
 62
9
  6
CONTINUOUS
 70
0
 71
3
 72
15
 73
11
 74
9
 42
0.0000001
 43
0.0000001
 44
0.0000000001
 12
0.0
 22
-0.1083119577
 32
0.0
 13
-0.0598623399
 23
-0.0902661645
 33
0.0
 40
0.0
 40
0.0
 40
0.0
 40
0.0
 40
0.1207021785
 40
0.2418438945
 40
0.3638425679
 40
0.4871100394
 40
0.6120268413
 40
0.7389436069
 40
0.8681762107
 40
1.0
 40
1.0
 40
1.0
 40
1.0
 10
5.8619286316
 20
5.1615281187
 30
0.0
 10
5.8619286316
 20
5.1571702889
 30
0.0
 10
5.8615857712
 20
5.1484349195
 30
0.0
 10
5.8600453683
 20
5.1353766772
 30
0.0
 10
5.8574824863
 20
5.1223851187
 30
0.0
 10
5.8539043473
 20
5.109494896
 30
0.0
 10
5.849320196
 20
5.096738887
 30
0.0
 10
5.8437425376
 20
5.0841494902
 30
0.0
 10
5.8371860793
 20
5.0717594935
 30
0.0
 10
5.8322254833
 20
5.0637359788
 30
0.0
 10
5.8295950564
 20
5.0597695695
 30
0.0
 11
5.8619286316
 21
5.1615281187
 31
0.0
 11
5.8614167537
 21
5.1484646543
 31
0.0
 11
5.8598823552
 21
5.135433584
 31
0.0
 11
5.8573292594
 21
5.1224686599
 31
0.0
 11
5.8537638469
 21
5.1096021863
 31
0.0
 11
5.8491949447
 21
5.0968669759
 31
0.0
 11
5.843634172
 21
5.084295305
 31
0.0
 11
5.837095345
 21
5.0719190388
 31
0.0
 11
5.8295950564
 21
5.0597695695
 31
0.0
  0
SPLINE
  5
24D
100
AcDbEntity
  8
0
100
AcDbSpline
 62
9
  6
CONTINUOUS
 70
0
 71
3
 72
18
 73
14
 74
12
 42
0.0000001
 43
0.0000001
 44
0.0000000001
 12
-0.1070641229
 22
-0.1614415299
 32
0.0
 13
-0.1788110074
 23
-0.0745165593
 33
0.0
 40
0.0
 40
0.0
 40
0.0
 40
0.0
 40
0.1112474517
 40
0.2262332236
 40
0.3451726475
 40
0.406175847
 40
0.4682009375
 40
0.5312472882
 40
0.5953095611
 40
0.6603753536
 40
0.7264278359
 40
0.861391472
 40
1.0
 40
1.0
 40
1.0
 40
1.0
 10
5.8295950564
 20
5.0597695695
 30
0.0
 10
5.8256248528
 20
5.0537829166
 30
0.0
 10
5.816961794
 20
5.0419900279
 30
0.0
 10
5.8022102385
 20
5.025248085
 30
0.0
 10
5.7884651853
 20
5.0120342647
 30
0.0
 10
5.7765940837
 20
5.0018712386
 30
0.0
 10
5.7671784014
 20
4.9944025749
 30
0.0
 10
5.7573393375
 20
4.987163311
 30
0.0
 10
5.7470897889
 20
4.9801637159
 30
0.0
 10
5.7364442741
 20
4.9734127572
 30
0.0
 10
5.7216366993
 20
4.9646931793
 30
0.0
 10
5.7022096453
 20
4.9544859201
 30
0.0
 10
5.6860928968
 20
4.9472251423
 30
0.0
 10
5.67783132
 20
4.9437822655
 30
0.0
 11
5.8295950564
 21
5.0597695695
 31
0.0
 11
5.816861829
 21
5.042383147
 31
0.0
 11
5.8021605826
 21
5.0256489558
 31
0.0
 11
5.7855720026
 21
5.009658798
 31
0.0
 11
5.7765976071
 21
5.0019705297
 31
0.0
 11
5.7671863977
 21
4.994500843
 31
0.0
 11
5.7573511321
 21
4.9872601346
 31
0.0
 11
5.7471049415
 21
4.9802585832
 31
0.0
 11
5.7364622969
 21
4.9735055848
 31
0.0
 11
5.7254379694
 21
4.9670103605
 31
0.0
 11
5.702304236
 21
4.9548294306
 31
0.0
 11
5.67783132
 21
4.9437822655
 31
0.0
  0
SPLINE
  5
24E
100
AcDbEntity
  8
0
100
AcDbSpline
 62
9
  6
CONTINUOUS
 70
0
 71
3
 72
65
 73
61
 74
59
 42
0.0000001
 43
0.0000001
 44
0.0000000001
 12
0.0
 22
-1.0423929021
 32
0.0
 13
-0.373758049
 23
0.9730816426
 33
0.0
 40
0.0
 40
0.0
 40
0.0
 40
0.0
 40
0.0118680964
 40
0.0237716405
 40
0.0357432774
 40
0.0478164346
 40
0.0600222277
 40
0.0723896572
 40
0.0849453814
 40
0.0977135109
 40
0.1107150861
 40
0.1239684344
 40
0.1374886015
 40
0.1512878705
 40
0.1653755636
 40
0.1797577874
 40
0.2094108624
 40
0.2402535546
 40
0.2561135989
 40
0.2722537487
 40
0.3053292275
 40
0.3222455051
 40
0.3393937025
 40
0.3567583638
 40
0.3743224282
 40
0.3920680876
 40
0.4099767762
 40
0.428028754
 40
0.446203727
 40
0.4644809975
 40
0.4828391451
 40
0.5012563794
 40
0.5197107708
 40
0.5381801621
 40
0.5566422492
 40
0.5934518317
 40
0.6299680463
 40
0.6480647625
 40
0.6660251545
 40
0.7014535419
 40
0.7188889681
 40
0.7361137085
 40
0.7531116408
 40
0.7698682428
 40
0.7863699278
 40
0.8026045736
 40
0.8185622269
 40
0.8342342813
 40
0.8496138698
 40
0.8646968183
 40
0.8794807933
 40
0.8939656227
 40
0.9081543219
 40
0.922052214
 40
0.9356673749
 40
0.9490112046
 40
0.9620977021
 40
0.974944107
 40
0.9875705239
 40
1.0
 40
1.0
 40
1.0
 40
1.0
 10
5.883141835
 20
5.1682591954
 30
0.0
 10
5.883141835
 20
5.1641354555
 30
0.0
 10
5.8828503248
 20
5.1558727185
 30
0.0
 10
5.8815403449
 20
5.143512767
 30
0.0
 10
5.8793600591
 20
5.1312034756
 30
0.0
 10
5.8763141101
 20
5.118971532
 30
0.0
 10
5.8724093683
 20
5.1068417957
 30
0.0
 10
5.8676536304
 20
5.0948396291
 30
0.0
 10
5.8620575616
 20
5.0829894871
 30
0.0
 10
5.8556322699
 20
5.0713160251
 30
0.0
 10
5.8483920536
 20
5.0598425653
 30
0.0
 10
5.8403509468
 20
5.0485932065
 30
0.0
 10
5.8315265333
 20
5.0375901486
 30
0.0
 10
5.821936498
 20
5.0268561917
 30
0.0
 10
5.8116002203
 20
5.0164132411
 30
0.0
 10
5.796703009
 20
5.0027672282
 30
0.0
 10
5.7762855132
 20
4.9865794338
 30
0.0
 10
5.7541223979
 20
4.9719381212
 30
0.0
 10
5.7352133804
 20
4.961008726
 30
0.0
 10
5.7152091544
 20
4.950457778
 30
0.0
 10
5.6942879268
 20
4.9408962099
 30
0.0
 10
5.672589176
 20
4.9323205132
 30
0.0
 10
5.6557516968
 20
4.9263237348
 30
0.0
 10
5.6385095315
 20
4.9208239646
 30
0.0
 10
5.62089799
 20
4.9158309503
 30
0.0
 10
5.6029531081
 20
4.9113554503
 30
0.0
 10
5.5847114066
 20
4.9074075561
 30
0.0
 10
5.5662105788
 20
4.9039940138
 30
0.0
 10
5.5474884574
 20
4.9011219879
 30
0.0
 10
5.5285832317
 20
4.8987985535
 30
0.0
 10
5.5095338185
 20
4.8970272373
 30
0.0
 10
5.49037923
 20
4.8958115425
 30
0.0
 10
5.471158705
 20
4.8951552772
 30
0.0
 10
5.4519114983
 20
4.8950587792
 30
0.0
 10
5.4262935273
 20
4.8956755785
 30
0.0
 10
5.3944544608
 20
4.897837592
 30
0.0
 10
5.3629230765
 20
4.9018529718
 30
0.0
 10
5.3380749466
 20
4.9061691574
 30
0.0
 10
5.3137409133
 20
4.9111649809
 30
0.0
 10
5.2898709646
 20
4.9172306621
 30
0.0
 10
5.2665840158
 20
4.9243696336
 30
0.0
 10
5.2496028799
 20
4.9301960546
 30
0.0
 10
5.2330497626
 20
4.936511393
 30
0.0
 10
5.21695779
 20
4.943301498
 30
0.0
 10
5.2013601497
 20
4.9505528847
 30
0.0
 10
5.1862893288
 20
4.9582517662
 30
0.0
 10
5.1717755697
 20
4.9663810856
 30
0.0
 10
5.1578486414
 20
4.9749243576
 30
0.0
 10
5.144537925
 20
4.9838653215
 30
0.0
 10
5.1318699876
 20
4.9931844891
 30
0.0
 10
5.1198707239
 20
5.0028627821
 30
0.0
 10
5.1085657503
 20
5.0128815562
 30
0.0
 10
5.0979773957
 20
5.023219272
 30
0.0
 10
5.0881274522
 20
5.0338550639
 30
0.0
 10
5.0790369519
 20
5.0447679213
 30
0.0
 10
5.0707235409
 20
5.0559347374
 30
0.0
 10
5.0632052739
 20
5.0673334757
 30
0.0
 10
5.0564972242
 20
5.0789407053
 30
0.0
 10
5.0506137048
 20
5.0907321151
 30
0.0
 10
5.0472245076
 20
5.0987590768
 30
0.0
 10
5.0456759687
 20
5.1027907085
 30
0.0
 11
5.883141835
 21
5.1682591954
 31
0.0
 11
5.8827062632
 21
5.1558956462
 31
0.0
 11
5.8814004004
 21
5.1435563835
 31
0.0
 11
5.8792268929
 21
5.1312679731
 31
0.0
 11
5.8761900112
 21
5.1190549102
 31
0.0
 11
5.8722960286
 21
5.1069422088
 31
0.0
 11
5.8675526513
 21
5.0949548473
 31
0.0
 11
5.8619697
 21
5.0831173502
 31
0.0
 11
5.8555582561
 21
5.0714540008
 31
0.0
 11
5.8483317116
 21
5.0599886583
 31
0.0
 11
5.8403043038
 21
5.048744977
 31
0.0
 11
5.8314928426
 21
5.0377458864
 31
0.0
 11
5.821915001
 21
5.0270140698
 31
0.0
 11
5.8115901922
 21
5.016571611
 31
0.0
 11
5.8005400997
 21
5.0064398115
 31
0.0
 11
5.776354309
 21
4.9871918193
 31
0.0
 11
5.7495569495
 21
4.9694284552
 31
0.0
 11
5.7352465218
 21
4.9611500598
 31
0.0
 11
5.7203676568
 21
4.9532964581
 31
0.0
 11
5.6890263847
 21
4.9389286951
 31
0.0
 11
5.6726288053
 21
4.9324435999
 31
0.0
 11
5.655791053
 21
4.9264426489
 31
0.0
 11
5.6385474347
 21
4.9209384161
 31
0.0
 11
5.6209338428
 21
4.9159415901
 31
0.0
 11
5.6029863233
 21
4.9114626757
 31
0.0
 11
5.5847414087
 21
4.907511321
 31
0.0
 11
5.566236879
 21
4.9040949765
 31
0.0
 11
5.5475107112
 21
4.9012207461
 31
0.0
 11
5.5286010861
 21
4.8988951311
 31
0.0
 11
5.5095469815
 21
4.8971222788
 31
0.0
 11
5.4903875694
 21
4.8959057614
 31
0.0
 11
5.4711620655
 21
4.8952487621
 31
0.0
 11
5.4519099457
 21
4.8951521171
 31
0.0
 11
5.4326707836
 21
4.8956157867
 31
0.0
 11
5.3943892709
 21
4.8982208462
 31
0.0
 11
5.3566315442
 21
4.9030417036
 31
0.0
 11
5.338046267
 21
4.9062718363
 31
0.0
 11
5.3197074967
 21
4.9100394276
 31
0.0
 11
5.283920287
 21
4.9191565902
 31
0.0
 11
5.2665449647
 21
4.9244869719
 31
0.0
 11
5.2495631638
 21
4.9303178005
 31
0.0
 11
5.2330099571
 21
4.9366374084
 31
0.0
 11
5.2169187989
 21
4.9434322169
 31
0.0
 11
5.2013229749
 21
4.950688449
 31
0.0
 11
5.1862549639
 21
4.9583916236
 31
0.0
 11
5.1717450658
 21
4.9665253572
 31
0.0
 11
5.1578232163
 21
4.9750729487
 31
0.0
 11
5.144518674
 21
4.9840172495
 31
0.0
 11
5.1318580975
 21
4.9933393928
 31
0.0
 11
5.119867521
 21
5.0030200994
 31
0.0
 11
5.1085722692
 21
5.0130397582
 31
0.0
 11
5.0979948074
 21
5.0233774222
 31
0.0
 11
5.0881568751
 21
5.0340118058
 31
0.0
 11
5.0790790148
 21
5.0449212132
 31
0.0
 11
5.0707791307
 21
5.0560830449
 31
0.0
 11
5.0632745581
 21
5.0674745195
 31
0.0
 11
5.0565803538
 21
5.0790722152
 31
0.0
 11
5.0507101558
 21
5.0908523165
 31
0.0
 11
5.0456759687
 21
5.1027907085
 31
0.0
  0
SPLINE
  5
24F
100
AcDbEntity
  8
0
100
AcDbSpline
 62
9
  6
CONTINUOUS
 70
0
 71
3
 72
11
 73
7
 74
5
 42
0.0000001
 43
0.0000001
 44
0.0000000001
 12
-0.0240176483
 22
0.062530112
 32
0.0
 13
-0.0
 23
0.0669840454
 33
0.0
 40
0.0
 40
0.0
 40
0.0
 40
0.0
 40
0.2543496008
 40
0.5050082991
 40
0.753147456
 40
1.0
 40
1.0
 40
1.0
 40
1.0
 10
5.0456759687
 20
5.1027907085
 30
0.0
 10
5.0436396756
 20
5.1080922115
 30
0.0
 10
5.0400492636
 20
5.1187994181
 30
0.0
 10
5.0361543558
 20
5.1351817514
 30
0.0
 10
5.0338109119
 20
5.1516883435
 30
0.0
 10
5.0332890213
 20
5.162747468
 30
0.0
 10
5.0332890213
 20
5.1682591954
 30
0.0
 11
5.0456759687
 21
5.1027907085
 31
0.0
 11
5.0402713019
 21
5.1189481027
 31
0.0
 11
5.0363968645
 21
5.1352850952
 31
0.0
 11
5.0340666582
 21
5.1517423093
 31
0.0
 11
5.0332890213
 21
5.1682591954
 31
0.0
  0
SPLINE
  5
250
100
AcDbEntity
  8
0
100
AcDbSpline
 62
6
  6
CONTINUOUS
 70
0
 71
3
 72
23
 73
19
 74
17
 42
0.0000001
 43
0.0000001
 44
0.0000000001
 12
0.4219390335
 22
0.1799291995
 32
0.0
 13
0.4245080747
 23
-0.1737813551
 33
0.0
 40
0.0
 40
0.0
 40
0.0
 40
0.0
 40
0.0581281091
 40
0.1176362454
 40
0.1783859118
 40
0.2402206596
 40
0.3029730617
 40
0.366463611
 40
0.430506208
 40
0.4949082083
 40
0.5594743779
 40
0.6240082962
 40
0.6883147987
 40
0.752202847
 40
0.8154865505
 40
0.8779895288
 40
0.9395446833
 40
1.0
 40
1.0
 40
1.0
 40
1.0
 10
5.2215928911
 20
5.2016389949
 30
0.0
 10
5.2297683971
 20
5.2051253096
 30
0.0
 10
5.2465221302
 20
5.2117006163
 30
0.0
 10
5.2724300064
 20
5.2202676446
 30
0.0
 10
5.2992988086
 20
5.2276122489
 30
0.0
 10
5.326987938
 20
5.2336966906
 30
0.0
 10
5.3553554684
 20
5.238482833
 30
0.0
 10
5.384254319
 20
5.2419464716
 30
0.0
 10
5.4135356177
 20
5.2440628059
 30
0.0
 10
5.4430478821
 20
5.2448213711
 30
0.0
 10
5.4726386994
 20
5.2442113065
 30
0.0
 10
5.5021552612
 20
5.2422361866
 30
0.0
 10
5.5314448303
 20
5.2388992522
 30
0.0
 10
5.5603564848
 20
5.2342181182
 30
0.0
 10
5.588740278
 20
5.2282099871
 30
0.0
 10
5.6164505931
 20
5.2209060836
 30
0.0
 10
5.6433424832
 20
5.2123375045
 30
0.0
 10
5.6608060217
 20
5.2057460498
 30
0.0
 10
5.6693606118
 20
5.2022440476
 30
0.0
 11
5.2215928911
 21
5.2016389949
 31
0.0
 11
5.2464064473
 21
5.2113974288
 31
0.0
 11
5.2723180318
 21
5.2199815498
 31
0.0
 11
5.2991941907
 21
5.2273425269
 31
0.0
 11
5.3268947218
 21
5.2334400317
 31
0.0
 11
5.3552766432
 21
5.238238046
 31
0.0
 11
5.3841922039
 21
5.2417096043
 31
0.0
 11
5.4134918509
 21
5.2438322516
 31
0.0
 11
5.4430233495
 21
5.244592939
 31
0.0
 11
5.4726336719
 21
5.243983245
 31
0.0
 11
5.5021692547
 21
5.2420043027
 31
0.0
 11
5.5314767662
 21
5.2386619039
 31
0.0
 11
5.5604044941
 21
5.2339713347
 31
0.0
 11
5.5888019829
 21
5.2279524853
 31
0.0
 11
5.6165225103
 21
5.2206344736
 31
0.0
 11
5.6434216196
 21
5.2120508801
 31
0.0
 11
5.6693606118
 21
5.2022440476
 31
0.0
  0
SPLINE
  5
251
100
AcDbEntity
  8
0
100
AcDbSpline
 62
9
  6
CONTINUOUS
 70
0
 71
3
 72
63
 73
59
 74
57
 42
0.0000001
 43
0.0000001
 44
0.0000000001
 12
-0.4644926931
 22
-0.9867344136
 32
0.0
 13
-0.4644926931
 23
0.9867344136
 33
0.0
 40
0.0
 40
0.0
 40
0.0
 40
0.0
 40
0.0122737965
 40
0.0247415503
 40
0.03741494
 40
0.0503042285
 40
0.0634198641
 40
0.0767716821
 40
0.0903679229
 40
0.1042146182
 40
0.1183148816
 40
0.1326702714
 40
0.1472810237
 40
0.1621455152
 40
0.1926177118
 40
0.2082205081
 40
0.2240570871
 40
0.240119428
 40
0.2563985548
 40
0.2728840804
 40
0.2895648799
 40
0.323460956
 40
0.3579860794
 40
0.3754509491
 40
0.3930295817
 40
0.4107065102
 40
0.4284660094
 40
0.4462918812
 40
0.4641676957
 40
0.4999999946
 40
0.5358322936
 40
0.5537081081
 40
0.5715339799
 40
0.5892934792
 40
0.6069704077
 40
0.6245490403
 40
0.6420139101
 40
0.6765390336
 40
0.7104351099
 40
0.7271159095
 40
0.7436014354
 40
0.7598805624
 40
0.7759429035
 40
0.7917794828
 40
0.8073822793
 40
0.8378544759
 40
0.8527189674
 40
0.8673297195
 40
0.8816851092
 40
0.8957853725
 40
0.9096320674
 40
0.9232283079
 40
0.9365801265
 40
0.9496957635
 40
0.9625850545
 40
0.9752584469
 40
0.9877262027
 40
1.0
 40
1.0
 40
1.0
 40
1.0
 10
5.9272154281
 20
5.0617190669
 30
0.0
 10
5.9253150652
 20
5.0576820744
 30
0.0
 10
5.921255582
 20
5.0496499714
 30
0.0
 10
5.9144730394
 20
5.0378532749
 30
0.0
 10
5.9069635181
 20
5.0262379485
 30
0.0
 10
5.8987390834
 20
5.0148262488
 30
0.0
 10
5.8898138945
 20
5.003636952
 30
0.0
 10
5.8802030278
 20
4.992686852
 30
0.0
 10
5.869920931
 20
4.9819929728
 30
0.0
 10
5.8589835093
 20
4.9715722314
 30
0.0
 10
5.8474090534
 20
4.9614402053
 30
0.0
 10
5.8352160274
 20
4.951613204
 30
0.0
 10
5.8224228613
 20
4.942107716
 30
0.0
 10
5.8044464604
 20
4.9297808436
 30
0.0
 10
5.785491316
 20
4.9182712924
 30
0.0
 10
5.7656785204
 20
4.9075876173
 30
0.0
 10
5.7502115597
 20
4.8999007977
 30
0.0
 10
5.7342806296
 20
4.8926168097
 30
0.0
 10
5.7179103731
 20
4.8857477098
 30
0.0
 10
5.7011272583
 20
4.8793033678
 30
0.0
 10
5.6781137542
 20
4.8712485977
 30
0.0
 10
5.648472966
 20
4.8623227116
 30
0.0
 10
5.6181024875
 20
4.8550076149
 30
0.0
 10
5.5932922789
 20
4.8500897345
 30
0.0
 10
5.5743970125
 20
4.846868164
 30
0.0
 10
5.555317143
 20
4.8441333253
 30
0.0
 10
5.5360827465
 20
4.8418903954
 30
0.0
 10
5.5167244404
 20
4.840141966
 30
0.0
 10
5.4907707845
 20
4.8384724095
 30
0.0
 10
5.458215434
 20
4.8376392211
 30
0.0
 10
5.4256600835
 20
4.8384724091
 30
0.0
 10
5.3997064276
 20
4.8401419652
 30
0.0
 10
5.3803481215
 20
4.841890394
 30
0.0
 10
5.3611137249
 20
4.8441333237
 30
0.0
 10
5.3420338553
 20
4.8468681624
 30
0.0
 10
5.3231385887
 20
4.8500897323
 30
0.0
 10
5.29832838
 20
4.8550076123
 30
0.0
 10
5.2679579013
 20
4.8623227087
 30
0.0
 10
5.2383171128
 20
4.8712485943
 30
0.0
 10
5.2153036083
 20
4.8793033641
 30
0.0
 10
5.1985204931
 20
4.8857477057
 30
0.0
 10
5.1821502363
 20
4.8926168055
 30
0.0
 10
5.1662193059
 20
4.8999007935
 30
0.0
 10
5.1507523448
 20
4.9075876127
 30
0.0
 10
5.1309395487
 20
4.9182712873
 30
0.0
 10
5.1119844042
 20
4.9297808384
 30
0.0
 10
5.0940080028
 20
4.9421077101
 30
0.0
 10
5.0812148368
 20
4.951613198
 30
0.0
 10
5.0690218107
 20
4.961440199
 30
0.0
 10
5.0574473545
 20
4.9715722244
 30
0.0
 10
5.0465099326
 20
4.9819929652
 30
0.0
 10
5.0362278358
 20
4.9926868443
 30
0.0
 10
5.0266169681
 20
5.0036369442
 30
0.0
 10
5.0176917777
 20
5.0148262419
 30
0.0
 10
5.0094673419
 20
5.0262379438
 30
0.0
 10
5.0019578191
 20
5.0378532724
 30
0.0
 10
4.9951752751
 20
5.0496499704
 30
0.0
 10
4.9911157912
 20
5.0576820742
 30
0.0
 10
4.9892154281
 20
5.0617190669
 30
0.0
 11
5.9272154281
 21
5.0617190669
 31
0.0
 11
5.9211826575
 21
5.0497698467
 31
0.0
 11
5.9144102663
 21
5.0379791472
 31
0.0
 11
5.9069107962
 21
5.0263691118
 31
0.0
 11
5.8986968805
 21
5.0149616234
 31
0.0
 11
5.8897822295
 21
5.0037755086
 31
0.0
 11
5.8801812532
 21
4.9928276081
 31
0.0
 11
5.8699083857
 21
4.9821347274
 31
0.0
 11
5.8589793693
 21
4.9717135431
 31
0.0
 11
5.8474124212
 21
4.9615804874
 31
0.0
 11
5.8352260339
 21
4.9517519653
 31
0.0
 11
5.8224390395
 21
4.942244154
 31
0.0
 11
5.8090722496
 21
4.9330719038
 31
0.0
 11
5.7806854559
 21
4.9157915286
 31
0.0
 11
5.7657100431
 21
4.9077111355
 31
0.0
 11
5.7502452917
 21
4.9000209301
 31
0.0
 11
5.7343155957
 21
4.8927333994
 31
0.0
 11
5.7179459557
 21
4.8858604609
 31
0.0
 11
5.7011629041
 21
4.8794125942
 31
0.0
 11
5.6839932117
 21
4.8734000553
 31
0.0
 11
5.648602788
 21
4.8627197051
 31
0.0
 11
5.6120006086
 21
4.8538865665
 31
0.0
 11
5.5933173939
 21
4.8501811998
 31
0.0
 11
5.5744191804
 21
4.8469576169
 31
0.0
 11
5.5553360082
 21
4.8442211345
 31
0.0
 11
5.53609808
 21
4.8419765608
 31
0.0
 11
5.516736156
 21
4.840226955
 31
0.0
 11
5.4972811163
 21
4.8389750007
 31
0.0
 11
5.458215434
 21
4.8379726465
 31
0.0
 11
5.4191497518
 21
4.8389750002
 31
0.0
 11
5.399694712
 21
4.8402269541
 31
0.0
 11
5.3803327879
 21
4.8419765595
 31
0.0
 11
5.3610948597
 21
4.844221133
 31
0.0
 11
5.3420116874
 21
4.8469576151
 31
0.0
 11
5.3231134737
 21
4.8501811977
 31
0.0
 11
5.304430259
 21
4.8538865641
 31
0.0
 11
5.2678280793
 21
4.8627197021
 31
0.0
 11
5.2324376553
 21
4.8734000518
 31
0.0
 11
5.2152679626
 21
4.8794125905
 31
0.0
 11
5.1984849105
 21
4.8858604568
 31
0.0
 11
5.1821152702
 21
4.8927333951
 31
0.0
 11
5.166185574
 21
4.9000209258
 31
0.0
 11
5.150720822
 21
4.9077111309
 31
0.0
 11
5.1357454089
 21
4.9157915238
 31
0.0
 11
5.1073586148
 21
4.9330718984
 31
0.0
 11
5.0939918247
 21
4.9422441482
 31
0.0
 11
5.0812048303
 21
4.9517519593
 31
0.0
 11
5.0690184429
 21
4.9615804811
 31
0.0
 11
5.0574514945
 21
4.9717135362
 31
0.0
 11
5.046522478
 21
4.9821347198
 31
0.0
 11
5.0362496104
 21
4.9928276
 31
0.0
 11
5.0266486333
 21
5.0037755006
 31
0.0
 11
5.017733981
 21
5.0149616163
 31
0.0
 11
5.0095200638
 21
5.026369107
 31
0.0
 11
5.0020205921
 21
5.0379791449
 31
0.0
 11
4.9952481995
 21
5.049769846
 31
0.0
 11
4.9892154281
 21
5.0617190669
 31
0.0
  0
SPLINE
  5
252
100
AcDbEntity
  8
0
100
AcDbSpline
 62
9
  6
CONTINUOUS
 70
0
 71
3
 72
18
 73
14
 74
12
 42
0.0000001
 43
0.0000001
 44
0.0000000001
 12
-0.0143195203
 22
-0.1408756756
 32
0.0
 13
-0.0924879628
 23
-0.1072239776
 33
0.0
 40
0.0
 40
0.0
 40
0.0
 40
0.0
 40
0.1182754504
 40
0.2376787237
 40
0.2979454804
 40
0.358651614
 40
0.4198503858
 40
0.4815926118
 40
0.6068745852
 40
0.7348563838
 40
0.7999581522
 40
0.8658352163
 40
1.0
 40
1.0
 40
1.0
 40
1.0
 10
5.9272154281
 20
5.1485621859
 30
0.0
 10
5.9266508789
 20
5.1430081413
 30
0.0
 10
5.9250372104
 20
5.1318905134
 30
0.0
 10
5.921851768
 20
5.1181756491
 30
0.0
 10
5.9186090124
 20
5.107300272
 30
0.0
 10
5.9158192002
 20
5.0991642932
 30
0.0
 10
5.912681759
 20
5.0910812839
 30
0.0
 10
5.9080161232
 20
5.0803313046
 30
0.0
 10
5.9013068294
 20
5.0670455156
 30
0.0
 10
5.8935523059
 20
5.0541579196
 30
0.0
 10
5.8867056978
 20
5.0440297006
 30
0.0
 10
5.8793410912
 20
5.0339087976
 30
0.0
 10
5.873397983
 20
5.0265601143
 30
0.0
 10
5.8692617738
 20
5.0217648871
 30
0.0
 11
5.9272154281
 21
5.1485621859
 31
0.0
 11
5.9248152026
 21
5.131987082
 31
0.0
 11
5.9209974143
 21
5.1155160619
 31
0.0
 11
5.9185601804
 21
5.1073376278
 31
0.0
 11
5.9157732404
 21
5.0992058616
 31
0.0
 11
5.9126388866
 21
5.0911267127
 31
0.0
 11
5.9091594115
 21
5.0831061306
 31
0.0
 11
5.9011747967
 21
5.0672644788
 31
0.0
 11
5.8918441438
 21
5.0517286765
 31
0.0
 11
5.886682929
 21
5.0440904282
 31
0.0
 11
5.8811959009
 21
5.0365465814
 31
0.0
 11
5.8692617738
 21
5.0217648871
 31
0.0
  0
SPLINE
  5
253
100
AcDbEntity
  8
0
100
AcDbSpline
 62
9
  6
CONTINUOUS
 70
0
 71
3
 72
63
 73
59
 74
57
 42
0.0000001
 43
0.0000001
 44
0.0000000001
 12
-0.683219258
 22
-0.7920759011
 32
0.0
 13
-0.1057799493
 23
1.0406648787
 33
0.0
 40
0.0
 40
0.0
 40
0.0
 40
0.0
 40
0.0135173553
 40
0.027284309
 40
0.0413058302
 40
0.0555846466
 40
0.0701220425
 40
0.0849178285
 40
0.0999697271
 40
0.1152741256
 40
0.1466154045
 40
0.178891099
 40
0.1953591636
 40
0.212031776
 40
0.228897338
 40
0.2459435564
 40
0.26315703
 40
0.280523799
 40
0.3156557919
 40
0.3512204436
 40
0.3691265871
 40
0.3870921633
 40
0.4051003751
 40
0.4231343372
 40
0.4411770019
 40
0.4592112608
 40
0.4951834921
 40
0.5309192336
 40
0.5486587058
 40
0.566290257
 40
0.5837982469
 40
0.6011675517
 40
0.6183838068
 40
0.6354330453
 40
0.6523018511
 40
0.6689779139
 40
0.7017019689
 40
0.7177333018
 40
0.733531072
 40
0.7490875423
 40
0.7643962861
 40
0.7794526021
 40
0.7942528582
 40
0.8087947462
 40
0.8230780442
 40
0.8508687679
 40
0.8643904016
 40
0.8776692756
 40
0.8907139374
 40
0.9035350023
 40
0.9161453597
 40
0.9285595982
 40
0.9407943065
 40
0.9528688849
 40
0.9648045498
 40
0.976623739
 40
0.9883482641
 40
1.0
 40
1.0
 40
1.0
 40
1.0
 10
5.8692617738
 20
5.0217648871
 30
0.0
 10
5.8661833347
 20
5.0181959633
 30
0.0
 10
5.859798681
 20
5.0111378943
 30
0.0
 10
5.8496613901
 20
5.0009011275
 30
0.0
 10
5.8388930884
 20
4.9909350699
 30
0.0
 10
5.8275122713
 20
4.9812551608
 30
0.0
 10
5.8155369071
 20
4.971877049
 30
0.0
 10
5.8029857627
 20
4.9628165835
 30
0.0
 10
5.7898796224
 20
4.9540872233
 30
0.0
 10
5.7715491983
 20
4.9428198412
 30
0.0
 10
5.7473504369
 20
4.9296691532
 30
0.0
 10
5.7219690913
 20
4.9179795873
 30
0.0
 10
5.7008256066
 20
4.9094156075
 30
0.0
 10
5.68446992
 20
4.9033656765
 30
0.0
 10
5.6677500917
 20
4.8977425205
 30
0.0
 10
5.6506926083
 20
4.8925558577
 30
0.0
 10
5.6333251833
 20
4.8878130251
 30
0.0
 10
5.6097037457
 20
4.8820696219
 30
0.0
 10
5.5795755717
 20
4.8760591713
 30
0.0
 10
5.5489834808
 20
4.8716446247
 30
0.0
 10
5.5242074309
 20
4.8690601841
 30
0.0
 10
5.5054755113
 20
4.8675987972
 30
0.0
 10
5.4866675949
 20
4.86662169
 30
0.0
 10
5.4678138257
 20
4.8661311131
 30
0.0
 10
5.448944493
 20
4.8661268821
 30
0.0
 10
5.4238285886
 20
4.8667691918
 30
0.0
 10
5.3925875214
 20
4.8687818702
 30
0.0
 10
5.361595249
 20
4.8724067949
 30
0.0
 10
5.3371020606
 20
4.8762681755
 30
0.0
 10
5.3189706338
 20
4.8796272416
 30
0.0
 10
5.3010635506
 20
4.8834512414
 30
0.0
 10
5.2834096687
 20
4.8877346822
 30
0.0
 10
5.2660371799
 20
4.8924697151
 30
0.0
 10
5.2489741239
 20
4.8976487167
 30
0.0
 10
5.232247962
 20
4.9032644661
 30
0.0
 10
5.2105701992
 20
4.9112700937
 30
0.0
 10
5.1895336669
 20
4.920145973
 30
0.0
 10
5.1692432133
 20
4.9298956508
 30
0.0
 10
5.1545932571
 20
4.9375422164
 30
0.0
 10
5.1404323586
 20
4.9455606438
 30
0.0
 10
5.1267834558
 20
4.9539387483
 30
0.0
 10
5.1136679402
 20
4.9626621823
 30
0.0
 10
5.101107034
 20
4.971716957
 30
0.0
 10
5.0891212409
 20
4.9810899517
 30
0.0
 10
5.0740721254
 20
4.9938712204
 30
0.0
 10
5.0600850493
 20
5.0073350904
 30
0.0
 10
5.0473009454
 20
5.0214450581
 30
0.0
 10
5.0384604863
 20
5.0321695848
 30
0.0
 10
5.0302966312
 20
5.0431144699
 30
0.0
 10
5.0228231778
 20
5.0542627985
 30
0.0
 10
5.0160512795
 20
5.06559566
 30
0.0
 10
5.0099920637
 20
5.0770948018
 30
0.0
 10
5.0046566809
 20
5.0887422925
 30
0.0
 10
5.0000530118
 20
5.1005191943
 30
0.0
 10
4.9961883042
 20
5.1124068406
 30
0.0
 10
4.9930704147
 20
5.1243861188
 30
0.0
 10
4.9907036524
 20
5.1364349095
 30
0.0
 10
4.9896262682
 20
5.1445203352
 30
0.0
 10
4.9892154281
 20
5.1485621859
 30
0.0
 11
5.8692617738
 21
5.0217648871
 31
0.0
 11
5.8597806387
 21
5.0112751722
 31
0.0
 11
5.8496518584
 21
5.0010387031
 31
0.0
 11
5.838891601
 21
4.9910720299
 31
0.0
 11
5.8275178848
 21
4.9813909371
 31
0.0
 11
5.815548854
 21
4.9720111572
 31
0.0
 11
5.8030032649
 21
4.9629480816
 31
0.0
 11
5.7899019054
 21
4.9542159693
 31
0.0
 11
5.7762659845
 21
4.9458288448
 31
0.0
 11
5.7474777345
 21
4.9301439452
 31
0.0
 11
5.7168248819
 21
4.9159938638
 31
0.0
 11
5.7008601406
 21
4.9095236566
 31
0.0
 11
5.6845043474
 21
4.903470409
 31
0.0
 11
5.6677837377
 21
4.8978440804
 31
0.0
 11
5.6507249648
 21
4.8926540943
 31
0.0
 11
5.6333558748
 21
4.8879083463
 31
0.0
 11
5.6157045244
 21
4.8836144614
 31
0.0
 11
5.5796685416
 21
4.8764104151
 31
0.0
 11
5.5428497152
 21
4.8710875964
 31
0.0
 11
5.5242205929
 21
4.8691432717
 31
0.0
 11
5.5054850912
 21
4.8676809814
 31
0.0
 11
5.4866734003
 21
4.8667033281
 31
0.0
 11
5.4678157792
 21
4.866212256
 31
0.0
 11
5.4489426627
 21
4.8662080298
 31
0.0
 11
5.430084513
 21
4.8666906507
 31
0.0
 11
5.3925346841
 21
4.8691137679
 31
0.0
 11
5.3554082589
 21
4.8734651456
 31
0.0
 11
5.3370788669
 21
4.8763560612
 31
0.0
 11
5.3189446797
 21
4.8797173851
 31
0.0
 11
5.3010350786
 21
4.883543957
 31
0.0
 11
5.283379076
 21
4.8878299305
 31
0.0
 11
5.2660048462
 21
4.8925678986
 31
0.0
 11
5.2489404473
 21
4.8977502381
 31
0.0
 11
5.2322137368
 21
4.9033690686
 31
0.0
 11
5.2158513861
 21
4.9094149894
 31
0.0
 11
5.1843246485
 21
4.9227482118
 31
0.0
 11
5.1692114374
 21
4.9300143824
 31
0.0
 11
5.1545639711
 21
4.9376644761
 31
0.0
 11
5.1404061806
 21
4.9456863777
 31
0.0
 11
5.1267611672
 21
4.9540673896
 31
0.0
 11
5.1136503464
 21
4.9627936319
 31
0.0
 11
5.1010949291
 21
4.9718510818
 31
0.0
 11
5.0891157252
 21
4.9812254923
 31
0.0
 11
5.0777315191
 21
4.9909014879
 31
0.0
 11
5.0568205701
 21
5.0110952609
 31
0.0
 11
5.047328065
 21
5.0215807254
 31
0.0
 11
5.0384977051
 21
5.0323025995
 31
0.0
 11
5.030344206
 21
5.0432437327
 31
0.0
 11
5.0228811557
 21
5.0543865637
 31
0.0
 11
5.0161198413
 21
5.0657126929
 31
0.0
 11
5.0100712692
 21
5.0772036185
 31
0.0
 11
5.0047459148
 21
5.0888408533
 31
0.0
 11
5.0001516592
 21
5.1006059807
 31
0.0
 11
4.9962955933
 21
5.1124806056
 31
0.0
 11
4.9931845167
 21
5.1244459612
 31
0.0
 11
4.9908231743
 21
5.1364806597
 31
0.0
 11
4.9892154281
 21
5.1485621859
 31
0.0
  0
SPLINE
  5
254
100
AcDbEntity
  8
0
100
AcDbSpline
 62
9
  6
CONTINUOUS
 70
0
 71
3
 72
63
 73
59
 74
57
 42
0.0000001
 43
0.0000001
 44
0.0000000001
 12
0.1200951413
 22
1.1814979727
 32
0.0
 13
0.1200951413
 23
-1.1814979727
 33
0.0
 40
0.0
 40
0.0
 40
0.0
 40
0.0
 40
0.0120291957
 40
0.024150987
 40
0.0363962026
 40
0.0487962927
 40
0.0613821088
 40
0.0741817652
 40
0.0872190547
 40
0.1005143753
 40
0.1140851079
 40
0.1279448602
 40
0.1421042932
 40
0.1565710033
 40
0.1864313713
 40
0.2018335217
 40
0.2175428729
 40
0.233553294
 40
0.2498561441
 40
0.2832881135
 40
0.300396338
 40
0.3177432244
 40
0.3353116842
 40
0.3530829469
 40
0.3710372167
 40
0.3891539351
 40
0.4257826475
 40
0.4442539252
 40
0.4627971806
 40
0.4999999781
 40
0.5372027756
 40
0.5557460313
 40
0.5742173091
 40
0.6108460221
 40
0.6289627407
 40
0.6469170108
 40
0.6646882742
 40
0.6822567343
 40
0.6996036213
 40
0.7167118467
 40
0.7501438173
 40
0.7664466684
 40
0.7824570897
 40
0.7981664418
 40
0.8135685928
 40
0.8434289616
 40
0.8578956722
 40
0.8720551053
 40
0.885914859
 40
0.8994855931
 40
0.9127809156
 40
0.9258182077
 40
0.9386178662
 40
0.9512036856
 40
0.9636037815
 40
0.9758490048
 40
0.9879708021
 40
1.0
 40
1.0
 40
1.0
 40
1.0
 10
4.9892154281
 20
5.1879562048
 30
0.0
 10
4.9896969775
 20
5.1926936949
 30
0.0
 10
4.9910119937
 20
5.2021732688
 30
0.0
 10
4.9940141692
 20
5.2162767561
 30
0.0
 10
4.9980466576
 20
5.2302742417
 30
0.0
 10
5.0030995424
 20
5.2441315061
 30
0.0
 10
5.0091601094
 20
5.257818539
 30
0.0
 10
5.0162162362
 20
5.2713046332
 30
0.0
 10
5.0242501633
 20
5.2845609552
 30
0.0
 10
5.0332440028
 20
5.2975580413
 30
0.0
 10
5.0431787714
 20
5.3102660861
 30
0.0
 10
5.0540302905
 20
5.3226583811
 30
0.0
 10
5.0657754058
 20
5.3347076698
 30
0.0
 10
5.0827694572
 20
5.350443344
 30
0.0
 10
5.1012938195
 20
5.365204568
 30
0.0
 10
5.1211378211
 20
5.378953444
 30
0.0
 10
5.1369209276
 20
5.3889075639
 30
0.0
 10
5.1534137726
 20
5.3983724566
 30
0.0
 10
5.1764932792
 20
5.4104130344
 30
0.0
 10
5.2006559028
 20
5.4212716902
 30
0.0
 10
5.2257310894
 20
5.430949014
 30
0.0
 10
5.2451977852
 20
5.437683552
 30
0.0
 10
5.2651349422
 20
5.4438213228
 30
0.0
 10
5.2854985827
 20
5.44935033
 30
0.0
 10
5.3062439738
 20
5.4542583774
 30
0.0
 10
5.3344526723
 20
5.4599785502
 30
0.0
 10
5.3631223823
 20
5.4643845256
 30
0.0
 10
5.3921137793
 20
5.4674786941
 30
0.0
 10
5.4214134079
 20
5.4697031806
 30
0.0
 10
5.4582154022
 20
5.4708135454
 30
0.0
 10
5.4950173965
 20
5.4697031821
 30
0.0
 10
5.5243170255
 20
5.4674786991
 30
0.0
 10
5.5533084231
 20
5.4643845328
 30
0.0
 10
5.5819781338
 20
5.4599785592
 30
0.0
 10
5.6101868332
 20
5.4542583887
 30
0.0
 10
5.6309322248
 20
5.4493503412
 30
0.0
 10
5.6512958667
 20
5.4438213376
 30
0.0
 10
5.6712330244
 20
5.4376835669
 30
0.0
 10
5.6906997213
 20
5.4309490299
 30
0.0
 10
5.7157749107
 20
5.4212717101
 30
0.0
 10
5.739937535
 20
5.4104130529
 30
0.0
 10
5.763017045
 20
5.3983724795
 30
0.0
 10
5.7795098902
 20
5.3889075856
 30
0.0
 10
5.795292999
 20
5.3789534681
 30
0.0
 10
5.8151370033
 20
5.3652045944
 30
0.0
 10
5.8336613668
 20
5.3504433709
 30
0.0
 10
5.8506554218
 20
5.3347076996
 30
0.0
 10
5.862400537
 20
5.3226584098
 30
0.0
 10
5.8732520605
 20
5.3102661171
 30
0.0
 10
5.8831868318
 20
5.2975580719
 30
0.0
 10
5.8921806723
 20
5.2845609836
 30
0.0
 10
5.900214605
 20
5.2713046621
 30
0.0
 10
5.9072707345
 20
5.2578185656
 30
0.0
 10
5.9133313041
 20
5.244131529
 30
0.0
 10
5.918384194
 20
5.2302742593
 30
0.0
 10
5.9224166835
 20
5.216276766
 30
0.0
 10
5.9254188614
 20
5.2021732728
 30
0.0
 10
5.9267338787
 20
5.1926936958
 30
0.0
 10
5.9272154281
 20
5.1879562048
 30
0.0
 11
4.9892154281
 21
5.1879562048
 31
0.0
 11
4.9911749316
 21
5.2021068821
 31
0.0
 11
4.9941679531
 21
5.2161879721
 31
0.0
 11
4.9981881032
 21
5.2301634971
 31
0.0
 11
5.0032261977
 21
5.2440010459
 31
0.0
 11
5.0092708929
 21
5.257670963
 31
0.0
 11
5.0163099251
 21
5.271143641
 31
0.0
 11
5.0243268574
 21
5.2843893584
 31
0.0
 11
5.033303992
 21
5.2973783602
 31
0.0
 11
5.0432222299
 21
5.3100814015
 31
0.0
 11
5.0540585709
 21
5.3224706581
 31
0.0
 11
5.0657893258
 21
5.3345185576
 31
0.0
 11
5.0783890436
 21
5.346198256
 31
0.0
 11
5.1060797216
 21
5.3683514102
 31
0.0
 11
5.1211101268
 21
5.3787754875
 31
0.0
 11
5.1368861957
 21
5.3887338811
 31
0.0
 11
5.1533736733
 21
5.3982041395
 31
0.0
 11
5.1705359789
 21
5.4071654423
 31
0.0
 11
5.206730994
 21
5.4234834004
 31
0.0
 11
5.2256839134
 21
5.4308037216
 31
0.0
 11
5.2451512479
 21
5.4375432104
 31
0.0
 11
5.2650904254
 21
5.4436863371
 31
0.0
 11
5.2854569384
 21
5.4492200525
 31
0.0
 11
5.3062056655
 21
5.4541320941
 31
0.0
 11
5.3272910323
 21
5.4584110425
 31
0.0
 11
5.3702834887
 21
5.4650349627
 31
0.0
 11
5.3920956564
 21
5.467364661
 31
0.0
 11
5.4140541004
 21
5.4690327139
 31
0.0
 11
5.4582154022
 21
5.470369122
 31
0.0
 11
5.502376704
 21
5.4690327165
 31
0.0
 11
5.5243351485
 21
5.4673646659
 31
0.0
 11
5.5461473165
 21
5.4650349694
 31
0.0
 11
5.5891397741
 21
5.4584110521
 31
0.0
 11
5.6102251414
 21
5.4541321051
 31
0.0
 11
5.6309738691
 21
5.4492200644
 31
0.0
 11
5.6513403836
 21
5.4436863514
 31
0.0
 11
5.6712795617
 21
5.4375432256
 31
0.0
 11
5.6907468973
 21
5.4308037379
 31
0.0
 11
5.7096998187
 21
5.4234834188
 31
0.0
 11
5.7458948363
 21
5.4071654625
 31
0.0
 11
5.7630571442
 21
5.3982041615
 31
0.0
 11
5.7795446222
 21
5.3887339035
 31
0.0
 11
5.7953206933
 21
5.3787755115
 31
0.0
 11
5.8103511006
 21
5.3683514358
 31
0.0
 11
5.8380417815
 21
5.3461982839
 31
0.0
 11
5.8506415014
 21
5.3345185868
 31
0.0
 11
5.8623722569
 21
5.3224706878
 31
0.0
 11
5.8732086017
 21
5.3100814322
 31
0.0
 11
5.8831268422
 21
5.2973783907
 31
0.0
 11
5.8921039788
 21
5.2843893876
 31
0.0
 11
5.9001209157
 21
5.2711436693
 31
0.0
 11
5.9071599507
 21
5.25767099
 31
0.0
 11
5.9132046487
 21
5.2440010698
 31
0.0
 11
5.9182427475
 21
5.2301635153
 31
0.0
 11
5.9222629001
 21
5.2161879814
 31
0.0
 11
5.9252559237
 21
5.2021068845
 31
0.0
 11
5.9272154281
 21
5.1879562048
 31
0.0
  0
SPLINE
  5
255
100
AcDbEntity
  8
0
100
AcDbSpline
 62
6
  6
CONTINUOUS
 70
0
 71
3
 72
60
 73
56
 74
54
 42
0.0000001
 43
0.0000001
 44
0.0000000001
 12
0.0
 22
0.8827104935
 32
0.0
 13
-0.4763030295
 23
-0.743177798
 33
0.0
 40
0.0
 40
0.0
 40
0.0
 40
0.0
 40
0.0121406407
 40
0.0243172367
 40
0.036554219
 40
0.0488756374
 40
0.0613072286
 40
0.0738749648
 40
0.0866032003
 40
0.0995138508
 40
0.1259443474
 40
0.1532990668
 40
0.1673546089
 40
0.1816696715
 40
0.1962489803
 40
0.2110946887
 40
0.2262072854
 40
0.2415853828
 40
0.2572250586
 40
0.2731208742
 40
0.2892661289
 40
0.3056521278
 40
0.3391000252
 40
0.3561430982
 40
0.3733791976
 40
0.3907936104
 40
0.4083708848
 40
0.4260943841
 40
0.4439468321
 40
0.4799634131
 40
0.5162755229
 40
0.5344959789
 40
0.5527318478
 40
0.5709631563
 40
0.5891699415
 40
0.6073323121
 40
0.6254303857
 40
0.6613515467
 40
0.6967845486
 40
0.7142740248
 40
0.7315878622
 40
0.7487094448
 40
0.765622809
 40
0.7823133981
 40
0.7987675361
 40
0.8309114674
 40
0.8465852466
 40
0.8619800878
 40
0.8770888616
 40
0.8919065559
 40
0.9206492516
 40
0.9345809171
 40
0.9482222188
 40
0.9746509511
 40
1.0
 40
1.0
 40
1.0
 40
1.0
 10
5.8307154281
 20
5.1135406457
 30
0.0
 10
5.8307154281
 20
5.1171128694
 30
0.0
 10
5.8304824497
 20
5.1242700459
 30
0.0
 10
5.8294376943
 20
5.134981884
 30
0.0
 10
5.8276997863
 20
5.1456575982
 30
0.0
 10
5.8252702469
 20
5.1562741753
 30
0.0
 10
5.8221542345
 20
5.1668112655
 30
0.0
 10
5.8183591196
 20
5.17725036
 30
0.0
 10
5.8138912212
 20
5.1875735064
 30
0.0
 10
5.8069954579
 20
5.2012627909
 30
0.0
 10
5.7966863351
 20
5.2180111261
 30
0.0
 10
5.7844662747
 20
5.2338400031
 30
0.0
 10
5.7735261094
 20
5.2460596141
 30
0.0
 10
5.7646575382
 20
5.2550693571
 30
0.0
 10
5.7552179897
 20
5.2638236917
 30
0.0
 10
5.745225508
 20
5.2723082278
 30
0.0
 10
5.7346983369
 20
5.2805074259
 30
0.0
 10
5.7236556066
 20
5.2884061462
 30
0.0
 10
5.7121187119
 20
5.2959914768
 30
0.0
 10
5.7001091685
 20
5.3032500175
 30
0.0
 10
5.6876484945
 20
5.3101680924
 30
0.0
 10
5.6703477689
 20
5.3189823639
 30
0.0
 10
5.6523565869
 20
5.3269967439
 30
0.0
 10
5.6337771561
 20
5.3342090261
 30
0.0
 10
5.6194270256
 20
5.3392593613
 30
0.0
 10
5.6047769005
 20
5.3439072011
 30
0.0
 10
5.5898535164
 20
5.3481438559
 30
0.0
 10
5.5746849539
 20
5.3519631907
 30
0.0
 10
5.554112343
 20
5.3565037137
 30
0.0
 10
5.5279609097
 20
5.3610879354
 30
0.0
 10
5.501485316
 20
5.3641988648
 30
0.0
 10
5.4801322236
 20
5.3658055438
 30
0.0
 10
5.4640569714
 20
5.3665668872
 30
0.0
 10
5.447970918
 20
5.3668821441
 30
0.0
 10
5.4319039404
 20
5.3667504472
 30
0.0
 10
5.4158858917
 20
5.366173693
 30
0.0
 10
5.3946884468
 20
5.3648175325
 30
0.0
 10
5.3685011644
 20
5.3620317358
 30
0.0
 10
5.3426918352
 20
5.357781899
 30
0.0
 10
5.3224672415
 20
5.3535202137
 30
0.0
 10
5.3076162498
 20
5.3499221792
 30
0.0
 10
5.2930457993
 20
5.3459162082
 30
0.0
 10
5.2787833291
 20
5.3415093775
 30
0.0
 10
5.2648548588
 20
5.3367112183
 30
0.0
 10
5.2469053363
 20
5.3298596224
 30
0.0
 10
5.229582955
 20
5.3222263862
 30
0.0
 10
5.2129929611
 20
5.3138099038
 30
0.0
 10
5.2011106133
 20
5.3072137326
 30
0.0
 10
5.1897074075
 20
5.3002931589
 30
0.0
 10
5.1753177958
 20
5.2907513165
 30
0.0
 10
5.1618031753
 20
5.2805348943
 30
0.0
 10
5.1492951828
 20
5.2696588173
 30
0.0
 10
5.1378042946
 20
5.258677306
 30
0.0
 10
5.1248713145
 20
5.2443754206
 30
0.0
 10
5.115888809
 20
5.2320247778
 30
0.0
 10
5.1118641994
 20
5.225745161
 30
0.0
 11
5.8307154281
 21
5.1135406457
 31
0.0
 11
5.8303676275
 21
5.1242516714
 31
0.0
 11
5.8293256784
 21
5.1349494581
 31
0.0
 11
5.8275917605
 21
5.1456110961
 31
0.0
 11
5.8251682384
 21
5.1562138906
 31
0.0
 11
5.8220598912
 21
5.1667379485
 31
0.0
 11
5.8182731891
 21
5.1771653384
 31
0.0
 11
5.8138146506
 21
5.1874781681
 31
0.0
 11
5.8086921629
 21
5.1976584084
 31
0.0
 11
5.7964972211
 21
5.2175479669
 31
0.0
 11
5.78177808
 21
5.2366892987
 31
0.0
 11
5.7735062872
 21
5.2459364854
 31
0.0
 11
5.7646459772
 21
5.2549456372
 31
0.0
 11
5.7552137157
 21
5.2637007246
 31
0.0
 11
5.7452277047
 21
5.2721863903
 31
0.0
 11
5.7347062075
 21
5.280387303
 31
0.0
 11
5.7236683836
 21
5.2882886317
 31
0.0
 11
5.7121355039
 21
5.2958767249
 31
0.0
 11
5.7001291433
 21
5.3031381009
 31
0.0
 11
5.6876711206
 21
5.3100594712
 31
0.0
 11
5.6747849955
 21
5.3166289287
 31
0.0
 11
5.6478257433
 21
5.3286669154
 31
0.0
 11
5.6338023846
 21
5.3341139638
 31
0.0
 11
5.6194516223
 21
5.3391672995
 31
0.0
 11
5.6048001357
 21
5.3438179756
 31
0.0
 11
5.5898749595
 21
5.3480575911
 31
0.0
 11
5.5747042463
 21
5.3518794608
 31
0.0
 11
5.5593163677
 21
5.3552772357
 31
0.0
 11
5.5280035415
 21
5.3607773982
 31
0.0
 11
5.4961701297
 21
5.3645235768
 31
0.0
 11
5.480132122
 21
5.3657309167
 31
0.0
 11
5.4640531591
 21
5.3664925796
 31
0.0
 11
5.4479632771
 21
5.3668076863
 31
0.0
 11
5.4318924978
 21
5.3666758107
 31
0.0
 11
5.4158707832
 21
5.366098422
 31
0.0
 11
5.3999280796
 21
5.3650774845
 31
0.0
 11
5.3683989199
 21
5.361714681
 31
0.0
 11
5.3375397361
 21
5.3566189302
 31
0.0
 11
5.3224337306
 21
5.3534338258
 31
0.0
 11
5.3075808895
 21
5.3498329313
 31
0.0
 11
5.2930089823
 21
5.3458236422
 31
0.0
 11
5.2787455769
 21
5.3414136147
 31
0.0
 11
5.2648169759
 21
5.3366121432
 31
0.0
 11
5.2512489908
 21
5.3314291579
 31
0.0
 11
5.2252967209
 21
5.3199595725
 31
0.0
 11
5.2129603044
 21
5.3136960766
 31
0.0
 11
5.201081379
 21
5.3070962919
 31
0.0
 11
5.1896825379
 21
5.300172906
 31
0.0
 11
5.1787845405
 21
5.2929401264
 31
0.0
 11
5.1585725351
 21
5.2776043254
 31
0.0
 11
5.1492962792
 21
5.2695307442
 31
0.0
 11
5.1405953932
 21
5.2612068044
 31
0.0
 11
5.1249844911
 21
5.2438707663
 31
0.0
 11
5.1118641994
 21
5.225745161
 31
0.0
  0
SPLINE
  5
256
100
AcDbEntity
  8
0
100
AcDbSpline
 62
6
  6
CONTINUOUS
 70
0
 71
3
 72
35
 73
31
 74
29
 42
0.0000001
 43
0.0000001
 44
0.0000000001
 12
0.4323114719
 22
0.1915011088
 32
0.0
 13
0.4347174731
 23
-0.1859747346
 33
0.0
 40
0.0
 40
0.0
 40
0.0
 40
0.0
 40
0.0579136073
 40
0.0874284821
 40
0.1172898431
 40
0.1779705005
 40
0.2087546746
 40
0.2398037059
 40
0.2710948927
 40
0.3026050981
 40
0.3343101482
 40
0.3661851705
 40
0.3982050387
 40
0.4303444264
 40
0.4625774712
 40
0.4948780025
 40
0.5272197962
 40
0.5595766769
 40
0.591922462
 40
0.6242309766
 40
0.6564761803
 40
0.6886323766
 40
0.7206743945
 40
0.7525773344
 40
0.7843166306
 40
0.8158684264
 40
0.8472099016
 40
0.8783187503
 40
0.9397472055
 40
1.0
 40
1.0
 40
1.0
 40
1.0
 10
5.2158104816
 20
5.2538439411
 30
0.0
 10
5.2241560539
 20
5.2575407811
 30
0.0
 10
5.2369281917
 20
5.2627400976
 30
0.0
 10
5.2543324971
 20
5.2689755443
 30
0.0
 10
5.2723187552
 20
5.2748593631
 30
0.0
 10
5.2907327921
 20
5.2800550778
 30
0.0
 10
5.3095094197
 20
5.2845659353
 30
0.0
 10
5.3238660645
 20
5.287625271
 30
0.0
 10
5.3384081808
 20
5.2903394077
 30
0.0
 10
5.3531160495
 20
5.29270342
 30
0.0
 10
5.3679691943
 20
5.2947140799
 30
0.0
 10
5.3829470174
 20
5.2963685773
 30
0.0
 10
5.3980288554
 20
5.297664011
 30
0.0
 10
5.4131939471
 20
5.2985973596
 30
0.0
 10
5.4284212833
 20
5.2991675093
 30
0.0
 10
5.4436897944
 20
5.2993735533
 30
0.0
 10
5.4589783903
 20
5.2992145327
 30
0.0
 10
5.4742659332
 20
5.2986894739
 30
0.0
 10
5.4895313159
 20
5.2977993703
 30
0.0
 10
5.5047534603
 20
5.2965452578
 30
0.0
 10
5.5199112973
 20
5.2949281243
 30
0.0
 10
5.5349837962
 20
5.2929490868
 30
0.0
 10
5.5499502371
 20
5.2906112027
 30
0.0
 10
5.5647899831
 20
5.2879174436
 30
0.0
 10
5.579482442
 20
5.2848707028
 30
0.0
 10
5.5940071457
 20
5.2814741943
 30
0.0
 10
5.6083443451
 20
5.2777329034
 30
0.0
 10
5.627103817
 20
5.2723145917
 30
0.0
 10
5.6499691296
 20
5.2647218685
 30
0.0
 10
5.6678228879
 20
5.2576869837
 30
0.0
 10
5.6765538688
 20
5.2539518179
 30
0.0
 11
5.2158104816
 21
5.2538439411
 31
0.0
 11
5.2411651202
 21
5.2641870126
 31
0.0
 11
5.2543020235
 21
5.2688961776
 31
0.0
 11
5.2677208675
 21
5.2732880475
 31
0.0
 11
5.2953301845
 21
5.2810936216
 31
0.0
 11
5.3094826986
 21
5.2844953844
 31
0.0
 11
5.3238408502
 21
5.2875565053
 31
0.0
 11
5.338384819
 21
5.2902721827
 31
0.0
 11
5.3530947141
 21
5.2926377689
 31
0.0
 11
5.367950098
 21
5.2946498022
 31
0.0
 11
5.3829302794
 21
5.296305372
 31
0.0
 11
5.3980145659
 21
5.2976015709
 31
0.0
 11
5.4131822148
 21
5.2985357159
 31
0.0
 11
5.4284121977
 21
5.2991064023
 31
0.0
 11
5.4436833854
 21
5.2993126776
 31
0.0
 11
5.4589746486
 21
5.2991535896
 31
0.0
 11
5.4742648592
 21
5.2986284953
 31
0.0
 11
5.4895328946
 21
5.2977380677
 31
0.0
 11
5.5047576334
 21
5.2964833302
 31
0.0
 11
5.5199179543
 21
5.2948653063
 31
0.0
 11
5.5349928299
 21
5.2928854235
 31
0.0
 11
5.5499615318
 21
5.2905464015
 31
0.0
 11
5.5648033915
 21
5.2878512175
 31
0.0
 11
5.5794977411
 21
5.2848028503
 31
0.0
 11
5.5940241475
 21
5.2814047788
 31
0.0
 11
5.6083627457
 21
5.2776616918
 31
0.0
 11
5.622493755
 21
5.2735784578
 31
0.0
 11
5.6500543261
 21
5.2644116293
 31
0.0
 11
5.6765538688
 21
5.2539518179
 31
0.0
  0
SPLINE
  5
257
100
AcDbEntity
  8
0
100
AcDbSpline
 62
6
  6
CONTINUOUS
 70
0
 71
3
 72
24
 73
20
 74
18
 42
0.0000001
 43
0.0000001
 44
0.0000000001
 12
0.4383978967
 22
0.1893803049
 32
0.0
 13
0.4355332997
 23
-0.195878433
 33
0.0
 40
0.0
 40
0.0
 40
0.0
 40
0.0
 40
0.0581719391
 40
0.1177928231
 40
0.1481027886
 40
0.1787161881
 40
0.2407610218
 40
0.2721514689
 40
0.3037532502
 40
0.367486707
 40
0.3995719626
 40
0.4317663176
 40
0.4963718627
 40
0.5610944325
 40
0.6257197378
 40
0.7537976474
 40
0.8168843174
 40
0.8790681675
 40
1.0
 40
1.0
 40
1.0
 40
1.0
 10
5.2196204763
 20
5.3102293082
 30
0.0
 10
5.2281212949
 20
5.3139015147
 30
0.0
 10
5.2455646205
 20
5.3208148324
 30
0.0
 10
5.2679542712
 20
5.3282381442
 30
0.0
 10
5.2864014368
 20
5.3335287922
 30
0.0
 10
5.3053573535
 20
5.3384190334
 30
0.0
 10
5.3246692691
 20
5.3425900782
 30
0.0
 10
5.3442724838
 20
5.3460466404
 30
0.0
 10
5.3642225553
 20
5.3490478603
 30
0.0
 10
5.3843891874
 20
5.3513109919
 30
0.0
 10
5.4047110169
 20
5.3528399984
 30
0.0
 10
5.4252029483
 20
5.3538810732
 30
0.0
 10
5.4509228537
 20
5.3542493215
 30
0.0
 10
5.4817921615
 20
5.3532036608
 30
0.0
 10
5.522643489
 20
5.3498363038
 30
0.0
 10
5.5629516595
 20
5.3435390449
 30
0.0
 10
5.6022244729
 20
5.3342997271
 30
0.0
 10
5.6398666235
 20
5.3233478927
 30
0.0
 10
5.6671920092
 20
5.3129710134
 30
0.0
 10
5.6847486226
 20
5.3050750341
 30
0.0
 11
5.2196204763
 21
5.3102293082
 31
0.0
 11
5.2454388709
 21
5.3204836563
 31
0.0
 11
5.2724587478
 21
5.329460917
 31
0.0
 11
5.2863719009
 21
5.3334533269
 31
0.0
 11
5.3005275497
 21
5.3371069139
 31
0.0
 11
5.3294868313
 21
5.3433744332
 31
0.0
 11
5.3442494871
 21
5.3459788303
 31
0.0
 11
5.3591729665
 21
5.3482248602
 31
0.0
 11
5.389418433
 21
5.3516265057
 31
0.0
 11
5.4046976316
 21
5.3527767701
 31
0.0
 11
5.4200523475
 21
5.3535571924
 31
0.0
 11
5.4509017709
 21
5.3540014793
 31
0.0
 11
5.481792528
 21
5.3529541044
 31
0.0
 11
5.5125500641
 21
5.3504162587
 31
0.0
 11
5.5729728119
 21
5.3409221827
 31
0.0
 11
5.6022969453
 21
5.3340121845
 31
0.0
 11
5.6308071566
 21
5.3257038657
 31
0.0
 11
5.6847486226
 21
5.3050750341
 31
0.0
  0
SPLINE
  5
258
100
AcDbEntity
  8
0
100
AcDbSpline
 62
6
  6
CONTINUOUS
 70
0
 71
3
 72
49
 73
45
 74
43
 42
0.0000001
 43
0.0000001
 44
0.0000000001
 12
-0.1558668783
 22
0.424947389
 32
0.0
 13
-0.1558634231
 23
-0.4249486564
 33
0.0
 40
0.0
 40
0.0
 40
0.0
 40
0.0
 40
0.0121525384
 40
0.0244767789
 40
0.036992909
 40
0.049718343
 40
0.062668575
 40
0.075856926
 40
0.1029808774
 40
0.1311599828
 40
0.1604194899
 40
0.175456973
 40
0.1907599854
 40
0.2221364811
 40
0.2382005282
 40
0.2545012609
 40
0.2877661162
 40
0.3218380362
 40
0.3566051362
 40
0.3919424131
 40
0.4277158494
 40
0.463783877
 40
0.5000004062
 40
0.5362169304
 40
0.5722849431
 40
0.6080583547
 40
0.6433955978
 40
0.6781626551
 40
0.7122345246
 40
0.7454993222
 40
0.7618000238
 40
0.7778640385
 40
0.8092404659
 40
0.824543443
 40
0.8395808901
 40
0.8688403245
 40
0.8970193578
 40
0.9241432401
 40
0.9373315583
 40
0.9502817592
 40
0.963007164
 40
0.9755232671
 40
0.9878474831
 40
1.0
 40
1.0
 40
1.0
 40
1.0
 10
5.6489848909
 20
4.9328850981
 30
0.0
 10
5.6483534982
 20
4.9346064945
 30
0.0
 10
5.6469757794
 20
4.9380356855
 30
0.0
 10
5.6445915037
 20
4.9430854723
 30
0.0
 10
5.6418806385
 20
4.9480664283
 30
0.0
 10
5.6388484846
 20
4.9529697128
 30
0.0
 10
5.6354999261
 20
4.957786658
 30
0.0
 10
5.6305756484
 20
4.9641410441
 30
0.0
 10
5.6236369636
 20
4.9718226469
 30
0.0
 10
5.6142357616
 20
4.9804715734
 30
0.0
 10
5.6055754058
 20
4.9871697065
 30
0.0
 10
5.5981482335
 20
4.9922422624
 30
0.0
 10
5.5902616616
 20
4.9971965572
 30
0.0
 10
5.5819676398
 20
5.0017800471
 30
0.0
 10
5.5733201733
 20
5.0059914034
 30
0.0
 10
5.564275271
 20
5.0100254126
 30
0.0
 10
5.5525016116
 20
5.0145922642
 30
0.0
 10
5.5378123591
 20
5.0192641883
 30
0.0
 10
5.5225683655
 20
5.0231311089
 30
0.0
 10
5.5068763882
 20
5.0261671795
 30
0.0
 10
5.4908454387
 20
5.0283509624
 30
0.0
 10
5.4745871738
 20
5.0296670429
 30
0.0
 10
5.4582148779
 20
5.0301071455
 30
0.0
 10
5.4418425859
 20
5.0296669839
 30
0.0
 10
5.4255843325
 20
5.0283508447
 30
0.0
 10
5.409553402
 20
5.0261670041
 30
0.0
 10
5.3938614511
 20
5.0231308769
 30
0.0
 10
5.3786174912
 20
5.0192639013
 30
0.0
 10
5.3639282794
 20
5.0145919243
 30
0.0
 10
5.3521546591
 20
5.0100250299
 30
0.0
 10
5.3431097915
 20
5.0059909878
 30
0.0
 10
5.3344623622
 20
5.0017796005
 30
0.0
 10
5.3261683804
 20
4.9971960806
 30
0.0
 10
5.3182818513
 20
4.9922417571
 30
0.0
 10
5.3108547235
 20
4.9871691745
 30
0.0
 10
5.3021944263
 20
4.9804710101
 30
0.0
 10
5.2927932995
 20
4.9718220493
 30
0.0
 10
5.2858546817
 20
4.9641404212
 30
0.0
 10
5.2809304596
 20
4.9577860175
 30
0.0
 10
5.2775819432
 20
4.95296906
 30
0.0
 10
5.2745498321
 20
4.9480657646
 30
0.0
 10
5.2718390105
 20
4.9430847987
 30
0.0
 10
5.2694547789
 20
4.9380350031
 30
0.0
 10
5.2680770903
 20
4.9346058076
 30
0.0
 10
5.2674457126
 20
4.932884409
 30
0.0
 11
5.6489848909
 21
4.9328850981
 31
0.0
 11
5.6469361764
 21
4.9379899519
 31
0.0
 11
5.6445567231
 21
4.9430353455
 31
0.0
 11
5.6418508737
 21
4.9480125667
 31
0.0
 11
5.6388236455
 21
4.9529128347
 31
0.0
 11
5.6354800721
 21
4.9577273709
 31
0.0
 11
5.631825832
 21
4.9624476389
 31
0.0
 11
5.6236125938
 21
4.9715729266
 31
0.0
 11
5.6142408814
 21
4.9802247628
 31
0.0
 11
5.6037769413
 21
4.9883428346
 31
0.0
 11
5.5981577039
 21
4.9921836238
 31
0.0
 11
5.5922935391
 21
4.9958700303
 31
0.0
 11
5.5798713679
 21
5.0027537567
 31
0.0
 11
5.5733351228
 21
5.0059390626
 31
0.0
 11
5.5665973922
 21
5.0089458977
 31
0.0
 11
5.5525643506
 21
5.0144028236
 31
0.0
 11
5.5378708351
 21
5.0190867159
 31
0.0
 11
5.5226193913
 21
5.0229643555
 31
0.0
 11
5.506917083
 21
5.0260089209
 31
0.0
 11
5.4908737081
 21
5.0281989659
 31
0.0
 11
5.4746016609
 21
5.0295190415
 31
0.0
 11
5.4582148774
 21
5.029960234
 31
0.0
 11
5.4418280979
 21
5.0295189823
 31
0.0
 11
5.4255560622
 21
5.028198848
 31
0.0
 11
5.4095127064
 21
5.026008745
 31
0.0
 11
5.3938104247
 21
5.0229641229
 31
0.0
 11
5.3785590148
 21
5.0190864282
 31
0.0
 11
5.3638655403
 21
5.0144024828
 31
0.0
 11
5.3498325464
 21
5.0089455062
 31
0.0
 11
5.3430948421
 21
5.0059386468
 31
0.0
 11
5.3365586249
 21
5.0027533173
 31
0.0
 11
5.3241365138
 21
4.995869546
 31
0.0
 11
5.3182723812
 21
4.9921831184
 31
0.0
 11
5.3126531774
 21
4.9883423088
 31
0.0
 11
5.3021893083
 21
4.9802241992
 31
0.0
 11
5.2928176715
 21
4.9715723292
 31
0.0
 11
5.2846045131
 21
4.9624470118
 31
0.0
 11
5.2809503143
 21
4.9577267306
 31
0.0
 11
5.2776067829
 21
4.9529121823
 31
0.0
 11
5.2745795976
 21
4.9480119034
 31
0.0
 11
5.2718737917
 21
4.9430346724
 31
0.0
 11
5.2694943825
 21
4.9379892703
 31
0.0
 11
5.2674457126
 21
4.932884409
 31
0.0
  0
SPLINE
  5
259
100
AcDbEntity
  8
0
100
AcDbSpline
 62
6
  6
CONTINUOUS
 70
0
 71
3
 72
60
 73
56
 74
54
 42
0.0000001
 43
0.0000001
 44
0.0000000001
 12
0.0431996916
 22
0.8983848418
 32
0.0
 13
0.625490994
 23
-0.6463145935
 33
0.0
 40
0.0
 40
0.0
 40
0.0
 40
0.0
 40
0.011288853
 40
0.0226255609
 40
0.0340367661
 40
0.0455481311
 40
0.0571838445
 40
0.0689667067
 40
0.0809180184
 40
0.0930568319
 40
0.1054001542
 40
0.1179632574
 40
0.1307593411
 40
0.1437990265
 40
0.1570911008
 40
0.1706427372
 40
0.1844588038
 40
0.1985420562
 40
0.2128938689
 40
0.2275141812
 40
0.2424007462
 40
0.2575499226
 40
0.2886117578
 40
0.3045151952
 40
0.3206543872
 40
0.3535979258
 40
0.3873584569
 40
0.4045160727
 40
0.4218393861
 40
0.4569224422
 40
0.4746556675
 40
0.4924948491
 40
0.5104240298
 40
0.5284271155
 40
0.5464876733
 40
0.5645890459
 40
0.5827145405
 40
0.6008474917
 40
0.6189712135
 40
0.6370690446
 40
0.6731181617
 40
0.6910402755
 40
0.7088719783
 40
0.7441998438
 40
0.7789881554
 40
0.7961474045
 40
0.8131322308
 40
0.8465283717
 40
0.862922612
 40
0.8791009422
 40
0.89505531
 40
0.9107787065
 40
0.9262658667
 40
0.9415126379
 40
1.0
 40
1.0
 40
1.0
 40
1.0
 10
5.0472391106
 20
5.1656293343
 30
0.0
 10
5.0474016689
 20
5.1690099124
 30
0.0
 10
5.0479437687
 20
5.1757769481
 30
0.0
 10
5.0494016376
 20
5.1858832527
 30
0.0
 10
5.0515042514
 20
5.1959438201
 30
0.0
 10
5.0542478343
 20
5.2059414771
 30
0.0
 10
5.0576268134
 20
5.2158602356
 30
0.0
 10
5.0616359838
 20
5.225683827
 30
0.0
 10
5.0662700091
 20
5.2353956971
 30
0.0
 10
5.0715202814
 20
5.2449804504
 30
0.0
 10
5.0773779553
 20
5.2544227693
 30
0.0
 10
5.083834376
 20
5.2637069917
 30
0.0
 10
5.0908796821
 20
5.2728176992
 30
0.0
 10
5.0985016325
 20
5.2817408533
 30
0.0
 10
5.1066882052
 20
5.2904620471
 30
0.0
 10
5.1154273285
 20
5.2989664028
 30
0.0
 10
5.124704871
 20
5.3072403942
 30
0.0
 10
5.1345056569
 20
5.3152711403
 30
0.0
 10
5.1448145875
 20
5.3230453586
 30
0.0
 10
5.1556160224
 20
5.3305495508
 30
0.0
 10
5.1668925401
 20
5.3377724066
 30
0.0
 10
5.1826674015
 20
5.3470890417
 30
0.0
 10
5.1991966473
 20
5.3557040073
 30
0.0
 10
5.2163835253
 20
5.3636182963
 30
0.0
 10
5.2343348053
 20
5.3711993327
 30
0.0
 10
5.2576592255
 20
5.3797819887
 30
0.0
 10
5.2817398391
 20
5.3870620382
 30
0.0
 10
5.3015588288
 20
5.3921498735
 30
0.0
 10
5.3218980239
 20
5.3967729108
 30
0.0
 10
5.3425895763
 20
5.4005892647
 30
0.0
 10
5.363559148
 20
5.4036015146
 30
0.0
 10
5.3794926533
 20
5.4054653189
 30
0.0
 10
5.3955495848
 20
5.4069218408
 30
0.0
 10
5.4117050475
 20
5.4079673711
 30
0.0
 10
5.427933561
 20
5.4086003159
 30
0.0
 10
5.4442096278
 20
5.4088195991
 30
0.0
 10
5.4605077163
 20
5.4086239068
 30
0.0
 10
5.4768021662
 20
5.408012359
 30
0.0
 10
5.4930676218
 20
5.4069862658
 30
0.0
 10
5.5146517461
 20
5.4050697405
 30
0.0
 10
5.5360957694
 20
5.4023292525
 30
0.0
 10
5.5573277648
 20
5.3987651792
 30
0.0
 10
5.5782463349
 20
5.3946836769
 30
0.0
 10
5.603916408
 20
5.3886006091
 30
0.0
 10
5.6290215921
 20
5.3811744563
 30
0.0
 10
5.6485710689
 20
5.374463911
 30
0.0
 10
5.6675256134
 20
5.3673339518
 30
0.0
 10
5.6859458319
 20
5.3594546812
 30
0.0
 10
5.7037443927
 20
5.3508243829
 30
0.0
 10
5.7166269984
 20
5.3440580985
 30
0.0
 10
5.7291039547
 20
5.3369687513
 30
0.0
 10
5.7411549028
 20
5.3295662563
 30
0.0
 10
5.7527628405
 20
5.321861261
 30
0.0
 10
5.7744971772
 20
5.3062722093
 30
0.0
 10
5.7913123978
 20
5.2917191248
 30
0.0
 10
5.8035068372
 20
5.2791187129
 30
0.0
 11
5.0472391106
 21
5.1656293343
 31
0.0
 11
5.0480489216
 21
5.1757504414
 31
0.0
 11
5.0495032016
 21
5.1858426945
 31
0.0
 11
5.0516004498
 21
5.1958896326
 31
0.0
 11
5.0543372633
 21
5.2058749507
 31
0.0
 11
5.0577086289
 21
5.2157824759
 31
0.0
 11
5.0617094829
 21
5.2255960392
 31
0.0
 11
5.0663342931
 21
5.2352995551
 31
0.0
 11
5.0715751707
 21
5.2448773589
 31
0.0
 11
5.0774234868
 21
5.2543139177
 31
0.0
 11
5.0838705993
 21
5.2635937024
 31
0.0
 11
5.0909067245
 21
5.2727015072
 31
0.0
 11
5.0985200546
 21
5.2816227
 31
0.0
 11
5.1066985739
 21
5.2903427076
 31
0.0
 11
5.1154301277
 21
5.2988470127
 31
0.0
 11
5.1247007987
 21
5.3071218074
 31
0.0
 11
5.1344954586
 21
5.3151537717
 31
0.0
 11
5.1447989555
 21
5.3229295947
 31
0.0
 11
5.155595663
 21
5.3304362245
 31
0.0
 11
5.1668680743
 21
5.3376616354
 31
0.0
 11
5.1785982161
 21
5.3445940564
 31
0.0
 11
5.2033587662
 21
5.3575335954
 31
0.0
 11
5.216349913
 21
5.3635195882
 31
0.0
 11
5.2297211152
 21
5.3691697215
 31
0.0
 11
5.2575202817
 21
5.3794241584
 31
0.0
 11
5.2865806819
 21
5.3882290456
 31
0.0
 11
5.3015274111
 21
5.3920683735
 31
0.0
 11
5.3167204377
 21
5.3955236631
 31
0.0
 11
5.3477493718
 21
5.4012588136
 31
0.0
 11
5.3635367842
 21
5.4035280747
 31
0.0
 11
5.3794729748
 21
5.4053932383
 31
0.0
 11
5.3955328883
 21
5.4068507475
 31
0.0
 11
5.411691423
 21
5.4078972477
 31
0.0
 11
5.4279231398
 21
5.4085308696
 31
0.0
 11
5.4442024484
 21
5.4087504073
 31
0.0
 11
5.460503758
 21
5.4085546593
 31
0.0
 11
5.4768014769
 21
5.4079430385
 31
0.0
 11
5.4930700115
 21
5.4069164866
 31
0.0
 11
5.5092837678
 21
5.4054761796
 31
0.0
 11
5.5414448804
 21
5.4013603834
 31
0.0
 11
5.5573418413
 21
5.3986907711
 31
0.0
 11
5.5730829827
 21
5.3956180418
 31
0.0
 11
5.603998713
 21
5.3882798811
 31
0.0
 11
5.6339982974
 21
5.3793887774
 31
0.0
 11
5.6485949863
 21
5.3743760768
 31
0.0
 11
5.6628925189
 21
5.3689952512
 31
0.0
 11
5.6905003328
 21
5.3571611809
 31
0.0
 11
5.7037669189
 21
5.3507250961
 31
0.0
 11
5.7166477219
 21
5.3439559613
 31
0.0
 11
5.7291222956
 21
5.3368637417
 31
0.0
 11
5.7411705538
 21
5.3294586657
 31
0.0
 11
5.7527740349
 21
5.3217521505
 31
0.0
 11
5.7639147353
 21
5.3137559481
 31
0.0
 11
5.8035068372
 21
5.2791187129
 31
0.0
  0
SPLINE
  5
25A
100
AcDbEntity
  8
0
100
AcDbSpline
 62
6
  6
CONTINUOUS
 70
0
 71
3
 72
23
 73
19
 74
17
 42
0.0000001
 43
0.0000001
 44
0.0000000001
 12
0.0000000001
 22
0.1986402083
 32
0.0
 13
0.1563585647
 23
0.122515026
 33
0.0
 40
0.0
 40
0.0
 40
0.0
 40
0.0
 40
0.0571204228
 40
0.1144189137
 40
0.172022756
 40
0.2300582441
 40
0.2886603632
 40
0.3479618745
 40
0.4080868436
 40
0.469143338
 40
0.5312236524
 40
0.5944098543
 40
0.6587753476
 40
0.7243842826
 40
0.7912908892
 40
0.8595301771
 40
0.9291035696
 40
1.0
 40
1.0
 40
1.0
 40
1.0
 10
5.0470554283
 20
5.1656967338
 30
0.0
 10
5.0470554283
 20
5.1694788713
 30
0.0
 10
5.047309503
 20
5.1770573522
 30
0.0
 10
5.0484490312
 20
5.1883984011
 30
0.0
 10
5.0503448498
 20
5.1996996659
 30
0.0
 10
5.0529953101
 20
5.2109365009
 30
0.0
 10
5.0563941544
 20
5.2220873731
 30
0.0
 10
5.0605341714
 20
5.2331323992
 30
0.0
 10
5.0654087239
 20
5.2440513856
 30
0.0
 10
5.0710078735
 20
5.2548245217
 30
0.0
 10
5.0773199442
 20
5.2654322268
 30
0.0
 10
5.0843339068
 20
5.2758542719
 30
0.0
 10
5.092037182
 20
5.2860714172
 30
0.0
 10
5.1004150831
 20
5.2960662909
 30
0.0
 10
5.1094531687
 20
5.3058206535
 30
0.0
 10
5.1191344484
 20
5.3153154369
 30
0.0
 10
5.1294370609
 20
5.3245324429
 30
0.0
 10
5.1366383005
 20
5.3304243228
 30
0.0
 10
5.1403333885
 20
5.3333196155
 30
0.0
 11
5.0470554283
 21
5.1656967338
 31
0.0
 11
5.0474346831
 21
5.1770368064
 31
0.0
 11
5.0485709627
 21
5.1883617293
 31
0.0
 11
5.0504620403
 21
5.1996468186
 31
0.0
 11
5.0531052842
 21
5.2108678805
 31
0.0
 11
5.0564953024
 21
5.2220040619
 31
0.0
 11
5.0606255515
 21
5.233035904
 31
0.0
 11
5.0654892982
 21
5.2439439223
 31
0.0
 11
5.071077234
 21
5.2547082162
 31
0.0
 11
5.0773781687
 21
5.2653085808
 31
0.0
 11
5.0843808394
 21
5.2757248298
 31
0.0
 11
5.0920727937
 21
5.2859378004
 31
0.0
 11
5.1004400123
 21
5.295929677
 31
0.0
 11
5.1094683608
 21
5.305682734
 31
0.0
 11
5.1191414029
 21
5.3151786321
 31
0.0
 11
5.1294372882
 21
5.3243975891
 31
0.0
 11
5.1403333885
 21
5.3333196155
 31
0.0
  0
SPLINE
  5
25B
100
AcDbEntity
  8
0
100
AcDbSpline
 62
6
  6
CONTINUOUS
 70
0
 71
3
 72
29
 73
25
 74
23
 42
0.0000001
 43
0.0000001
 44
0.0000000001
 12
0.4429789914
 22
0.1948748445
 32
0.0
 13
0.4399695899
 23
-0.2015771609
 33
0.0
 40
0.0
 40
0.0
 40
0.0
 40
0.0
 40
0.0580665423
 40
0.117617659
 40
0.1479055234
 40
0.1785046564
 40
0.2093929592
 40
0.2405475198
 40
0.2719439549
 40
0.3035572302
 40
0.3353619739
 40
0.3673322525
 40
0.3994412883
 40
0.4316620167
 40
0.4963247967
 40
0.5287166831
 40
0.5611103786
 40
0.625788366
 40
0.6901460171
 40
0.7539703875
 40
0.8170576511
 40
0.8482664642
 40
0.8792199412
 40
1.0
 40
1.0
 40
1.0
 40
1.0
 10
5.2168491011
 20
5.1448654825
 30
0.0
 10
5.2254231873
 20
5.1486373853
 30
0.0
 10
5.2430317479
 20
5.1557394016
 30
0.0
 10
5.2656538749
 20
5.1633648185
 30
0.0
 10
5.2843086716
 20
5.1688007668
 30
0.0
 10
5.2986319162
 20
5.1725536785
 30
0.0
 10
5.3131866587
 20
5.1759528813
 30
0.0
 10
5.3279520739
 20
5.1789923785
 30
0.0
 10
5.3429064945
 20
5.18166811
 30
0.0
 10
5.3580281826
 20
5.1839758674
 30
0.0
 10
5.3732953245
 20
5.1859112869
 30
0.0
 10
5.3886857662
 20
5.1874707281
 30
0.0
 10
5.4041772314
 20
5.1886522692
 30
0.0
 10
5.4249599065
 20
5.1897221215
 30
0.0
 10
5.4458219689
 20
5.1900240541
 30
0.0
 10
5.4667005968
 20
5.1895606997
 30
0.0
 10
5.4875642934
 20
5.1885865169
 30
0.0
 10
5.5135261273
 20
5.1864140688
 30
0.0
 10
5.5443758106
 20
5.1822899105
 30
0.0
 10
5.5747270971
 20
5.1766659393
 30
0.0
 10
5.5995480918
 20
5.1707351491
 30
0.0
 10
5.6189994438
 20
5.1652588376
 30
0.0
 10
5.647180614
 20
5.1564997699
 30
0.0
 10
5.6700823968
 20
5.1476515399
 30
0.0
 10
5.6877955811
 20
5.1395360395
 30
0.0
 11
5.2168491011
 21
5.1448654825
 31
0.0
 11
5.2429023629
 21
5.1553967398
 31
0.0
 11
5.2702063161
 21
5.1646200414
 31
0.0
 11
5.2842781994
 21
5.1687227997
 31
0.0
 11
5.2986026038
 21
5.1724778888
 31
0.0
 11
5.3131588842
 21
5.1758790983
 31
0.0
 11
5.3279261199
 21
5.1789206806
 31
0.0
 11
5.3428826192
 21
5.181598185
 31
0.0
 11
5.358006556
 21
5.1839073864
 31
0.0
 11
5.3732761007
 21
5.1858440701
 31
0.0
 11
5.3886691677
 21
5.1874047578
 31
0.0
 11
5.4041632492
 21
5.1885871855
 31
0.0
 11
5.4197357979
 21
5.1893892024
 31
0.0
 11
5.4510259691
 21
5.189844596
 31
0.0
 11
5.4666981303
 21
5.1894968099
 31
0.0
 11
5.4823579501
 21
5.1887653144
 31
0.0
 11
5.5135495761
 21
5.1861527823
 31
0.0
 11
5.5444199018
 21
5.1820193843
 31
0.0
 11
5.5747892317
 21
5.1763841271
 31
0.0
 11
5.604481544
 21
5.1692771245
 31
0.0
 11
5.6190194059
 21
5.1651825608
 31
0.0
 11
5.633323732
 21
5.1607346683
 31
0.0
 11
5.6877955811
 21
5.1395360395
 31
0.0
  0
SPLINE
  5
25C
100
AcDbEntity
  8
0
100
AcDbSpline
 62
6
  6
CONTINUOUS
 70
0
 71
3
 72
67
 73
63
 74
61
 42
0.0000001
 43
0.0000001
 44
0.0000000001
 12
0.2146880952
 22
-1.1801578497
 32
0.0
 13
0.2148987472
 23
1.1801195096
 33
0.0
 40
0.0
 40
0.0
 40
0.0
 40
0.0
 40
0.0120354906
 40
0.0241883522
 40
0.0364894644
 40
0.0489678488
 40
0.0616499522
 40
0.0745579492
 40
0.0877108796
 40
0.1011252953
 40
0.1148145085
 40
0.1287887177
 40
0.1430557738
 40
0.1576205986
 40
0.1724848349
 40
0.1876480993
 40
0.2031079184
 40
0.2188588761
 40
0.2348937716
 40
0.2512039761
 40
0.267778517
 40
0.2846047451
 40
0.3189512753
 40
0.3364445255
 40
0.3541264035
 40
0.3719785593
 40
0.3899813649
 40
0.4081146243
 40
0.4263577294
 40
0.4446892936
 40
0.4630874878
 40
0.4999916567
 40
0.5368959409
 40
0.5552942783
 40
0.5736260422
 40
0.5918694028
 40
0.6100029717
 40
0.6280061392
 40
0.6458587083
 40
0.6635410488
 40
0.6810348073
 40
0.7153824845
 40
0.7322093434
 40
0.7487845488
 40
0.7650954489
 40
0.781131065
 40
0.7968827634
 40
0.81234334
 40
0.8275073721
 40
0.8423723794
 40
0.8569379739
 40
0.8712057918
 40
0.8851807458
 40
0.8988706806
 40
0.9122857883
 40
0.9254393716
 40
0.9383479757
 40
0.9510306339
 40
0.9635095103
 40
0.9758110425
 40
0.9879642465
 40
1.0
 40
1.0
 40
1.0
 40
1.0
 10
4.9740185462
 20
4.7564861028
 30
0.0
 10
4.9748798384
 20
4.7517515099
 30
0.0
 10
4.9769431986
 20
4.7422933523
 30
0.0
 10
4.9810228997
 20
4.7282743431
 30
0.0
 10
4.9860887427
 20
4.7143918232
 30
0.0
 10
4.9921300363
 20
4.7006742874
 30
0.0
 10
4.9991355498
 20
4.687149844
 30
0.0
 10
5.0070885309
 20
4.6738453639
 30
0.0
 10
5.0159719281
 20
4.6607880844
 30
0.0
 10
5.0257689814
 20
4.6480063347
 30
0.0
 10
5.0364582598
 20
4.6355258659
 30
0.0
 10
5.0480164821
 20
4.6233712248
 30
0.0
 10
5.0604208688
 20
4.6115681738
 30
0.0
 10
5.0736459285
 20
4.6001411468
 30
0.0
 10
5.0876630603
 20
4.5891121112
 30
0.0
 10
5.1024438923
 20
4.5785041705
 30
0.0
 10
5.1179587841
 20
4.5683403089
 30
0.0
 10
5.134174597
 20
4.5586397454
 30
0.0
 10
5.1510579855
 20
4.5494222796
 30
0.0
 10
5.1685749729
 20
4.5407084519
 30
0.0
 10
5.1866891668
 20
4.5325148991
 30
0.0
 10
5.2117562744
 20
4.5222361653
 30
0.0
 10
5.2376932703
 20
4.5131554597
 30
0.0
 10
5.2643509378
 20
4.5052644861
 30
0.0
 10
5.284868372
 20
4.499902734
 30
0.0
 10
5.3057430444
 20
4.4951464038
 30
0.0
 10
5.3269320008
 20
4.4910035059
 30
0.0
 10
5.3483915276
 20
4.4874828082
 30
0.0
 10
5.37007762
 20
4.4845931213
 30
0.0
 10
5.3919455573
 20
4.4823389784
 30
0.0
 10
5.4213121518
 20
4.480184504
 30
0.0
 10
5.4581869427
 20
4.4791089521
 30
0.0
 10
5.4950618712
 20
4.4801817354
 30
0.0
 10
5.5244288114
 20
4.4823339993
 30
0.0
 10
5.5462971581
 20
4.4845865013
 30
0.0
 10
5.5679837761
 20
4.4874745564
 30
0.0
 10
5.5894439431
 20
4.4909936402
 30
0.0
 10
5.6106336521
 20
4.4951349479
 30
0.0
 10
5.6315091892
 20
4.4998897094
 30
0.0
 10
5.6520275988
 20
4.5052499163
 30
0.0
 10
5.6786867378
 20
4.5131389011
 30
0.0
 10
5.704625382
 20
4.5222176568
 30
0.0
 10
5.7296943226
 20
4.5324944926
 30
0.0
 10
5.7478100046
 20
4.5406866857
 30
0.0
 10
5.7653285771
 20
4.5493991934
 30
0.0
 10
5.7822136408
 20
4.558615389
 30
0.0
 10
5.798431215
 20
4.5683147346
 30
0.0
 10
5.8139479542
 20
4.5784774279
 30
0.0
 10
5.8287307155
 20
4.5890842534
 30
0.0
 10
5.8427498496
 20
4.6001122352
 30
0.0
 10
5.8559769849
 20
4.6115382664
 30
0.0
 10
5.8683835194
 20
4.6233403786
 30
0.0
 10
5.8799439492
 20
4.6354941484
 30
0.0
 10
5.8906354937
 20
4.6479738105
 30
0.0
 10
5.9004348741
 20
4.6607548157
 30
0.0
 10
5.909320645
 20
4.6738114227
 30
0.0
 10
5.9172760428
 20
4.6871153018
 30
0.0
 10
5.9242840182
 20
4.700639213
 30
0.0
 10
5.9303278101
 20
4.7143562878
 30
0.0
 10
5.9353961774
 20
4.7282384191
 30
0.0
 10
5.9394784313
 20
4.742257111
 30
0.0
 10
5.9415435247
 20
4.7517151376
 30
0.0
 10
5.9424056809
 20
4.75644968
 30
0.0
 11
4.9740185462
 21
4.7564861028
 31
0.0
 11
4.977091889
 21
4.7423801355
 31
0.0
 11
4.9811594918
 21
4.7283814462
 31
0.0
 11
4.9862116003
 21
4.7145177803
 31
0.0
 11
4.9922380231
 21
4.7008164015
 31
0.0
 11
4.9992275453
 21
4.6873046559
 31
0.0
 11
5.0071645939
 21
4.6740102398
 31
0.0
 11
5.0160324366
 21
4.6609609429
 31
0.0
 11
5.0258140069
 21
4.6481844251
 31
0.0
 11
5.0364886356
 21
4.6357069454
 31
0.0
 11
5.0480334542
 21
4.6235539084
 31
0.0
 11
5.0604255046
 21
4.6117506818
 31
0.0
 11
5.0736394999
 21
4.6003216669
 31
0.0
 11
5.0876470926
 21
4.5892899944
 31
0.0
 11
5.1024197263
 21
4.5786787082
 31
0.0
 11
5.1179277235
 21
4.5685101758
 31
0.0
 11
5.1341381129
 21
4.558804777
 31
0.0
 11
5.1510173209
 21
4.5495825283
 31
0.0
 11
5.1685313933
 21
4.5408631402
 31
0.0
 11
5.1866436673
 21
4.532664146
 31
0.0
 11
5.2053163063
 21
4.5250021354
 31
0.0
 11
5.2441893096
 21
4.511353176
 31
0.0
 11
5.2643088685
 21
4.505393692
 31
0.0
 11
5.2848287962
 21
4.5000279176
 31
0.0
 11
5.3057070713
 21
4.4952673851
 31
0.0
 11
5.3269001202
 21
4.4911210858
 31
0.0
 11
5.3483641781
 21
4.4875976972
 31
0.0
 11
5.3700552717
 21
4.4847053098
 31
0.0
 11
5.3919284179
 21
4.4824491709
 31
0.0
 11
5.4139383288
 21
4.4808336684
 31
0.0
 11
5.4581869126
 21
4.4795388701
 31
0.0
 11
5.5024357322
 21
4.4808303402
 31
0.0
 11
5.5244459367
 21
4.482444188
 31
0.0
 11
5.5463194931
 21
4.4846986834
 31
0.0
 11
5.5680111134
 21
4.4875894386
 31
0.0
 11
5.5894758125
 21
4.4911112125
 31
0.0
 11
5.6106696153
 21
4.4952559194
 31
0.0
 11
5.6315487568
 21
4.5000148819
 31
0.0
 11
5.6520696617
 21
4.5053791118
 31
0.0
 11
5.6721903043
 21
4.5113370838
 31
0.0
 11
5.7110657924
 21
4.5249831191
 31
0.0
 11
5.7297398251
 21
4.532643726
 31
0.0
 11
5.7478535902
 21
4.5408413592
 31
0.0
 11
5.7653692509
 21
4.5495594291
 31
0.0
 11
5.7822501372
 21
4.5587804082
 31
0.0
 11
5.7984622914
 21
4.568484589
 31
0.0
 11
5.8139721398
 21
4.5786519549
 31
0.0
 11
5.8287467059
 21
4.5892621293
 31
0.0
 11
5.8427563047
 21
4.6002927492
 31
0.0
 11
5.8559723795
 21
4.6117207708
 31
0.0
 11
5.8683665802
 21
4.6235230646
 31
0.0
 11
5.8799136093
 21
4.6356752337
 31
0.0
 11
5.8905905075
 21
4.6481519107
 31
0.0
 11
5.9003744054
 21
4.6609276917
 31
0.0
 11
5.9092446226
 21
4.6739763217
 31
0.0
 11
5.9171840887
 21
4.6872701425
 31
0.0
 11
5.9241760715
 21
4.7007813643
 31
0.0
 11
5.9302049892
 21
4.7144822902
 31
0.0
 11
5.9352596189
 21
4.7283455734
 31
0.0
 11
5.9393297691
 21
4.7423439501
 31
0.0
 11
5.9424056809
 21
4.75644968
 31
0.0
  0
SPLINE
  5
25D
100
AcDbEntity
  8
0
100
AcDbSpline
 62
9
  6
CONTINUOUS
 70
0
 71
3
 72
69
 73
65
 74
63
 42
0.0000001
 43
0.0000001
 44
0.0000000001
 12
0.0
 22
-1.272751422
 32
0.0
 13
0.0
 23
1.272751422
 33
0.0
 40
0.0
 40
0.0
 40
0.0
 40
0.0
 40
0.0120838193
 40
0.0242162884
 40
0.0364323282
 40
0.0487666361
 40
0.0612558454
 40
0.0739349442
 40
0.0868357627
 40
0.0999848992
 40
0.1066605589
 40
0.1134064659
 40
0.1271164933
 40
0.1411315874
 40
0.1554630501
 40
0.170119121
 40
0.1851037863
 40
0.2004176625
 40
0.2160589249
 40
0.2320222228
 40
0.2482994258
 40
0.2648805738
 40
0.2817528948
 40
0.2989013769
 40
0.3163097083
 40
0.333959482
 40
0.351830558
 40
0.3699019195
 40
0.3881511209
 40
0.4250827657
 40
0.4437208589
 40
0.4624379742
 40
0.5
 40
0.5375620258
 40
0.5562791411
 40
0.5749172343
 40
0.6118488791
 40
0.6300980805
 40
0.648169442
 40
0.666040518
 40
0.6836902917
 40
0.7010986231
 40
0.7182471052
 40
0.7351194262
 40
0.7517005742
 40
0.7679777772
 40
0.7839410751
 40
0.7995823375
 40
0.8148962137
 40
0.829880879
 40
0.8445369499
 40
0.8588684126
 40
0.8728835067
 40
0.8865935341
 40
0.8933394411
 40
0.9000151008
 40
0.9131642373
 40
0.9260650558
 40
0.9387441546
 40
0.9512333639
 40
0.9635676718
 40
0.9757837116
 40
0.9879161807
 40
1.0
 40
1.0
 40
1.0
 40
1.0
 10
4.9707154281
 20
4.6357093645
 30
0.0
 10
4.9707154281
 20
4.6305827985
 30
0.0
 10
4.9711097013
 20
4.6203047602
 30
0.0
 10
4.9728764155
 20
4.6049355078
 30
0.0
 10
4.9758144311
 20
4.5896376284
 30
0.0
 10
4.9799200271
 20
4.5744547696
 30
0.0
 10
4.985179659
 20
4.5594244122
 30
0.0
 10
4.9915795567
 20
4.5445814854
 30
0.0
 10
4.9991056271
 20
4.5299620732
 30
0.0
 10
5.00626278
 20
4.5180530712
 30
0.0
 10
5.0125190791
 20
4.5086740992
 30
0.0
 10
5.0192008288
 20
4.4992993755
 30
0.0
 10
5.0282309862
 20
4.4877840123
 30
0.0
 10
5.0400429221
 20
4.4743987576
 30
0.0
 10
5.0528601158
 20
4.4614030411
 30
0.0
 10
5.0666530702
 20
4.4488298882
 30
0.0
 10
5.0813872559
 20
4.4367078601
 30
0.0
 10
5.0970267196
 20
4.4250651529
 30
0.0
 10
5.1135352766
 20
4.4139315073
 30
0.0
 10
5.1308723032
 20
4.40333232
 30
0.0
 10
5.1489956874
 20
4.3932919975
 30
0.0
 10
5.1678629825
 20
4.3838365107
 30
0.0
 10
5.1874282582
 20
4.3749874656
 30
0.0
 10
5.2076441057
 20
4.3667649987
 30
0.0
 10
5.2284627526
 20
4.3591907625
 30
0.0
 10
5.2498338355
 20
4.3522821005
 30
0.0
 10
5.2717055482
 20
4.3460544018
 30
0.0
 10
5.2940262828
 20
4.340524425
 30
0.0
 10
5.3244312272
 20
4.3340734108
 30
0.0
 10
5.3553792701
 20
4.3291042061
 30
0.0
 10
5.3867057096
 20
4.3256134891
 30
0.0
 10
5.4183949094
 20
4.3231021531
 30
0.0
 10
5.4582154281
 20
4.3218493557
 30
0.0
 10
5.4980359469
 20
4.3231021531
 30
0.0
 10
5.5297251467
 20
4.3256134891
 30
0.0
 10
5.5610515862
 20
4.3291042061
 30
0.0
 10
5.5919996291
 20
4.3340734108
 30
0.0
 10
5.6224045735
 20
4.340524425
 30
0.0
 10
5.6447253081
 20
4.3460544018
 30
0.0
 10
5.6665970208
 20
4.3522821005
 30
0.0
 10
5.6879681037
 20
4.3591907625
 30
0.0
 10
5.7087867506
 20
4.3667649987
 30
0.0
 10
5.7290025981
 20
4.3749874656
 30
0.0
 10
5.7485678738
 20
4.3838365107
 30
0.0
 10
5.7674351689
 20
4.3932919975
 30
0.0
 10
5.7855585531
 20
4.40333232
 30
0.0
 10
5.8028955797
 20
4.4139315073
 30
0.0
 10
5.8194041367
 20
4.4250651529
 30
0.0
 10
5.8350436004
 20
4.4367078601
 30
0.0
 10
5.8497777861
 20
4.4488298882
 30
0.0
 10
5.8635707405
 20
4.4614030411
 30
0.0
 10
5.8763879342
 20
4.4743987576
 30
0.0
 10
5.8881998701
 20
4.4877840123
 30
0.0
 10
5.8972300275
 20
4.4992993755
 30
0.0
 10
5.9039117772
 20
4.5086740992
 30
0.0
 10
5.9101680763
 20
4.5180530712
 30
0.0
 10
5.9173252292
 20
4.5299620732
 30
0.0
 10
5.9248512996
 20
4.5445814854
 30
0.0
 10
5.9312511973
 20
4.5594244122
 30
0.0
 10
5.9365108292
 20
4.5744547696
 30
0.0
 10
5.9406164252
 20
4.5896376284
 30
0.0
 10
5.9435544408
 20
4.6049355078
 30
0.0
 10
5.945321155
 20
4.6203047602
 30
0.0
 10
5.9457154281
 20
4.6305827985
 30
0.0
 10
5.9457154281
 20
4.6357093645
 30
0.0
 11
4.9707154281
 21
4.6357093645
 31
0.0
 11
4.9713031385
 21
4.6203408996
 31
0.0
 11
4.9730633943
 21
4.6049999399
 31
0.0
 11
4.9759918824
 21
4.5897302411
 31
0.0
 11
4.9800830617
 21
4.5745742059
 31
0.0
 11
4.9853257236
 21
4.5595679916
 31
0.0
 11
4.9917070253
 21
4.5447459551
 31
0.0
 11
4.9992131065
 21
4.5301425351
 31
0.0
 11
5.007824683
 21
4.5157926062
 31
0.0
 11
5.0125384431
 21
4.5087236444
 31
0.0
 11
5.0175206702
 21
4.5017311877
 31
0.0
 11
5.0282791667
 21
4.4879929819
 31
0.0
 11
5.0400732373
 21
4.4746107344
 31
0.0
 11
5.0528740281
 21
4.4616164448
 31
0.0
 11
5.0666520515
 21
4.4490418497
 31
0.0
 11
5.0813733023
 21
4.4369168104
 31
0.0
 11
5.0970018039
 21
4.42527037
 31
0.0
 11
5.1135011055
 21
4.4141312869
 31
0.0
 11
5.1308308563
 21
4.4035259663
 31
0.0
 11
5.1489487625
 21
4.3934796408
 31
0.0
 11
5.1678121894
 21
4.3840172718
 31
0.0
 11
5.1873752928
 21
4.3751612414
 31
0.0
 11
5.2075904074
 21
4.366932467
 31
0.0
 11
5.2284096336
 21
4.3593516122
 31
0.0
 11
5.2497825962
 21
4.3524365822
 31
0.0
 11
5.2716573221
 21
4.3462035023
 31
0.0
 11
5.2939816875
 21
4.3406682643
 31
0.0
 11
5.3167018375
 21
4.3358439258
 31
0.0
 11
5.3631089148
 21
4.3283716624
 31
0.0
 11
5.3866844182
 21
4.3257424479
 31
0.0
 11
5.4104321153
 21
4.3238594259
 31
0.0
 11
5.4582154281
 21
4.3223508159
 31
0.0
 11
5.505998741
 21
4.3238594259
 31
0.0
 11
5.5297464381
 21
4.3257424479
 31
0.0
 11
5.5533219415
 21
4.3283716624
 31
0.0
 11
5.5997290188
 21
4.3358439258
 31
0.0
 11
5.6224491688
 21
4.3406682643
 31
0.0
 11
5.6447735342
 21
4.3462035023
 31
0.0
 11
5.6666482601
 21
4.3524365822
 31
0.0
 11
5.6880212227
 21
4.3593516122
 31
0.0
 11
5.7088404489
 21
4.366932467
 31
0.0
 11
5.7290555635
 21
4.3751612414
 31
0.0
 11
5.7486186669
 21
4.3840172718
 31
0.0
 11
5.7674820938
 21
4.3934796408
 31
0.0
 11
5.7856
 21
4.4035259663
 31
0.0
 11
5.8029297508
 21
4.4141312869
 31
0.0
 11
5.8194290524
 21
4.42527037
 31
0.0
 11
5.835057554
 21
4.4369168104
 31
0.0
 11
5.8497788048
 21
4.4490418497
 31
0.0
 11
5.8635568282
 21
4.4616164448
 31
0.0
 11
5.876357619
 21
4.4746107344
 31
0.0
 11
5.8881516896
 21
4.4879929819
 31
0.0
 11
5.8989101861
 21
4.5017311877
 31
0.0
 11
5.9038924132
 21
4.5087236444
 31
0.0
 11
5.9086061733
 21
4.5157926062
 31
0.0
 11
5.9172177498
 21
4.5301425351
 31
0.0
 11
5.924723831
 21
4.5447459551
 31
0.0
 11
5.9311051327
 21
4.5595679916
 31
0.0
 11
5.9363477946
 21
4.5745742059
 31
0.0
 11
5.9404389739
 21
4.5897302411
 31
0.0
 11
5.943367462
 21
4.6049999399
 31
0.0
 11
5.9451277178
 21
4.6203408996
 31
0.0
 11
5.9457154281
 21
4.6357093645
 31
0.0
  0
SPLINE
  5
25E
100
AcDbEntity
  8
0
100
AcDbSpline
 62
6
  6
CONTINUOUS
 70
0
 71
3
 72
67
 73
63
 74
61
 42
0.0000001
 43
0.0000001
 44
0.0000000001
 12
-0.1510905828
 22
0.908005603
 32
0.0
 13
-0.1573480587
 23
-0.9069421854
 33
0.0
 40
0.0
 40
0.0
 40
0.0
 40
0.0
 40
0.0124585514
 40
0.0250244484
 40
0.0377272881
 40
0.050595169
 40
0.0636539111
 40
0.076925359
 40
0.0904281865
 40
0.1041787027
 40
0.1181902098
 40
0.1324729258
 40
0.1470347559
 40
0.161880836
 40
0.1770130571
 40
0.1924312559
 40
0.208133199
 40
0.22411366
 40
0.2403655517
 40
0.2568803529
 40
0.2736472394
 40
0.2906536016
 40
0.3253237113
 40
0.3429605843
 40
0.3607738493
 40
0.3787451243
 40
0.3968547968
 40
0.415082615
 40
0.4334078683
 40
0.4518089929
 40
0.4702638971
 40
0.507241755
 40
0.5441654649
 40
0.5625525842
 40
0.5808587418
 40
0.5990617383
 40
0.6171398264
 40
0.6350721097
 40
0.6528380847
 40
0.6704178191
 40
0.6877927214
 40
0.7218528126
 40
0.7385105043
 40
0.754899265
 40
0.7710061484
 40
0.7868200474
 40
0.8023322022
 40
0.8175352699
 40
0.832423855
 40
0.8469957144
 40
0.8612507134
 40
0.8751909074
 40
0.8888218701
 40
0.9021520943
 40
0.9151926187
 40
0.9279579817
 40
0.9404661051
 40
0.9527376289
 40
0.9647968587
 40
0.9766724799
 40
0.9883958179
 40
1.0
 40
1.0
 40
1.0
 40
1.0
 10
5.8284439525
 20
5.0861815675
 30
0.0
 10
5.8278164959
 20
5.089952379
 30
0.0
 10
5.8262990702
 20
5.0974861763
 30
0.0
 10
5.8232600419
 20
5.1086642702
 30
0.0
 10
5.8194584807
 20
5.1197396618
 30
0.0
 10
5.8149027533
 20
5.1306902546
 30
0.0
 10
5.8096012323
 20
5.1414942166
 30
0.0
 10
5.8035665413
 20
5.1521305417
 30
0.0
 10
5.7968119975
 20
5.1625781708
 30
0.0
 10
5.789350503
 20
5.1728151471
 30
0.0
 10
5.7811982794
 20
5.1828211808
 30
0.0
 10
5.7723734633
 20
5.1925772416
 30
0.0
 10
5.7628936878
 20
5.2020633733
 30
0.0
 10
5.7527784807
 20
5.2112604236
 30
0.0
 10
5.7420500031
 20
5.2201513205
 30
0.0
 10
5.7307302161
 20
5.228718168
 30
0.0
 10
5.7188419727
 20
5.2369430196
 30
0.0
 10
5.7064109949
 20
5.2448108781
 30
0.0
 10
5.6934632033
 20
5.2523063817
 30
0.0
 10
5.6800249085
 20
5.2594135049
 30
0.0
 10
5.6661243245
 20
5.2661191562
 30
0.0
 10
5.6468916891
 20
5.2745614256
 30
0.0
 10
5.6269765426
 20
5.2820799155
 30
0.0
 10
5.6064955829
 20
5.2886783612
 30
0.0
 10
5.5907365394
 20
5.2931980321
 30
0.0
 10
5.5747015641
 20
5.2972500787
 30
0.0
 10
5.5584239902
 20
5.3008283036
 30
0.0
 10
5.5419377157
 20
5.3039260304
 30
0.0
 10
5.5252768442
 20
5.3065364223
 30
0.0
 10
5.5084761228
 20
5.3086558917
 30
0.0
 10
5.4859228833
 20
5.3108242616
 30
0.0
 10
5.4576054583
 20
5.3122857413
 30
0.0
 10
5.4292718528
 20
5.3120885786
 30
0.0
 10
5.4067108282
 20
5.3109315082
 30
0.0
 10
5.3899194464
 20
5.3095709449
 30
0.0
 10
5.3732705302
 20
5.3077198132
 30
0.0
 10
5.3567987753
 20
5.305381737
 30
0.0
 10
5.3405383419
 20
5.3025636354
 30
0.0
 10
5.3245231293
 20
5.2992723296
 30
0.0
 10
5.3087863831
 20
5.2955141315
 30
0.0
 10
5.288357132
 20
5.2899311591
 30
0.0
 10
5.2684803693
 20
5.2834322365
 30
0.0
 10
5.2492710918
 20
5.2760089144
 30
0.0
 10
5.2354044278
 20
5.2700691937
 30
0.0
 10
5.2220021128
 20
5.2637290328
 30
0.0
 10
5.2090921941
 20
5.2570016755
 30
0.0
 10
5.1967009627
 20
5.2499031795
 30
0.0
 10
5.1848542836
 20
5.2424488873
 30
0.0
 10
5.1735776755
 20
5.2346538701
 30
0.0
 10
5.1628938845
 20
5.2265361798
 30
0.0
 10
5.1528248441
 20
5.2181136562
 30
0.0
 10
5.143392582
 20
5.2094033342
 30
0.0
 10
5.1346164127
 20
5.2004245199
 30
0.0
 10
5.1265139752
 20
5.1911971235
 30
0.0
 10
5.119103365
 20
5.1817400978
 30
0.0
 10
5.1124005713
 20
5.1720738267
 30
0.0
 10
5.1064184981
 20
5.1622202398
 30
0.0
 10
5.101170469
 20
5.1522002991
 30
0.0
 10
5.0966689395
 20
5.142035024
 30
0.0
 10
5.0929222617
 20
5.1317462582
 30
0.0
 10
5.0899389239
 20
5.1213561848
 30
0.0
 10
5.0884582417
 20
5.1143459312
 30
0.0
 10
5.0878496099
 20
5.1108378238
 30
0.0
 11
5.8284439525
 21
5.0861815675
 31
0.0
 11
5.8261820568
 21
5.0974242681
 31
0.0
 11
5.8231515304
 21
5.1085869953
 31
0.0
 11
5.8193597589
 21
5.1196479635
 31
0.0
 11
5.8148146754
 21
5.1305859966
 31
0.0
 11
5.8095247544
 21
5.1413798776
 31
0.0
 11
5.8035017545
 21
5.1520081416
 31
0.0
 11
5.7967586655
 21
5.1624492302
 31
0.0
 11
5.7893086504
 21
5.1726816513
 31
0.0
 11
5.7811674383
 21
5.1826849045
 31
0.0
 11
5.7723527369
 21
5.1924392547
 31
0.0
 11
5.7628823334
 21
5.2019249983
 31
0.0
 11
5.7527756397
 21
5.2111231169
 31
0.0
 11
5.7420545422
 21
5.2200156357
 31
0.0
 11
5.7307411353
 21
5.2285846675
 31
0.0
 11
5.7188583217
 21
5.2368127928
 31
0.0
 11
5.7064316494
 21
5.2446841214
 31
0.0
 11
5.6934872062
 21
5.2521830755
 31
0.0
 11
5.6800513197
 21
5.2592942717
 31
0.0
 11
5.6661523835
 21
5.2660039998
 31
0.0
 11
5.6518198458
 21
5.272299404
 31
0.0
 11
5.6219730933
 21
5.2835973241
 31
0.0
 11
5.606521557
 21
5.2885784238
 31
0.0
 11
5.5907606998
 21
5.2931011434
 31
0.0
 11
5.574723085
 21
5.2971564408
 31
0.0
 11
5.5584424599
 21
5.3007373333
 31
0.0
 11
5.5419527624
 21
5.30383717
 31
0.0
 11
5.5252880814
 21
5.3064496836
 31
0.0
 11
5.508483355
 21
5.3085707653
 31
0.0
 11
5.4915738187
 21
5.3101970606
 31
0.0
 11
5.4575814452
 21
5.3119542807
 31
0.0
 11
5.4235943733
 21
5.3117142169
 31
0.0
 11
5.4066914545
 21
5.3108466954
 31
0.0
 11
5.3898959533
 21
5.3094846103
 31
0.0
 11
5.3732430687
 21
5.3076314104
 31
0.0
 11
5.3567677302
 21
5.3052912558
 31
0.0
 11
5.3405040381
 21
5.3024704983
 31
0.0
 11
5.3244859334
 21
5.2991759102
 31
0.0
 11
5.3087471715
 21
5.2954145626
 31
0.0
 11
5.2933202596
 21
5.2911955335
 31
0.0
 11
5.2635298746
 21
5.2814241466
 31
0.0
 11
5.249228873
 21
5.2758933459
 31
0.0
 11
5.2353636269
 21
5.2699491732
 31
0.0
 11
5.2219635309
 21
5.2636045251
 31
0.0
 11
5.2090568545
 21
5.256873209
 31
0.0
 11
5.1966698642
 21
5.2497706536
 31
0.0
 11
5.1848286196
 21
5.2423124546
 31
0.0
 11
5.1735585447
 21
5.2345145743
 31
0.0
 11
5.1628824068
 21
5.2263945051
 31
0.0
 11
5.1528222793
 21
5.217970139
 31
0.0
 11
5.1433999696
 21
5.2092594821
 31
0.0
 11
5.134634697
 21
5.2002816498
 31
0.0
 11
5.1265442249
 21
5.1910563812
 31
0.0
 11
5.1191462281
 21
5.1816034499
 31
0.0
 11
5.1124562357
 21
5.1719434418
 31
0.0
 11
5.1064873248
 21
5.1620978713
 31
0.0
 11
5.1012524331
 21
5.1520883035
 31
0.0
 11
5.096763119
 21
5.1419362076
 31
0.0
 11
5.0930277297
 21
5.1316628311
 31
0.0
 11
5.0900541565
 21
5.1212893896
 31
0.0
 11
5.0878496099
 21
5.1108378238
 31
0.0
  0
SPLINE
  5
25F
100
AcDbEntity
  8
0
100
AcDbSpline
 62
6
  6
CONTINUOUS
 70
0
 71
3
 72
45
 73
41
 74
39
 42
0.0000001
 43
0.0000001
 44
0.0000000001
 12
-0.3972679213
 22
0.6897059898
 32
0.0
 13
-0.4045494404
 23
-0.6854603592
 33
0.0
 40
0.0
 40
0.0
 40
0.0
 40
0.0
 40
0.0258710368
 40
0.0525419441
 40
0.080073141
 40
0.0941768051
 40
0.1085073578
 40
0.1680492289
 40
0.1835015024
 40
0.1991671273
 40
0.2311093947
 40
0.2638181618
 40
0.2972194783
 40
0.3312265277
 40
0.3657441092
 40
0.4006685038
 40
0.4358904542
 40
0.4712948768
 40
0.5067641092
 40
0.5421790034
 40
0.5774205171
 40
0.612371058
 40
0.6469160081
 40
0.6809460518
 40
0.6977367524
 40
0.7143606864
 40
0.7470585769
 40
0.7631141035
 40
0.7789601074
 40
0.809984866
 40
0.8251520647
 40
0.8400798183
 40
0.8691933355
 40
0.8833769257
 40
0.8973084739
 40
0.9244114555
 40
0.9375929089
 40
0.9505318936
 40
0.9757022887
 40
1.0
 40
1.0
 40
1.0
 40
1.0
 10
5.8058800226
 20
5.0385462279
 30
0.0
 10
5.8024541116
 20
5.0444940309
 30
0.0
 10
5.7948963998
 20
5.0562370929
 30
0.0
 10
5.781793123
 20
5.0729920129
 30
0.0
 10
5.7694307085
 20
5.0862740772
 30
0.0
 10
5.7586784594
 20
5.0965192217
 30
0.0
 10
5.7411635321
 20
5.1119523141
 30
0.0
 10
5.7218755557
 20
5.1259028813
 30
0.0
 10
5.7013083588
 20
5.1383731518
 30
0.0
 10
5.6867260475
 20
5.1465818145
 30
0.0
 10
5.6676684677
 20
5.1561468617
 30
0.0
 10
5.6437513689
 20
5.1664169842
 30
0.0
 10
5.61877369
 20
5.175494846
 30
0.0
 10
5.5928798587
 20
5.1833364426
 30
0.0
 10
5.566216538
 20
5.1898973102
 30
0.0
 10
5.5389366973
 20
5.1951475848
 30
0.0
 10
5.5111954778
 20
5.1990576244
 30
0.0
 10
5.4831518884
 20
5.2016125209
 30
0.0
 10
5.4549660055
 20
5.2027979342
 30
0.0
 10
5.4267990315
 20
5.2026143332
 30
0.0
 10
5.3988119488
 20
5.20106327
 30
0.0
 10
5.3711643522
 20
5.1981606113
 30
0.0
 10
5.3440149142
 20
5.1939235627
 30
0.0
 10
5.3218347909
 20
5.1892858634
 30
0.0
 10
5.3044781763
 20
5.1849257992
 30
0.0
 10
5.2875861351
 20
5.1801946741
 30
0.0
 10
5.2710789063
 20
5.1748324971
 30
0.0
 10
5.2550216686
 20
5.1688338416
 30
0.0
 10
5.2395593525
 20
5.162532644
 30
0.0
 10
5.2246002233
 20
5.1556367735
 30
0.0
 10
5.2102170896
 20
5.1481427563
 30
0.0
 10
5.1965306671
 20
5.1404282806
 30
0.0
 10
5.1834609196
 20
5.1321649018
 30
0.0
 10
5.1710906075
 20
5.1233553767
 30
0.0
 10
5.1594831448
 20
5.1144130348
 30
0.0
 10
5.1486010179
 20
5.1049778854
 30
0.0
 10
5.138537731
 20
5.0950666202
 30
0.0
 10
5.1292634292
 20
5.0851031798
 30
0.0
 10
5.1188028611
 20
5.0722373814
 30
0.0
 10
5.1115337621
 20
5.0612788127
 30
0.0
 10
5.1082572203
 20
5.0557271067
 30
0.0
 11
5.8058800226
 21
5.0385462279
 31
0.0
 11
5.794759232
 21
5.0558767518
 31
0.0
 11
5.7817062692
 21
5.0726178338
 31
0.0
 11
5.7667977628
 21
5.088677742
 31
0.0
 11
5.758673331
 21
5.0964242524
 31
0.0
 11
5.7501177089
 21
5.1039676741
 31
0.0
 11
5.7118385297
 21
5.1319081055
 31
0.0
 11
5.7013231279
 21
5.1382871904
 31
0.0
 11
5.6904588149
 21
5.1444059358
 31
0.0
 11
5.6677455333
 21
5.1558291018
 31
0.0
 11
5.6438302731
 21
5.1661167694
 31
0.0
 11
5.6188493243
 21
5.1752125482
 31
0.0
 11
5.5929471459
 21
5.1830691086
 31
0.0
 11
5.5662716569
 21
5.1896440316
 31
0.0
 11
5.5389763254
 21
5.1949045435
 31
0.0
 11
5.5112170825
 21
5.1988231621
 31
0.0
 11
5.4831538282
 21
5.2013823101
 31
0.0
 11
5.4549475334
 21
5.2025698932
 31
0.0
 11
5.4267601116
 21
5.2023840331
 31
0.0
 11
5.3987532415
 21
5.2008285055
 31
0.0
 11
5.3710875717
 21
5.1979171087
 31
0.0
 11
5.3439220622
 21
5.1936693021
 31
0.0
 11
5.3174120672
 21
5.1881141547
 31
0.0
 11
5.3044507972
 21
5.1848566732
 31
0.0
 11
5.291709983
 21
5.1812863613
 31
0.0
 11
5.2669629304
 21
5.1732297815
 31
0.0
 11
5.2549925789
 21
5.1687555846
 31
0.0
 11
5.2433136952
 21
5.1639935528
 31
0.0
 11
5.2208973992
 21
5.1536353894
 31
0.0
 11
5.2101926226
 21
5.1480546818
 31
0.0
 11
5.1998436295
 21
5.142217756
 31
0.0
 11
5.180272359
 21
5.1298108349
 31
0.0
 11
5.1710786643
 21
5.1232592623
 31
0.0
 11
5.1622968275
 21
5.1164889413
 31
0.0
 11
5.146018999
 21
5.1023328372
 31
0.0
 11
5.1385468198
 21
5.0949680274
 31
0.0
 11
5.1315330745
 21
5.0874268766
 31
0.0
 11
5.1189213482
 21
5.071860639
 31
0.0
 11
5.1082572203
 21
5.0557271067
 31
0.0
  0
SPLINE
  5
260
100
AcDbEntity
  8
0
100
AcDbSpline
 62
6
  6
CONTINUOUS
 70
0
 71
3
 72
37
 73
33
 74
31
 42
0.0000001
 43
0.0000001
 44
0.0000000001
 12
-0.5061429723
 22
0.4673308606
 32
0.0
 13
-0.4431790653
 23
-0.5274193377
 33
0.0
 40
0.0
 40
0.0
 40
0.0
 40
0.0
 40
0.0278853261
 40
0.0565276579
 40
0.0858997761
 40
0.115977608
 40
0.1467361547
 40
0.1781394157
 40
0.2426612562
 40
0.2756822085
 40
0.3091181685
 40
0.3428987106
 40
0.3769495638
 40
0.4111939425
 40
0.4455524529
 40
0.4799446092
 40
0.5142888551
 40
0.5485034608
 40
0.582507925
 40
0.6162227405
 40
0.6495712331
 40
0.7148627534
 40
0.7466872217
 40
0.777876615
 40
0.8083784188
 40
0.8381466017
 40
0.8671440185
 40
0.8953432123
 40
0.9227264926
 40
0.9492896626
 40
0.9750398054
 40
1.0
 40
1.0
 40
1.0
 40
1.0
 10
5.7594393852
 20
5.0410012397
 30
0.0
 10
5.7547347312
 20
5.0453451308
 30
0.0
 10
5.7449017749
 20
5.0538351759
 30
0.0
 10
5.7291933429
 20
5.0657842222
 30
0.0
 10
5.7123903751
 20
5.0770680761
 30
0.0
 10
5.6945655016
 20
5.087641412
 30
0.0
 10
5.6757892139
 20
5.0974658754
 30
0.0
 10
5.6493509331
 20
5.1096253025
 30
0.0
 10
5.6215602588
 20
5.1199969526
 30
0.0
 10
5.5927286125
 20
5.1285856639
 30
0.0
 10
5.5703917612
 20
5.1341759326
 30
0.0
 10
5.5476040485
 20
5.1388449779
 30
0.0
 10
5.5244560001
 20
5.1425761226
 30
0.0
 10
5.5010410971
 20
5.1453557608
 30
0.0
 10
5.4774536679
 20
5.1471768322
 30
0.0
 10
5.4537885987
 20
5.1480315558
 30
0.0
 10
5.4301414208
 20
5.1479217552
 30
0.0
 10
5.4066074136
 20
5.1468473129
 30
0.0
 10
5.3832817817
 20
5.1448167845
 30
0.0
 10
5.3602575592
 20
5.1418397251
 30
0.0
 10
5.3303020588
 20
5.1366641793
 30
0.0
 10
5.3011244605
 20
5.1296591641
 30
0.0
 10
5.2730134971
 20
5.1208074182
 30
0.0
 10
5.2528536174
 20
5.1133842731
 30
0.0
 10
5.2335212619
 20
5.1051551297
 30
0.0
 10
5.2150937281
 20
5.0961540224
 30
0.0
 10
5.1976456075
 20
5.0864187338
 30
0.0
 10
5.1812460996
 20
5.0759918039
 30
0.0
 10
5.1659629269
 20
5.0649143723
 30
0.0
 10
5.1518554581
 20
5.0532351981
 30
0.0
 10
5.1389836908
 20
5.0410009576
 30
0.0
 10
5.1311397128
 20
5.0323768598
 30
0.0
 10
5.1274524343
 20
5.0279886967
 30
0.0
 11
5.7594393852
 21
5.0410012397
 31
0.0
 11
5.744910755
 21
5.0535689498
 31
0.0
 11
5.7292154593
 21
5.0655269675
 31
0.0
 11
5.7124255274
 21
5.0768197737
 31
0.0
 11
5.6946113279
 21
5.087402513
 31
0.0
 11
5.6758422918
 21
5.0972369791
 31
0.0
 11
5.6561924452
 21
5.1062866465
 31
0.0
 11
5.6145746847
 21
5.1218964497
 31
0.0
 11
5.5927754237
 21
5.128397608
 31
0.0
 11
5.5704321914
 21
5.1339959786
 31
0.0
 11
5.54763547
 21
5.138671798
 31
0.0
 11
5.5244774297
 21
5.1424081918
 31
0.0
 11
5.501051417
 21
5.1451920468
 31
0.0
 11
5.4774522514
 21
5.1470149943
 31
0.0
 11
5.4537750702
 21
5.147870934
 31
0.0
 11
5.4301156894
 21
5.1477597327
 31
0.0
 11
5.4065699601
 21
5.1466830497
 31
0.0
 11
5.383232939
 21
5.1446481876
 31
0.0
 11
5.3601992352
 21
5.1416654146
 31
0.0
 11
5.3375618876
 21
5.1377487775
 31
0.0
 11
5.2938394727
 21
5.1271907572
 31
0.0
 11
5.2729308771
 21
5.120596627
 31
0.0
 11
5.2527716345
 21
5.1131625894
 31
0.0
 11
5.2334425362
 21
5.1049215247
 31
0.0
 11
5.2150220242
 21
5.095908741
 31
0.0
 11
5.1975845505
 21
5.0861627565
 31
0.0
 11
5.1812001198
 21
5.0757256625
 31
0.0
 11
5.1659359302
 21
5.0646412306
 31
0.0
 11
5.1518523628
 21
5.0529571855
 31
0.0
 11
5.1390076026
 21
5.0407223558
 31
0.0
 11
5.1274524343
 21
5.0279886967
 31
0.0
  0
SPLINE
  5
261
100
AcDbEntity
  8
0
100
AcDbSpline
 62
6
  6
CONTINUOUS
 70
0
 71
3
 72
65
 73
61
 74
59
 42
0.0000001
 43
0.0000001
 44
0.0000000001
 12
-0.281666968
 22
0.8158253953
 32
0.0
 13
-0.3011806114
 23
-0.8088248239
 33
0.0
 40
0.0
 40
0.0
 40
0.0
 40
0.0
 40
0.0125348969
 40
0.0252296965
 40
0.038104606
 40
0.0511765936
 40
0.0644606024
 40
0.0779697865
 40
0.0917148759
 40
0.1057042999
 40
0.1199447333
 40
0.1344408777
 40
0.1491947899
 40
0.1642068112
 40
0.1949931103
 40
0.2107646961
 40
0.2267786435
 40
0.243027438
 40
0.2595016964
 40
0.2930795245
 40
0.3101636488
 40
0.3274251728
 40
0.3448496851
 40
0.3624222007
 40
0.3801267245
 40
0.39794665
 40
0.4158650351
 40
0.4338644238
 40
0.4519267193
 40
0.4700335711
 40
0.5063035278
 40
0.5425278029
 40
0.560577454
 40
0.5785595905
 40
0.596455771
 40
0.6142477453
 40
0.6319179197
 40
0.6494491994
 40
0.6668247577
 40
0.6840283385
 40
0.7010446722
 40
0.7178589985
 40
0.7508219384
 40
0.7669503684
 40
0.782827315
 40
0.7984430304
 40
0.8137897071
 40
0.8436450044
 40
0.858150329
 40
0.8723698323
 40
0.886303696
 40
0.8999539373
 40
0.9133254819
 40
0.9264253722
 40
0.939262573
 40
0.9518486424
 40
0.9641978247
 40
0.9763264119
 40
0.9882530595
 40
1.0
 40
1.0
 40
1.0
 40
1.0
 10
5.821221015
 20
5.0597889012
 30
0.0
 10
5.8200441262
 20
5.0631976636
 30
0.0
 10
5.8174705961
 20
5.0699897825
 30
0.0
 10
5.8129982187
 20
5.0800046069
 30
0.0
 10
5.8078986776
 20
5.0898894384
 30
0.0
 10
5.8021825363
 20
5.0996276002
 30
0.0
 10
5.7958599184
 20
5.1092025716
 30
0.0
 10
5.7889409223
 20
5.1185971636
 30
0.0
 10
5.7814385907
 20
5.1277958722
 30
0.0
 10
5.7733669326
 20
5.1367837578
 30
0.0
 10
5.7647397095
 20
5.1455454329
 30
0.0
 10
5.7555716527
 20
5.154065565
 30
0.0
 10
5.7458796671
 20
5.1623309776
 30
0.0
 10
5.732167907
 20
5.1730824698
 30
0.0
 10
5.7175794608
 20
5.1831661277
 30
0.0
 10
5.7022269956
 20
5.1925710521
 30
0.0
 10
5.6901885962
 20
5.1993631497
 30
0.0
 10
5.6777411734
 20
5.205823668
 30
0.0
 10
5.6605212887
 20
5.2140342093
 30
0.0
 10
5.6426815177
 20
5.2214782359
 30
0.0
 10
5.624313972
 20
5.2281545786
 30
0.0
 10
5.6101649262
 20
5.2328136569
 30
0.0
 10
5.5957484281
 20
5.2370872603
 30
0.0
 10
5.5810892771
 20
5.2409676744
 30
0.0
 10
5.5662136183
 20
5.2444495725
 30
0.0
 10
5.5511476809
 20
5.2475277964
 30
0.0
 10
5.5359177922
 20
5.2501968283
 30
0.0
 10
5.5205507887
 20
5.2524523889
 30
0.0
 10
5.5050737982
 20
5.2542921025
 30
0.0
 10
5.484317779
 20
5.2561878076
 30
0.0
 10
5.45827201
 20
5.2575007054
 30
0.0
 10
5.4322098071
 20
5.257410692
 30
0.0
 10
5.4114403265
 20
5.2564931118
 30
0.0
 10
5.3959630736
 20
5.2553870799
 30
0.0
 10
5.3805957332
 20
5.2538651922
 30
0.0
 10
5.3653653802
 20
5.251929828
 30
0.0
 10
5.3502988391
 20
5.2495852924
 30
0.0
 10
5.3354224538
 20
5.2468370735
 30
0.0
 10
5.3207624322
 20
5.2436903008
 30
0.0
 10
5.3063448727
 20
5.2401503266
 30
0.0
 10
5.2921946286
 20
5.2362249078
 30
0.0
 10
5.2738408991
 20
5.2305258696
 30
0.0
 10
5.2559996811
 20
5.2240614482
 30
0.0
 10
5.2387618514
 20
5.2168286883
 30
0.0
 10
5.2263128613
 20
5.2111018958
 30
0.0
 10
5.2142727104
 20
5.2050435624
 30
0.0
 10
5.198934883
 20
5.1966184769
 30
0.0
 10
5.1843434312
 20
5.1875154571
 30
0.0
 10
5.1706114868
 20
5.1777384093
 30
0.0
 10
5.1609168721
 20
5.1702066854
 30
0.0
 10
5.151746039
 20
5.1624201992
 30
0.0
 10
5.1431158412
 20
5.1543921129
 30
0.0
 10
5.1350409831
 20
5.1461377842
 30
0.0
 10
5.1275352623
 20
5.1376725215
 30
0.0
 10
5.1206127139
 20
5.1290111389
 30
0.0
 10
5.1142862014
 20
5.1201691822
 30
0.0
 10
5.1085659317
 20
5.1111637665
 30
0.0
 10
5.1034621334
 20
5.1020112996
 30
0.0
 10
5.0989854813
 20
5.0927283879
 30
0.0
 10
5.0964059799
 20
5.0864194247
 30
0.0
 10
5.095226663
 20
5.0832523524
 30
0.0
 11
5.821221015
 21
5.0597889012
 31
0.0
 11
5.8173912051
 21
5.0699069598
 31
0.0
 11
5.8129273463
 21
5.0799130428
 31
0.0
 11
5.8078369381
 21
5.0897905953
 31
0.0
 11
5.8021298255
 21
5.099522825
 31
0.0
 11
5.7958160828
 21
5.1090929163
 31
0.0
 11
5.7889060261
 21
5.1184841494
 31
0.0
 11
5.7814122281
 21
5.1276806958
 31
0.0
 11
5.7733484915
 21
5.1366672128
 31
0.0
 11
5.7647286334
 21
5.1454283638
 31
0.0
 11
5.7555673533
 21
5.1539491877
 31
0.0
 11
5.7458815055
 21
5.1622156405
 31
0.0
 11
5.7356882679
 21
5.1702138161
 31
0.0
 11
5.7138505238
 21
5.1853509657
 31
0.0
 11
5.7022452719
 21
5.1924649351
 31
0.0
 11
5.6902094662
 21
5.1992596589
 31
0.0
 11
5.6777638733
 21
5.2057234144
 31
0.0
 11
5.6649309411
 21
5.2118458806
 31
0.0
 11
5.6381943473
 21
5.2230269205
 31
0.0
 11
5.6243373866
 21
5.2280666368
 31
0.0
 11
5.6101874495
 21
5.2327283998
 31
0.0
 11
5.5957694309
 21
5.2370044688
 31
0.0
 11
5.5811084349
 21
5.240887457
 31
0.0
 11
5.5662305321
 21
5.2443716129
 31
0.0
 11
5.5511620729
 21
5.247451658
 31
0.0
 11
5.5359294186
 21
5.2501223416
 31
0.0
 11
5.5205593538
 21
5.2523794849
 31
0.0
 11
5.50507921
 21
5.254220295
 31
0.0
 11
5.4895163551
 21
5.2556420707
 31
0.0
 11
5.4582522883
 21
5.2572203682
 31
0.0
 11
5.4269880314
 21
5.2571096316
 31
0.0
 11
5.4114249354
 21
5.2564216347
 31
0.0
 11
5.3959444429
 21
5.2553145967
 31
0.0
 11
5.3805739125
 21
5.2537912078
 31
0.0
 11
5.3653406631
 21
5.2518542574
 31
0.0
 11
5.350271457
 21
5.2495079364
 31
0.0
 11
5.3353926442
 21
5.2467574721
 31
0.0
 11
5.3207305653
 21
5.243608116
 31
0.0
 11
5.3063112739
 21
5.2400656319
 31
0.0
 11
5.292159903
 21
5.2361374253
 31
0.0
 11
5.2783014016
 21
5.2318312303
 31
0.0
 11
5.251561552
 21
5.2221171397
 31
0.0
 11
5.238726898
 21
5.2167281121
 31
0.0
 11
5.2262795134
 21
5.2109977586
 31
0.0
 11
5.2142418183
 21
5.2049364075
 31
0.0
 11
5.2026345589
 21
5.1985557749
 31
0.0
 11
5.1807924859
 21
5.1848850521
 31
0.0
 11
5.1705968812
 21
5.1776199671
 31
0.0
 11
5.1609085583
 21
5.1700865482
 31
0.0
 11
5.151744761
 21
5.1622987058
 31
0.0
 11
5.1431223548
 21
5.1542705044
 31
0.0
 11
5.1350559879
 21
5.1460169097
 31
0.0
 11
5.1275595033
 21
5.137553215
 31
0.0
 11
5.1206467198
 21
5.1288947231
 31
0.0
 11
5.1143300934
 21
5.1200572818
 31
0.0
 11
5.1086199714
 21
5.1110575822
 31
0.0
 11
5.1035265204
 21
5.1019123875
 31
0.0
 11
5.0990596135
 21
5.0926384437
 31
0.0
 11
5.095226663
 21
5.0832523524
 31
0.0
  0
SPLINE
  5
262
100
AcDbEntity
  8
0
100
AcDbSpline
 62
6
  6
CONTINUOUS
 70
0
 71
3
 72
16
 73
12
 74
10
 42
0.0000001
 43
0.0000001
 44
0.0000000001
 12
-0.1133015379
 22
0.0747638112
 32
0.0
 13
-0.0489224474
 23
0.1266233
 33
0.0
 40
0.0
 40
0.0
 40
0.0
 40
0.0
 40
0.1394416719
 40
0.2075644688
 40
0.2746007963
 40
0.4053755473
 40
0.5318600797
 40
0.654253498
 40
0.7728289569
 40
0.887932677
 40
1.0
 40
1.0
 40
1.0
 40
1.0
 10
5.1722074547
 20
4.9783801285
 30
0.0
 10
5.1669411361
 20
4.9818551921
 30
0.0
 10
5.1592492534
 20
4.9872578153
 30
0.0
 10
5.1494294169
 20
4.9948735583
 30
0.0
 10
5.1401630156
 20
5.0025529581
 30
0.0
 10
5.1293363824
 20
5.0124765128
 30
0.0
 10
5.1175258539
 20
5.0249725933
 30
0.0
 10
5.1070531987
 20
5.0379090201
 30
0.0
 10
5.0979652385
 20
5.0512367351
 30
0.0
 10
5.0903022603
 20
5.0648989278
 30
0.0
 10
5.086120735
 20
5.0743094816
 30
0.0
 10
5.0842931991
 20
5.079039593
 30
0.0
 11
5.1722074547
 21
4.9783801285
 31
0.0
 11
5.1567278683
 21
4.989273889
 31
0.0
 11
5.1494220033
 21
4.9949429434
 31
0.0
 11
5.1424171265
 21
5.0007515255
 31
0.0
 11
5.1293444769
 21
5.0127616358
 31
0.0
 11
5.1175662402
 21
5.0252545278
 31
0.0
 11
5.1071295071
 21
5.0381817006
 31
0.0
 11
5.0980787483
 21
5.0514921503
 31
0.0
 11
5.0904540536
 21
5.0651302995
 31
0.0
 11
5.0842931991
 21
5.079039593
 31
0.0
  0
SPLINE
  5
263
100
AcDbEntity
  8
0
100
AcDbSpline
 62
6
  6
CONTINUOUS
 70
0
 71
3
 72
22
 73
18
 74
16
 42
0.0000001
 43
0.0000001
 44
0.0000000001
 12
-0.048225668
 22
0.1425782114
 32
0.0
 13
0.0960276219
 23
0.1159006353
 33
0.0
 40
0.0
 40
0.0
 40
0.0
 40
0.0
 40
0.0617788962
 40
0.1229005007
 40
0.1835176417
 40
0.243790666
 40
0.3038861185
 40
0.3639755167
 40
0.4242300067
 40
0.4848184281
 40
0.5459074728
 40
0.6076605059
 40
0.6702344314
 40
0.733778329
 40
0.7984321926
 40
0.8643077211
 40
1.0
 40
1.0
 40
1.0
 40
1.0
 10
5.0820964856
 20
5.0851039636
 30
0.0
 10
5.0811033761
 20
5.0880400718
 30
0.0
 10
5.0793088971
 20
5.0939443353
 30
0.0
 10
5.0772023596
 20
5.1029137898
 30
0.0
 10
5.0757021144
 20
5.1119283013
 30
0.0
 10
5.0748114878
 20
5.1209716022
 30
0.0
 10
5.0745338865
 20
5.130028077
 30
0.0
 10
5.0748729625
 20
5.1390815687
 30
0.0
 10
5.0758287438
 20
5.148115674
 30
0.0
 10
5.0774005256
 20
5.1571140324
 30
0.0
 10
5.0795878896
 20
5.166060192
 30
0.0
 10
5.0823896519
 20
5.17493768
 30
0.0
 10
5.085801893
 20
5.1837309008
 30
0.0
 10
5.0898207788
 20
5.1924241613
 30
0.0
 10
5.0944427859
 20
5.2010012199
 30
0.0
 10
5.10146628
 20
5.21236864
 30
0.0
 10
5.1075207971
 20
5.2205028872
 30
0.0
 10
5.1118641994
 20
5.225745161
 30
0.0
 11
5.0820964856
 21
5.0851039636
 31
0.0
 11
5.0793962652
 21
5.0940018167
 31
0.0
 11
5.0772958764
 21
5.1029584512
 31
0.0
 11
5.0758002373
 21
5.1119587144
 31
0.0
 11
5.074912706
 21
5.1209870885
 31
0.0
 11
5.07463657
 21
5.1300280389
 31
0.0
 11
5.0749747651
 21
5.1390659688
 31
0.0
 11
5.0759278332
 21
5.1480848547
 31
0.0
 11
5.0774953185
 21
5.1570684957
 31
0.0
 11
5.0796767583
 21
5.1660006909
 31
0.0
 11
5.082470861
 21
5.1748654295
 31
0.0
 11
5.0858744272
 21
5.1836471384
 31
0.0
 11
5.0898839904
 21
5.1923303054
 31
0.0
 11
5.0944958766
 21
5.2008993242
 31
0.0
 11
5.0997030546
 21
5.2093370607
 31
0.0
 11
5.1118641994
 21
5.225745161
 31
0.0
  0
SPLINE
  5
264
100
AcDbEntity
  8
0
100
AcDbSpline
 62
6
  6
CONTINUOUS
 70
0
 71
3
 72
15
 73
11
 74
9
 42
0.0000001
 43
0.0000001
 44
0.0000000001
 12
-0.0488192944
 22
-0.079273964
 32
0.0
 13
-0.0000026986
 23
-0.0931004021
 33
0.0
 40
0.0
 40
0.0
 40
0.0
 40
0.0
 40
0.1310152421
 40
0.259779079
 40
0.3864934459
 40
0.51141278
 40
0.6348642106
 40
0.7572008404
 40
0.8787889953
 40
1.0
 40
1.0
 40
1.0
 40
1.0
 10
5.1118641994
 20
5.225745161
 30
0.0
 10
5.1097321755
 20
5.2222831285
 30
0.0
 10
5.1057130692
 20
5.2152873948
 30
0.0
 10
5.1004090992
 20
5.2045206754
 30
0.0
 10
5.0958984026
 20
5.1936016697
 30
0.0
 10
5.0921946335
 20
5.1825567011
 30
0.0
 10
5.0893046582
 20
5.1714114193
 30
0.0
 10
5.0872357421
 20
5.1601895976
 30
0.0
 10
5.0859926615
 20
5.1489169751
 30
0.0
 10
5.0857155975
 20
5.1413791922
 30
0.0
 10
5.0857154885
 20
5.1376175945
 30
0.0
 11
5.1118641994
 21
5.225745161
 31
0.0
 11
5.1057937326
 21
5.2151654546
 31
0.0
 11
5.1005020392
 21
5.2044086295
 31
0.0
 11
5.0960036747
 21
5.1935027748
 31
0.0
 11
5.0923107369
 21
5.1824746269
 31
0.0
 11
5.0894301625
 21
5.171348081
 31
0.0
 11
5.0873681771
 21
5.1601466988
 31
0.0
 11
5.0861291871
 21
5.1488948021
 31
0.0
 11
5.0857154885
 21
5.1376175945
 31
0.0
  0
SPLINE
  5
265
100
AcDbEntity
  8
0
100
AcDbSpline
 62
9
  6
CONTINUOUS
 70
0
 71
3
 72
9
 73
5
 74
3
 42
0.0000001
 43
0.0000001
 44
0.0000000001
 12
-0.0413221013
 22
0.0172223909
 32
0.0
 13
-0.0393692961
 23
0.0213116243
 33
0.0
 40
0.0
 40
0.0
 40
0.0
 40
0.0
 40
0.2541031564
 40
1.0
 40
1.0
 40
1.0
 40
1.0
 10
5.2385775218
 20
4.9437914439
 30
0.0
 10
5.2350774964
 20
4.9452501985
 30
0.0
 10
5.2213733295
 20
4.9511565937
 30
0.0
 10
5.2079566065
 20
4.9577347256
 30
0.0
 10
5.1981681286
 20
4.9630334834
 30
0.0
 11
5.2385775218
 21
4.9437914439
 31
0.0
 11
5.228131512
 21
4.9482952388
 31
0.0
 11
5.1981681286
 21
4.9630334834
 31
0.0
  0
ENDSEC
  0
SECTION
  2
OBJECTS
  0
DICTIONARY
  5
C
100
AcDbDictionary
280
0
281
1
  3
ACAD_GROUP
350
D
  3
ACAD_MLINESTYLE
350
17
  3
ACAD_LAYOUT
350
1A
  3
ACAD_PLOTSETTINGS
350
19
  3
ACAD_PLOTSTYLENAME
350
E
  0
DICTIONARY
  5
D
102
{ACAD_REACTORS
330
C
102
}
100
AcDbDictionary
280
0
281
1
  0
ACDBDICTIONARYWDFLT
  5
E
102
{ACAD_REACTORS
330
C
102
}
100
AcDbDictionary
281
1
  3
Normal
350
F
100
AcDbDictionaryWithDefault
340
F
  0
DICTIONARY
  5
17
102
{ACAD_REACTORS
330
C
102
}
100
AcDbDictionary
280
0
281
1
  3
Standard
350
18
  0
DICTIONARY
  5
19
102
{ACAD_REACTORS
330
C
102
}
100
AcDbDictionary
281
1
  0
DICTIONARY
  5
1A
102
{ACAD_REACTORS
330
C
102
}
100
AcDbDictionary
281
1
  3
Model
350
266
  3
Layout1
350
267
  0
ACDBPLACEHOLDER
  5
F
102
{ACAD_REACTORS
330
E
102
}
  0
MLINESTYLE
  5
18
102
{ACAD_REACTORS
330
17
102
}
100
AcDbMlineStyle
  2
STANDARD
 70
0
  3

 62
256
 51
90.0
 52
90.0
 71
2
 49
0.5
 62
256
  6
BYLAYER
 49
-0.5
 62
256
  6
BYLAYER
  0
LAYOUT
  5
266
102
{ACAD_REACTORS
330
1A
102
}
100
AcDbPlotSettings
  1

  2
none_device
  4
ISO_A4_(297.00_x_210.00_MM)
  6

 40
0.0
 41
0.0
 42
0.0
 43
0.0
 44
297.0
 45
210.0
 46
0.0
 47
0.0
 48
0.0
 49
0.0
140
0.0
141
0.0
142
1.0
143
1.0
 70
1024
 72
0
 73
0
 74
0
  7

 75
0
147
1.0
148
0.0
149
0.0
100
AcDbLayout
  1
Model
 70
0
 71
0
 10
0.0
 20
0.0
 11
11.6929133858
 21
8.2677165354
 12
0.0
 22
0.0
 32
0.0
 14
0.0
 24
0.0
 34
0.0
 15
0.0
 25
0.0
 35
0.0
146
0.0
 13
0.0
 23
0.0
 33
0.0
 16
1.0
 26
0.0
 36
0.0
 17
0.0
 27
1.0
 37
0.0
 76
0
330
204
345
0
346
0
  0
LAYOUT
  5
267
102
{ACAD_REACTORS
330
1A
102
}
100
AcDbPlotSettings
  1

  2
none_device
  4
ISO_A4_(297.00_x_210.00_MM)
  6

 40
0.0
 41
0.0
 42
0.0
 43
0.0
 44
297.0
 45
210.0
 46
0.0
 47
0.0
 48
0.0
 49
0.0
140
0.0
141
0.0
142
1.0
143
1.0
 70
0
 72
0
 73
0
 74
0
  7

 75
0
147
1.0
148
0.0
149
0.0
100
AcDbLayout
  1
Layout1
 70
0
 71
1
 10
0.0
 20
0.0
 11
11.6929133858
 21
8.2677165354
 12
0.0
 22
0.0
 32
0.0
 14
0.0
 24
0.0
 34
0.0
 15
0.0
 25
0.0
 35
0.0
146
0.0
 13
0.0
 23
0.0
 33
0.0
 16
1.0
 26
0.0
 36
0.0
 17
0.0
 27
1.0
 37
0.0
 76
0
330
205
345
0
346
0
  0
ENDSEC
  0
EOF
