  0
SECTION
  2
HEADER
  9
$ACADVER
  1
AC1015
  9
$DWGCODEPAGE
  3
ANSI_1252
  9
$EXTMAX
 10
11.6929133858
 20
8.2677165354
 30
0.0
  9
$EXTMIN
 10
0.0
 20
0.0
 30
0.0
  9
$LIMMIN
 10
0.0
 20
0.0
  9
$LIMMAX
 10
11.6929133858
 20
8.2677165354
  9
$VIEWCTR
 10
5.8464566929
 20
4.1338582677
  9
$VIEWSIZE
 40
8.2677165354
  9
$CLAYER
  8
0
  9
$LTSCALE
 40
0.6431102362
  9
$CELTYPE
  6
BYLAYER
  9
$DIMSCALE
 40
1.0
  9
$DIMASZ
 40
0.1
  9
$DIMEXO
 40
0.0730807087
  9
$DIMDLI
 40
0.4443307087
  9
$DIMEXE
 40
0.2104724409
  9
$DIMCEN
 40
0.1052362205
  9
$DIMLFAC
 40
1.0
  9
$DIMBLK
  1
_FILLED
  9
$DIMTXT
 40
0.08
  9
$DIMTOL
 70
1
  9
$DIMLIM
 70
0
  9
$DIMTFAC
 40
1.0
  9
$DIMTP
 40
0.01
  9
$DIMTM
 40
0.01
  9
$PDMODE
 70
3
  9
$PDSIZE
 40
0.06
  9
$HANDSEED
  5
26B
  9
$TILEMODE
 70
1
  9
$MEASUREMENT
 70
0
  9
$INSUNITS
 70
1
  0
ENDSEC
  0
SECTION
  2
CLASSES
  0
CLASS
  1
ACDBDICTIONARYWDFLT
  2
AcDbDictionaryWithDefault
  3
AutoCAD 2000
 90
0
280
0
281
0
  0
CLASS
  1
ACDBPLACEHOLDER
  2
AcDbPlaceHolder
  3
AutoCAD 2000
 90
0
280
0
281
0
  0
CLASS
  1
LAYOUT
  2
AcDbLayout
  3
AutoCAD 2000
 90
0
280
0
281
0
  0
ENDSEC
  0
SECTION
  2
TABLES
  0
TABLE
  2
VPORT
  5
8
100
AcDbSymbolTable
 70
2
  0
VPORT
  5
1F4
100
AcDbSymbolTableRecord
100
AcDbViewportTableRecord
  2
*ACTIVE
 70
0
 10
0.0
 20
0.0
 11
1.0
 21
1.0
 12
5.8464566929
 22
4.1338582677
 13
0.0
 23
0.0
 14
1.0
 24
1.0
 15
0.0
 25
0.0
 16
0.0
 26
0.0
 36
1.0
 17
0.0
 27
0.0
 37
0.0
 40
8.2677165354
 41
1.4142857143
 42
50.0
 43
0.0
 44
0.0
 50
0.0
 51
0.0
 71
0
 72
100
 73
1
 74
1
 75
0
 76
0
 77
0
 78
0
  0
ENDTAB
  0
TABLE
  2
LTYPE
  5
5
100
AcDbSymbolTable
 70
6
  0
LTYPE
  5
14
100
AcDbSymbolTableRecord
100
AcDbLinetypeTableRecord
  2
BYBLOCK
 70
0
  3

 72
65
 73
0
 40
0.0
  0
LTYPE
  5
15
100
AcDbSymbolTableRecord
100
AcDbLinetypeTableRecord
  2
BYLAYER
 70
0
  3

 72
65
 73
0
 40
0.0
  0
LTYPE
  5
16
100
AcDbSymbolTableRecord
100
AcDbLinetypeTableRecord
  2
CONTINUOUS
 70
64
  3
Solid line
 72
65
 73
0
 40
0.0
  0
LTYPE
  5
1F5
100
AcDbSymbolTableRecord
100
AcDbLinetypeTableRecord
  2
CENTER
 70
64
  3
____ _ ____ _ ____ _ ____ _ ____ _ ____ _ ____
 72
65
 73
4
 40
0.6
 49
0.375
 74
0
 49
-0.075
 74
0
 49
0.075
 74
0
 49
-0.075
 74
0
  0
LTYPE
  5
1F6
100
AcDbSymbolTableRecord
100
AcDbLinetypeTableRecord
  2
HIDDEN
 70
64
  3
- - - - - - - - - - - - - - - - - - - -
 72
65
 73
2
 40
0.2
 49
0.1
 74
0
 49
-0.1
 74
0
  0
LTYPE
  5
1F7
100
AcDbSymbolTableRecord
100
AcDbLinetypeTableRecord
  2
PHANTOM
 70
64
  3
_____ _ _ _____ _ _ _____ _ _ _____
 72
65
 73
6
 40
0.8
 49
0.45
 74
0
 49
-0.05
 74
0
 49
0.1
 74
0
 49
-0.05
 74
0
 49
0.1
 74
0
 49
-0.05
 74
0
  0
LTYPE
  5
1F8
100
AcDbSymbolTableRecord
100
AcDbLinetypeTableRecord
  2
DOT
 70
64
  3
. . . . . . . . . . . . . . . . . . . .
 72
65
 73
2
 40
0.2
 49
0.1
 74
0
 49
-0.1
 74
0
  0
LTYPE
  5
1F9
100
AcDbSymbolTableRecord
100
AcDbLinetypeTableRecord
  2
DASHED
 70
64
  3
- - - - - - - - - - - - - - - - - - - -
 72
65
 73
2
 40
0.2
 49
0.1
 74
0
 49
-0.1
 74
0
  0
ENDTAB
  0
TABLE
  2
LAYER
  5
2
100
AcDbSymbolTable
 70
36
  0
LAYER
  5
10
100
AcDbSymbolTableRecord
100
AcDbLayerTableRecord
  2
0
 70
0
 62
7
  6
CONTINUOUS
370
-3
390
F
  0
LAYER
  5
1FA
100
AcDbSymbolTableRecord
100
AcDbLayerTableRecord
  2
DEFAULT_1
 70
0
 62
7
  6
CENTER
370
-3
390
F
  0
LAYER
  5
1FB
100
AcDbSymbolTableRecord
100
AcDbLayerTableRecord
  2
DEFAULT_2
 70
0
 62
8
  6
HIDDEN
370
-3
390
F
  0
LAYER
  5
1FC
100
AcDbSymbolTableRecord
100
AcDbLayerTableRecord
  2
DEFAULT_3
 70
0
 62
7
  6
PHANTOM
370
-3
390
F
  0
LAYER
  5
1FD
100
AcDbSymbolTableRecord
100
AcDbLayerTableRecord
  2
3_ALL_SYMBOLS
 70
0
 62
7
  6
CONTINUOUS
370
-3
390
F
  0
LAYER
  5
1FE
100
AcDbSymbolTableRecord
100
AcDbLayerTableRecord
  2
DEFAULT_COORDINATE_SYSTEM
 70
0
 62
7
  6
CONTINUOUS
370
-3
390
F
  0
LAYER
  5
1FF
100
AcDbSymbolTableRecord
100
AcDbLayerTableRecord
  2
DEFAULT_DATUM_AXES
 70
0
 62
7
  6
CONTINUOUS
370
-3
390
F
  0
LAYER
  5
200
100
AcDbSymbolTableRecord
100
AcDbLayerTableRecord
  2
DEFAULT_DATUM_CURVES
 70
0
 62
7
  6
CONTINUOUS
370
-3
390
F
  0
LAYER
  5
201
100
AcDbSymbolTableRecord
100
AcDbLayerTableRecord
  2
DEFAULT_DATUM_PLANES
 70
0
 62
7
  6
CONTINUOUS
370
-3
390
F
  0
ENDTAB
  0
TABLE
  2
STYLE
  5
3
100
AcDbSymbolTable
 70
1
  0
STYLE
  5
11
100
AcDbSymbolTableRecord
100
AcDbTextStyleTableRecord
  2
STANDARD
 70
0
 40
0.0
 41
0.8
 50
0.0
 71
0
 42
0.2
  3
txt
  4

  0
STYLE
  5
202
100
AcDbSymbolTableRecord
100
AcDbTextStyleTableRecord
  2
TEXTSTYLE_1
 70
0
 40
0.0
 41
0.8
 50
0.0
 71
0
 42
0.2
  3
gdt
  4

  0
ENDTAB
  0
TABLE
  2
VIEW
  5
6
100
AcDbSymbolTable
 70
0
  0
ENDTAB
  0
TABLE
  2
UCS
  5
7
100
AcDbSymbolTable
 70
0
  0
ENDTAB
  0
TABLE
  2
APPID
  5
9
100
AcDbSymbolTable
 70
1
  0
APPID
  5
203
100
AcDbSymbolTableRecord
100
AcDbRegAppTableRecord
  2
ACAD
 70
0
  0
ENDTAB
  0
TABLE
  2
BLOCK_RECORD
  5
1
100
AcDbSymbolTable
 70
0
  0
BLOCK_RECORD
  5
204
100
AcDbSymbolTableRecord
100
AcDbBlockTableRecord
  2
*Model_Space
  0
BLOCK_RECORD
  5
205
100
AcDbSymbolTableRecord
100
AcDbBlockTableRecord
  2
*Paper_Space
  0
ENDTAB
  0
TABLE
  2
DIMSTYLE
  5
A
100
AcDbSymbolTable
 70
1
100
AcDbDimStyleTable
 71
0
  0
DIMSTYLE
105
206
100
AcDbSymbolTableRecord
100
AcDbDimStyleTableRecord
  2
STANDARD
 70
0
  3

  4

 40
1.0
 41
0.1
 42
0.0625
 43
0.38
 44
0.18
 45
0.0
 46
0.0
 47
0.01
 48
0.01
140
0.08
141
0.09
142
0.0
143
25.4
144
1.0
145
0.0
146
1.0
147
0.09
 71
1.0
 72
0.0
 73
1
 74
1
 75
0
 76
0
 77
0
 78
4
170
0
171
2
172
0
173
0
174
0
175
0
176
0
177
0
178
0
270
2
271
2
272
2
273
2
274
2
275
0
280
0
281
0
282
0
283
1
284
4
285
0
286
0
287
3
288
0
340
11
  0
ENDTAB
  0
ENDSEC
  0
SECTION
  2
BLOCKS
  0
BLOCK
  5
20
100
AcDbEntity
  8
0
100
AcDbBlockBegin
  2
*Model_Space
 70
0
 10
0.0
 20
0.0
 30
0.0
  3
*Model_Space
  1

  0
ENDBLK
  5
21
100
AcDbEntity
  8
0
100
AcDbBlockEnd
  0
BLOCK
  5
1C
100
AcDbEntity
  8
0
100
AcDbBlockBegin
  2
*Paper_Space
 70
0
 10
0.0
 20
0.0
 30
0.0
  3
*Paper_Space
  1

  0
ENDBLK
  5
1D
100
AcDbEntity
  8
0
100
AcDbBlockEnd
  0
ENDSEC
  0
SECTION
  2
ENTITIES
  0
LINE
  5
207
100
AcDbEntity
  8
0
100
AcDbLine
 62
6
  6
CONTINUOUS
 10
5.2129053009
 20
3.9316483831
 11
5.2129053009
 21
3.8480859939
  0
LINE
  5
208
100
AcDbEntity
  8
0
100
AcDbLine
 62
6
  6
CONTINUOUS
 10
5.2154053009
 20
4.2284716852
 11
5.2154053009
 21
3.9692744536
  0
LINE
  5
209
100
AcDbEntity
  8
0
100
AcDbLine
 62
6
  6
CONTINUOUS
 10
5.2339053009
 20
3.9567968504
 11
5.2339053009
 21
3.5321563195
  0
LINE
  5
20A
100
AcDbEntity
  8
0
100
AcDbLine
 62
6
  6
CONTINUOUS
 10
5.5905553379
 20
3.9317846581
 11
5.5905553379
 21
3.9324924469
  0
LINE
  5
20B
100
AcDbEntity
  8
0
100
AcDbLine
 62
6
  6
CONTINUOUS
 10
5.6128386589
 20
3.9363630233
 11
5.6128386589
 21
3.8954080976
  0
LINE
  5
20C
100
AcDbEntity
  8
0
100
AcDbLine
 62
6
  6
CONTINUOUS
 10
5.6574053009
 20
3.9022185262
 11
5.6574053009
 21
3.9420764013
  0
LINE
  5
20D
100
AcDbEntity
  8
0
100
AcDbLine
 62
6
  6
CONTINUOUS
 10
5.7484053009
 20
3.9022185262
 11
5.7484053009
 21
3.9422874354
  0
LINE
  5
20E
100
AcDbEntity
  8
0
100
AcDbLine
 62
6
  6
CONTINUOUS
 10
5.7929719429
 20
3.935822796
 11
5.7929719429
 21
3.8954080976
  0
LINE
  5
20F
100
AcDbEntity
  8
0
100
AcDbLine
 62
6
  6
CONTINUOUS
 10
6.1719053009
 20
3.5321548618
 11
6.1719053009
 21
3.9567968504
  0
LINE
  5
210
100
AcDbEntity
  8
0
100
AcDbLine
 62
6
  6
CONTINUOUS
 10
6.1904053009
 20
4.2284716852
 11
6.1904053009
 21
3.9692766578
  0
LINE
  5
211
100
AcDbEntity
  8
0
100
AcDbLine
 62
6
  6
CONTINUOUS
 10
6.1929053009
 20
3.9316483831
 11
6.1929053009
 21
3.8480859939
  0
ARC
  5
212
100
AcDbEntity
  8
0
100
AcDbCircle
 62
6
  6
CONTINUOUS
 10
5.5805676832
 20
3.625005905
 40
0.2614656169
100
AcDbArc
 50
162.4557738398
 51
163.6701651743
  0
ARC
  5
213
100
AcDbEntity
  8
0
100
AcDbCircle
 62
6
  6
CONTINUOUS
 10
5.5790599946
 20
3.7031413202
 40
0.249316846
100
AcDbArc
 50
201.1967335281
 51
201.5166402615
  0
ARC
  5
214
100
AcDbEntity
  8
0
100
AcDbCircle
 62
6
  6
CONTINUOUS
 10
5.5740474479
 20
3.7528678379
 40
0.2439510195
100
AcDbArc
 50
192.1963525039
 51
203.6773926658
  0
ARC
  5
215
100
AcDbEntity
  8
0
100
AcDbCircle
 62
6
  6
CONTINUOUS
 10
5.5727055483
 20
3.7467165329
 40
0.2425492059
100
AcDbArc
 50
191.3992415038
 51
202.5337992808
  0
ARC
  5
216
100
AcDbEntity
  8
0
100
AcDbCircle
 62
6
  6
CONTINUOUS
 10
5.5325392419
 20
3.6316876601
 40
0.2407939408
100
AcDbArc
 50
178.4728889357
 51
179.9998317686
  0
ARC
  5
217
100
AcDbEntity
  8
0
100
AcDbCircle
 62
6
  6
CONTINUOUS
 10
5.5489246462
 20
3.6552444321
 40
0.218519285
100
AcDbArc
 50
179.2202009879
 51
179.998560637
  0
ARC
  5
218
100
AcDbEntity
  8
0
100
AcDbCircle
 62
6
  6
CONTINUOUS
 10
5.5088132436
 20
3.9316436412
 40
0.2959079427
100
AcDbArc
 50
177.4858546965
 51
179.9990818373
  0
ARC
  5
219
100
AcDbEntity
  8
0
100
AcDbCircle
 62
6
  6
CONTINUOUS
 10
5.5099776662
 20
3.9432579624
 40
0.2946743634
100
AcDbArc
 50
166.3515558644
 51
168.4654691542
  0
ARC
  5
21A
100
AcDbEntity
  8
0
100
AcDbCircle
 62
6
  6
CONTINUOUS
 10
5.5075920021
 20
3.9437595481
 40
0.2922365833
100
AcDbArc
 50
168.4682967426
 51
169.3964816975
  0
ARC
  5
21B
100
AcDbEntity
  8
0
100
AcDbCircle
 62
7
  6
CONTINUOUS
 10
5.508898123
 20
3.9445114041
 40
0.2759928222
100
AcDbArc
 50
180.001508993
 51
183.0626883149
  0
ARC
  5
21C
100
AcDbEntity
  8
0
100
AcDbCircle
 62
7
  6
CONTINUOUS
 10
5.5086184737
 20
3.9445026747
 40
0.2757131728
100
AcDbArc
 50
177.5723812036
 51
179.9996964743
  0
ARC
  5
21D
100
AcDbEntity
  8
0
100
AcDbCircle
 62
6
  6
CONTINUOUS
 10
5.6802532702
 20
4.0541449831
 40
0.1517160775
100
AcDbArc
 50
233.4344035608
 51
233.756203778
  0
ARC
  5
21E
100
AcDbEntity
  8
0
100
AcDbCircle
 62
6
  6
CONTINUOUS
 10
5.7029053009
 20
4.2284716852
 40
0.5475
100
AcDbArc
 50
353.0816393975
 51
207.2122334058
  0
CIRCLE
  5
21F
100
AcDbEntity
  8
0
100
AcDbCircle
 62
6
  6
CONTINUOUS
 10
5.7029053009
 20
4.2284716852
 40
0.9794250637
  0
ARC
  5
220
100
AcDbEntity
  8
0
100
AcDbCircle
 62
9
  6
CONTINUOUS
 10
5.7029053009
 20
4.2284716852
 40
0.7622057069
100
AcDbArc
 50
308.1274518306
 51
231.8742260776
  0
ARC
  5
221
100
AcDbEntity
  8
0
100
AcDbCircle
 62
9
  6
CONTINUOUS
 10
5.7029053009
 20
4.2284716852
 40
0.7298140823
100
AcDbArc
 50
310.1037339901
 51
229.9039393486
  0
ARC
  5
222
100
AcDbEntity
  8
0
100
AcDbCircle
 62
7
  6
CONTINUOUS
 10
5.7029053009
 20
4.2284716852
 40
0.62
100
AcDbArc
 50
322.18147177
 51
217.81852823
  0
ARC
  5
223
100
AcDbEntity
  8
0
100
AcDbCircle
 62
7
  6
CONTINUOUS
 10
5.7029053009
 20
4.2284716852
 40
0.5475
100
AcDbArc
 50
336.4757673613
 51
353.0816393975
  0
ARC
  5
224
100
AcDbEntity
  8
0
100
AcDbCircle
 62
7
  6
CONTINUOUS
 10
5.7029053009
 20
4.2284716852
 40
0.5475
100
AcDbArc
 50
195.6889552393
 51
203.4840044217
  0
ARC
  5
225
100
AcDbEntity
  8
0
100
AcDbCircle
 62
7
  6
CONTINUOUS
 10
5.7029053009
 20
4.2284716852
 40
0.5475
100
AcDbArc
 50
23.4841286354
 51
25.2409363781
  0
ARC
  5
226
100
AcDbEntity
  8
0
100
AcDbCircle
 62
7
  6
CONTINUOUS
 10
5.7029053009
 20
4.2284716852
 40
0.5475
100
AcDbArc
 50
15.5502682178
 51
15.688934323
  0
ARC
  5
227
100
AcDbEntity
  8
0
100
AcDbCircle
 62
7
  6
CONTINUOUS
 10
5.7029053009
 20
4.2284716852
 40
0.5475
100
AcDbArc
 50
0.0
 51
6.9185420801
  0
ARC
  5
228
100
AcDbEntity
  8
0
100
AcDbCircle
 62
7
  6
CONTINUOUS
 10
5.7029053009
 20
4.2284716852
 40
0.5475
100
AcDbArc
 50
154.7590636219
 51
156.4750058178
  0
ARC
  5
229
100
AcDbEntity
  8
0
100
AcDbCircle
 62
6
  6
CONTINUOUS
 10
5.7029053009
 20
4.2284716852
 40
0.5475
100
AcDbArc
 50
332.787710781
 51
336.4757673613
  0
ARC
  5
22A
100
AcDbEntity
  8
0
100
AcDbCircle
 62
9
  6
CONTINUOUS
 10
5.7029053009
 20
4.2284716852
 40
0.5175
100
AcDbArc
 50
340.7711902576
 51
199.2288097424
  0
ARC
  5
22B
100
AcDbEntity
  8
0
100
AcDbCircle
 62
6
  6
CONTINUOUS
 10
5.7029053009
 20
4.2284716852
 40
0.4875
100
AcDbArc
 50
0.0
 51
180.0
  0
ARC
  5
22C
100
AcDbEntity
  8
0
100
AcDbCircle
 62
6
  6
CONTINUOUS
 10
5.8683495117
 20
3.6754518461
 40
0.2070557892
100
AcDbArc
 50
0.0001868658
 51
1.575840012
  0
ARC
  5
22D
100
AcDbEntity
  8
0
100
AcDbCircle
 62
6
  6
CONTINUOUS
 10
5.8971422906
 20
3.9316468241
 40
0.2957630103
100
AcDbArc
 50
0.0003020175
 51
2.5147652316
  0
ARC
  5
22E
100
AcDbEntity
  8
0
100
AcDbCircle
 62
6
  6
CONTINUOUS
 10
5.8963696218
 20
3.9433778713
 40
0.2941245396
100
AcDbArc
 50
11.5363675835
 51
13.6555821576
  0
ARC
  5
22F
100
AcDbEntity
  8
0
100
AcDbCircle
 62
6
  6
CONTINUOUS
 10
5.89837309
 20
3.9437897784
 40
0.2920791683
100
AcDbArc
 50
10.5991111532
 51
11.5357962826
  0
ARC
  5
230
100
AcDbEntity
  8
0
100
AcDbCircle
 62
7
  6
CONTINUOUS
 10
5.8970490713
 20
3.9444996711
 40
0.2758562296
100
AcDbArc
 50
0.0009272197
 51
2.4250889355
  0
ARC
  5
231
100
AcDbEntity
  8
0
100
AcDbCircle
 62
7
  6
CONTINUOUS
 10
5.8970985136
 20
3.9445064828
 40
0.2758067873
100
AcDbArc
 50
356.9452600096
 51
359.9995123392
  0
SPLINE
  5
232
100
AcDbEntity
  8
0
100
AcDbSpline
 62
6
  6
CONTINUOUS
 70
0
 71
3
 72
22
 73
18
 74
16
 42
0.0000001
 43
0.0000001
 44
0.0000000001
 12
0.0058720547
 22
0.2203357896
 32
0.0
 13
0.1610972784
 23
0.1504327361
 33
0.0
 40
0.0
 40
0.0
 40
0.0
 40
0.0
 40
0.0595612263
 40
0.1192508625
 40
0.1791212482
 40
0.239230605
 40
0.2996488295
 40
0.3604444881
 40
0.4216819966
 40
0.4834154718
 40
0.545692465
 40
0.6085568032
 40
0.6720510215
 40
0.7362149316
 40
0.8010838788
 40
0.8666789135
 40
1.0
 40
1.0
 40
1.0
 40
1.0
 10
5.2918308247
 20
3.6381048092
 30
0.0
 10
5.2919474069
 20
3.6424792991
 30
0.0
 10
5.2924193882
 20
3.6512331988
 30
0.0
 10
5.2938391662
 20
3.6643227985
 30
0.0
 10
5.295969598
 20
3.6773568605
 30
0.0
 10
5.2988082283
 20
3.6903098342
 30
0.0
 10
5.3023484031
 20
3.7031593282
 30
0.0
 10
5.3065840827
 20
3.7158839088
 30
0.0
 10
5.3115090043
 20
3.7284616189
 30
0.0
 10
5.3171132152
 20
3.7408710463
 30
0.0
 10
5.3233863124
 20
3.7530904917
 30
0.0
 10
5.3303184069
 20
3.7650979484
 30
0.0
 10
5.3378975106
 20
3.7768729032
 30
0.0
 10
5.3461101321
 20
3.7883960812
 30
0.0
 10
5.3549435518
 20
3.7996478672
 30
0.0
 10
5.3675933429
 20
3.8143369883
 30
0.0
 10
5.3778640399
 20
3.8247682535
 30
0.0
 10
5.3850232613
 20
3.8314535388
 30
0.0
 11
5.2918308247
 21
3.6381048092
 31
0.0
 11
5.2925369361
 21
3.6512139354
 31
0.0
 11
5.2939548809
 21
3.6642937349
 31
0.0
 11
5.2960826179
 21
3.6773173421
 31
0.0
 11
5.2989169454
 21
3.690259565
 31
0.0
 11
5.302452197
 21
3.7030987675
 31
0.0
 11
5.3066823909
 21
3.7158137681
 31
0.0
 11
5.3116010009
 21
3.7283832801
 31
0.0
 11
5.3171986769
 21
3.7407854732
 31
0.0
 11
5.3234651569
 21
3.752998341
 31
0.0
 11
5.3303900875
 21
3.7649999703
 31
0.0
 11
5.3379617063
 21
3.7767698923
 31
0.0
 11
5.3461671379
 21
3.7882887789
 31
0.0
 11
5.3549934489
 21
3.799537324
 31
0.0
 11
5.3644251121
 21
3.810495398
 31
0.0
 11
5.3850232613
 21
3.8314535388
 31
0.0
  0
SPLINE
  5
233
100
AcDbEntity
  8
0
100
AcDbSpline
 62
6
  6
CONTINUOUS
 70
0
 71
3
 72
43
 73
39
 74
37
 42
0.0000001
 43
0.0000001
 44
0.0000000001
 12
0.416228148
 22
-1.0681704549
 32
0.0
 13
0.4162279715
 23
1.0681705236
 33
0.0
 40
0.0
 40
0.0
 40
0.0
 40
0.0
 40
0.0137546929
 40
0.0276042138
 40
0.0415574546
 40
0.0556226171
 40
0.0841098987
 40
0.113121375
 40
0.1426897855
 40
0.1728325711
 40
0.2035520039
 40
0.2348357452
 40
0.2666576221
 40
0.2989789122
 40
0.3317496681
 40
0.3649101718
 40
0.3983924627
 40
0.4321219101
 40
0.4660188992
 40
0.5000004871
 40
0.5339820692
 40
0.5678790402
 40
0.6016084548
 40
0.6350907006
 40
0.6682511495
 40
0.7010218419
 40
0.7333430611
 40
0.7651648583
 40
0.7964485152
 40
0.8271678618
 40
0.8573105606
 40
0.8868788876
 40
0.9158902845
 40
0.9443774952
 40
0.9584426252
 40
0.9723958361
 40
0.9862453298
 40
1.0
 40
1.0
 40
1.0
 40
1.0
 10
5.2339055337
 20
3.5321525194
 30
0.0
 10
5.2358138972
 20
3.5272550672
 30
0.0
 10
5.239886559
 20
3.5175191023
 30
0.0
 10
5.2467192816
 20
3.5031773395
 30
0.0
 10
5.2542835325
 20
3.4890722021
 30
0.0
 10
5.265370107
 20
3.4705353765
 30
0.0
 10
5.2810197424
 20
3.4480592463
 30
0.0
 10
5.3023917458
 20
3.4225073823
 30
0.0
 10
5.3262933702
 20
3.3984066378
 30
0.0
 10
5.3525642467
 20
3.3759009043
 30
0.0
 10
5.3810335213
 20
3.3551211882
 30
0.0
 10
5.4115187027
 20
3.3361885222
 30
0.0
 10
5.4438266427
 20
3.3192129823
 30
0.0
 10
5.4777540081
 20
3.3042934162
 30
0.0
 10
5.5130882433
 20
3.2915170439
 30
0.0
 10
5.549608472
 20
3.2809589158
 30
0.0
 10
5.5870865869
 20
3.2726813543
 30
0.0
 10
5.6252885044
 20
3.2667334829
 30
0.0
 10
5.6639755219
 20
3.2631505823
 30
0.0
 10
5.7029058606
 20
3.2619539286
 30
0.0
 10
5.7418361905
 20
3.263150643
 30
0.0
 10
5.7805231807
 20
3.2667336071
 30
0.0
 10
5.8187250492
 20
3.2726815546
 30
0.0
 10
5.8562030991
 20
3.2809591733
 30
0.0
 10
5.8927232519
 20
3.2915173384
 30
0.0
 10
5.928057401
 20
3.3042937357
 30
0.0
 10
5.9619846703
 20
3.3192133173
 30
0.0
 10
5.9942925043
 20
3.3361888662
 30
0.0
 10
6.0247775733
 20
3.3551215313
 30
0.0
 10
6.0532467455
 20
3.37590122
 30
0.0
 10
6.0795175268
 20
3.3984069137
 30
0.0
 10
6.1034190647
 20
3.4225076091
 30
0.0
 10
6.1247909944
 20
3.4480594183
 30
0.0
 10
6.1404405715
 20
3.4705355033
 30
0.0
 10
6.1515271204
 20
3.489072285
 30
0.0
 10
6.1590913452
 20
3.5031773974
 30
0.0
 10
6.1659240591
 20
3.5175191305
 30
0.0
 10
6.1699967104
 20
3.5272550792
 30
0.0
 10
6.1719050699
 20
3.5321525236
 30
0.0
 11
5.2339055337
 21
3.5321525194
 31
0.0
 11
5.2399882495
 21
3.517604579
 31
0.0
 11
5.2468143571
 21
3.5032697799
 31
0.0
 11
5.2543712498
 21
3.4891713603
 31
0.0
 11
5.2626449468
 21
3.4753315891
 31
0.0
 11
5.2812831516
 21
3.4485145918
 31
0.0
 11
5.3025988788
 21
3.4229845013
 31
0.0
 11
5.3264477509
 21
3.3988960369
 31
0.0
 11
5.3526721562
 21
3.376393211
 31
0.0
 11
5.381102033
 21
3.3556094888
 31
0.0
 11
5.4115554986
 21
3.3366677079
 31
0.0
 11
5.4438393506
 21
3.3196798273
 31
0.0
 11
5.4777499182
 21
3.3047463513
 31
0.0
 11
5.5130739898
 21
3.2919559119
 31
0.0
 11
5.5495898332
 21
3.281384731
 31
0.0
 11
5.5870683388
 21
3.273096078
 31
0.0
 11
5.6252742845
 21
3.267139763
 31
0.0
 11
5.6639677934
 21
3.2635515952
 31
0.0
 11
5.7029058625
 21
3.2623531546
 31
0.0
 11
5.741843923
 21
3.2635516569
 31
0.0
 11
5.780537405
 21
3.2671398905
 31
0.0
 11
5.8187433014
 21
3.2730962768
 31
0.0
 11
5.8562217416
 21
3.2813849868
 31
0.0
 11
5.8927375083
 21
3.2919562062
 31
0.0
 11
5.9280614932
 21
3.3047466713
 31
0.0
 11
5.9619719648
 21
3.3196801636
 31
0.0
 11
5.9942557095
 21
3.3366680521
 31
0.0
 11
6.024709064
 21
3.3556098285
 31
0.0
 11
6.0531388371
 21
3.3763935249
 31
0.0
 11
6.0793631461
 21
3.3988963103
 31
0.0
 11
6.1032119319
 21
3.4229847254
 31
0.0
 11
6.1245275832
 21
3.4485147608
 31
0.0
 11
6.1431657258
 21
3.4753317023
 31
0.0
 11
6.1514394011
 21
3.489171443
 31
0.0
 11
6.1589962719
 21
3.5032698356
 31
0.0
 11
6.1658223665
 21
3.5176046062
 31
0.0
 11
6.1719050699
 21
3.5321525236
 31
0.0
  0
SPLINE
  5
234
100
AcDbEntity
  8
0
100
AcDbSpline
 62
6
  6
CONTINUOUS
 70
0
 71
3
 72
59
 73
55
 74
53
 42
0.0000001
 43
0.0000001
 44
0.0000000001
 12
-0.0590448862
 22
1.3448976281
 32
0.0
 13
-0.059044788
 23
-1.3448976324
 33
0.0
 40
0.0
 40
0.0
 40
0.0
 40
0.0
 40
0.0137129279
 40
0.0274569736
 40
0.0412497731
 40
0.0551094427
 40
0.0690527699
 40
0.0830952386
 40
0.097251502
 40
0.1115349267
 40
0.1259574982
 40
0.1405296308
 40
0.1552602118
 40
0.1701564706
 40
0.1852239286
 40
0.2004664279
 40
0.2158860729
 40
0.2314833518
 40
0.2472570244
 40
0.2632043481
 40
0.2793209617
 40
0.295601155
 40
0.3286152852
 40
0.3621822422
 40
0.3962126805
 40
0.4306030993
 40
0.4652394161
 40
0.5000004346
 40
0.5347613831
 40
0.5693975826
 40
0.603787898
 40
0.6378182398
 40
0.6713851422
 40
0.7043992297
 40
0.7206793968
 40
0.7367959862
 40
0.7527432873
 40
0.7685169358
 40
0.7841141904
 40
0.7995338101
 40
0.8147762842
 40
0.8298437168
 40
0.8447399509
 40
0.8594705083
 40
0.8740426184
 40
0.8884651686
 40
0.9027485738
 40
0.9169048192
 40
0.9309472719
 40
0.9448905854
 40
0.9587502439
 40
0.9725430338
 40
0.9862870736
 40
1.0
 40
1.0
 40
1.0
 40
1.0
 10
6.1926204656
 20
3.9446239711
 30
0.0
 10
6.1923505729
 20
3.9507714659
 30
0.0
 10
6.1914264036
 20
3.9630669899
 30
0.0
 10
6.1888938988
 20
3.9814143353
 30
0.0
 10
6.1852225741
 20
3.9996358939
 30
0.0
 10
6.1804224386
 20
4.0176852636
 30
0.0
 10
6.1745084519
 20
4.0355188271
 30
0.0
 10
6.1674962376
 20
4.0530928934
 30
0.0
 10
6.1594063669
 20
4.0703659847
 30
0.0
 10
6.1502598304
 20
4.0872972988
 30
0.0
 10
6.1400818868
 20
4.1038484819
 30
0.0
 10
6.1288980004
 20
4.1199815774
 30
0.0
 10
6.1167374585
 20
4.1356612967
 30
0.0
 10
6.1036296926
 20
4.1508525783
 30
0.0
 10
6.0896075254
 20
4.1655231089
 30
0.0
 10
6.0747039549
 20
4.1796405929
 30
0.0
 10
6.058955027
 20
4.1931755728
 30
0.0
 10
6.0423970553
 20
4.2060984724
 30
0.0
 10
6.0250690817
 20
4.2183826528
 30
0.0
 10
6.0070106277
 20
4.2300012213
 30
0.0
 10
5.988263196
 20
4.2409305374
 30
0.0
 10
5.962287407
 20
4.2546137966
 30
0.0
 10
5.9283168831
 20
4.2698449419
 30
0.0
 10
5.8857191075
 20
4.2849414207
 30
0.0
 10
5.8414746135
 20
4.2968189234
 30
0.0
 10
5.7959834828
 20
4.3053756995
 30
0.0
 10
5.7496544823
 20
4.3105391963
 30
0.0
 10
5.702904735
 20
4.312265246
 30
0.0
 10
5.6561550433
 20
4.310539117
 30
0.0
 10
5.6098261816
 20
4.3053755553
 30
0.0
 10
5.5643352029
 20
4.2968187431
 30
0.0
 10
5.5200908343
 20
4.2849412145
 30
0.0
 10
5.4774931587
 20
4.2698447149
 30
0.0
 10
5.4435227007
 20
4.2546135584
 30
0.0
 10
5.4175469627
 20
4.240930292
 30
0.0
 10
5.3987995706
 20
4.2300009732
 30
0.0
 10
5.3807411536
 20
4.218382406
 30
0.0
 10
5.3634132179
 20
4.2060982274
 30
0.0
 10
5.3468552828
 20
4.1931753344
 30
0.0
 10
5.3311063925
 20
4.1796403624
 30
0.0
 10
5.3162028567
 20
4.1655228913
 30
0.0
 10
5.3021807246
 20
4.150852374
 30
0.0
 10
5.2890729893
 20
4.1356611098
 30
0.0
 10
5.2769124776
 20
4.1199814072
 30
0.0
 10
5.2657286157
 20
4.1038483316
 30
0.0
 10
5.2555506962
 20
4.087297167
 30
0.0
 10
5.2464041779
 20
4.0703658731
 30
0.0
 10
5.2383143245
 20
4.0530928002
 30
0.0
 10
5.2313021219
 20
4.0355187524
 30
0.0
 10
5.2253881458
 20
4.0176852047
 30
0.0
 10
5.2205880174
 20
3.9996358491
 30
0.0
 10
5.216916697
 20
3.9814143019
 30
0.0
 10
5.2143841956
 20
3.9630669637
 30
0.0
 10
5.2134600275
 20
3.9507714429
 30
0.0
 10
5.2131901353
 20
3.9446239488
 30
0.0
 11
6.1926204656
 21
3.9446239711
 31
0.0
 11
6.1912374985
 21
3.9630323444
 31
0.0
 11
6.18870967
 21
3.9813609903
 31
0.0
 11
6.1850447284
 21
3.9995634724
 31
0.0
 11
6.1802529449
 21
4.0175954443
 31
0.0
 11
6.1743483346
 21
4.0354129613
 31
0.0
 11
6.1673470968
 21
4.05297255
 31
0.0
 11
6.1592687678
 21
4.0702326863
 31
0.0
 11
6.1501347202
 21
4.0871529315
 31
0.0
 11
6.1399692668
 21
4.1036946298
 31
0.0
 11
6.1287982641
 21
4.1198201268
 31
0.0
 11
6.1166501514
 21
4.1354936861
 31
0.0
 11
6.1035547007
 21
4.1506805768
 31
0.0
 11
6.0895440429
 21
4.1653478975
 31
0.0
 11
6.074651503
 21
4.1794637003
 31
0.0
 11
6.0589125834
 21
4.1929978609
 31
0.0
 11
6.0423638868
 21
4.2059211937
 31
0.0
 11
6.0250440829
 21
4.2182063289
 31
0.0
 11
6.0069928675
 21
4.2298268396
 31
0.0
 11
5.9882518613
 21
4.240758186
 31
0.0
 11
5.9688636355
 21
4.250976807
 31
0.0
 11
5.928323839
 21
4.2691905453
 31
0.0
 11
5.8857414429
 21
4.2843120318
 31
0.0
 11
5.841502229
 21
4.2962111637
 31
0.0
 11
5.7960069441
 21
4.3047850842
 31
0.0
 11
5.7496677669
 21
4.3099594234
 31
0.0
 11
5.7029047041
 21
4.3116891939
 31
0.0
 11
5.6561417384
 21
4.3099593443
 31
0.0
 11
5.6098027268
 21
4.3047849453
 31
0.0
 11
5.5643075905
 21
4.2962109866
 31
0.0
 11
5.520068517
 21
4.284311833
 31
0.0
 11
5.4774862076
 21
4.2691903223
 31
0.0
 11
5.4369464824
 21
4.2509765657
 31
0.0
 11
5.4175582982
 21
4.2407579413
 31
0.0
 11
5.3988173312
 21
4.2298265925
 31
0.0
 11
5.3807661521
 21
4.2182060817
 31
0.0
 11
5.363446386
 21
4.2059209492
 31
0.0
 11
5.3468977262
 21
4.1929976224
 31
0.0
 11
5.3311588439
 21
4.1794634705
 31
0.0
 11
5.3162663393
 21
4.1653476798
 31
0.0
 11
5.3022557161
 21
4.1506803735
 31
0.0
 11
5.2891602968
 21
4.1354934995
 31
0.0
 11
5.2770122134
 21
4.1198199577
 31
0.0
 11
5.2658412361
 21
4.10369448
 31
0.0
 11
5.255675806
 21
4.087152801
 31
0.0
 11
5.2465417774
 21
4.0702325753
 31
0.0
 11
5.2384634649
 21
4.052972458
 31
0.0
 11
5.2314622396
 21
4.0354128877
 31
0.0
 11
5.2255576394
 21
4.0175953867
 31
0.0
 11
5.2207658629
 21
3.9995634283
 31
0.0
 11
5.2171009261
 21
3.9813609585
 31
0.0
 11
5.2145731007
 21
3.9630323202
 31
0.0
 11
5.2131901353
 21
3.9446239488
 31
0.0
  0
SPLINE
  5
235
100
AcDbEntity
  8
0
100
AcDbSpline
 62
7
  6
CONTINUOUS
 70
0
 71
3
 72
15
 73
11
 74
9
 42
0.0000001
 43
0.0000001
 44
0.0000000001
 12
0.0
 22
-0.1113693507
 32
0.0
 13
0.0409142773
 23
-0.1035816305
 33
0.0
 40
0.0
 40
0.0
 40
0.0
 40
0.0
 40
0.1237758022
 40
0.2477024092
 40
0.3718629315
 40
0.4963575196
 40
0.621311984
 40
0.7468489061
 40
0.8730569016
 40
1.0
 40
1.0
 40
1.0
 40
1.0
 10
5.2129053009
 20
3.8480859939
 30
0.0
 10
5.2129053009
 20
3.8434910503
 30
0.0
 10
5.2131262044
 20
3.8342940489
 30
0.0
 10
5.2141181517
 20
3.8205200085
 30
0.0
 10
5.2157697629
 20
3.8067822249
 30
0.0
 10
5.2180794518
 20
3.7931010815
 30
0.0
 10
5.2210434985
 20
3.7794944013
 30
0.0
 10
5.2246586095
 20
3.7659801857
 30
0.0
 10
5.2289185729
 20
3.7525781073
 30
0.0
 10
5.2321740392
 20
3.7437581284
 30
0.0
 10
5.2339053009
 20
3.7393751373
 30
0.0
 11
5.2129053009
 21
3.8480859939
 31
0.0
 11
5.2132358972
 21
3.834305128
 31
0.0
 11
5.2142268131
 21
3.8205391206
 31
0.0
 11
5.2158767275
 21
3.8068102304
 31
0.0
 11
5.2181836214
 21
3.793138611
 31
0.0
 11
5.2211443842
 21
3.7795411239
 31
0.0
 11
5.2247556154
 21
3.7660345919
 31
0.0
 11
5.2290116378
 21
3.7526387326
 31
0.0
 11
5.2339053009
 21
3.7393751373
 31
0.0
  0
SPLINE
  5
236
100
AcDbEntity
  8
0
100
AcDbSpline
 62
6
  6
CONTINUOUS
 70
0
 71
3
 72
15
 73
11
 74
9
 42
0.0000001
 43
0.0000001
 44
0.0000000001
 12
0.0015371696
 22
-0.1186002641
 32
0.0
 13
0.057139852
 23
-0.1039395153
 33
0.0
 40
0.0
 40
0.0
 40
0.0
 40
0.0
 40
0.1229060438
 40
0.2460423211
 40
0.3695999487
 40
0.4937755113
 40
0.6187604136
 40
0.7447263509
 40
0.8717803042
 40
1.0
 40
1.0
 40
1.0
 40
1.0
 10
5.330424978
 20
3.6552638541
 30
0.0
 10
5.3304879538
 20
3.6504049577
 30
0.0
 10
5.3309224589
 20
3.6406792693
 30
0.0
 10
5.3324963667
 20
3.6261422113
 30
0.0
 10
5.3349909675
 20
3.6116831136
 30
0.0
 10
5.3383986565
 20
3.5973368071
 30
0.0
 10
5.3427113983
 20
3.583136722
 30
0.0
 10
5.3479202476
 20
3.5691189651
 30
0.0
 10
5.3540070331
 20
3.5553204998
 30
0.0
 10
5.3586169048
 20
3.5463345926
 30
0.0
 10
5.3610590563
 20
3.5418922282
 30
0.0
 11
5.330424978
 21
3.6552638541
 31
0.0
 11
5.3310750765
 21
3.6407004433
 31
0.0
 11
5.3326462599
 21
3.6261799791
 31
0.0
 11
5.3351357239
 21
3.6117377702
 31
0.0
 11
5.3385369346
 21
3.597407375
 31
0.0
 11
5.3428422371
 21
3.5832218261
 31
0.0
 11
5.3480423389
 21
3.5692151175
 31
0.0
 11
5.3541207616
 21
3.5554254618
 31
0.0
 11
5.3610590563
 21
3.5418922282
 31
0.0
  0
SPLINE
  5
237
100
AcDbEntity
  8
0
100
AcDbSpline
 62
6
  6
CONTINUOUS
 70
0
 71
3
 72
17
 73
13
 74
11
 42
0.0000001
 43
0.0000001
 44
0.0000000001
 12
-0.0043324041
 22
0.157538865
 32
0.0
 13
-0.1024714672
 23
0.1197366365
 33
0.0
 40
0.0
 40
0.0
 40
0.0
 40
0.0
 40
0.1204697296
 40
0.2415320498
 40
0.3635307028
 40
0.4250204279
 40
0.4868917484
 40
0.6119247561
 40
0.7389578755
 40
0.8033175283
 40
0.8682669379
 40
1.0
 40
1.0
 40
1.0
 40
1.0
 10
6.0753269924
 20
3.6811459071
 30
0.0
 10
6.0751530179
 20
3.6874721286
 30
0.0
 10
6.0742226347
 20
3.7001472868
 30
0.0
 10
6.0710988759
 20
3.7190119389
 30
0.0
 10
6.0670708567
 20
3.7345195107
 30
0.0
 10
6.0630150348
 20
3.7467577949
 30
0.0
 10
6.058373655
 20
3.7589572255
 30
0.0
 10
6.0515146121
 20
3.7739785221
 30
0.0
 10
6.043364065
 20
3.7884884038
 30
0.0
 10
6.0360700607
 20
3.7998121285
 30
0.0
 10
6.0281907758
 20
3.8110390521
 30
0.0
 10
6.0217609915
 20
3.8191439536
 30
0.0
 10
6.0172613648
 20
3.8244017116
 30
0.0
 11
6.0753269924
 21
3.6811459071
 31
0.0
 11
6.0739400549
 21
3.7000810203
 31
0.0
 11
6.0708275448
 21
3.7189046581
 31
0.0
 11
6.0660025549
 21
3.7375161906
 31
0.0
 11
6.0629552787
 21
3.7467152917
 31
0.0
 11
6.0594890856
 21
3.7558292397
 31
0.0
 11
6.0513158285
 21
3.7737592452
 31
0.0
 11
6.0415223959
 21
3.7912205702
 31
0.0
 11
6.0360314313
 21
3.7997487206
 31
0.0
 11
6.030152796
 21
3.8081282076
 31
0.0
 11
6.0172613648
 21
3.8244017116
 31
0.0
  0
SPLINE
  5
238
100
AcDbEntity
  8
0
100
AcDbSpline
 62
6
  6
CONTINUOUS
 70
0
 71
3
 72
22
 73
18
 74
16
 42
0.0000001
 43
0.0000001
 44
0.0000000001
 12
-0.2651320094
 22
-0.0835511009
 32
0.0
 13
-0.1248930284
 23
-0.2483495527
 33
0.0
 40
0.0
 40
0.0
 40
0.0
 40
0.0
 40
0.1346089679
 40
0.2011010778
 40
0.2669732689
 40
0.3321802049
 40
0.3966833446
 40
0.4604523162
 40
0.52346238
 40
0.585696561
 40
0.647145193
 40
0.7078057836
 40
0.7676914843
 40
0.8268279061
 40
0.885245679
 40
0.9429638771
 40
1.0
 40
1.0
 40
1.0
 40
1.0
 10
5.5693968101
 20
3.9276887795
 30
0.0
 10
5.557500428
 20
3.9239398703
 30
0.0
 10
5.5399462099
 20
3.9175999422
 30
0.0
 10
5.5172685222
 20
3.9077018644
 30
0.0
 10
5.5008213968
 20
3.8996467161
 30
0.0
 10
5.4849139018
 20
3.8909509891
 30
0.0
 10
5.4695884576
 20
3.8816354484
 30
0.0
 10
5.4548850033
 20
3.8717256863
 30
0.0
 10
5.4408435828
 20
3.861245591
 30
0.0
 10
5.4275021078
 20
3.8502220186
 30
0.0
 10
5.4148951236
 20
3.8386851201
 30
0.0
 10
5.4030576067
 20
3.8266630462
 30
0.0
 10
5.3920205851
 20
3.8141863657
 30
0.0
 10
5.3818122064
 20
3.8012866643
 30
0.0
 10
5.3724624292
 20
3.7879959269
 30
0.0
 10
5.3639965627
 20
3.7743543348
 30
0.0
 10
5.3589285435
 20
3.7649978976
 30
0.0
 10
5.3565540722
 20
3.7602762657
 30
0.0
 11
5.5693968101
 21
3.9276887795
 31
0.0
 11
5.53421171
 21
3.914952502
 31
0.0
 11
5.5172725503
 21
3.9075554383
 31
0.0
 11
5.5008293273
 21
3.8994974468
 31
0.0
 11
5.4849262912
 21
3.8907988422
 31
0.0
 11
5.4696062686
 21
3.8814814002
 31
0.0
 11
5.4549094169
 21
3.8715696368
 31
0.0
 11
5.440875525
 21
3.861088444
 31
0.0
 11
5.4275422188
 21
3.850064869
 31
0.0
 11
5.4149446811
 21
3.8385283931
 31
0.0
 11
5.4031176475
 21
3.8265086808
 31
0.0
 11
5.3920918797
 21
3.8140360583
 31
0.0
 11
5.3818954266
 21
3.8011413035
 31
0.0
 11
5.3725560865
 21
3.787856319
 31
0.0
 11
5.3641003278
 21
3.7742204876
 31
0.0
 11
5.3565540722
 21
3.7602762657
 31
0.0
  0
SPLINE
  5
239
100
AcDbEntity
  8
0
100
AcDbSpline
 62
7
  6
CONTINUOUS
 70
0
 71
3
 72
15
 73
11
 74
9
 42
0.0000001
 43
0.0000001
 44
0.0000000001
 12
0.0
 22
0.1113693507
 32
0.0
 13
-0.0409142773
 23
0.1035816305
 33
0.0
 40
0.0
 40
0.0
 40
0.0
 40
0.0
 40
0.1237758022
 40
0.2477024092
 40
0.3718629315
 40
0.4963575196
 40
0.621311984
 40
0.7468489061
 40
0.8730569016
 40
1.0
 40
1.0
 40
1.0
 40
1.0
 10
6.1929053009
 20
3.8480859939
 30
0.0
 10
6.1929053009
 20
3.8526809374
 30
0.0
 10
6.1926843974
 20
3.8618779388
 30
0.0
 10
6.1916924501
 20
3.8756519793
 30
0.0
 10
6.1900408389
 20
3.8893897628
 30
0.0
 10
6.18773115
 20
3.9030709062
 30
0.0
 10
6.1847671033
 20
3.9166775864
 30
0.0
 10
6.1811519923
 20
3.930191802
 30
0.0
 10
6.1768920289
 20
3.9435938804
 30
0.0
 10
6.1736365626
 20
3.9524138593
 30
0.0
 10
6.1719053009
 20
3.9567968504
 30
0.0
 11
6.1929053009
 21
3.8480859939
 31
0.0
 11
6.1925747046
 21
3.8618668597
 31
0.0
 11
6.1915837887
 21
3.8756328671
 31
0.0
 11
6.1899338743
 21
3.8893617573
 31
0.0
 11
6.1876269804
 21
3.9030333768
 31
0.0
 11
6.1846662176
 21
3.9166308638
 31
0.0
 11
6.1810549864
 21
3.9301373958
 31
0.0
 11
6.176798964
 21
3.9435332551
 31
0.0
 11
6.1719053009
 21
3.9567968504
 31
0.0
  0
SPLINE
  5
23A
100
AcDbEntity
  8
0
100
AcDbSpline
 62
7
  6
CONTINUOUS
 70
0
 71
3
 72
15
 73
11
 74
9
 42
0.0000001
 43
0.0000001
 44
0.0000000001
 12
-0.0409142773
 22
-0.1035816305
 32
0.0
 13
-0.0
 23
-0.1113693507
 33
0.0
 40
0.0
 40
0.0
 40
0.0
 40
0.0
 40
0.1269430984
 40
0.2531510939
 40
0.378688016
 40
0.5036424804
 40
0.6281370685
 40
0.7522975908
 40
0.8762241978
 40
1.0
 40
1.0
 40
1.0
 40
1.0
 10
5.2339053009
 20
3.9567968504
 30
0.0
 10
5.2321740392
 20
3.9524138593
 30
0.0
 10
5.2289185729
 20
3.9435938804
 30
0.0
 10
5.2246586095
 20
3.930191802
 30
0.0
 10
5.2210434985
 20
3.9166775864
 30
0.0
 10
5.2180794518
 20
3.9030709062
 30
0.0
 10
5.2157697629
 20
3.8893897628
 30
0.0
 10
5.2141181517
 20
3.8756519793
 30
0.0
 10
5.2131262044
 20
3.8618779388
 30
0.0
 10
5.2129053009
 20
3.8526809374
 30
0.0
 10
5.2129053009
 20
3.8480859939
 30
0.0
 11
5.2339053009
 21
3.9567968504
 31
0.0
 11
5.2290116378
 21
3.9435332551
 31
0.0
 11
5.2247556154
 21
3.9301373958
 31
0.0
 11
5.2211443842
 21
3.9166308638
 31
0.0
 11
5.2181836214
 21
3.9030333768
 31
0.0
 11
5.2158767275
 21
3.8893617573
 31
0.0
 11
5.2142268131
 21
3.8756328671
 31
0.0
 11
5.2132358972
 21
3.8618668597
 31
0.0
 11
5.2129053009
 21
3.8480859939
 31
0.0
  0
SPLINE
  5
23B
100
AcDbEntity
  8
0
100
AcDbSpline
 62
6
  6
CONTINUOUS
 70
0
 71
3
 72
70
 73
66
 74
64
 42
0.0000001
 43
0.0000001
 44
0.0000000001
 12
0.5022069192
 22
-0.9545656528
 32
0.0
 13
-0.5643492854
 23
0.9191938094
 33
0.0
 40
0.0
 40
0.0
 40
0.0
 40
0.0
 40
0.014509844
 40
0.0291990573
 40
0.0440716959
 40
0.0591320146
 40
0.0743871717
 40
0.0898430136
 40
0.1055024233
 40
0.1213643973
 40
0.1374260283
 40
0.1536827241
 40
0.1701280159
 40
0.1867540021
 40
0.2035510365
 40
0.2205077414
 40
0.2376116721
 40
0.2548491209
 40
0.2722052087
 40
0.2896643268
 40
0.3072100185
 40
0.3248250814
 40
0.3424919168
 40
0.3601925608
 40
0.3779086794
 40
0.3956218853
 40
0.4133139066
 40
0.430966417
 40
0.4485614143
 40
0.4660814697
 40
0.4835093839
 40
0.5008286983
 40
0.535073104
 40
0.5519765091
 40
0.5687146883
 40
0.5852760164
 40
0.6016505227
 40
0.6178299015
 40
0.6338069472
 40
0.6495765514
 40
0.6651355187
 40
0.6804820595
 40
0.6956168474
 40
0.7105426254
 40
0.7252637972
 40
0.7397874299
 40
0.7541226642
 40
0.7682804112
 40
0.7822741657
 40
0.7961192597
 40
0.8098326403
 40
0.8234333698
 40
0.836941794
 40
0.8503793729
 40
0.8637687993
 40
0.8771332004
 40
0.890496018
 40
0.903880776
 40
0.9173104625
 40
0.9308074865
 40
0.9443931998
 40
0.9580875841
 40
0.9719093141
 40
0.9858751563
 40
1.0
 40
1.0
 40
1.0
 40
1.0
 10
5.3610590563
 20
3.5418922282
 30
0.0
 10
5.3634880376
 20
3.537275362
 30
0.0
 10
5.3686587742
 20
3.5281304781
 30
0.0
 10
5.3772563829
 20
3.5148104172
 30
0.0
 10
5.386717215
 20
3.5018427593
 30
0.0
 10
5.3970152984
 20
3.4892660185
 30
0.0
 10
5.408120326
 20
3.4771106364
 30
0.0
 10
5.4200037728
 20
3.4654064702
 30
0.0
 10
5.4326347576
 20
3.4541825473
 30
0.0
 10
5.4459784602
 20
3.4434651981
 30
0.0
 10
5.4600004884
 20
3.4332825089
 30
0.0
 10
5.4746638844
 20
3.4236600311
 30
0.0
 10
5.4899291845
 20
3.4146196735
 30
0.0
 10
5.5057575206
 20
3.4061849058
 30
0.0
 10
5.5221074383
 20
3.3983757427
 30
0.0
 10
5.5389360091
 20
3.3912096732
 30
0.0
 10
5.5562005064
 20
3.3847056156
 30
0.0
 10
5.5738560223
 20
3.3788780074
 30
0.0
 10
5.5918569951
 20
3.3737395146
 30
0.0
 10
5.6101578623
 20
3.3693038357
 30
0.0
 10
5.6287115126
 20
3.3655795861
 30
0.0
 10
5.6474707039
 20
3.3625744662
 30
0.0
 10
5.6663880868
 20
3.3602966547
 30
0.0
 10
5.6854155331
 20
3.3587489268
 30
0.0
 10
5.7045050978
 20
3.3579338954
 30
0.0
 10
5.7236087688
 20
3.3578539971
 30
0.0
 10
5.7426785682
 20
3.3585062915
 30
0.0
 10
5.7616668242
 20
3.3598882905
 30
0.0
 10
5.7805260478
 20
3.3619966621
 30
0.0
 10
5.7992093467
 20
3.3648229393
 30
0.0
 10
5.8176709125
 20
3.3683597976
 30
0.0
 10
5.8418337223
 20
3.3739885951
 30
0.0
 10
5.8654636759
 20
3.3810027301
 30
0.0
 10
5.8883913046
 20
3.3893884248
 30
0.0
 10
5.9050739777
 20
3.3962942586
 30
0.0
 10
5.921273852
 20
3.4038260627
 30
0.0
 10
5.9369518088
 20
3.4119646403
 30
0.0
 10
5.9520705458
 20
3.4206874128
 30
0.0
 10
5.9665927879
 20
3.4299734676
 30
0.0
 10
5.9804834831
 20
3.4397990158
 30
0.0
 10
5.9937102298
 20
3.4501378561
 30
0.0
 10
6.0062402299
 20
3.4609653935
 30
0.0
 10
6.0180437523
 20
3.4722540154
 30
0.0
 10
6.029093747
 20
3.4839744756
 30
0.0
 10
6.0393624982
 20
3.4960989827
 30
0.0
 10
6.0488262213
 20
3.5085967841
 30
0.0
 10
6.057463667
 20
3.5214362228
 30
0.0
 10
6.0652526959
 20
3.5345867969
 30
0.0
 10
6.0721759798
 20
3.548015356
 30
0.0
 10
6.0782184109
 20
3.5616884636
 30
0.0
 10
6.0833638861
 20
3.5755734202
 30
0.0
 10
6.0876019266
 20
3.5896354873
 30
0.0
 10
6.0909238283
 20
3.6038400987
 30
0.0
 10
6.0933199607
 20
3.6181529673
 30
0.0
 10
6.094786936
 20
3.6325386733
 30
0.0
 10
6.0953226224
 20
3.6469622352
 30
0.0
 10
6.0949241944
 20
3.6613885577
 30
0.0
 10
6.0935953543
 20
3.6757825289
 30
0.0
 10
6.0913405378
 20
3.6901095369
 30
0.0
 10
6.0881638192
 20
3.7043345902
 30
0.0
 10
6.0840756817
 20
3.7184238433
 30
0.0
 10
6.0790869334
 20
3.732343773
 30
0.0
 10
6.0732082591
 20
3.746060542
 30
0.0
 10
6.0664567283
 20
3.7595417802
 30
0.0
 10
6.061414273
 20
3.768300164
 30
0.0
 10
6.0587571579
 20
3.772627987
 30
0.0
 11
5.3610590563
 21
3.5418922282
 31
0.0
 11
5.3687567722
 21
3.5282656436
 31
0.0
 11
5.377344235
 21
3.5149507134
 31
0.0
 11
5.3867947176
 21
3.5019881244
 31
0.0
 11
5.3970810736
 21
3.4894156533
 31
0.0
 11
5.4081750902
 21
3.477263668
 31
0.0
 11
5.4200483576
 21
3.465561368
 31
0.0
 11
5.4326701864
 21
3.4543374278
 31
0.0
 11
5.4460060323
 21
3.4436196345
 31
0.0
 11
5.4600209172
 21
3.4334356191
 31
0.0
 11
5.4746779809
 21
3.423810861
 31
0.0
 11
5.4899381749
 21
3.4147683371
 31
0.0
 11
5.505762206
 21
3.4063307379
 31
0.0
 11
5.5221087964
 21
3.3985183654
 31
0.0
 11
5.5389350479
 21
3.3913495719
 31
0.0
 11
5.5561978541
 21
3.3848423538
 31
0.0
 11
5.5738524928
 21
3.3790116981
 31
0.0
 11
5.5918533062
 21
3.3738708499
 31
0.0
 11
5.6101544571
 21
3.3694325334
 31
0.0
 11
5.6287089796
 21
3.3657061196
 31
0.0
 11
5.6474694443
 21
3.3626996008
 31
0.0
 11
5.6663883146
 21
3.3604202045
 31
0.0
 11
5.6854175619
 21
3.3588716014
 31
0.0
 11
5.7045090134
 21
3.3580564232
 31
0.0
 11
5.7236145506
 21
3.3579762428
 31
0.0
 11
5.7426862354
 21
3.3586290878
 31
0.0
 11
5.7616761688
 21
3.3600122402
 31
0.0
 11
5.7805367823
 21
3.3621216208
 31
0.0
 11
5.7992213226
 21
3.3649497952
 31
0.0
 11
5.8176831664
 21
3.3684888062
 31
0.0
 11
5.8358764136
 21
3.3727290731
 31
0.0
 11
5.8712790889
 21
3.3832625602
 31
0.0
 11
5.8884009692
 21
3.3895280137
 31
0.0
 11
5.9050807407
 21
3.3964369325
 31
0.0
 11
5.9212771854
 21
3.4039716356
 31
0.0
 11
5.9369508409
 21
3.4121125503
 31
0.0
 11
5.9520642677
 21
3.4208379245
 31
0.0
 11
5.9665802529
 21
3.4301257934
 31
0.0
 11
5.9804639052
 21
3.4399523304
 31
0.0
 11
5.9936824935
 21
3.4502919766
 31
0.0
 11
6.0062035631
 21
3.4611189907
 31
0.0
 11
6.0179975264
 21
3.4724059133
 31
0.0
 11
6.0290369823
 21
3.484123975
 31
0.0
 11
6.0392948804
 21
3.4962442436
 31
0.0
 11
6.0487475249
 21
3.5087363171
 31
0.0
 11
6.0573733447
 21
3.5215688623
 31
0.0
 11
6.0651512161
 21
3.5347104066
 31
0.0
 11
6.0720637715
 21
3.5481283431
 31
0.0
 11
6.0780956432
 21
3.5617894617
 31
0.0
 11
6.0832320231
 21
3.5756604486
 31
0.0
 11
6.0874621529
 21
3.5897072601
 31
0.0
 11
6.0907771103
 21
3.6038955213
 31
0.0
 11
6.0931686482
 21
3.6181908108
 31
0.0
 11
6.0946327452
 21
3.6325584237
 31
0.0
 11
6.0951670319
 21
3.6469635441
 31
0.0
 11
6.0947699211
 21
3.6613713898
 31
0.0
 11
6.0934441059
 21
3.6757473655
 31
0.0
 11
6.0911937416
 21
3.6900569398
 31
0.0
 11
6.0880238538
 21
3.7042657165
 31
0.0
 11
6.0839436851
 21
3.718339955
 31
0.0
 11
6.0789637553
 21
3.7322461138
 31
0.0
 11
6.0730955113
 21
3.7459509055
 31
0.0
 11
6.0663544464
 21
3.7594221541
 31
0.0
 11
6.0587571579
 21
3.772627987
 31
0.0
  0
SPLINE
  5
23C
100
AcDbEntity
  8
0
100
AcDbSpline
 62
6
  6
CONTINUOUS
 70
0
 71
3
 72
15
 73
11
 74
9
 42
0.0000001
 43
0.0000001
 44
0.0000000001
 12
-0.0487949475
 22
-0.0944279153
 32
0.0
 13
-0.0014465012
 23
-0.1062802226
 33
0.0
 40
0.0
 40
0.0
 40
0.0
 40
0.0
 40
0.1280388299
 40
0.2549639105
 40
0.3808591095
 40
0.5058366323
 40
0.630060948
 40
0.7537099853
 40
0.8769641564
 40
1.0
 40
1.0
 40
1.0
 40
1.0
 10
5.3565540722
 20
3.7602762657
 30
0.0
 10
5.3544715228
 20
3.7562461191
 30
0.0
 10
5.3505422087
 20
3.7481060901
 30
0.0
 10
5.345358126
 20
3.7356404858
 30
0.0
 10
5.3409233109
 20
3.7230032996
 30
0.0
 10
5.3372504609
 20
3.7102234739
 30
0.0
 10
5.334345809
 20
3.6973289237
 30
0.0
 10
5.3322156639
 20
3.6843456602
 30
0.0
 10
5.3308649283
 20
3.6713010874
 30
0.0
 10
5.3304849233
 20
3.6625771599
 30
0.0
 10
5.3304255994
 20
3.6582184009
 30
0.0
 11
5.3565540722
 21
3.7602762657
 31
0.0
 11
5.3506407638
 21
3.7480188344
 31
0.0
 11
5.3454634544
 21
3.7355609381
 31
0.0
 11
5.3410355372
 21
3.7229333629
 31
0.0
 11
5.3373685254
 21
3.7101656613
 31
0.0
 11
5.334468998
 21
3.6972841491
 31
0.0
 11
5.3323427195
 21
3.6843146246
 31
0.0
 11
5.330994176
 21
3.6712835229
 31
0.0
 11
5.3304255994
 21
3.6582184009
 31
0.0
  0
SPLINE
  5
23D
100
AcDbEntity
  8
0
100
AcDbSpline
 62
7
  6
CONTINUOUS
 70
0
 71
3
 72
15
 73
11
 74
9
 42
0.0000001
 43
0.0000001
 44
0.0000000001
 12
0.0409142773
 22
0.1035816305
 32
0.0
 13
-0.0
 23
0.1113693507
 33
0.0
 40
0.0
 40
0.0
 40
0.0
 40
0.0
 40
0.1269430984
 40
0.2531510939
 40
0.378688016
 40
0.5036424804
 40
0.6281370685
 40
0.7522975908
 40
0.8762241978
 40
1.0
 40
1.0
 40
1.0
 40
1.0
 10
6.1719053009
 20
3.7393751373
 30
0.0
 10
6.1736365626
 20
3.7437581284
 30
0.0
 10
6.1768920289
 20
3.7525781073
 30
0.0
 10
6.1811519923
 20
3.7659801857
 30
0.0
 10
6.1847671033
 20
3.7794944013
 30
0.0
 10
6.18773115
 20
3.7931010815
 30
0.0
 10
6.1900408389
 20
3.8067822249
 30
0.0
 10
6.1916924501
 20
3.8205200085
 30
0.0
 10
6.1926843974
 20
3.8342940489
 30
0.0
 10
6.1929053009
 20
3.8434910503
 30
0.0
 10
6.1929053009
 20
3.8480859939
 30
0.0
 11
6.1719053009
 21
3.7393751373
 31
0.0
 11
6.176798964
 21
3.7526387326
 31
0.0
 11
6.1810549864
 21
3.7660345919
 31
0.0
 11
6.1846662176
 21
3.7795411239
 31
0.0
 11
6.1876269804
 21
3.793138611
 31
0.0
 11
6.1899338743
 21
3.8068102304
 31
0.0
 11
6.1915837887
 21
3.8205391206
 31
0.0
 11
6.1925747046
 21
3.834305128
 31
0.0
 11
6.1929053009
 21
3.8480859939
 31
0.0
  0
SPLINE
  5
23E
100
AcDbEntity
  8
0
100
AcDbSpline
 62
6
  6
CONTINUOUS
 70
0
 71
3
 72
11
 73
7
 74
5
 42
0.0000001
 43
0.0000001
 44
0.0000000001
 12
-0.0255968034
 22
0.0619083806
 32
0.0
 13
-0.0075310203
 23
0.0665667159
 33
0.0
 40
0.0
 40
0.0
 40
0.0
 40
0.0
 40
0.2527774357
 40
0.5034537756
 40
0.7523563636
 40
1.0
 40
1.0
 40
1.0
 40
1.0
 10
5.3486722039
 20
3.6135893209
 30
0.0
 10
5.3465154391
 20
3.6188056682
 30
0.0
 10
5.3425685436
 20
3.6293433716
 30
0.0
 10
5.3377683055
 20
3.6454571319
 30
0.0
 10
5.3341331809
 20
3.6617558217
 30
0.0
 10
5.3324910367
 20
3.6727328497
 30
0.0
 10
5.331869367
 20
3.6782277909
 30
0.0
 11
5.3486722039
 21
3.6135893209
 31
0.0
 11
5.342737289
 21
3.6294491444
 31
0.0
 11
5.3379476032
 21
3.6455447607
 31
0.0
 11
5.3343214076
 21
3.6618200133
 31
0.0
 11
5.331869367
 21
3.6782277909
 31
0.0
  0
SPLINE
  5
23F
100
AcDbEntity
  8
0
100
AcDbSpline
 62
6
  6
CONTINUOUS
 70
0
 71
3
 72
66
 73
62
 74
60
 42
0.0000001
 43
0.0000001
 44
0.0000000001
 12
-0.0258131161
 22
-0.9388993255
 32
0.0
 13
-0.3588805808
 23
0.8679878969
 33
0.0
 40
0.0
 40
0.0
 40
0.0
 40
0.0
 40
0.0129872758
 40
0.0260080324
 40
0.0390764219
 40
0.0522074752
 40
0.0654190294
 40
0.0787286451
 40
0.0921529
 40
0.1057061825
 40
0.1194008666
 40
0.1332481697
 40
0.1472580264
 40
0.1614386465
 40
0.1757968929
 40
0.1903383602
 40
0.2050666695
 40
0.2199839277
 40
0.2350911544
 40
0.2503877648
 40
0.2815324469
 40
0.297379577
 40
0.3134003793
 40
0.329587994
 40
0.3459348847
 40
0.362432381
 40
0.379070788
 40
0.395839896
 40
0.4127289087
 40
0.4297261665
 40
0.4468195777
 40
0.4812396593
 40
0.4985448629
 40
0.5158938028
 40
0.5332728469
 40
0.5506681998
 40
0.5680660519
 40
0.5854527165
 40
0.6028145703
 40
0.6201380773
 40
0.654612437
 40
0.6887801599
 40
0.7057222692
 40
0.7225538254
 40
0.7392647824
 40
0.7558458382
 40
0.7722887974
 40
0.7885861716
 40
0.8047312579
 40
0.8207187732
 40
0.8521988075
 40
0.8676930096
 40
0.8830198589
 40
0.8981798116
 40
0.9131746338
 40
0.9280088508
 40
0.9426888076
 40
0.9572219764
 40
0.9716149814
 40
0.9858725116
 40
1.0
 40
1.0
 40
1.0
 40
1.0
 10
6.0753270439
 20
3.6755010043
 30
0.0
 10
6.0752152966
 20
3.6714364228
 30
0.0
 10
6.0747519204
 20
3.6633013689
 30
0.0
 10
6.0733425244
 20
3.6511419527
 30
0.0
 10
6.0712203149
 20
3.6390403779
 30
0.0
 10
6.0683875251
 20
3.6270239963
 30
0.0
 10
6.0648516619
 20
3.6151167269
 30
0.0
 10
6.0606199095
 20
3.6033411945
 30
0.0
 10
6.0556991995
 20
3.5917204116
 30
0.0
 10
6.0500998036
 20
3.5802768567
 30
0.0
 10
6.0438334696
 20
3.5690327954
 30
0.0
 10
6.036911415
 20
3.5580111222
 30
0.0
 10
6.0293464897
 20
3.5472342063
 30
0.0
 10
6.0211547345
 20
3.5367224235
 30
0.0
 10
6.0123517297
 20
3.5264965287
 30
0.0
 10
6.0029533662
 20
3.5165776529
 30
0.0
 10
5.9929787259
 20
3.5069845116
 30
0.0
 10
5.9824473656
 20
3.4977357559
 30
0.0
 10
5.9713783018
 20
3.4888504592
 30
0.0
 10
5.9558406657
 20
3.477444854
 30
0.0
 10
5.9393975731
 20
3.4669106814
 30
0.0
 10
5.9221734666
 20
3.4572836644
 30
0.0
 10
5.9087578301
 20
3.4504638008
 30
0.0
 10
5.8949475602
 20
3.4441010224
 30
0.0
 10
5.8807681628
 20
3.4382090991
 30
0.0
 10
5.8662472653
 20
3.4327995173
 30
0.0
 10
5.8514130704
 20
3.4278823574
 30
0.0
 10
5.8362937611
 20
3.4234683718
 30
0.0
 10
5.8209182584
 20
3.4195673317
 30
0.0
 10
5.8053160785
 20
3.416185961
 30
0.0
 10
5.7842049626
 20
3.412371695
 30
0.0
 10
5.7628125248
 20
3.4096397968
 30
0.0
 10
5.7412464803
 20
3.4079896505
 30
0.0
 10
5.7249671605
 20
3.4072956027
 30
0.0
 10
5.7086457866
 20
3.407149496
 30
0.0
 10
5.6923133164
 20
3.4075510799
 30
0.0
 10
5.6760011294
 20
3.4085007154
 30
0.0
 10
5.6597406551
 20
3.409998212
 30
0.0
 10
5.6435628002
 20
3.4120400351
 30
0.0
 10
5.6221810765
 20
3.4154776928
 30
0.0
 10
5.5958389402
 20
3.4211071513
 30
0.0
 10
5.5700632777
 20
3.4285136647
 30
0.0
 10
5.5499584955
 20
3.4354731527
 30
0.0
 10
5.5352142233
 20
3.4411782574
 30
0.0
 10
5.52079188
 20
3.4473729507
 30
0.0
 10
5.5067195217
 20
3.4540472568
 30
0.0
 10
5.4930236864
 20
3.4611878528
 30
0.0
 10
5.4797305792
 20
3.4687812492
 30
0.0
 10
5.4668660134
 20
3.4768149597
 30
0.0
 10
5.4504055609
 20
3.4880335519
 30
0.0
 10
5.43479994
 20
3.500121836
 30
0.0
 10
5.4201765253
 20
3.5130372175
 30
0.0
 10
5.4098081307
 20
3.5230312591
 30
0.0
 10
5.400002795
 20
3.5333636006
 30
0.0
 10
5.3907800918
 20
3.5440163381
 30
0.0
 10
5.3821571577
 20
3.5549696612
 30
0.0
 10
5.3741495369
 20
3.5662037521
 30
0.0
 10
5.3667737076
 20
3.5776987979
 30
0.0
 10
5.3600448096
 20
3.5894321863
 30
0.0
 10
5.3539756958
 20
3.6013774797
 30
0.0
 10
5.350362231
 20
3.6095018246
 30
0.0
 10
5.3486722039
 20
3.6135893209
 30
0.0
 11
6.0753270439
 21
3.6755010043
 31
0.0
 11
6.0746341539
 21
3.6633223469
 31
0.0
 11
6.0732269938
 21
3.6511737715
 31
0.0
 11
6.0711078835
 21
3.6390835414
 31
0.0
 11
6.068280116
 21
3.6270786933
 31
0.0
 11
6.0647500602
 21
3.6151823852
 31
0.0
 11
6.0605246915
 21
3.6034170107
 31
0.0
 11
6.055611216
 21
3.5918049801
 31
0.0
 11
6.0500194169
 21
3.5803688936
 31
0.0
 11
6.0437606929
 21
3.5691314699
 31
0.0
 11
6.036846486
 21
3.5581154214
 31
0.0
 11
6.0292896935
 21
3.5473428031
 31
0.0
 11
6.021105697
 21
3.5368345474
 31
0.0
 11
6.0123101211
 21
3.526611477
 31
0.0
 11
6.0029190862
 21
3.5166941661
 31
0.0
 11
5.9929512346
 21
3.5071019239
 31
0.0
 11
5.9824260078
 21
3.4978536588
 31
0.0
 11
5.9713629358
 21
3.4889682187
 31
0.0
 11
5.9597833061
 21
3.4804632509
 31
0.0
 11
5.9351660575
 21
3.4646608574
 31
0.0
 11
5.922175031
 21
3.457395802
 31
0.0
 11
5.9087625294
 21
3.4505741313
 31
0.0
 11
5.8949544991
 21
3.4442094997
 31
0.0
 11
5.8807770007
 21
3.4383154098
 31
0.0
 11
5.8662574441
 21
3.4329035648
 31
0.0
 11
5.8514241207
 21
3.4279844921
 31
0.0
 11
5.8363053419
 21
3.4235686897
 31
0.0
 11
5.8209299396
 21
3.419665597
 31
0.0
 11
5.8053277423
 21
3.4162826263
 31
0.0
 11
5.7895286912
 21
3.413426961
 31
0.0
 11
5.7574611009
 21
3.4093224515
 31
0.0
 11
5.74125453
 21
3.4080818729
 31
0.0
 11
5.7249742761
 21
3.4073873146
 31
0.0
 11
5.7086515958
 21
3.4072407421
 31
0.0
 11
5.6923178771
 21
3.4076423971
 31
0.0
 11
5.6760045139
 21
3.408592443
 31
0.0
 11
5.6597428485
 21
3.4100902204
 31
0.0
 11
5.6435640776
 21
3.4121327419
 31
0.0
 11
5.6274993723
 21
3.4147166107
 31
0.0
 11
5.595835936
 21
3.4214917927
 31
0.0
 11
5.5649955219
 21
3.430367404
 31
0.0
 11
5.5499585773
 21
3.4355743354
 31
0.0
 11
5.5352154798
 21
3.4412812589
 31
0.0
 11
5.5207946718
 21
3.4474779942
 31
0.0
 11
5.5067242501
 21
3.4541538648
 31
0.0
 11
5.4930308403
 21
3.4612960824
 31
0.0
 11
5.4797406763
 21
3.468891297
 31
0.0
 11
5.4668799005
 21
3.4769260719
 31
0.0
 11
5.454473121
 21
3.4853855202
 31
0.0
 11
5.4311148582
 21
3.5035140468
 31
0.0
 11
5.4202091276
 21
3.5131501579
 31
0.0
 11
5.4098468111
 21
3.523143237
 31
0.0
 11
5.4000479051
 21
3.5334743511
 31
0.0
 11
5.390832077
 21
3.5441245205
 31
0.0
 11
5.3822162868
 21
3.5550743795
 31
0.0
 11
5.3742161626
 21
3.5663043722
 31
0.0
 11
5.3668473053
 21
3.5777948761
 31
0.0
 11
5.3601245349
 21
3.5895234441
 31
0.0
 11
5.3540616078
 21
3.6014637824
 31
0.0
 11
5.3486722039
 21
3.6135893209
 31
0.0
  0
SPLINE
  5
240
100
AcDbEntity
  8
0
100
AcDbSpline
 62
6
  6
CONTINUOUS
 70
0
 71
3
 72
61
 73
57
 74
55
 42
0.0000001
 43
0.0000001
 44
0.0000000001
 12
-0.1119361181
 22
-0.9074880971
 32
0.0
 13
-0.3660495439
 23
0.8378974116
 33
0.0
 40
0.0
 40
0.0
 40
0.0
 40
0.0
 40
0.0129837271
 40
0.0260217711
 40
0.0391298081
 40
0.0523245803
 40
0.0656220312
 40
0.0790369175
 40
0.0925816386
 40
0.106267178
 40
0.1201035143
 40
0.1340993703
 40
0.1625894251
 40
0.1917886153
 40
0.2066644706
 40
0.2217233209
 40
0.2369644704
 40
0.2523856508
 40
0.2679836893
 40
0.2837545664
 40
0.2996928641
 40
0.315792216
 40
0.3484399191
 40
0.3649766581
 40
0.3816410023
 40
0.4153069409
 40
0.4493551008
 40
0.4664957216
 40
0.4836960965
 40
0.5009436603
 40
0.51822578
 40
0.5355295954
 40
0.5528421121
 40
0.5701503862
 40
0.5874416463
 40
0.6219178795
 40
0.6561765888
 40
0.6901252816
 40
0.7069588346
 40
0.7236836604
 40
0.740290443
 40
0.7567705231
 40
0.773116394
 40
0.7893212968
 40
0.8053791378
 40
0.8212849384
 40
0.8370349187
 40
0.8526260797
 40
0.883318761
 40
0.9133699447
 40
0.9281640611
 40
0.9428071291
 40
0.9573048043
 40
0.9716638936
 40
0.9858925763
 40
1.0
 40
1.0
 40
1.0
 40
1.0
 10
6.073834994
 20
3.7016124968
 30
0.0
 10
6.0733505446
 20
3.6976849709
 30
0.0
 10
6.0721567459
 20
3.6898391632
 30
0.0
 10
6.0697013035
 20
3.67816229
 30
0.0
 10
6.0665827475
 20
3.6665778685
 30
0.0
 10
6.0628081641
 20
3.6551072855
 30
0.0
 10
6.0583838994
 20
3.6437709247
 30
0.0
 10
6.0533170159
 20
3.6325898206
 30
0.0
 10
6.0476181205
 20
3.6215840543
 30
0.0
 10
6.0412979049
 20
3.6107741308
 30
0.0
 10
6.0343665203
 20
3.600180736
 30
0.0
 10
6.0242686384
 20
3.5862912802
 30
0.0
 10
6.0101531687
 20
3.5695687161
 30
0.0
 10
5.9943756923
 20
3.5540251331
 30
0.0
 10
5.9807385677
 20
3.5422339955
 30
0.0
 10
5.9699447189
 20
3.5336783319
 30
0.0
 10
5.9586694639
 20
3.5254826615
 30
0.0
 10
5.9469336235
 20
3.5176610843
 30
0.0
 10
5.9347581999
 20
3.5102285087
 30
0.0
 10
5.9221645573
 20
3.5031999399
 30
0.0
 10
5.9091757285
 20
3.4965874488
 30
0.0
 10
5.8912810169
 20
3.4883041153
 30
0.0
 10
5.8727697057
 20
3.4809504139
 30
0.0
 10
5.8537485619
 20
3.4745376827
 30
0.0
 10
5.8342169109
 20
3.468704505
 30
0.0
 10
5.8092052107
 20
3.4626299579
 30
0.0
 10
5.7836995277
 20
3.458225971
 30
0.0
 10
5.7630055581
 20
3.455701747
 30
0.0
 10
5.7473405904
 20
3.4543114122
 30
0.0
 10
5.7315956439
 20
3.453431729
 30
0.0
 10
5.7157988159
 20
3.4530659956
 30
0.0
 10
5.6999786701
 20
3.4532143827
 30
0.0
 10
5.684163763
 20
3.4538767625
 30
0.0
 10
5.6683824161
 20
3.4550534408
 30
0.0
 10
5.6474465254
 20
3.457303981
 30
0.0
 10
5.6215248257
 20
3.4613823788
 30
0.0
 10
5.590976945
 20
3.4682887521
 30
0.0
 10
5.5661159748
 20
3.4756983101
 30
0.0
 10
5.5467262319
 20
3.4825922022
 30
0.0
 10
5.5325045258
 20
3.4882154179
 30
0.0
 10
5.5185898528
 20
3.4942959755
 30
0.0
 10
5.5050076647
 20
3.5008247533
 30
0.0
 10
5.4917821255
 20
3.5077897361
 30
0.0
 10
5.4789367017
 20
3.5151784508
 30
0.0
 10
5.4664949572
 20
3.5229789469
 30
0.0
 10
5.4544797197
 20
3.5311781383
 30
0.0
 10
5.4429116668
 20
3.5397609959
 30
0.0
 10
5.4281908134
 20
3.5516327893
 30
0.0
 10
5.4109926569
 20
3.5673451205
 30
0.0
 10
5.395370992
 20
3.5843012167
 30
0.0
 10
5.3840156701
 20
3.5984433058
 30
0.0
 10
5.3761169436
 20
3.6092626417
 30
0.0
 10
5.3688072962
 20
3.6203297331
 30
0.0
 10
5.362101162
 20
3.6316263241
 30
0.0
 10
5.3560101471
 20
3.6431314329
 30
0.0
 10
5.3523512198
 20
3.6509593146
 30
0.0
 10
5.3506298811
 20
3.6548995058
 30
0.0
 11
6.073834994
 21
3.7016124968
 31
0.0
 11
6.072049921
 21
3.6898755945
 31
0.0
 11
6.0695982964
 21
3.6782088637
 31
0.0
 11
6.0664847977
 21
3.6666347879
 31
0.0
 11
6.0627157795
 21
3.6551737676
 31
0.0
 11
6.0582976319
 21
3.6438461594
 31
0.0
 11
6.0532375842
 21
3.6326723791
 31
0.0
 11
6.0475456263
 21
3.6216730366
 31
0.0
 11
6.041232315
 21
3.6108687816
 31
0.0
 11
6.0343082874
 21
3.6002802259
 31
0.0
 11
6.0267860226
 21
3.5899271032
 31
0.0
 11
6.0100041493
 21
3.5700025424
 31
0.0
 11
5.9910063057
 21
3.5512434299
 31
0.0
 11
5.9807192988
 21
3.5423444939
 31
0.0
 11
5.9699308019
 21
3.5337886897
 31
0.0
 11
5.958660209
 21
3.5255920241
 31
0.0
 11
5.946928484
 21
3.5177694009
 31
0.0
 11
5.934756669
 21
3.5103356687
 31
0.0
 11
5.9221661847
 21
3.5033052987
 31
0.0
 11
5.9091801716
 21
3.4966910467
 31
0.0
 11
5.8958222573
 21
3.4905051824
 31
0.0
 11
5.8680863561
 21
3.4794662608
 31
0.0
 11
5.8537587688
 21
3.4746337128
 31
0.0
 11
5.8391591555
 21
3.470271756
 31
0.0
 11
5.8092489179
 21
3.4629937632
 31
0.0
 11
5.7785719109
 21
3.457687958
 31
0.0
 11
5.7630145655
 21
3.455789158
 31
0.0
 11
5.7473487744
 21
3.4543980973
 31
0.0
 11
5.7316027714
 21
3.4535180316
 31
0.0
 11
5.7158048418
 21
3.453151772
 31
0.0
 11
5.6999835233
 21
3.4532999676
 31
0.0
 11
5.6841674299
 21
3.4539626124
 31
0.0
 11
5.6683851724
 21
3.4551396656
 31
0.0
 11
5.6526652283
 21
3.4568297223
 31
0.0
 11
5.6215254802
 21
3.4617359503
 31
0.0
 11
5.5909734022
 21
3.46865152
 31
0.0
 11
5.5612286191
 21
3.4775297809
 31
0.0
 11
5.5467264795
 21
3.4826875181
 31
0.0
 11
5.5325059056
 21
3.4883123759
 31
0.0
 11
5.5185926718
 21
3.4943948197
 31
0.0
 11
5.5050123391
 21
3.5009250431
 31
0.0
 11
5.4917890565
 21
3.5078914435
 31
0.0
 11
5.4789464004
 21
3.5152816898
 31
0.0
 11
5.4665079298
 21
3.5230834332
 31
0.0
 11
5.4544962455
 21
3.5312833791
 31
0.0
 11
5.4429324491
 21
3.5398667528
 31
0.0
 11
5.4318375118
 21
3.548818651
 31
0.0
 11
5.4111349245
 21
3.5677661972
 31
0.0
 11
5.3925363848
 21
3.5879929614
 31
0.0
 11
5.3840693691
 21
3.5985426345
 31
0.0
 11
5.3761772187
 21
3.6093584752
 31
0.0
 11
5.3688742616
 21
3.6204216114
 31
0.0
 11
5.3621745129
 21
3.6317130238
 31
0.0
 11
5.3560895655
 21
3.6432125527
 31
0.0
 11
5.3506298811
 21
3.6548995058
 31
0.0
  0
SPLINE
  5
241
100
AcDbEntity
  8
0
100
AcDbSpline
 62
6
  6
CONTINUOUS
 70
0
 71
3
 72
63
 73
59
 74
57
 42
0.0000001
 43
0.0000001
 44
0.0000000001
 12
-0.2138375018
 22
-0.8920734699
 32
0.0
 13
-0.2744558972
 23
0.875325947
 33
0.0
 40
0.0
 40
0.0
 40
0.0
 40
0.0
 40
0.0130856417
 40
0.0262580587
 40
0.0395332648
 40
0.0529259965
 40
0.0664486477
 40
0.0801122737
 40
0.0939269269
 40
0.1079012857
 40
0.1220425124
 40
0.1363566283
 40
0.150848411
 40
0.165520788
 40
0.1803754337
 40
0.1954130485
 40
0.2106328504
 40
0.2260326138
 40
0.2416092481
 40
0.2573587106
 40
0.2732754426
 40
0.2893530014
 40
0.3219560941
 40
0.3551057187
 40
0.3718638117
 40
0.3887282737
 40
0.405687837
 40
0.4227309835
 40
0.4398457296
 40
0.4570195668
 40
0.4742398211
 40
0.4914937758
 40
0.5087685859
 40
0.526051316
 40
0.560584552
 40
0.594996336
 40
0.6291879523
 40
0.6630669231
 40
0.6798646975
 40
0.6965531652
 40
0.7131230366
 40
0.7295657246
 40
0.7458737527
 40
0.762040325
 40
0.7780593311
 40
0.7939258595
 40
0.8096362184
 40
0.8251874987
 40
0.855800097
 40
0.8857716388
 40
0.9005264531
 40
0.9151306879
 40
0.9295900815
 40
0.9439115504
 40
0.9581034233
 40
0.9721749977
 40
0.9861365179
 40
1.0
 40
1.0
 40
1.0
 40
1.0
 10
6.0695872084
 20
3.7240768862
 30
0.0
 10
6.0686544748
 20
3.7201857683
 30
0.0
 10
6.0665640536
 20
3.7124283944
 30
0.0
 10
6.062779702
 20
3.7009414588
 30
0.0
 10
6.0583436071
 20
3.6895889772
 30
0.0
 10
6.053263131
 20
3.6783924506
 30
0.0
 10
6.0475488818
 20
3.6673719377
 30
0.0
 10
6.0412114005
 20
3.6565480438
 30
0.0
 10
6.0342609574
 20
3.6459418317
 30
0.0
 10
6.0267107123
 20
3.6355729195
 30
0.0
 10
6.0185753175
 20
3.6254599337
 30
0.0
 10
6.0098690413
 20
3.615621941
 30
0.0
 10
6.0006069125
 20
3.6060779623
 30
0.0
 10
5.9908068172
 20
3.5968447891
 30
0.0
 10
5.9804865829
 20
3.587939465
 30
0.0
 10
5.969664018
 20
3.5793795643
 30
0.0
 10
5.9583590041
 20
3.5711807824
 30
0.0
 10
5.946592573
 20
3.5633576615
 30
0.0
 10
5.9343856014
 20
3.5559252701
 30
0.0
 10
5.9217596875
 20
3.5488984854
 30
0.0
 10
5.9087381908
 20
3.5422893126
 30
0.0
 10
5.8907988536
 20
3.5340126837
 30
0.0
 10
5.8675104377
 20
3.5247967397
 30
0.0
 10
5.8434306073
 20
3.5171924827
 30
0.0
 10
5.8236660095
 20
3.5120565599
 30
0.0
 10
5.8085691598
 20
3.5086784217
 30
0.0
 10
5.7932816155
 20
3.5057948075
 30
0.0
 10
5.7778305112
 20
3.5034124939
 30
0.0
 10
5.7622438812
 20
3.5015362431
 30
0.0
 10
5.7465500465
 20
3.5001690059
 30
0.0
 10
5.7307773399
 20
3.4993141733
 30
0.0
 10
5.7149543012
 20
3.4989749811
 30
0.0
 10
5.6991093519
 20
3.4991514793
 30
0.0
 10
5.6779997478
 20
3.500073828
 30
0.0
 10
5.6517255059
 20
3.5025135473
 30
0.0
 10
5.6205592192
 20
3.5074815107
 30
0.0
 10
5.5899859425
 20
3.51446228
 30
0.0
 10
5.5651117218
 20
3.5219379385
 30
0.0
 10
5.5457163756
 20
3.5288866508
 30
0.0
 10
5.5314934463
 20
3.5345514914
 30
0.0
 10
5.5175803105
 20
3.540674531
 30
0.0
 10
5.5040025072
 20
3.547246512
 30
0.0
 10
5.4907841752
 20
3.5542550733
 30
0.0
 10
5.4779489552
 20
3.5616877373
 30
0.0
 10
5.4655205835
 20
3.5695325117
 30
0.0
 10
5.4535218705
 20
3.5777760332
 30
0.0
 10
5.4419735211
 20
3.58640316
 30
0.0
 10
5.4272833569
 20
3.5983332831
 30
0.0
 10
5.4101311945
 20
3.6141179532
 30
0.0
 10
5.394566459
 20
3.6311458423
 30
0.0
 10
5.3832633081
 20
3.6453435664
 30
0.0
 10
5.3754066393
 20
3.6562034391
 30
0.0
 10
5.368142218
 20
3.6673100359
 30
0.0
 10
5.3614844804
 20
3.6786448354
 30
0.0
 10
5.3554446734
 20
3.6901870295
 30
0.0
 10
5.3500330901
 20
3.701915929
 30
0.0
 10
5.3452605884
 20
3.7138107244
 30
0.0
 10
5.3425020606
 20
3.7218642907
 30
0.0
 10
5.3412337558
 20
3.7259093126
 30
0.0
 11
6.0695872084
 21
3.7240768862
 31
0.0
 11
6.0664658721
 21
3.7124857527
 31
0.0
 11
6.0626870582
 21
3.7010081601
 31
0.0
 11
6.0582571528
 21
3.6896645184
 31
0.0
 11
6.0531835368
 21
3.6784753203
 31
0.0
 11
6.0474762384
 21
3.6674612775
 31
0.0
 11
6.0411457214
 21
3.6566431378
 31
0.0
 11
6.0342026119
 21
3.646041576
 31
0.0
 11
6.0266596937
 21
3.635676298
 31
0.0
 11
6.018531285
 21
3.6255663203
 31
0.0
 11
6.0098317376
 21
3.6157306445
 31
0.0
 11
6.0005762157
 21
3.6061878597
 31
0.0
 11
5.9907821814
 21
3.596955389
 31
0.0
 11
5.9804675006
 21
3.5880504508
 31
0.0
 11
5.9696501607
 21
3.5794901757
 31
0.0
 11
5.9583498576
 21
3.5712904685
 31
0.0
 11
5.9465875458
 21
3.5634663303
 31
0.0
 11
5.9343842097
 21
3.5560327406
 31
0.0
 11
5.9217614538
 21
3.5490041046
 31
0.0
 11
5.9087426779
 21
3.5423931645
 31
0.0
 11
5.8953516051
 21
3.5362123632
 31
0.0
 11
5.8675488647
 21
3.5251890801
 31
0.0
 11
5.8385552862
 21
3.5160174704
 31
0.0
 11
5.8236769333
 21
3.5121493684
 31
0.0
 11
5.8085800851
 21
3.5087696666
 31
0.0
 11
5.793292117
 21
3.5058848491
 31
0.0
 11
5.7778404315
 21
3.5035013204
 31
0.0
 11
5.7622529632
 21
3.5016238953
 31
0.0
 11
5.7465581358
 21
3.5002559281
 31
0.0
 11
5.7307843909
 21
3.4994007185
 31
0.0
 11
5.7149602108
 21
3.4990610002
 31
0.0
 11
5.6991142338
 21
3.4992373167
 31
0.0
 11
5.6832751359
 21
3.4999296821
 31
0.0
 11
5.6517321399
 21
3.5028607597
 31
0.0
 11
5.6205592685
 21
3.507836441
 31
0.0
 11
5.589982586
 21
3.514826523
 31
0.0
 11
5.5602226499
 21
3.5237837399
 31
0.0
 11
5.5457167029
 21
3.5289823569
 31
0.0
 11
5.5314949452
 21
3.5346488843
 31
0.0
 11
5.517583295
 21
3.5407738074
 31
0.0
 11
5.5040073626
 21
3.5473472005
 31
0.0
 11
5.4907913164
 21
3.5543572134
 31
0.0
 11
5.4779589036
 21
3.5617914331
 31
0.0
 11
5.4655338438
 21
3.5696374206
 31
0.0
 11
5.4535387405
 21
3.5778816786
 31
0.0
 11
5.4419947141
 21
3.5865093035
 31
0.0
 11
5.4309227823
 21
3.5955052943
 31
0.0
 11
5.4102758574
 21
3.6145400145
 31
0.0
 11
5.391745792
 21
3.6348518304
 31
0.0
 11
5.3833177522
 21
3.6454429216
 31
0.0
 11
5.3754677041
 21
3.6562992356
 31
0.0
 11
5.368210009
 21
3.6674017665
 31
0.0
 11
5.3615586314
 21
3.67873133
 31
0.0
 11
5.3555250186
 21
3.6902676095
 31
0.0
 11
5.3501196337
 21
3.7019898461
 31
0.0
 11
5.3453529111
 21
3.7138772824
 31
0.0
 11
5.3412337558
 21
3.7259093126
 31
0.0
  0
SPLINE
  5
242
100
AcDbEntity
  8
0
100
AcDbSpline
 62
6
  6
CONTINUOUS
 70
0
 71
3
 72
20
 73
16
 74
14
 42
0.0000001
 43
0.0000001
 44
0.0000000001
 12
0.2482082984
 22
0.2233718767
 32
0.0
 13
0.3338630865
 23
0.0061476995
 33
0.0
 40
0.0
 40
0.0
 40
0.0
 40
0.0
 40
0.0578137824
 40
0.1164367722
 40
0.2359340201
 40
0.3583214929
 40
0.4205272366
 40
0.4833331246
 40
0.5466854954
 40
0.610526772
 40
0.6747918379
 40
0.7394114539
 40
0.8694218468
 40
0.9346944942
 40
1.0
 40
1.0
 40
1.0
 40
1.0
 10
5.3850232613
 20
3.8314535388
 30
0.0
 10
5.3898065481
 20
3.8357581964
 30
0.0
 10
5.3996703458
 20
3.8441756997
 30
0.0
 10
5.4204930156
 20
3.8601921707
 30
0.0
 10
5.4485042011
 20
3.8785764594
 30
0.0
 10
5.4784718589
 20
3.894419178
 30
0.0
 10
5.5036353022
 20
3.9056221912
 30
0.0
 10
5.5231557179
 20
3.9132923703
 30
0.0
 10
5.543163595
 20
3.9201631553
 30
0.0
 10
5.5636040446
 20
3.9262131677
 30
0.0
 10
5.5844195195
 20
3.9314265248
 30
0.0
 10
5.6126477827
 20
3.9372516618
 30
0.0
 10
5.6413281666
 20
3.9413269344
 30
0.0
 10
5.6702467739
 20
3.9436372903
 30
0.0
 10
5.6847751278
 20
3.9442027142
 30
0.0
 10
5.692042827
 20
3.9443365404
 30
0.0
 11
5.3850232613
 21
3.8314535388
 31
0.0
 11
5.3997034875
 21
3.8439906899
 31
0.0
 11
5.4152161089
 21
3.8559302751
 31
0.0
 11
5.4485497821
 21
3.8778636831
 31
0.0
 11
5.4846593735
 21
3.8970015253
 31
0.0
 11
5.5036336728
 21
3.9054537682
 31
0.0
 11
5.5231514111
 21
3.913127607
 31
0.0
 11
5.5431580789
 21
3.9200015068
 31
0.0
 11
5.563598375
 21
3.9260550513
 31
0.0
 11
5.584414169
 21
3.9312711129
 31
0.0
 11
5.6055462436
 21
3.9356340501
 31
0.0
 11
5.6485259944
 21
3.94175223
 31
0.0
 11
5.6702525094
 21
3.9434890058
 31
0.0
 11
5.692042827
 21
3.9443365404
 31
0.0
  0
SPLINE
  5
243
100
AcDbEntity
  8
0
100
AcDbSpline
 62
7
  6
CONTINUOUS
 70
0
 71
3
 72
50
 73
46
 74
44
 42
0.0000001
 43
0.0000001
 44
0.0000000001
 12
-0.2676866121
 22
-0.7930350643
 32
0.0
 13
-0.3061767563
 23
0.7789842934
 33
0.0
 40
0.0
 40
0.0
 40
0.0
 40
0.0
 40
0.0270415354
 40
0.0545307918
 40
0.0684715783
 40
0.0825515497
 40
0.1111477345
 40
0.1403674032
 40
0.1552217611
 40
0.1702388331
 40
0.2007537932
 40
0.2162545321
 40
0.2319116582
 40
0.2636732646
 40
0.2960021268
 40
0.3123651764
 40
0.3288486865
 40
0.3621384226
 40
0.3958020144
 40
0.4297582938
 40
0.4639204815
 40
0.4981979727
 40
0.5324981451
 40
0.5667278827
 40
0.6007953556
 40
0.6346118005
 40
0.6514015363
 40
0.6680974963
 40
0.7011657728
 40
0.7337515507
 40
0.7498468672
 40
0.7658001181
 40
0.7972530203
 40
0.8127493893
 40
0.8280861285
 40
0.8582678049
 40
0.887799614
 40
0.902328762
 40
0.916701923
 40
0.9309237274
 40
0.9449997557
 40
0.9589368076
 40
0.9727430026
 40
0.9864273802
 40
1.0
 40
1.0
 40
1.0
 40
1.0
 10
6.045634474
 20
3.7834168224
 30
0.0
 10
6.0432215883
 20
3.7762685272
 30
0.0
 10
6.0376158496
 20
3.7620931219
 30
0.0
 10
6.0288612815
 20
3.7450793675
 30
0.0
 10
6.020814993
 20
3.7318406544
 30
0.0
 10
6.011987854
 20
3.7187350797
 30
0.0
 10
5.9996471465
 20
3.7028851643
 30
0.0
 10
5.9858220244
 20
3.688019481
 30
0.0
 10
5.9738602761
 20
3.6766683358
 30
0.0
 10
5.9611710477
 20
3.6655796411
 30
0.0
 10
5.9476792
 20
3.6551568191
 30
0.0
 10
5.9334789463
 20
3.6454343491
 30
0.0
 10
5.9186281937
 20
3.6360670534
 30
0.0
 10
5.8991601146
 20
3.6252522079
 30
0.0
 10
5.8787959161
 20
3.6157651642
 30
0.0
 10
5.8619373557
 20
3.6089423746
 30
0.0
 10
5.8446056702
 20
3.6026020748
 30
0.0
 10
5.822351804
 20
3.5957082586
 30
0.0
 10
5.7949553666
 20
3.589140895
 30
0.0
 10
5.7669556409
 20
3.5842937729
 30
0.0
 10
5.738536733
 20
3.58119891
 30
0.0
 10
5.7098845252
 20
3.5798758782
 30
0.0
 10
5.6811866705
 20
3.5803333316
 30
0.0
 10
5.6526308487
 20
3.5825688158
 30
0.0
 10
5.6244047799
 20
3.5865672763
 30
0.0
 10
5.6012539874
 20
3.5913584488
 30
0.0
 10
5.5830698552
 20
3.5960518949
 30
0.0
 10
5.5652485828
 20
3.6012764256
 30
0.0
 10
5.5435295556
 20
3.6088253666
 30
0.0
 10
5.5225243201
 20
3.6177619148
 30
0.0
 10
5.5063226006
 20
3.6256874485
 30
0.0
 10
5.4906922866
 20
3.6340348566
 30
0.0
 10
5.4756657583
 20
3.6431378472
 30
0.0
 10
5.4613343925
 20
3.6529723853
 30
0.0
 10
5.4476765666
 20
3.663139613
 30
0.0
 10
5.4316230371
 20
3.6766194162
 30
0.0
 10
5.41688652
 20
3.6912131113
 30
0.0
 10
5.4060639558
 20
3.7034116173
 30
0.0
 10
5.3984785706
 20
3.7127560448
 30
0.0
 10
5.3913936543
 20
3.7223284932
 30
0.0
 10
5.3848210075
 20
3.7321136576
 30
0.0
 10
5.3787719998
 20
3.742095663
 30
0.0
 10
5.3732558377
 20
3.752257787
 30
0.0
 10
5.3682823335
 20
3.7625833055
 30
0.0
 10
5.3653224281
 20
3.7695923078
 30
0.0
 10
5.3639372212
 20
3.7731165937
 30
0.0
 11
6.045634474
 21
3.7834168224
 31
0.0
 11
6.0373258607
 21
3.7623633613
 31
0.0
 11
6.0268172117
 21
3.7418950084
 31
0.0
 11
6.0207591671
 21
3.731922499
 31
0.0
 11
6.0141779698
 21
3.7221464609
 31
0.0
 11
5.9994911227
 21
3.7032474052
 31
0.0
 11
5.9828530706
 21
3.6853223863
 31
0.0
 11
5.9738362996
 21
3.6767621333
 31
0.0
 11
5.9643735691
 21
3.6684891713
 31
0.0
 11
5.9441741566
 21
3.652858438
 31
0.0
 11
5.933470409
 21
3.6455266201
 31
0.0
 11
5.9223874602
 21
3.6385332215
 31
0.0
 11
5.8991569889
 21
3.6256076414
 31
0.0
 11
5.8746356279
 21
3.6141665907
 31
0.0
 11
5.8619408341
 21
3.6090268511
 31
0.0
 11
5.8489845007
 21
3.6042855376
 31
0.0
 11
5.8223724034
 21
3.5960294937
 31
0.0
 11
5.7949744965
 21
3.5894525394
 31
0.0
 11
5.7669709085
 21
3.5845980732
 31
0.0
 11
5.7385458536
 21
3.581498201
 31
0.0
 11
5.7098863829
 21
3.580173037
 31
0.0
 11
5.6811809659
 21
3.5806313209
 31
0.0
 11
5.6526184663
 21
3.5828703097
 31
0.0
 11
5.6243867868
 21
3.5868750508
 31
0.0
 11
5.5966715669
 21
3.5926191065
 31
0.0
 11
5.583064847
 21
3.5961322107
 31
0.0
 11
5.5696552078
 21
3.6000649504
 31
0.0
 11
5.5435154541
 21
3.6091635264
 31
0.0
 11
5.5184241162
 21
3.6198547947
 31
0.0
 11
5.5063235775
 21
3.6257762536
 31
0.0
 11
5.4945463356
 21
3.6320686008
 31
0.0
 11
5.4720393169
 21
3.6457246755
 31
0.0
 11
5.4613463021
 21
3.6530656771
 31
0.0
 11
5.4510508931
 21
3.6607329677
 31
0.0
 11
5.431719147
 21
3.6769948218
 31
0.0
 11
5.4141715142
 21
3.6944034129
 31
0.0
 11
5.4061030861
 21
3.7035021015
 31
0.0
 11
5.3985231874
 21
3.7128440717
 31
0.0
 11
5.391443889
 21
3.7224137505
 31
0.0
 11
5.3848770043
 21
3.7321954338
 31
0.0
 11
5.3788335502
 21
3.7421731375
 31
0.0
 11
5.3733230539
 21
3.752330353
 31
0.0
 11
5.3683548529
 21
3.762650504
 31
0.0
 11
5.3639372212
 21
3.7731165937
 31
0.0
  0
SPLINE
  5
244
100
AcDbEntity
  8
0
100
AcDbSpline
 62
6
  6
CONTINUOUS
 70
0
 71
3
 72
15
 73
11
 74
9
 42
0.0000001
 43
0.0000001
 44
0.0000000001
 12
0.0
 22
0.0619628519
 32
0.0
 13
-0.0302781828
 23
0.0540613232
 33
0.0
 40
0.0
 40
0.0
 40
0.0
 40
0.0
 40
0.1227326533
 40
0.2457568174
 40
0.3692319088
 40
0.4933327343
 40
0.6182684895
 40
0.7442424273
 40
0.8714358878
 40
1.0
 40
1.0
 40
1.0
 40
1.0
 10
5.8989053009
 20
3.8512999319
 30
0.0
 10
5.8989053009
 20
3.853834887
 30
0.0
 10
5.8987367793
 20
3.8589124022
 30
0.0
 10
5.8979814243
 20
3.8665063766
 30
0.0
 10
5.8967249391
 20
3.8740626506
 30
0.0
 10
5.8949693571
 20
3.8815591634
 30
0.0
 10
5.8927207806
 20
3.8889766541
 30
0.0
 10
5.8899844826
 20
3.8962965936
 30
0.0
 10
5.886767604
 20
3.90350009
 30
0.0
 10
5.8843223068
 20
3.9081867786
 30
0.0
 10
5.8830247443
 20
3.9105035606
 30
0.0
 11
5.8989053009
 21
3.8512999319
 31
0.0
 11
5.8986536186
 21
3.8589006313
 31
0.0
 11
5.8978997852
 21
3.8664861944
 31
0.0
 11
5.8966456242
 21
3.8740335697
 31
0.0
 11
5.8948939351
 21
3.8815210369
 31
0.0
 11
5.8926498116
 21
3.8889300049
 31
0.0
 11
5.8899187046
 21
3.8962423285
 31
0.0
 11
5.8867074271
 21
3.9034396966
 31
0.0
 11
5.8830247443
 21
3.9105035606
 31
0.0
  0
SPLINE
  5
245
100
AcDbEntity
  8
0
100
AcDbSpline
 62
6
  6
CONTINUOUS
 70
0
 71
3
 72
15
 73
11
 74
9
 42
0.0000001
 43
0.0000001
 44
0.0000000001
 12
-0.0290608887
 22
-0.053161956
 32
0.0
 13
0.0
 23
-0.06058654
 33
0.0
 40
0.0
 40
0.0
 40
0.0
 40
0.0
 40
0.1284273151
 40
0.2555335469
 40
0.3814664544
 40
0.5064035008
 40
0.6305406193
 40
0.7540776691
 40
0.8771798658
 40
1.0
 40
1.0
 40
1.0
 40
1.0
 10
5.5221191861
 20
3.909298762
 30
0.0
 10
5.5208751155
 20
3.9070229462
 30
0.0
 10
5.5185310317
 20
3.9024214214
 30
0.0
 10
5.5154487294
 20
3.8953561057
 30
0.0
 10
5.512827633
 20
3.8881815874
 30
0.0
 10
5.5106740132
 20
3.8809156475
 30
0.0
 10
5.5089928848
 20
3.873575587
 30
0.0
 10
5.5077898585
 20
3.8661795702
 30
0.0
 10
5.5070666349
 20
3.8587483603
 30
0.0
 10
5.5069053009
 20
3.8537803476
 30
0.0
 10
5.5069053009
 20
3.8512999319
 30
0.0
 11
5.5221191861
 21
3.909298762
 31
0.0
 11
5.5185894712
 21
3.9023644592
 31
0.0
 11
5.5155123919
 21
3.8953050077
 31
0.0
 11
5.5128960606
 21
3.8881377728
 31
0.0
 11
5.5107465731
 21
3.8808798747
 31
0.0
 11
5.5090690172
 21
3.873548311
 31
0.0
 11
5.5078680898
 21
3.8661606021
 31
0.0
 11
5.5071462823
 21
3.8587372758
 31
0.0
 11
5.5069053009
 21
3.8512999319
 31
0.0
  0
SPLINE
  5
246
100
AcDbEntity
  8
0
100
AcDbSpline
 62
6
  6
CONTINUOUS
 70
0
 71
3
 72
23
 73
19
 74
17
 42
0.0000001
 43
0.0000001
 44
0.0000000001
 12
-0.2211610309
 22
0.360219913
 32
0.0
 13
-0.4226227942
 23
-0.007782106
 33
0.0
 40
0.0
 40
0.0
 40
0.0
 40
0.0
 40
0.0548326401
 40
0.1107396636
 40
0.1677845109
 40
0.2260025563
 40
0.2854053118
 40
0.3459786633
 40
0.4076878637
 40
0.4704761343
 40
0.534270274
 40
0.5989807908
 40
0.6645049941
 40
0.7307239863
 40
0.7975130568
 40
0.864753697
 40
0.9323124817
 40
1.0
 40
1.0
 40
1.0
 40
1.0
 10
6.0587571579
 20
3.772627987
 30
0.0
 10
6.0547148768
 20
3.7792119233
 30
0.0
 10
6.0459757198
 20
3.7921638595
 30
0.0
 10
6.0311824478
 20
3.8106345406
 30
0.0
 10
6.0146572493
 20
3.8282339593
 30
0.0
 10
5.9964937402
 20
3.8448723836
 30
0.0
 10
5.9767854022
 20
3.8604611904
 30
0.0
 10
5.9556392731
 20
3.8749238585
 30
0.0
 10
5.9331639044
 20
3.8881827401
 30
0.0
 10
5.9094787914
 20
3.9001741264
 30
0.0
 10
5.8847048714
 20
3.9108332972
 30
0.0
 10
5.8589714427
 20
3.9201100383
 30
0.0
 10
5.8324097391
 20
3.9279533775
 30
0.0
 10
5.8051575536
 20
3.934328364
 30
0.0
 10
5.7773516889
 20
3.9391994551
 30
0.0
 10
5.7491312834
 20
3.9425450965
 30
0.0
 10
5.7206445467
 20
3.9443446408
 30
0.0
 10
5.7015782564
 20
3.9445121242
 30
0.0
 10
5.692042827
 20
3.9443365404
 30
0.0
 11
6.0587571579
 21
3.772627987
 31
0.0
 11
6.0458093099
 21
3.7918516056
 31
0.0
 11
6.0310510327
 21
3.8103081816
 31
0.0
 11
6.0145602542
 21
3.8278999066
 31
0.0
 11
5.9964264599
 21
3.8445354415
 31
0.0
 11
5.9767446244
 21
3.8601270415
 31
0.0
 11
5.9556198495
 21
3.8745945797
 31
0.0
 11
5.9331619699
 21
3.8878620505
 31
0.0
 11
5.9094895159
 21
3.8998620479
 31
0.0
 11
5.8847247705
 21
3.9105317101
 31
0.0
 11
5.8589964332
 21
3.9198175587
 31
0.0
 11
5.8324364671
 21
3.9276709842
 31
0.0
 11
5.8051834429
 21
3.9340533934
 31
0.0
 11
5.777376667
 21
3.9389312399
 31
0.0
 11
5.7491525379
 21
3.9422812431
 31
0.0
 11
5.720652862
 21
3.944085369
 31
0.0
 11
5.692042827
 21
3.9443365404
 31
0.0
  0
SPLINE
  5
247
100
AcDbEntity
  8
0
100
AcDbSpline
 62
9
  6
CONTINUOUS
 70
0
 71
3
 72
15
 73
11
 74
9
 42
0.0000001
 43
0.0000001
 44
0.0000000001
 12
0.0
 22
0.1711990344
 32
0.0
 13
0.1011931424
 23
0.1380907575
 33
0.0
 40
0.0
 40
0.0
 40
0.0
 40
0.0
 40
0.1215776157
 40
0.243508465
 40
0.3661315091
 40
0.4897716302
 40
0.6147269384
 40
0.741267307
 40
0.8696265136
 40
1.0
 40
1.0
 40
1.0
 40
1.0
 10
5.277978894
 20
3.6295382066
 30
0.0
 10
5.277978894
 20
3.6364761967
 30
0.0
 10
5.2785599459
 20
3.6503792814
 30
0.0
 10
5.2811697966
 20
3.671132444
 30
0.0
 10
5.2855074718
 20
3.6917157524
 30
0.0
 10
5.2915546666
 20
3.7120423295
 30
0.0
 10
5.2992858783
 20
3.7320290392
 30
0.0
 10
5.3086692227
 20
3.7515938939
 30
0.0
 10
5.3196647217
 20
3.7706557276
 30
0.0
 10
5.3279734399
 20
3.7828794619
 30
0.0
 10
5.3323710742
 20
3.7888805864
 30
0.0
 11
5.277978894
 21
3.6295382066
 31
0.0
 11
5.2788469461
 21
3.6503340679
 31
0.0
 11
5.2814477178
 21
3.6710458613
 31
0.0
 11
5.2857708122
 21
3.6915888569
 31
0.0
 11
5.291798829
 21
3.7118794419
 31
0.0
 11
5.2995073423
 21
3.7318345476
 31
0.0
 11
5.3088653316
 21
3.7513726929
 31
0.0
 11
5.3198348044
 21
3.7704139657
 31
0.0
 11
5.3323710742
 21
3.7888805864
 31
0.0
  0
SPLINE
  5
248
100
AcDbEntity
  8
0
100
AcDbSpline
 62
9
  6
CONTINUOUS
 70
0
 71
3
 72
58
 73
54
 74
52
 42
0.0000001
 43
0.0000001
 44
0.0000000001
 12
0.5517209004
 22
0.7528924913
 32
0.0
 13
0.2859757346
 23
-0.888516142
 33
0.0
 40
0.0
 40
0.0
 40
0.0
 40
0.0
 40
0.028402264
 40
0.0573774325
 40
0.0869430587
 40
0.1019511503
 40
0.1171069777
 40
0.1324089664
 40
0.147854601
 40
0.1634408047
 40
0.1791640034
 40
0.1950197553
 40
0.2110029078
 40
0.2271078909
 40
0.2433287284
 40
0.2596586996
 40
0.2760905899
 40
0.2926168968
 40
0.3092298066
 40
0.3259209632
 40
0.3426817054
 40
0.3763728458
 40
0.393288392
 40
0.4102367418
 40
0.4441899317
 40
0.4611788154
 40
0.4781616535
 40
0.5120667716
 40
0.5458318366
 40
0.5793817848
 40
0.5960555389
 40
0.6126490786
 40
0.6455592127
 40
0.6780550329
 40
0.7100821527
 40
0.7415949771
 40
0.757148835
 40
0.7725613592
 40
0.7878296067
 40
0.802951229
 40
0.817924882
 40
0.8327500527
 40
0.8474268238
 40
0.8619560795
 40
0.8763398961
 40
0.8905811175
 40
0.9046833087
 40
0.9186511301
 40
0.9324901988
 40
0.9462068415
 40
0.9732959898
 40
0.9866922579
 40
1.0
 40
1.0
 40
1.0
 40
1.0
 10
5.3323710742
 20
3.7888805864
 30
0.0
 10
5.3375944484
 20
3.7960085369
 30
0.0
 10
5.3487583304
 20
3.8099697183
 30
0.0
 10
5.3673059286
 20
3.8296962164
 30
0.0
 10
5.3842355414
 20
3.845128045
 30
0.0
 10
5.3986412188
 20
3.8568736139
 30
0.0
 10
5.4099246503
 20
3.8654109315
 30
0.0
 10
5.4216158809
 20
3.8736193392
 30
0.0
 10
5.433698346
 20
3.8814882565
 30
0.0
 10
5.4461552494
 20
3.8890065937
 30
0.0
 10
5.4589698029
 20
3.896163034
 30
0.0
 10
5.4721238174
 20
3.9029481427
 30
0.0
 10
5.4855986961
 20
3.9093529762
 30
0.0
 10
5.4993758366
 20
3.9153684192
 30
0.0
 10
5.5134364563
 20
3.920985227
 30
0.0
 10
5.5277606269
 20
3.9261963974
 30
0.0
 10
5.5423282759
 20
3.9309950146
 30
0.0
 10
5.557119317
 20
3.9353740323
 30
0.0
 10
5.5721133224
 20
3.93932663
 30
0.0
 10
5.5872893869
 20
3.9428482725
 30
0.0
 10
5.6077716629
 20
3.9469696956
 30
0.0
 10
5.6284960148
 20
3.9501991485
 30
0.0
 10
5.6493869243
 20
3.9525343587
 30
0.0
 10
5.6704176291
 20
3.9542751385
 30
0.0
 10
5.6915379251
 20
3.9551100319
 30
0.0
 10
5.7126738829
 20
3.9550398812
 30
0.0
 10
5.7337845077
 20
3.9543666982
 30
0.0
 10
5.7600650044
 20
3.9523962514
 30
0.0
 10
5.7912993524
 20
3.9482388842
 30
0.0
 10
5.816974292
 20
3.9432863526
 30
0.0
 10
5.8371951401
 20
3.9384472435
 30
0.0
 10
5.8570706297
 20
3.9330597999
 30
0.0
 10
5.8813852475
 20
3.9252768041
 30
0.0
 10
5.9096520088
 20
3.9142696356
 30
0.0
 10
5.9367710204
 20
3.9016768632
 30
0.0
 10
5.9583852417
 20
3.8898701594
 30
0.0
 10
5.9749511409
 20
3.8796923991
 30
0.0
 10
5.9869443361
 20
3.871743598
 30
0.0
 10
5.998542362
 20
3.8634579146
 30
0.0
 10
6.0097286119
 20
3.8548460429
 30
0.0
 10
6.020487532
 20
3.8459201885
 30
0.0
 10
6.0308046589
 20
3.8366933762
 30
0.0
 10
6.0406654738
 20
3.8271783295
 30
0.0
 10
6.0500554866
 20
3.817387634
 30
0.0
 10
6.0589621872
 20
3.8073355242
 30
0.0
 10
6.067373479
 20
3.7970362167
 30
0.0
 10
6.0752770671
 20
3.7865035407
 30
0.0
 10
6.0826618995
 20
3.7757523425
 30
0.0
 10
6.0895185299
 20
3.7647974744
 30
0.0
 10
6.0979064695
 20
3.750004271
 30
0.0
 10
6.1052502175
 20
3.7347927081
 30
0.0
 10
6.1114766803
 20
3.7192524802
 30
0.0
 10
6.1142084122
 20
3.7114018677
 30
0.0
 10
6.1154769759
 20
3.7074604865
 30
0.0
 11
5.3323710742
 21
3.7888805864
 31
0.0
 11
5.3489106307
 21
3.8095992956
 31
0.0
 11
5.3674216392
 21
3.8293174022
 31
0.0
 11
5.3878021393
 21
3.8479241655
 31
0.0
 11
5.3986577966
 21
3.8567783137
 31
0.0
 11
5.409937535
 21
3.865315951
 31
0.0
 11
5.4216255817
 21
3.8735252065
 31
0.0
 11
5.4337051974
 21
3.8813949761
 31
0.0
 11
5.4461596107
 21
3.888914181
 31
0.0
 11
5.4589719115
 21
3.8960718876
 31
0.0
 11
5.4721240379
 21
3.9028583682
 31
0.0
 11
5.4855973573
 21
3.9092644924
 31
0.0
 11
5.4993732332
 21
3.915281134
 31
0.0
 11
5.5134328208
 21
3.9208994619
 31
0.0
 11
5.527756279
 21
3.9261120574
 31
0.0
 11
5.5423234687
 21
3.9309119244
 31
0.0
 11
5.5571142504
 21
3.9352920674
 31
0.0
 11
5.5721082366
 21
3.9392460118
 31
0.0
 11
5.5872843334
 21
3.9427687657
 31
0.0
 11
5.602621322
 21
3.945855599
 31
0.0
 11
5.6336928565
 21
3.9507034417
 31
0.0
 11
5.649384101
 21
3.9524580339
 31
0.0
 11
5.6651498277
 21
3.9537631901
 31
0.0
 11
5.6968170605
 21
3.9550169856
 31
0.0
 11
5.7126744655
 21
3.9549643889
 31
0.0
 11
5.7285182504
 21
3.9544588137
 31
0.0
 11
5.7600766968
 21
3.9520906829
 31
0.0
 11
5.7913168965
 21
3.9479269864
 31
0.0
 11
5.8220645506
 21
3.9419896385
 31
0.0
 11
5.8372002544
 21
3.9383663381
 31
0.0
 11
5.8521489441
 21
3.9343129963
 31
0.0
 11
5.8814020064
 21
3.9249384778
 31
0.0
 11
5.9096614747
 21
3.913919574
 31
0.0
 11
5.9367691651
 21
3.9013164459
 31
0.0
 11
5.962574852
 21
3.8872004444
 31
0.0
 11
5.9749437394
 21
3.8795988709
 31
0.0
 11
5.9869339144
 21
3.8716492847
 31
0.0
 11
5.9985286512
 21
3.8633628064
 31
0.0
 11
6.0097113003
 21
3.8547506168
 31
0.0
 11
6.0204663799
 21
3.8458248162
 31
0.0
 11
6.0307793198
 21
3.8365982228
 31
0.0
 11
6.0406355738
 21
3.827083674
 31
0.0
 11
6.0500209203
 21
3.8172941875
 31
0.0
 11
6.0589227246
 21
3.8072436653
 31
0.0
 11
6.0673288368
 21
3.7969462791
 31
0.0
 11
6.0752271691
 21
3.7864162261
 31
0.0
 11
6.0826068161
 21
3.7756681862
 31
0.0
 11
6.0894579333
 21
3.7647172726
 31
0.0
 11
6.0957707575
 21
3.7535786284
 31
0.0
 11
6.1067476419
 21
3.7308004525
 31
0.0
 11
6.1113965281
 21
3.7191926476
 31
0.0
 11
6.1154769759
 21
3.7074604865
 31
0.0
  0
SPLINE
  5
249
100
AcDbEntity
  8
0
100
AcDbSpline
 62
9
  6
CONTINUOUS
 70
0
 71
3
 72
11
 73
7
 74
5
 42
0.0000001
 43
0.0000001
 44
0.0000000001
 12
0.0242641635
 22
-0.075387868
 32
0.0
 13
-0.0
 23
-0.0791964663
 33
0.0
 40
0.0
 40
0.0
 40
0.0
 40
0.0
 40
0.2521933751
 40
0.5025211417
 40
0.7515842947
 40
1.0
 40
1.0
 40
1.0
 40
1.0
 10
6.1154769759
 20
3.7074604865
 30
0.0
 10
6.1175167297
 20
3.7011230462
 30
0.0
 10
6.1211054764
 20
3.6883358971
 30
0.0
 10
6.1249813401
 20
3.6688575028
 30
0.0
 10
6.1273127661
 20
3.6492347594
 30
0.0
 10
6.1278317078
 20
3.6360960886
 30
0.0
 10
6.1278317078
 20
3.6295382066
 30
0.0
 11
6.1154769759
 21
3.7074604865
 31
0.0
 11
6.1208676242
 21
3.6882288819
 31
0.0
 11
6.1247319762
 21
3.6687840789
 31
0.0
 11
6.1270561024
 21
3.6491965581
 31
0.0
 11
6.1278317078
 21
3.6295382066
 31
0.0
  0
SPLINE
  5
24A
100
AcDbEntity
  8
0
100
AcDbSpline
 62
9
  6
CONTINUOUS
 70
0
 71
3
 72
37
 73
33
 74
31
 42
0.0000001
 43
0.0000001
 44
0.0000000001
 12
0.5730954611
 22
0.0118166396
 32
0.0
 13
0.0
 23
-0.5732172716
 33
0.0
 40
0.0
 40
0.0
 40
0.0
 40
0.0
 40
0.0351531613
 40
0.070308916
 40
0.1054150252
 40
0.1404257213
 40
0.210020279
 40
0.2445559909
 40
0.2788699296
 40
0.3466953849
 40
0.3801671004
 40
0.4133075053
 40
0.4460958124
 40
0.478513574
 40
0.5105452056
 40
0.5421792854
 40
0.5734072463
 40
0.6042244114
 40
0.6346305434
 40
0.6646287707
 40
0.6942272239
 40
0.7234383348
 40
0.7522787772
 40
0.7807701598
 40
0.8089379935
 40
0.8368122081
 40
0.8644263795
 40
0.891817922
 40
0.9190271045
 40
0.9460965857
 40
0.9730726921
 40
1.0
 40
1.0
 40
1.0
 40
1.0
 10
5.692042827
 20
3.9443365404
 30
0.0
 10
5.6987581994
 20
3.9444750045
 30
0.0
 10
5.7121961787
 20
3.9444943313
 30
0.0
 10
5.7323290418
 20
3.9437542075
 30
0.0
 10
5.7523924924
 20
3.9422460087
 30
0.0
 10
5.7789203037
 20
3.9392200978
 30
0.0
 10
5.805148241
 20
3.9346784222
 30
0.0
 10
5.8309056588
 20
3.9286272616
 30
0.0
 10
5.8560756458
 20
3.9216459162
 30
0.0
 10
5.880613301
 20
3.9132125209
 30
0.0
 10
5.9043385369
 20
3.9033506169
 30
0.0
 10
5.9215551108
 20
3.8953164764
 30
0.0
 10
5.9382272224
 20
3.8866344523
 30
0.0
 10
5.9543140529
 20
3.8773261861
 30
0.0
 10
5.9697743341
 20
3.8674131769
 30
0.0
 10
5.9845705671
 20
3.8569217837
 30
0.0
 10
5.9986655375
 20
3.8458775044
 30
0.0
 10
6.0120232574
 20
3.8343069669
 30
0.0
 10
6.024611682
 20
3.8222405552
 30
0.0
 10
6.0363981897
 20
3.8097070132
 30
0.0
 10
6.0473536371
 20
3.7967380179
 30
0.0
 10
6.0574511999
 20
3.7833662092
 30
0.0
 10
6.0666645149
 20
3.7696240278
 30
0.0
 10
6.0749718425
 20
3.7555465486
 30
0.0
 10
6.0823511561
 20
3.7411680261
 30
0.0
 10
6.0887850166
 20
3.7265248842
 30
0.0
 10
6.0942563599
 20
3.7116532067
 30
0.0
 10
6.0987520839
 20
3.6965904082
 30
0.0
 10
6.1022603746
 20
3.6813741219
 30
0.0
 10
6.1047727329
 20
3.6660421503
 30
0.0
 10
6.1062825663
 20
3.6506339147
 30
0.0
 10
6.1066185043
 20
3.6403313165
 30
0.0
 10
6.1066185043
 20
3.6351862505
 30
0.0
 11
5.692042827
 21
3.9443365404
 31
0.0
 11
5.7121932046
 21
3.9443660978
 31
0.0
 11
5.7323314715
 21
3.9436253519
 31
0.0
 11
5.7523981985
 21
3.9421157731
 31
0.0
 11
5.7723375311
 21
3.939840434
 31
0.0
 11
5.8116428452
 21
3.9330192921
 31
0.0
 11
5.8309141813
 21
3.9284898671
 31
0.0
 11
5.8498670937
 21
3.923229626
 31
0.0
 11
5.8866266024
 21
3.9105689156
 31
0.0
 11
5.9043419487
 21
3.9032006868
 31
0.0
 11
5.9215547919
 21
3.8951638445
 31
0.0
 11
5.938222671
 21
3.8864789603
 31
0.0
 11
5.9543040101
 21
3.8771678433
 31
0.0
 11
5.9697580396
 21
3.8672530869
 31
0.0
 11
5.9845469024
 21
3.8567601125
 31
0.0
 11
5.9986334181
 21
3.8457149945
 31
0.0
 11
6.0119820416
 21
3.8341450314
 31
0.0
 11
6.0245602
 21
3.8220797453
 31
0.0
 11
6.0363358489
 21
3.8095490078
 31
0.0
 11
6.0472798912
 21
3.7965842561
 31
0.0
 11
6.0573653793
 21
3.7832180691
 31
0.0
 11
6.0665667894
 21
3.769483595
 31
0.0
 11
6.0748619072
 21
3.7554152915
 31
0.0
 11
6.0822297415
 21
3.7410480489
 31
0.0
 11
6.0886524872
 21
3.7264177987
 31
0.0
 11
6.0941139519
 21
3.711560911
 31
0.0
 11
6.0986009256
 21
3.6965143814
 31
0.0
 11
6.102102192
 21
3.6813156817
 31
0.0
 11
6.1046092163
 21
3.6660028561
 31
0.0
 11
6.1061158848
 21
3.6506132629
 31
0.0
 11
6.1066185043
 21
3.6351862505
 31
0.0
  0
SPLINE
  5
24B
100
AcDbEntity
  8
0
100
AcDbSpline
 62
6
  6
CONTINUOUS
 70
0
 71
3
 72
49
 73
45
 74
43
 42
0.0000001
 43
0.0000001
 44
0.0000000001
 12
0.0303182096
 22
-0.0286139777
 32
0.0
 13
-0.04160852
 23
0.0025854632
 33
0.0
 40
0.0
 40
0.0
 40
0.0
 40
0.0
 40
0.1230601674
 40
0.1847382452
 40
0.2465144364
 40
0.3083883548
 40
0.3703596527
 40
0.4324280536
 40
0.4945934331
 40
0.5568559726
 40
0.5880239435
 40
0.6192166179
 40
0.6504343286
 40
0.6816776015
 40
0.7129472695
 40
0.74424469
 40
0.7755721609
 40
0.7912485786
 40
0.8069343694
 40
0.8226307291
 40
0.8383394139
 40
0.8540630035
 40
0.8698065181
 40
0.885575983
 40
0.8934759331
 40
0.9013924185
 40
0.909327156
 40
0.9172835129
 40
0.9212766331
 40
0.9252862676
 40
0.9293217058
 40
0.9333851589
 40
0.9374714731
 40
0.9416169508
 40
0.9458807709
 40
0.9501870614
 40
0.9544494548
 40
0.9586767103
 40
0.9629490623
 40
0.967250897
 40
0.9756240395
 40
0.983788594
 40
0.9919109767
 40
1.0
 40
1.0
 40
1.0
 40
1.0
 10
5.4168973274
 20
3.4169189753
 30
0.0
 10
5.4181409821
 20
3.4157452283
 30
0.0
 10
5.4200139048
 20
3.4139894884
 30
0.0
 10
5.4225218911
 20
3.4116560498
 30
0.0
 10
5.4244107808
 20
3.4099054429
 30
0.0
 10
5.4263048833
 20
3.4081544713
 30
0.0
 10
5.4282027243
 20
3.4064015627
 30
0.0
 10
5.4301024348
 20
3.4046447083
 30
0.0
 10
5.4320015474
 20
3.402881252
 30
0.0
 10
5.4335802583
 20
3.4014038109
 30
0.0
 10
5.4348388331
 20
3.4002142229
 30
0.0
 10
5.4357800962
 20
3.3993169785
 30
0.0
 10
5.4367172998
 20
3.3984139815
 30
0.0
 10
5.4376491231
 20
3.3975038952
 30
0.0
 10
5.4385738247
 20
3.3965849885
 30
0.0
 10
5.4394890114
 20
3.3956549487
 30
0.0
 10
5.4402407396
 20
3.3948681895
 30
0.0
 10
5.440833015
 20
3.3942293282
 30
0.0
 10
5.4412718426
 20
3.3937444678
 30
0.0
 10
5.4417039571
 20
3.3932530066
 30
0.0
 10
5.4421277254
 20
3.3927536244
 30
0.0
 10
5.4425408355
 20
3.3922445083
 30
0.0
 10
5.4429399401
 20
3.3917232393
 30
0.0
 10
5.4432562556
 20
3.3912758536
 30
0.0
 10
5.4434947988
 20
3.3909073349
 30
0.0
 10
5.4436650035
 20
3.3906244661
 30
0.0
 10
5.4438234813
 20
3.3903339159
 30
0.0
 10
5.4439414515
 20
3.3900837834
 30
0.0
 10
5.444024323
 20
3.389878012
 30
0.0
 10
5.4440796405
 20
3.3897200642
 30
0.0
 10
5.4441271393
 20
3.3895585689
 30
0.0
 10
5.4441650075
 20
3.3893933556
 30
0.0
 10
5.4441863373
 20
3.38922343
 30
0.0
 10
5.4441840573
 20
3.3890491001
 30
0.0
 10
5.4441520118
 20
3.3888744267
 30
0.0
 10
5.4440897036
 20
3.3887063429
 30
0.0
 10
5.443995287
 20
3.3885537617
 30
0.0
 10
5.4438664077
 20
3.3884295385
 30
0.0
 10
5.4437153901
 20
3.3883338839
 30
0.0
 10
5.4434995695
 20
3.3882382609
 30
0.0
 10
5.443217962
 20
3.3881633884
 30
0.0
 10
5.4428766342
 20
3.3881263989
 30
0.0
 10
5.4425377846
 20
3.3881173659
 30
0.0
 10
5.4423125147
 20
3.3881256871
 30
0.0
 10
5.442200324
 20
3.3881326584
 30
0.0
 11
5.4168973274
 21
3.4169189753
 31
0.0
 11
5.4206391252
 21
3.4134092489
 31
0.0
 11
5.4225214582
 21
3.4116575869
 31
0.0
 11
5.4244101546
 21
3.4099067659
 31
0.0
 11
5.4263040154
 21
3.4081555261
 31
0.0
 11
5.4282015492
 21
3.4064022791
 31
0.0
 11
5.4301008519
 21
3.4046449825
 31
0.0
 11
5.4319994124
 21
3.402880939
 31
0.0
 11
5.4338937931
 21
3.4011064774
 31
0.0
 11
5.4348379529
 21
3.4002137938
 31
0.0
 11
5.4357790426
 21
3.3993163811
 31
0.0
 11
5.4367160202
 21
3.3984131714
 31
0.0
 11
5.4376475434
 21
3.3975028121
 31
0.0
 11
5.4385718293
 21
3.3965835446
 31
0.0
 11
5.439486427
 21
3.3956530145
 31
0.0
 11
5.4403878081
 21
3.3947079442
 31
0.0
 11
5.4408319658
 21
3.3942285423
 31
0.0
 11
5.4412705762
 21
3.3937435331
 31
0.0
 11
5.4417023969
 21
3.3932518824
 31
0.0
 11
5.4421257471
 21
3.3927522457
 31
0.0
 11
5.442538243
 21
3.392242811
 31
0.0
 11
5.4429363908
 21
3.3917210406
 31
0.0
 11
5.4433144394
 21
3.3911832054
 31
0.0
 11
5.4434931506
 21
3.390906571
 31
0.0
 11
5.4436628581
 21
3.3906235194
 31
0.0
 11
5.4438204699
 21
3.3903326927
 31
0.0
 11
5.443961044
 21
3.3900322635
 31
0.0
 11
5.4440230466
 21
3.3898777729
 31
0.0
 11
5.4440781782
 21
3.3897199696
 31
0.0
 11
5.4441253906
 21
3.3895584977
 31
0.0
 11
5.4441621549
 21
3.3893931349
 31
0.0
 11
5.4441823455
 21
3.3892239822
 31
0.0
 11
5.4441793016
 21
3.3890511892
 31
0.0
 11
5.4441471648
 21
3.388876365
 31
0.0
 11
5.4440840299
 21
3.3887083089
 31
0.0
 11
5.4439892068
 21
3.3885580301
 31
0.0
 11
5.4438632927
 21
3.3884347324
 31
0.0
 11
5.4437137414
 21
3.3883379996
 31
0.0
 11
5.4435502803
 21
3.3882642251
 31
0.0
 11
5.4432137521
 21
3.3881715113
 31
0.0
 11
5.4428758063
 21
3.3881309582
 31
0.0
 11
5.4425373421
 21
3.3881209505
 31
0.0
 11
5.442200324
 21
3.3881326584
 31
0.0
  0
SPLINE
  5
24C
100
AcDbEntity
  8
0
100
AcDbSpline
 62
9
  6
CONTINUOUS
 70
0
 71
3
 72
54
 73
50
 74
48
 42
0.0000001
 43
0.0000001
 44
0.0000000001
 12
0.0
 22
-0.8677562576
 32
0.0
 13
-0.6878981402
 23
0.5289584779
 33
0.0
 40
0.0
 40
0.0
 40
0.0
 40
0.0
 40
0.0131251345
 40
0.0262640025
 40
0.0394274992
 40
0.0526283163
 40
0.0658786435
 40
0.0791898781
 40
0.1060314532
 40
0.133241779
 40
0.1470109536
 40
0.1608976725
 40
0.17490871
 40
0.18905015
 40
0.2177378503
 40
0.2469973791
 40
0.2768449756
 40
0.3072839257
 40
0.3383042662
 40
0.3540286251
 40
0.3698894336
 40
0.3858823666
 40
0.4020026703
 40
0.4182448405
 40
0.4346027619
 40
0.4510699732
 40
0.467639647
 40
0.4843043286
 40
0.5010561955
 40
0.5347854128
 40
0.5687626155
 40
0.6029156178
 40
0.6371694641
 40
0.6714477237
 40
0.705673565
 40
0.7227447219
 40
0.739774428
 40
0.7736691716
 40
0.7905200266
 40
0.8072940881
 40
0.8239831661
 40
0.840579365
 40
0.8570751283
 40
0.8734631459
 40
0.8897364265
 40
0.9058890124
 40
0.9378100034
 40
0.969196065
 40
1.0
 40
1.0
 40
1.0
 40
1.0
 10
6.1066185043
 20
3.6351862505
 30
0.0
 10
6.1066185043
 20
3.631389778
 30
0.0
 10
6.1064357236
 20
3.623791597
 30
0.0
 10
6.1056140061
 20
3.6124125817
 30
0.0
 10
6.1042455316
 20
3.6010639911
 30
0.0
 10
6.1023322835
 20
3.5897619134
 30
0.0
 10
6.099876778
 20
3.5785211945
 30
0.0
 10
6.0958739676
 20
3.563596926
 30
0.0
 10
6.0895128306
 20
3.5451483171
 30
0.0
 10
6.0814495599
 20
3.5272343107
 30
0.0
 10
6.0739955816
 20
3.5132189047
 30
0.0
 10
6.0678784762
 20
3.5028299326
 30
0.0
 10
6.0612662527
 20
3.4926205023
 30
0.0
 10
6.0517566761
 20
3.4792037116
 30
0.0
 10
6.038654756
 20
3.4629502991
 30
0.0
 10
6.0211889046
 20
3.4444816178
 30
0.0
 10
6.001998981
 20
3.4270493288
 30
0.0
 10
5.9811891831
 20
3.4107508167
 30
0.0
 10
5.9626755543
 20
3.3982396192
 30
0.0
 10
5.9471758539
 20
3.3888702886
 30
0.0
 10
5.9351661043
 20
3.3821447582
 30
0.0
 10
5.9228415721
 20
3.3757625791
 30
0.0
 10
5.9102183894
 20
3.3697330218
 30
0.0
 10
5.8973139855
 20
3.3640638486
 30
0.0
 10
5.8841460664
 20
3.3587623014
 30
0.0
 10
5.8707323388
 20
3.3538358444
 30
0.0
 10
5.8570908005
 20
3.3492918193
 30
0.0
 10
5.8432400926
 20
3.345135584
 30
0.0
 10
5.8244778253
 20
3.3401071894
 30
0.0
 10
5.8006094187
 20
3.3348297008
 30
0.0
 10
5.7715064108
 20
3.3301376102
 30
0.0
 10
5.7420317554
 20
3.3270993745
 30
0.0
 10
5.7123456351
 20
3.3257285597
 30
0.0
 10
5.6826088615
 20
3.3260355796
 30
0.0
 10
5.6578968083
 20
3.3276871346
 30
0.0
 10
5.6382489728
 20
3.3298453876
 30
0.0
 10
5.6187657621
 20
3.3325493107
 30
0.0
 10
5.5994684091
 20
3.3360772733
 30
0.0
 10
5.5804264818
 20
3.34042659
 30
0.0
 10
5.5663373321
 20
3.3440821524
 30
0.0
 10
5.552433446
 20
3.3481326782
 30
0.0
 10
5.5387337545
 20
3.3525734424
 30
0.0
 10
5.5252567372
 20
3.3573975721
 30
0.0
 10
5.5120207745
 20
3.3625981659
 30
0.0
 10
5.4990438902
 20
3.3681686716
 30
0.0
 10
5.4821787346
 20
3.3760478352
 30
0.0
 10
5.4618280462
 20
3.3867684017
 30
0.0
 10
5.4386203262
 20
3.4010324012
 30
0.0
 10
5.4239606506
 20
3.4114876411
 30
0.0
 10
5.4168973274
 20
3.4169189753
 30
0.0
 11
6.1066185043
 21
3.6351862505
 31
0.0
 11
6.1063447661
 21
3.623800123
 31
0.0
 11
6.1055239402
 21
3.6124283737
 31
0.0
 11
6.1041570822
 21
3.601087742
 31
0.0
 11
6.1022460126
 21
3.5897931885
 31
0.0
 11
6.099793287
 21
3.5785597834
 31
0.0
 11
6.096802184
 21
3.5674028682
 31
0.0
 11
6.0892216216
 21
3.5453790229
 31
0.0
 11
6.0795449837
 21
3.5238410113
 31
0.0
 11
6.0739364695
 21
3.5132908388
 31
0.0
 11
6.0678243024
 21
3.5029057131
 31
0.0
 11
6.0612169163
 21
3.492699664
 31
0.0
 11
6.05412288
 21
3.4826866716
 31
0.0
 11
6.0385145164
 21
3.4632937139
 31
0.0
 11
6.0210833762
 21
3.4448325514
 31
0.0
 11
6.0019246145
 21
3.4274034215
 31
0.0
 11
5.9811414732
 21
3.4111019261
 31
0.0
 11
5.9588478213
 21
3.3960162741
 31
0.0
 11
5.9471717117
 21
3.3889556752
 31
0.0
 11
5.9351640887
 21
3.3822291714
 31
0.0
 11
5.9228412393
 21
3.3758459616
 31
0.0
 11
5.910219557
 21
3.3698151149
 31
0.0
 11
5.8973163385
 21
3.3641446043
 31
0.0
 11
5.8841493344
 21
3.3588418515
 31
0.0
 11
5.8707362988
 21
3.3539142738
 31
0.0
 11
5.8570952203
 21
3.3493688961
 31
0.0
 11
5.8432448422
 21
3.3452114778
 31
0.0
 11
5.8292040597
 21
3.3414475244
 31
0.0
 11
5.8006272183
 21
3.335121132
 31
0.0
 11
5.7715199394
 21
3.3304234242
 31
0.0
 11
5.7420400638
 21
3.3273807333
 31
0.0
 11
5.712347762
 21
3.3260085969
 31
0.0
 11
5.6826041711
 21
3.3263155176
 31
0.0
 11
5.6529707777
 21
3.3282988125
 31
0.0
 11
5.6382457777
 21
3.3299165933
 31
0.0
 11
5.6236085207
 21
3.3319486305
 31
0.0
 11
5.5946768191
 21
3.3372443362
 31
0.0
 11
5.5804216802
 21
3.3405011159
 31
0.0
 11
5.5663326751
 21
3.3441577755
 31
0.0
 11
5.5524289796
 21
3.3482095748
 31
0.0
 11
5.538729635
 21
3.3526514074
 31
0.0
 11
5.5252531625
 21
3.3574767492
 31
0.0
 11
5.5120179573
 21
3.3626787328
 31
0.0
 11
5.499042402
 21
3.3682504841
 31
0.0
 11
5.4863440721
 21
3.3741846987
 31
0.0
 11
5.4618441757
 21
3.3871085182
 31
0.0
 11
5.4386490405
 21
3.401382814
 31
0.0
 11
5.4168973274
 21
3.4169189753
 31
0.0
  0
SPLINE
  5
24D
100
AcDbEntity
  8
0
100
AcDbSpline
 62
9
  6
CONTINUOUS
 70
0
 71
3
 72
68
 73
64
 74
62
 42
0.0000001
 43
0.0000001
 44
0.0000000001
 12
0.0
 22
-1.1838221648
 32
0.0
 13
0.0
 23
1.1838221648
 33
0.0
 40
0.0
 40
0.0
 40
0.0
 40
0.0
 40
0.0134920712
 40
0.0270079474
 40
0.0405689841
 40
0.0541977628
 40
0.067915039
 40
0.0817403929
 40
0.0956920806
 40
0.1097866049
 40
0.1240386631
 40
0.1384609694
 40
0.1530641963
 40
0.1678570216
 40
0.1828456745
 40
0.1980346296
 40
0.2134260258
 40
0.2290198959
 40
0.2448147439
 40
0.2608068749
 40
0.2769909531
 40
0.2933603317
 40
0.309906442
 40
0.3266194633
 40
0.3434885144
 40
0.3605011695
 40
0.3776441076
 40
0.3949032324
 40
0.4297022575
 40
0.4472166295
 40
0.4647830961
 40
0.4823844705
 40
0.5000034209
 40
0.535217504
 40
0.5527839652
 40
0.5702983375
 40
0.6050973542
 40
0.622356478
 40
0.6394994161
 40
0.6565120594
 40
0.6733811094
 40
0.6900941288
 40
0.706640222
 40
0.7230095956
 40
0.7391936636
 40
0.7551857691
 40
0.7709806045
 40
0.78657445
 40
0.8019658105
 40
0.8171547438
 40
0.8321433566
 40
0.8469361391
 40
0.8615393307
 40
0.8759615924
 40
0.890213614
 40
0.9043081013
 40
0.9182597577
 40
0.9320850797
 40
0.9458023267
 40
0.9594310817
 40
0.9729920965
 40
0.9865079421
 40
1.0
 40
1.0
 40
1.0
 40
1.0
 10
6.1278317078
 20
3.6295382066
 30
0.0
 10
6.1278317078
 20
3.6242141356
 30
0.0
 10
6.1274899619
 20
3.6135534569
 30
0.0
 10
6.125953976
 20
3.5976080971
 30
0.0
 10
6.1233979732
 20
3.5817389431
 30
0.0
 10
6.1198283286
 20
3.5659854959
 30
0.0
 10
6.1152535946
 20
3.5503854792
 30
0.0
 10
6.109685114
 20
3.5349766567
 30
0.0
 10
6.1031360043
 20
3.5197964039
 30
0.0
 10
6.0956227938
 20
3.5048810247
 30
0.0
 10
6.0871630334
 20
3.4902667694
 30
0.0
 10
6.0777776471
 20
3.4759885818
 30
0.0
 10
6.0674893179
 20
3.4620806883
 30
0.0
 10
6.0563221969
 20
3.4485771706
 30
0.0
 10
6.044304584
 20
3.4355093156
 30
0.0
 10
6.0314640222
 20
3.4229099496
 30
0.0
 10
6.0178323802
 20
3.410808712
 30
0.0
 10
6.0034430165
 20
3.3992340982
 30
0.0
 10
5.9883293758
 20
3.3882157009
 30
0.0
 10
5.9725291053
 20
3.3777785336
 30
0.0
 10
5.9560802417
 20
3.3679475721
 30
0.0
 10
5.9390215207
 20
3.3587480879
 30
0.0
 10
5.9213950528
 20
3.3502003503
 30
0.0
 10
5.9032430341
 20
3.3423251787
 30
0.0
 10
5.8846085659
 20
3.3351429321
 30
0.0
 10
5.8655374039
 20
3.3286689221
 30
0.0
 10
5.8460746233
 20
3.3229192379
 30
0.0
 10
5.8195960119
 20
3.3162213705
 30
0.0
 10
5.7926003925
 20
3.3110498948
 30
0.0
 10
5.7652606032
 20
3.3074179235
 30
0.0
 10
5.7445587675
 20
3.3054621158
 30
0.0
 10
5.7237566987
 20
3.3042869723
 30
0.0
 10
5.6959627456
 20
3.3037650718
 30
0.0
 10
5.6681708209
 20
3.3048082419
 30
0.0
 10
5.6405495207
 20
3.3074180099
 30
0.0
 10
5.613209363
 20
3.3110500378
 30
0.0
 10
5.5862139067
 20
3.3162215051
 30
0.0
 10
5.5597352946
 20
3.3229194547
 30
0.0
 10
5.5402725055
 20
3.3286690756
 30
0.0
 10
5.5212013798
 20
3.335143185
 30
0.0
 10
5.5025669288
 20
3.3423254527
 30
0.0
 10
5.4844148967
 20
3.3502005772
 30
0.0
 10
5.4667884859
 20
3.3587484125
 30
0.0
 10
5.4497297809
 20
3.367947895
 30
0.0
 10
5.4332809134
 20
3.3777788218
 30
0.0
 10
5.4174807234
 20
3.3882160768
 30
0.0
 10
5.4023670912
 20
3.3992344402
 30
0.0
 10
5.3879777455
 20
3.4108090345
 30
0.0
 10
5.374346201
 20
3.4229103316
 30
0.0
 10
5.3615056338
 20
3.4355096355
 30
0.0
 10
5.349488079
 20
3.4485774908
 30
0.0
 10
5.3383210402
 20
3.4620810137
 30
0.0
 10
5.3280327107
 20
3.4759888473
 30
0.0
 10
5.3186474105
 20
3.4902670365
 30
0.0
 10
5.3101876574
 20
3.5048812416
 30
0.0
 10
5.302674502
 20
3.5197966028
 30
0.0
 10
5.2961254057
 20
3.5349768179
 30
0.0
 10
5.2905569622
 20
3.5503856151
 30
0.0
 10
5.2859822353
 20
3.5659855987
 30
0.0
 10
5.2824126101
 20
3.5817390202
 30
0.0
 10
5.2798566169
 20
3.597608145
 30
0.0
 10
5.2783206385
 20
3.6135534795
 30
0.0
 10
5.277978894
 20
3.6242141408
 30
0.0
 10
5.277978894
 20
3.6295382066
 30
0.0
 11
6.1278317078
 21
3.6295382066
 31
0.0
 11
6.1273203619
 21
3.6135741811
 31
0.0
 11
6.1257874834
 21
3.5976473833
 31
0.0
 11
6.1232367211
 21
3.5817974654
 31
0.0
 11
6.1196740396
 21
3.5660616819
 31
0.0
 11
6.1151078981
 21
3.5504780532
 31
0.0
 11
6.1095492297
 21
3.5350841566
 31
0.0
 11
6.1030111061
 21
3.519917032
 31
0.0
 11
6.0955093719
 21
3.5050131097
 31
0.0
 11
6.0870616713
 21
3.4904084035
 31
0.0
 11
6.0776883914
 21
3.4761380084
 31
0.0
 11
6.0674119337
 21
3.4622363411
 31
0.0
 11
6.0562565825
 21
3.4487370488
 31
0.0
 11
6.0442497991
 21
3.4356724738
 31
0.0
 11
6.0314196792
 21
3.4230746498
 31
0.0
 11
6.017797552
 21
3.4109737952
 31
0.0
 11
6.0034166264
 21
3.3993990725
 31
0.0
 11
5.9883107697
 21
3.3883791279
 31
0.0
 11
5.9725171163
 21
3.3779400165
 31
0.0
 11
5.9560738496
 21
3.3681069619
 31
0.0
 11
5.9390199379
 21
3.3589043659
 31
0.0
 11
5.9213971756
 21
3.350353672
 31
0.0
 11
5.9032479942
 21
3.3424756563
 31
0.0
 11
5.8846156391
 21
3.3352899406
 31
0.0
 11
5.8655455838
 21
3.3288129887
 31
0.0
 11
5.8460836838
 21
3.3230607196
 31
0.0
 11
5.8262765219
 21
3.3180475259
 31
0.0
 11
5.7858190739
 21
3.3102826335
 31
0.0
 11
5.7652659713
 21
3.3075504811
 31
0.0
 11
5.7445626545
 21
3.3055938235
 31
0.0
 11
5.723758959
 21
3.3044180091
 31
0.0
 11
5.7029049383
 21
3.3040260483
 31
0.0
 11
5.6612472181
 21
3.3055938513
 31
0.0
 11
5.6405439128
 21
3.3075505626
 31
0.0
 11
5.6199908154
 21
3.3102827573
 31
0.0
 11
5.579533385
 21
3.3180476884
 31
0.0
 11
5.5597262328
 21
3.3230609157
 31
0.0
 11
5.5402643287
 21
3.3288131709
 31
0.0
 11
5.5211943073
 21
3.3352901793
 31
0.0
 11
5.502561963
 21
3.3424759191
 31
0.0
 11
5.48441278
 21
3.3503539258
 31
0.0
 11
5.4667900657
 21
3.3589046723
 31
0.0
 11
5.4497361675
 21
3.3681072805
 31
0.0
 11
5.4332929111
 21
3.3779403289
 31
0.0
 11
5.4174993212
 21
3.3883794814
 31
0.0
 11
5.4023934784
 21
3.3993994202
 31
0.0
 11
5.3880125834
 21
3.4109741343
 31
0.0
 11
5.3743905302
 21
3.4230750087
 31
0.0
 11
5.361560424
 21
3.4356728096
 31
0.0
 11
5.3495536963
 21
3.4487373715
 31
0.0
 11
5.3383984124
 21
3.4622366537
 31
0.0
 11
5.3281219792
 21
3.4761382868
 31
0.0
 11
5.3187487611
 21
3.4904086594
 31
0.0
 11
5.3103010877
 21
3.5050133314
 31
0.0
 11
5.3027993945
 21
3.5199172253
 31
0.0
 11
5.2962612941
 21
3.5350843196
 31
0.0
 11
5.2907026542
 21
3.5504781863
 31
0.0
 11
5.286136527
 21
3.5660617833
 31
0.0
 11
5.2825738607
 21
3.5817975414
 31
0.0
 11
5.2800231087
 21
3.5976474346
 31
0.0
 11
5.278490238
 21
3.6135741967
 31
0.0
 11
5.277978894
 21
3.6295382066
 31
0.0
  0
SPLINE
  5
24E
100
AcDbEntity
  8
0
100
AcDbSpline
 62
6
  6
CONTINUOUS
 70
0
 71
3
 72
24
 73
20
 74
18
 42
0.0000001
 43
0.0000001
 44
0.0000000001
 12
-0.2531433097
 22
0.1590103509
 32
0.0
 13
0.0000000001
 23
0.2989411764
 33
0.0
 40
0.0
 40
0.0
 40
0.0
 40
0.0
 40
0.0688951538
 40
0.1030017335
 40
0.1368689949
 40
0.2038557912
 40
0.2698500138
 40
0.3348677714
 40
0.3989322871
 40
0.4620728562
 40
0.5243316354
 40
0.5857672138
 40
0.6464495061
 40
0.7064596688
 40
0.7658883386
 40
0.824842163
 40
0.8834403402
 40
0.9417954603
 40
1.0
 40
1.0
 40
1.0
 40
1.0
 10
5.442200324
 20
3.3881326584
 30
0.0
 10
5.4363868749
 20
3.3917843392
 30
0.0
 10
5.4278310747
 20
3.3974647431
 30
0.0
 10
5.4167720763
 20
3.4054485728
 30
0.0
 10
5.4060788211
 20
3.4136065013
 30
0.0
 10
5.39326894
 20
3.4242189377
 30
0.0
 10
5.3787865993
 20
3.4376329127
 30
0.0
 10
5.3652925041
 20
3.4516400312
 30
0.0
 10
5.3528274434
 20
3.466198434
 30
0.0
 10
5.3414286896
 20
3.4812633454
 30
0.0
 10
5.3311335635
 20
3.4967901886
 30
0.0
 10
5.3219717652
 20
3.5127302505
 30
0.0
 10
5.3139739225
 20
3.5290363143
 30
0.0
 10
5.3071628332
 20
3.5456571851
 30
0.0
 10
5.3015608067
 20
3.5625426834
 30
0.0
 10
5.2971851513
 20
3.5796417915
 30
0.0
 10
5.2940497385
 20
3.5969030153
 30
0.0
 10
5.2921656624
 20
3.6142693314
 30
0.0
 10
5.2917453011
 20
3.625888456
 30
0.0
 10
5.2917453011
 20
3.6316883672
 30
0.0
 11
5.442200324
 21
3.3881326584
 31
0.0
 11
5.4250457391
 21
3.3995299778
 31
0.0
 11
5.4167795642
 21
3.4054987243
 31
0.0
 11
5.4087309017
 21
3.4116404558
 31
0.0
 11
5.3933152918
 21
3.4244218513
 31
0.0
 11
5.3788471598
 21
3.4378338813
 31
0.0
 11
5.365368251
 21
3.4518373082
 31
0.0
 11
5.3529186482
 21
3.4663902519
 31
0.0
 11
5.3415365205
 21
3.481447633
 31
0.0
 11
5.3312578003
 21
3.4969635526
 31
0.0
 11
5.3221128966
 21
3.5128904758
 31
0.0
 11
5.3141304992
 21
3.5291802501
 31
0.0
 11
5.3073341484
 21
3.5457825266
 31
0.0
 11
5.3017451494
 21
3.5626461665
 31
0.0
 11
5.2973803545
 21
3.579720834
 31
0.0
 11
5.2942529168
 21
3.5969568056
 31
0.0
 11
5.292372933
 21
3.614299957
 31
0.0
 11
5.2917453011
 21
3.6316883672
 31
0.0
  0
SPLINE
  5
24F
100
AcDbEntity
  8
0
100
AcDbSpline
 62
9
  6
CONTINUOUS
 70
0
 71
3
 72
65
 73
61
 74
59
 42
0.0000001
 43
0.0000001
 44
0.0000000001
 12
-0.107281243
 22
-1.2578180129
 32
0.0
 13
-0.107281243
 23
1.2578180129
 33
0.0
 40
0.0
 40
0.0
 40
0.0
 40
0.0
 40
0.0134488149
 40
0.0269518381
 40
0.0405243166
 40
0.054183677
 40
0.0679484493
 40
0.0818359
 40
0.0958607257
 40
0.1100358053
 40
0.1243726001
 40
0.1388806501
 40
0.1535678826
 40
0.1684405226
 40
0.1835026041
 40
0.1987566464
 40
0.214203444
 40
0.2298418188
 40
0.2616741652
 40
0.2778657316
 40
0.2942295699
 40
0.3107573063
 40
0.3274393297
 40
0.3442652166
 40
0.3612233015
 40
0.378301072
 40
0.3954854122
 40
0.4301112933
 40
0.4475292472
 40
0.4649947959
 40
0.4999999795
 40
0.5350051629
 40
0.5524707119
 40
0.5698886658
 40
0.6045145473
 40
0.6216988877
 40
0.6387766584
 40
0.6557347437
 40
0.6725606307
 40
0.6892426545
 40
0.7057703915
 40
0.7221342301
 40
0.7383257971
 40
0.7701581442
 40
0.7857965195
 40
0.8012433175
 40
0.8164973595
 40
0.8315594414
 40
0.8464320814
 40
0.8611193141
 40
0.875627365
 40
0.8899641611
 40
0.9041392425
 40
0.9181640706
 40
0.9320515234
 40
0.9458162992
 40
0.9594756658
 40
0.9730481529
 40
0.9865511827
 40
1.0
 40
1.0
 40
1.0
 40
1.0
 10
6.1719053009
 20
3.6060642248
 30
0.0
 10
6.1714243657
 20
3.6004255043
 30
0.0
 10
6.1701131235
 20
3.5891519629
 30
0.0
 10
6.1671152221
 20
3.5723550462
 30
0.0
 10
6.163088034
 20
3.5556830575
 30
0.0
 10
6.1580410652
 20
3.5391761522
 30
0.0
 10
6.1519867442
 20
3.5228702553
 30
0.0
 10
6.1449367492
 20
3.5068016942
 30
0.0
 10
6.1369086442
 20
3.4910052197
 30
0.0
 10
6.1279201132
 20
3.475516098
 30
0.0
 10
6.1179898165
 20
3.4603698545
 30
0.0
 10
6.1071419415
 20
3.4455988132
 30
0.0
 10
6.0953999355
 20
3.4312359862
 30
0.0
 10
6.082789179
 20
3.4173138305
 30
0.0
 10
6.0693392204
 20
3.4038615706
 30
0.0
 10
6.055079031
 20
3.3909098297
 30
0.0
 10
6.0400395471
 20
3.378487145
 30
0.0
 10
6.0188726304
 20
3.3625722387
 30
0.0
 10
5.9963908715
 20
3.3479298851
 30
0.0
 10
5.972790176
 20
3.334610847
 30
0.0
 10
5.9543892587
 20
3.3252164424
 30
0.0
 10
5.935433223
 20
3.3164956027
 30
0.0
 10
5.9159634861
 20
3.3084665084
 30
0.0
 10
5.8960225645
 20
3.3011486949
 30
0.0
 10
5.8756551987
 20
3.2945567929
 30
0.0
 10
5.8549058342
 20
3.288705242
 30
0.0
 10
5.826724538
 20
3.2818932771
 30
0.0
 10
5.7980399666
 20
3.2766354283
 30
0.0
 10
5.7690196672
 20
3.2729436736
 30
0.0
 10
5.7397247657
 20
3.2702924429
 30
0.0
 10
5.7029053269
 20
3.2689673582
 30
0.0
 10
5.666085888
 20
3.2702924412
 30
0.0
 10
5.6367909861
 20
3.2729436676
 30
0.0
 10
5.6077706861
 20
3.2766354197
 30
0.0
 10
5.579086114
 20
3.2818932663
 30
0.0
 10
5.5509048168
 20
3.2887052285
 30
0.0
 10
5.530155452
 20
3.2945567795
 30
0.0
 10
5.5097880846
 20
3.3011486772
 30
0.0
 10
5.4898471624
 20
3.3084664906
 30
0.0
 10
5.4703774246
 20
3.3164955838
 30
0.0
 10
5.4514213864
 20
3.3252164195
 30
0.0
 10
5.4330204689
 20
3.3346108252
 30
0.0
 10
5.4094197708
 20
3.3479298599
 30
0.0
 10
5.3869380105
 20
3.3625722129
 30
0.0
 10
5.3657710911
 20
3.3784871165
 30
0.0
 10
5.3507316045
 20
3.3909097985
 30
0.0
 10
5.3364714157
 20
3.4038615403
 30
0.0
 10
5.3230214539
 20
3.417313797
 30
0.0
 10
5.310410695
 20
3.4312359509
 30
0.0
 10
5.2986686893
 20
3.4455987787
 30
0.0
 10
5.2878208095
 20
3.4603698177
 30
0.0
 10
5.2778905102
 20
3.4755160617
 30
0.0
 10
5.2689019785
 20
3.4910051856
 30
0.0
 10
5.2608738676
 20
3.50680166
 30
0.0
 10
5.25382387
 20
3.5228702237
 30
0.0
 10
5.2477695464
 20
3.5391761248
 30
0.0
 10
5.2427225724
 20
3.5556830367
 30
0.0
 10
5.2386953832
 20
3.5723550344
 30
0.0
 10
5.2356974795
 20
3.5891519582
 30
0.0
 10
5.2343862362
 20
3.6004255033
 30
0.0
 10
5.2339053009
 20
3.6060642248
 30
0.0
 11
6.1719053009
 21
3.6060642248
 31
0.0
 11
6.1699457975
 21
3.5892001044
 31
0.0
 11
6.166952776
 21
3.5724189147
 31
0.0
 11
6.1629326258
 21
3.5557635325
 31
0.0
 11
6.1578945314
 21
3.5392725841
 31
0.0
 11
6.1518498362
 21
3.5229814113
 31
0.0
 11
6.1448108039
 21
3.5069252989
 31
0.0
 11
6.1367938717
 21
3.4911396675
 31
0.0
 11
6.1278167371
 21
3.475659978
 31
0.0
 11
6.1178984991
 21
3.4605210829
 31
0.0
 11
6.1070621581
 21
3.4457561418
 31
0.0
 11
6.0953314033
 21
3.4313980144
 31
0.0
 11
6.0827316855
 21
3.4174786918
 31
0.0
 11
6.069291808
 21
3.4040285123
 31
0.0
 11
6.0550410075
 21
3.3910775907
 31
0.0
 11
6.0400106023
 21
3.3786546591
 31
0.0
 11
6.0242345334
 21
3.3667867078
 31
0.0
 11
5.9905847502
 21
3.3448208285
 31
0.0
 11
5.972786057
 21
3.3347709724
 31
0.0
 11
5.954389735
 21
3.3253738433
 31
0.0
 11
5.9354368157
 21
3.3166498242
 31
0.0
 11
5.9159694812
 21
3.3086180142
 31
0.0
 11
5.8960303036
 21
3.3012969209
 31
0.0
 11
5.8756637906
 21
3.2947020957
 31
0.0
 11
5.8549150635
 21
3.2888481525
 31
0.0
 11
5.8338296967
 21
3.2837487004
 31
0.0
 11
5.7908372403
 21
3.2758546196
 31
0.0
 11
5.7690250727
 21
3.2730781934
 31
0.0
 11
5.7470666286
 21
3.2710902853
 31
0.0
 11
5.7029053269
 21
3.2694976162
 31
0.0
 11
5.6587440251
 21
3.2710902822
 31
0.0
 11
5.6367855806
 21
3.2730781875
 31
0.0
 11
5.6149734126
 21
3.2758546117
 31
0.0
 11
5.5719809549
 21
3.2837486889
 31
0.0
 11
5.5508955877
 21
3.2888481393
 31
0.0
 11
5.53014686
 21
3.2947020815
 31
0.0
 11
5.5097803455
 21
3.3012969039
 31
0.0
 11
5.4898411674
 21
3.3086179962
 31
0.0
 11
5.4703738317
 21
3.3166498048
 31
0.0
 11
5.4514209104
 21
3.3253738214
 31
0.0
 11
5.4330245878
 21
3.3347709499
 31
0.0
 11
5.4152258928
 21
3.3448208044
 31
0.0
 11
5.3815761068
 21
3.3667866811
 31
0.0
 11
5.3658000357
 21
3.3786546306
 31
0.0
 11
5.3507696284
 21
3.3910775602
 31
0.0
 11
5.3365188276
 21
3.4040284812
 31
0.0
 11
5.3230789475
 21
3.4174786586
 31
0.0
 11
5.3104792277
 21
3.4313979795
 31
0.0
 11
5.2987484721
 21
3.4457561064
 31
0.0
 11
5.2879121273
 21
3.4605210463
 31
0.0
 11
5.2779938868
 21
3.4756599417
 31
0.0
 11
5.2690167503
 21
3.4911396328
 31
0.0
 11
5.2609998134
 21
3.5069252651
 31
0.0
 11
5.2539607784
 21
3.5229813791
 31
0.0
 11
5.2479160803
 21
3.5392725556
 31
0.0
 11
5.2428779816
 21
3.5557635109
 31
0.0
 11
5.238857829
 21
3.5724189036
 31
0.0
 11
5.2358648054
 21
3.5892001014
 31
0.0
 11
5.2339053009
 21
3.6060642248
 31
0.0
  0
SPLINE
  5
250
100
AcDbEntity
  8
0
100
AcDbSpline
 62
9
  6
CONTINUOUS
 70
0
 71
3
 72
63
 73
59
 74
57
 42
0.0000001
 43
0.0000001
 44
0.0000000001
 12
0.0937501031
 22
1.0991722799
 32
0.0
 13
0.634915186
 23
-0.9021371787
 33
0.0
 40
0.0
 40
0.0
 40
0.0
 40
0.0
 40
0.0131932187
 40
0.0264302083
 40
0.0397219126
 40
0.0530800224
 40
0.0665180271
 40
0.0800490536
 40
0.0936852798
 40
0.1074371226
 40
0.1213139348
 40
0.1353242497
 40
0.1494754435
 40
0.163773761
 40
0.1782245505
 40
0.1928319623
 40
0.2225205311
 40
0.2376108544
 40
0.2528629422
 40
0.2682754454
 40
0.2838462494
 40
0.2995720086
 40
0.3154484505
 40
0.3476279582
 40
0.3803404215
 40
0.3968803676
 40
0.4135299835
 40
0.4302802068
 40
0.4471216298
 40
0.4640442439
 40
0.4810376453
 40
0.515189884
 40
0.5494941651
 40
0.5666769698
 40
0.5838634856
 40
0.6010421205
 40
0.6182013703
 40
0.6353298523
 40
0.6524162451
 40
0.6864142931
 40
0.7201142239
 40
0.7368292958
 40
0.7534404604
 40
0.7699387835
 40
0.7863159084
 40
0.8025642986
 40
0.8186769008
 40
0.8504648148
 40
0.8661352527
 40
0.8816493857
 40
0.8970043457
 40
0.9121983196
 40
0.9272302372
 40
0.9421001221
 40
0.9568093009
 40
0.9713599568
 40
0.9857553022
 40
1.0
 40
1.0
 40
1.0
 40
1.0
 10
5.2339053009
 20
3.6530121883
 30
0.0
 10
5.2343175894
 20
3.6578460617
 30
0.0
 10
5.2353986868
 20
3.6675099869
 30
0.0
 10
5.23777904
 20
3.6819276561
 30
0.0
 10
5.2409168004
 20
3.6962620962
 30
0.0
 10
5.2448077599
 20
3.7104870973
 30
0.0
 10
5.2494440697
 20
3.7245794783
 30
0.0
 10
5.2548185558
 20
3.7385167259
 30
0.0
 10
5.2609233577
 20
3.7522760882
 30
0.0
 10
5.2677471977
 20
3.7658356904
 30
0.0
 10
5.2752788665
 20
3.7791733316
 30
0.0
 10
5.2835072817
 20
3.7922663494
 30
0.0
 10
5.2924180415
 20
3.8050938547
 30
0.0
 10
5.3019959218
 20
3.8176353332
 30
0.0
 10
5.3122265033
 20
3.8298700735
 30
0.0
 10
5.3267913127
 20
3.8458311063
 30
0.0
 10
5.342530349
 20
3.8610124679
 30
0.0
 10
5.3593192551
 20
3.875351444
 30
0.0
 10
5.372539546
 20
3.8857659999
 30
0.0
 10
5.3862963343
 20
3.8957634447
 30
0.0
 10
5.4005683514
 20
3.9053269429
 30
0.0
 10
5.4153319026
 20
3.9144417603
 30
0.0
 10
5.4357290121
 20
3.9260283155
 30
0.0
 10
5.46233245
 20
3.9392923896
 30
0.0
 10
5.4900127032
 20
3.9507782089
 30
0.0
 10
5.5128373821
 20
3.9589316023
 30
0.0
 10
5.5303293436
 20
3.96453446
 30
0.0
 10
5.5481015216
 20
3.9695927194
 30
0.0
 10
5.5661255319
 20
3.9740971534
 30
0.0
 10
5.5843719375
 20
3.9780414548
 30
0.0
 10
5.6089957613
 20
3.9825526299
 30
0.0
 10
5.6401581033
 20
3.9867491856
 30
0.0
 10
5.6715899252
 20
3.9890070873
 30
0.0
 10
5.6968379132
 20
3.9896463632
 30
0.0
 10
5.7157960286
 20
3.9895410718
 30
0.0
 10
5.7347330493
 20
3.9888505917
 30
0.0
 10
5.7536182918
 20
3.9875750215
 30
0.0
 10
5.7724212878
 20
3.9857174982
 30
0.0
 10
5.7972975507
 20
3.9824748776
 30
0.0
 10
5.8280112605
 20
3.9769939336
 30
0.0
 10
5.858183176
 20
3.9696056099
 30
0.0
 10
5.8818114209
 20
3.9625798925
 30
0.0
 10
5.8991954774
 20
3.9567833344
 30
0.0
 10
5.916260422
 20
3.9504546648
 30
0.0
 10
5.9329782351
 20
3.9436032664
 30
0.0
 10
5.9493225432
 20
3.9362411555
 30
0.0
 10
5.9704829927
 20
3.9258087933
 30
0.0
 10
5.990894051
 20
3.9143638666
 30
0.0
 10
6.0104373975
 20
3.9019354895
 30
0.0
 10
6.0245267913
 20
3.8922137789
 30
0.0
 10
6.0380928127
 20
3.8820642854
 30
0.0
 10
6.051114393
 20
3.8715041018
 30
0.0
 10
6.0635698916
 20
3.8605498774
 30
0.0
 10
6.0754384484
 20
3.8492187358
 30
0.0
 10
6.086701615
 20
3.83753004
 30
0.0
 10
6.0973410874
 20
3.8255025572
 30
0.0
 10
6.1073381569
 20
3.8131552681
 30
0.0
 10
6.1135969649
 20
3.8046800427
 30
0.0
 10
6.1166116899
 20
3.8003964856
 30
0.0
 11
5.2339053009
 21
3.6530121883
 31
0.0
 11
5.2355221666
 21
3.6674763707
 31
0.0
 11
5.2378995438
 21
3.6818841042
 31
0.0
 11
5.2410335175
 21
3.6962081873
 31
0.0
 11
5.2449192477
 21
3.7104228246
 31
0.0
 11
5.2495498283
 21
3.7245053637
 31
0.0
 11
5.2549180721
 21
3.7384335784
 31
0.0
 11
5.2610159245
 21
3.7521852141
 31
0.0
 11
5.2678327191
 21
3.7657379315
 31
0.0
 11
5.2753573004
 21
3.7790693749
 31
0.0
 11
5.2835781752
 21
3.7921573355
 31
0.0
 11
5.2924814583
 21
3.8049806423
 31
0.0
 11
5.3020522297
 21
3.8175185738
 31
0.0
 11
5.3122755046
 21
3.8297504396
 31
0.0
 11
5.3231346978
 21
3.8416563389
 31
0.0
 11
5.346687514
 21
3.8644140774
 31
0.0
 11
5.3593435579
 21
3.8752284233
 31
0.0
 11
5.3725584442
 21
3.8856431043
 31
0.0
 11
5.3863106708
 21
3.8956411754
 31
0.0
 11
5.4005784457
 21
3.9052059337
 31
0.0
 11
5.4153381875
 21
3.9143221719
 31
0.0
 11
5.4305656312
 21
3.9229752536
 31
0.0
 11
5.4623250945
 21
3.9388350417
 31
0.0
 11
5.4956496146
 21
3.9526828229
 31
0.0
 11
5.5128316972
 21
3.9588230156
 31
0.0
 11
5.5303229517
 21
3.9644276188
 31
0.0
 11
5.5480949331
 21
3.9694874196
 31
0.0
 11
5.5661190086
 21
3.9739936215
 31
0.0
 11
5.584365654
 21
3.9779394047
 31
0.0
 11
5.6028050813
 21
3.9813185354
 31
0.0
 11
5.6401425273
 21
3.9863541671
 31
0.0
 11
5.6778882628
 21
3.9890686612
 31
0.0
 11
5.6968376163
 21
3.9895488139
 31
0.0
 11
5.7157968531
 21
3.9894434273
 31
0.0
 11
5.7347350895
 21
3.9887525001
 31
0.0
 11
5.7536214918
 21
3.9874766017
 31
0.0
 11
5.7724254098
 21
3.9856183957
 31
0.0
 11
5.7911162354
 21
3.983181026
 31
0.0
 11
5.8280368764
 21
3.9765840085
 31
0.0
 11
5.8641435181
 21
3.9677294034
 31
0.0
 11
5.8818177244
 21
3.9624724315
 31
0.0
 11
5.8992009648
 21
3.9566739741
 31
0.0
 11
5.9162647935
 21
3.9503432424
 31
0.0
 11
5.932981187
 21
3.9434900931
 31
0.0
 11
5.949323331
 21
3.9361262299
 31
0.0
 11
5.9652646259
 21
3.9282636845
 31
0.0
 11
5.9958405589
 21
3.9110932284
 31
0.0
 11
6.0104260047
 21
3.9018138524
 31
0.0
 11
6.0245108047
 21
3.8920912712
 31
0.0
 11
6.0380720846
 21
3.8819412833
 31
0.0
 11
6.0510882843
 21
3.8713807854
 31
0.0
 11
6.0635379042
 21
3.860426724
 31
0.0
 11
6.0754003426
 21
3.8490966421
 31
0.0
 11
6.0866569465
 21
3.8374093771
 31
0.0
 11
6.0972893186
 21
3.8253839364
 31
0.0
 11
6.1072794708
 21
3.8130395289
 31
0.0
 11
6.1166116899
 21
3.8003964856
 31
0.0
  0
SPLINE
  5
251
100
AcDbEntity
  8
0
100
AcDbSpline
 62
9
  6
CONTINUOUS
 70
0
 71
3
 72
15
 73
11
 74
9
 42
0.0000001
 43
0.0000001
 44
0.0000000001
 12
0.091652204
 22
-0.1302266233
 32
0.0
 13
0.0135331518
 23
-0.1586693219
 33
0.0
 40
0.0
 40
0.0
 40
0.0
 40
0.0
 40
0.1296863864
 40
0.257707763
 40
0.3842002506
 40
0.5093193091
 40
0.6332495554
 40
0.7562027114
 40
0.8783918362
 40
1.0
 40
1.0
 40
1.0
 40
1.0
 10
6.1166116899
 20
3.8003964856
 30
0.0
 10
6.1205737042
 20
3.7947669455
 30
0.0
 10
6.1281134664
 20
3.7833406692
 30
0.0
 10
6.1382724868
 20
3.7656422024
 30
0.0
 10
6.1471793545
 20
3.7475501623
 30
0.0
 10
6.1548065423
 20
3.7291169848
 30
0.0
 10
6.1611312768
 20
3.7103951234
 30
0.0
 10
6.1661363923
 20
3.691438291
 30
0.0
 10
6.1698046
 20
3.6723042605
 30
0.0
 10
6.1713567203
 20
3.6594440166
 30
0.0
 10
6.1719053009
 20
3.6530121883
 30
0.0
 11
6.1166116899
 21
3.8003964856
 31
0.0
 11
6.1279784647
 21
3.7831540976
 31
0.0
 11
6.1381210029
 21
3.7654693245
 31
0.0
 11
6.1470111395
 21
3.7473939288
 31
0.0
 11
6.1546227545
 21
3.7289804985
 31
0.0
 11
6.1609338526
 21
3.7102814878
 31
0.0
 11
6.1659272509
 21
3.6913491973
 31
0.0
 11
6.1695877734
 21
3.6722385574
 31
0.0
 11
6.1719053009
 21
3.6530121883
 31
0.0
  0
SPLINE
  5
252
100
AcDbEntity
  8
0
100
AcDbSpline
 62
9
  6
CONTINUOUS
 70
0
 71
3
 72
63
 73
59
 74
57
 42
0.0000001
 43
0.0000001
 44
0.0000000001
 12
0.419691945
 22
1.0625233732
 32
0.0
 13
0.419691945
 23
-1.0625233732
 33
0.0
 40
0.0
 40
0.0
 40
0.0
 40
0.0
 40
0.0135377741
 40
0.0271918152
 40
0.0409679907
 40
0.0548716366
 40
0.0689096219
 40
0.0830893282
 40
0.097417261
 40
0.1118984969
 40
0.1265360274
 40
0.1413318344
 40
0.1713960126
 40
0.1866694935
 40
0.2021000552
 40
0.2176850253
 40
0.2334205932
 40
0.2493023132
 40
0.2653250498
 40
0.2814826409
 40
0.2977683193
 40
0.3306897685
 40
0.3640280163
 40
0.3808328477
 40
0.3977136231
 40
0.4146601253
 40
0.4316619346
 40
0.448708265
 40
0.4657881164
 40
0.4999999949
 40
0.5342118733
 40
0.5512917248
 40
0.5683380552
 40
0.5853398645
 40
0.6022863667
 40
0.6191671421
 40
0.6359719735
 40
0.6693102215
 40
0.7022316708
 40
0.7185173493
 40
0.7346749405
 40
0.7506976774
 40
0.7665793976
 40
0.7823149657
 40
0.7978999359
 40
0.8133304975
 40
0.8286039784
 40
0.8586681563
 40
0.873463963
 40
0.8881014933
 40
0.9025827289
 40
0.9169106613
 40
0.931090368
 40
0.9451283548
 40
0.9590320034
 40
0.9728081818
 40
0.986462225
 40
1.0
 40
1.0
 40
1.0
 40
1.0
 10
5.2339053009
 20
3.7511048153
 30
0.0
 10
5.2357991992
 20
3.7558995491
 30
0.0
 10
5.2398422739
 20
3.7654376266
 30
0.0
 10
5.2466210645
 20
3.7794949249
 30
0.0
 10
5.2541269746
 20
3.7933367901
 30
0.0
 10
5.2623482109
 20
3.8069369764
 30
0.0
 10
5.271270657
 20
3.8202728867
 30
0.0
 10
5.2808791693
 20
3.83332425
 30
0.0
 10
5.2911593985
 20
3.8460707798
 30
0.0
 10
5.3020954393
 20
3.858492203
 30
0.0
 10
5.3136691547
 20
3.8705699566
 30
0.0
 10
5.3300107231
 20
3.8862706068
 30
0.0
 10
5.3474829142
 20
3.9011166689
 30
0.0
 10
5.3659565241
 20
3.9150594807
 30
0.0
 10
5.380423033
 20
3.9251386615
 30
0.0
 10
5.3954023731
 20
3.9347669815
 30
0.0
 10
5.4108705612
 20
3.9439304022
 30
0.0
 10
5.4268032172
 20
3.9526138069
 30
0.0
 10
5.4431753746
 20
3.9608026007
 30
0.0
 10
5.4599605627
 20
3.968485008
 30
0.0
 10
5.4829363661
 20
3.9780703432
 30
0.0
 10
5.5125431337
 20
3.9887028291
 30
0.0
 10
5.5429673319
 20
3.9974413905
 30
0.0
 10
5.5678097851
 20
4.0033107455
 30
0.0
 10
5.5867076725
 20
4.0071511738
 30
0.0
 10
5.6057901512
 20
4.0104113426
 30
0.0
 10
5.6250272141
 20
4.0130851185
 30
0.0
 10
5.6443882336
 20
4.0151693914
 30
0.0
 10
5.6703388166
 20
4.0171591712
 30
0.0
 10
5.702905295
 20
4.0181531138
 30
0.0
 10
5.7354717734
 20
4.0171591717
 30
0.0
 10
5.7614223564
 20
4.0151693923
 30
0.0
 10
5.7807833761
 20
4.0130851201
 30
0.0
 10
5.800020439
 20
4.0104113444
 30
0.0
 10
5.8191029178
 20
4.0071511758
 30
0.0
 10
5.8380008054
 20
4.003310748
 30
0.0
 10
5.8628432587
 20
3.9974413936
 30
0.0
 10
5.8932674571
 20
3.9887028325
 30
0.0
 10
5.9228742251
 20
3.9780703472
 30
0.0
 10
5.9458500288
 20
3.9684850124
 30
0.0
 10
5.9626352173
 20
3.9608026056
 30
0.0
 10
5.9790073751
 20
3.952613812
 30
0.0
 10
5.9949400312
 20
3.9439304072
 30
0.0
 10
6.0104082198
 20
3.934766987
 30
0.0
 10
6.0253875603
 20
3.9251386674
 30
0.0
 10
6.0398540692
 20
3.9150594866
 30
0.0
 10
6.0583276795
 20
3.9011166755
 30
0.0
 10
6.0757998707
 20
3.8862706139
 30
0.0
 10
6.0921414392
 20
3.8705699642
 30
0.0
 10
6.103715155
 20
3.8584922114
 30
0.0
 10
6.1146511959
 20
3.8460707888
 30
0.0
 10
6.1249314252
 20
3.8333242593
 30
0.0
 10
6.1345399386
 20
3.820272896
 30
0.0
 10
6.1434623861
 20
3.8069369846
 30
0.0
 10
6.1516836234
 20
3.7933367956
 30
0.0
 10
6.1591895351
 20
3.779494928
 30
0.0
 10
6.1659683271
 20
3.7654376279
 30
0.0
 10
6.1700114025
 20
3.7558995494
 30
0.0
 10
6.1719053009
 20
3.7511048153
 30
0.0
 11
5.2339053009
 21
3.7511048153
 31
0.0
 11
5.2399380716
 21
3.7653453414
 31
0.0
 11
5.2467104628
 21
3.7793969498
 31
0.0
 11
5.2542099329
 21
3.7932332512
 31
0.0
 11
5.2624238486
 21
3.8068281666
 31
0.0
 11
5.2713384996
 21
3.820159259
 31
0.0
 11
5.2809394758
 21
3.8332064588
 31
0.0
 11
5.2912123434
 21
3.8459497378
 31
0.0
 11
5.3021413598
 21
3.8583692216
 31
0.0
 11
5.3137083078
 21
3.8704453271
 31
0.0
 11
5.3258946952
 21
3.8821585037
 31
0.0
 11
5.3520484794
 21
3.9044205341
 31
0.0
 11
5.3659735384
 21
3.9149345627
 31
0.0
 11
5.3804352732
 21
3.9250144833
 31
0.0
 11
5.3954106859
 21
3.9346443209
 31
0.0
 11
5.4108754374
 21
3.9438091507
 31
0.0
 11
5.4268051334
 21
3.9524940916
 31
0.0
 11
5.4431747734
 21
3.9606849408
 31
0.0
 11
5.459957825
 21
3.9683692091
 31
0.0
 11
5.4771275174
 21
3.9755346739
 31
0.0
 11
5.5125179411
 21
3.9882630196
 31
0.0
 11
5.5491201205
 21
3.9987899442
 31
0.0
 11
5.5678033351
 21
4.0032058283
 31
0.0
 11
5.5867015487
 21
4.0070475449
 31
0.0
 11
5.6057847209
 21
4.0103087576
 31
0.0
 11
5.6250226491
 21
4.0129837363
 31
0.0
 11
5.644384573
 21
4.0150688354
 31
0.0
 11
5.6638396128
 21
4.0165608564
 31
0.0
 11
5.702905295
 21
4.0177554156
 31
0.0
 11
5.7419709772
 21
4.016560857
 31
0.0
 11
5.7614260171
 21
4.0150688364
 31
0.0
 11
5.7807879411
 21
4.0129837379
 31
0.0
 11
5.8000258694
 21
4.0103087594
 31
0.0
 11
5.8191090416
 21
4.007047547
 31
0.0
 11
5.8380072553
 21
4.0032058309
 31
0.0
 11
5.8566904701
 21
3.9987899472
 31
0.0
 11
5.8932926497
 21
3.9882630232
 31
0.0
 11
5.9286830738
 21
3.9755346781
 31
0.0
 11
5.9458527665
 21
3.9683692135
 31
0.0
 11
5.9626358185
 21
3.9606849456
 31
0.0
 11
5.9790054588
 21
3.9524940967
 31
0.0
 11
5.9949351551
 21
3.9438091558
 31
0.0
 11
6.0103999071
 21
3.9346443263
 31
0.0
 11
6.0253753202
 21
3.9250144891
 31
0.0
 11
6.039837055
 21
3.9149345686
 31
0.0
 11
6.0537621142
 21
3.9044205405
 31
0.0
 11
6.0799158987
 21
3.8821585109
 31
0.0
 11
6.0921022862
 21
3.8704453347
 31
0.0
 11
6.1036692345
 21
3.8583692299
 31
0.0
 11
6.1145982511
 21
3.8459497468
 31
0.0
 11
6.1248711186
 21
3.8332064684
 31
0.0
 11
6.1344720957
 21
3.8201592686
 31
0.0
 11
6.143386748
 21
3.806828175
 31
0.0
 11
6.1516006652
 21
3.7932332569
 31
0.0
 11
6.159100137
 21
3.7793969526
 31
0.0
 11
6.1658725296
 21
3.7653453422
 31
0.0
 11
6.1719053009
 21
3.7511048153
 31
0.0
  0
SPLINE
  5
253
100
AcDbEntity
  8
0
100
AcDbSpline
 62
6
  6
CONTINUOUS
 70
0
 71
3
 72
23
 73
19
 74
17
 42
0.0000001
 43
0.0000001
 44
0.0000000001
 12
-0.2495877869
 22
0.1625134743
 32
0.0
 13
-0.0075981005
 23
0.2977363961
 33
0.0
 40
0.0
 40
0.0
 40
0.0
 40
0.0
 40
0.0683294216
 40
0.1358358313
 40
0.2024651487
 40
0.2681912673
 40
0.3330263216
 40
0.3969930692
 40
0.4601202788
 40
0.5224430051
 40
0.5840072851
 40
0.6448740493
 40
0.7051137367
 40
0.764806871
 40
0.8240428255
 40
0.8829175363
 40
0.9415342314
 40
1.0
 40
1.0
 40
1.0
 40
1.0
 10
5.442200324
 20
3.3881326584
 30
0.0
 10
5.4365155943
 20
3.3918341423
 30
0.0
 10
5.4253932413
 20
3.3994715219
 30
0.0
 10
5.4094118856
 20
3.411676201
 30
0.0
 10
5.3942815574
 20
3.4245269185
 30
0.0
 10
5.3800524528
 20
3.4379861518
 30
0.0
 10
5.3667641408
 20
3.4520136671
 30
0.0
 10
5.3544555647
 20
3.4665725849
 30
0.0
 10
5.3431613464
 20
3.4816215199
 30
0.0
 10
5.3329138983
 20
3.4971172984
 30
0.0
 10
5.3237464808
 20
3.5130174969
 30
0.0
 10
5.3156837696
 20
3.5292752921
 30
0.0
 10
5.3087502899
 20
3.5458451027
 30
0.0
 10
5.3029679986
 20
3.5626801506
 30
0.0
 10
5.2983512707
 20
3.5797313204
 30
0.0
 10
5.2949166916
 20
3.5969509187
 30
0.0
 10
5.2926736355
 20
3.6142880138
 30
0.0
 10
5.2919755819
 20
3.6259015983
 30
0.0
 10
5.2918275056
 20
3.6317040607
 30
0.0
 11
5.442200324
 21
3.3881326584
 31
0.0
 11
5.4254271454
 21
3.3996571841
 31
0.0
 11
5.4094523865
 21
3.4118655663
 31
0.0
 11
5.3943320798
 21
3.4247177173
 31
0.0
 11
5.3801154949
 21
3.4381745419
 31
0.0
 11
5.3668412348
 21
3.4521985096
 31
0.0
 11
5.3545467473
 21
3.4667519471
 31
0.0
 11
5.3432668489
 21
3.481793757
 31
0.0
 11
5.3330345982
 21
3.4972805551
 31
0.0
 11
5.3238815702
 21
3.5131685099
 31
0.0
 11
5.3158331818
 21
3.5294120718
 31
0.0
 11
5.3089131755
 21
3.5459652247
 31
0.0
 11
5.3031422274
 21
3.5627811384
 31
0.0
 11
5.2985359163
 21
3.57981163
 31
0.0
 11
5.2951089452
 21
3.5970083412
 31
0.0
 11
5.2928708447
 21
3.6143222911
 31
0.0
 11
5.2918275056
 21
3.6317040607
 31
0.0
  0
SPLINE
  5
254
100
AcDbEntity
  8
0
100
AcDbSpline
 62
6
  6
CONTINUOUS
 70
0
 71
3
 72
15
 73
11
 74
9
 42
0.0000001
 43
0.0000001
 44
0.0000000001
 12
-0.0895086967
 22
-0.0199988949
 32
0.0
 13
-0.0895086967
 23
0.0199988949
 33
0.0
 40
0.0
 40
0.0
 40
0.0
 40
0.0
 40
0.1240674972
 40
0.2489683163
 40
0.3743647701
 40
0.5
 40
0.6256352299
 40
0.7510316837
 40
0.8759325028
 40
1.0
 40
1.0
 40
1.0
 40
1.0
 10
5.7484053009
 20
3.9022185262
 30
0.0
 10
5.7447035942
 20
3.9013914552
 30
0.0
 10
5.7372268489
 20
3.899941242
 30
0.0
 10
5.7258826704
 20
3.8983843568
 30
0.0
 10
5.714422116
 20
3.8974478117
 30
0.0
 10
5.7029053009
 20
3.8971348509
 30
0.0
 10
5.6913884858
 20
3.8974478117
 30
0.0
 10
5.6799279314
 20
3.8983843568
 30
0.0
 10
5.6685837529
 20
3.899941242
 30
0.0
 10
5.6611070076
 20
3.9013914552
 30
0.0
 10
5.6574053009
 20
3.9022185262
 30
0.0
 11
5.7484053009
 21
3.9022185262
 31
0.0
 11
5.7372350847
 21
3.9000491077
 31
0.0
 11
5.7258862713
 21
3.8984903466
 31
0.0
 11
5.7144237625
 21
3.897552411
 31
0.0
 11
5.7029053009
 21
3.8972392373
 31
0.0
 11
5.6913868393
 21
3.897552411
 31
0.0
 11
5.6799243305
 21
3.8984903466
 31
0.0
 11
5.6685755171
 21
3.9000491077
 31
0.0
 11
5.6574053009
 21
3.9022185262
 31
0.0
  0
LINE
  5
255
100
AcDbEntity
  8
0
100
AcDbLine
 62
6
  6
CONTINUOUS
 10
5.8152552639
 20
3.9317846581
 11
5.8150517993
 21
3.9314705075
  0
SPLINE
  5
256
100
AcDbEntity
  8
0
100
AcDbSpline
 62
6
  6
CONTINUOUS
 70
0
 71
3
 72
9
 73
5
 74
3
 42
0.0000001
 43
0.0000001
 44
0.0000000001
 12
-0.0229787061
 22
-0.0354997425
 32
0.0
 13
-0.021318996
 23
-0.036520584
 33
0.0
 40
0.0
 40
0.0
 40
0.0
 40
0.0
 40
0.4943155263
 40
1.0
 40
1.0
 40
1.0
 40
1.0
 10
5.8150517993
 20
3.9314705075
 30
0.0
 10
5.8112655556
 20
3.9256211496
 30
0.0
 10
5.8037785648
 20
3.9136757635
 30
0.0
 10
5.7965655046
 20
3.9015640617
 30
0.0
 10
5.7929719429
 20
3.8954080976
 30
0.0
 11
5.8150517993
 21
3.9314705075
 31
0.0
 11
5.8039306184
 21
3.9137709311
 31
0.0
 11
5.7929719429
 21
3.8954080976
 31
0.0
  0
SPLINE
  5
257
100
AcDbEntity
  8
0
100
AcDbSpline
 62
6
  6
CONTINUOUS
 70
0
 71
3
 72
9
 73
5
 74
3
 42
0.0000001
 43
0.0000001
 44
0.0000000001
 12
-0.0442757059
 22
0.0085502091
 32
0.0
 13
-0.044832333
 23
0.0048483125
 33
0.0
 40
0.0
 40
0.0
 40
0.0
 40
0.0
 40
0.4978785737
 40
1.0
 40
1.0
 40
1.0
 40
1.0
 10
5.7929719429
 20
3.8954080976
 30
0.0
 10
5.7856239678
 20
3.8968270863
 30
0.0
 10
5.7708152667
 20
3.8994256556
 30
0.0
 10
5.7559090592
 20
3.9014070456
 30
0.0
 10
5.7484053009
 20
3.9022185262
 30
0.0
 11
5.7929719429
 21
3.8954080976
 31
0.0
 11
5.7708539276
 21
3.8992616419
 31
0.0
 11
5.7484053009
 21
3.9022185262
 31
0.0
  0
SPLINE
  5
258
100
AcDbEntity
  8
0
100
AcDbSpline
 62
6
  6
CONTINUOUS
 70
0
 71
3
 72
9
 73
5
 74
3
 42
0.0000001
 43
0.0000001
 44
0.0000000001
 12
-0.044832333
 22
-0.0048483125
 32
0.0
 13
-0.044275706
 23
-0.0085502091
 33
0.0
 40
0.0
 40
0.0
 40
0.0
 40
0.0
 40
0.5021217263
 40
1.0
 40
1.0
 40
1.0
 40
1.0
 10
5.6574053009
 20
3.9022185262
 30
0.0
 10
5.6499015381
 20
3.9014070451
 30
0.0
 10
5.6349953306
 20
3.8994256556
 30
0.0
 10
5.6201866296
 20
3.8968270854
 30
0.0
 10
5.6128386589
 20
3.8954080976
 30
0.0
 11
5.6574053009
 21
3.9022185262
 31
0.0
 11
5.6349566607
 21
3.8992616402
 31
0.0
 11
5.6128386589
 21
3.8954080976
 31
0.0
  0
SPLINE
  5
259
100
AcDbEntity
  8
0
100
AcDbSpline
 62
6
  6
CONTINUOUS
 70
0
 71
3
 72
9
 73
5
 74
3
 42
0.0000001
 43
0.0000001
 44
0.0000000001
 12
-0.0215076726
 22
0.0368437972
 32
0.0
 13
-0.0232009389
 23
0.0358017012
 33
0.0
 40
0.0
 40
0.0
 40
0.0
 40
0.0
 40
0.5057568058
 40
1.0
 40
1.0
 40
1.0
 40
1.0
 10
5.6128386589
 20
3.8954080976
 30
0.0
 10
5.609212775
 20
3.9016194314
 30
0.0
 10
5.6019349196
 20
3.913837774
 30
0.0
 10
5.59437764
 20
3.925886409
 30
0.0
 10
5.5905553379
 20
3.9317846581
 30
0.0
 11
5.6128386589
 21
3.8954080976
 31
0.0
 11
5.6017796513
 21
3.9139350418
 31
0.0
 11
5.5905553379
 21
3.9317846581
 31
0.0
  0
SPLINE
  5
25A
100
AcDbEntity
  8
0
100
AcDbSpline
 62
6
  6
CONTINUOUS
 70
0
 71
3
 72
67
 73
63
 74
61
 42
0.0000001
 43
0.0000001
 44
0.0000000001
 12
-0.2880285858
 22
1.1858065135
 32
0.0
 13
-0.287922351
 23
-1.1858323126
 33
0.0
 40
0.0
 40
0.0
 40
0.0
 40
0.0
 40
0.0134557245
 40
0.0269975654
 40
0.0406411614
 40
0.0544005556
 40
0.0682874891
 40
0.0823125067
 40
0.0964851401
 40
0.1108134549
 40
0.12530412
 40
0.1399626922
 40
0.1547932113
 40
0.1697979277
 40
0.1849779651
 40
0.2003333685
 40
0.2158624844
 40
0.23156246
 40
0.2474295983
 40
0.2634589471
 40
0.2959726891
 40
0.3124480843
 40
0.3290557136
 40
0.3457859142
 40
0.3626285638
 40
0.379572787
 40
0.3966069821
 40
0.4137192093
 40
0.4308972145
 40
0.4481282082
 40
0.4653991239
 40
0.5000031551
 40
0.5346071427
 40
0.5518780044
 40
0.5691089228
 40
0.5862868317
 40
0.6033989422
 40
0.6204330012
 40
0.6373770691
 40
0.6542195451
 40
0.6709495552
 40
0.687556978
 40
0.7040321514
 40
0.7365454108
 40
0.7525745017
 40
0.7684413728
 40
0.7841410744
 40
0.799669911
 40
0.8150250311
 40
0.8302047842
 40
0.8452092172
 40
0.8600394556
 40
0.8746977519
 40
0.8891881493
 40
0.9035162062
 40
0.9176885935
 40
0.9317133794
 40
0.9456000975
 40
0.9593592943
 40
0.9730027134
 40
0.9865444019
 40
1.0
 40
1.0
 40
1.0
 40
1.0
 10
6.1821799765
 20
4.012816232
 30
0.0
 10
6.1808880987
 20
4.0181348605
 30
0.0
 10
6.1779994524
 20
4.0287365019
 30
0.0
 10
6.1727869678
 20
4.0444326101
 30
0.0
 10
6.1666910543
 20
4.0599403776
 30
0.0
 10
6.1597229698
 20
4.0752303217
 30
0.0
 10
6.1518976304
 20
4.0902746524
 30
0.0
 10
6.1432295554
 20
4.1050447185
 30
0.0
 10
6.133733317
 20
4.1195114368
 30
0.0
 10
6.1234284232
 20
4.1336484674
 30
0.0
 10
6.1123349437
 20
4.1474299201
 30
0.0
 10
6.10047254
 20
4.1608291569
 30
0.0
 10
6.087863456
 20
4.1738209269
 30
0.0
 10
6.0745327227
 20
4.1863821211
 30
0.0
 10
6.0605049846
 20
4.1984889372
 30
0.0
 10
6.0458054703
 20
4.2101173359
 30
0.0
 10
6.0304629544
 20
4.2212469408
 30
0.0
 10
6.0145065939
 20
4.2318573064
 30
0.0
 10
5.997964998
 20
4.2419274873
 30
0.0
 10
5.9750657703
 20
4.2546676983
 30
0.0
 10
5.9512250153
 20
4.2661851846
 30
0.0
 10
5.9265912239
 20
4.2764490184
 30
0.0
 10
5.9076125607
 20
4.2835592866
 30
0.0
 10
5.8882506484
 20
4.2900336731
 30
0.0
 10
5.8685407262
 20
4.2958587324
 30
0.0
 10
5.8485201051
 20
4.3010240071
 30
0.0
 10
5.8282266088
 20
4.3055210218
 30
0.0
 10
5.807698055
 20
4.3093405585
 30
0.0
 10
5.7869728305
 20
4.3124743129
 30
0.0
 10
5.7660898281
 20
4.3149181462
 30
0.0
 10
5.7380728164
 20
4.317251944
 30
0.0
 10
5.7028881936
 20
4.3184167992
 30
0.0
 10
5.6677036552
 20
4.3172500536
 30
0.0
 10
5.6396868397
 20
4.3149147477
 30
0.0
 10
5.6188040609
 20
4.3124697933
 30
0.0
 10
5.5980791234
 20
4.3093349245
 30
0.0
 10
5.5775509197
 20
4.3055142824
 30
0.0
 10
5.5572578348
 20
4.3010161779
 30
0.0
 10
5.5372376865
 20
4.2958498279
 30
0.0
 10
5.5175282983
 20
4.2900237066
 30
0.0
 10
5.4981669786
 20
4.2835482795
 30
0.0
 10
5.4791889657
 20
4.2764369923
 30
0.0
 10
5.4545561261
 20
4.2661718374
 30
0.0
 10
5.4307164237
 20
4.2546530693
 30
0.0
 10
5.4078183521
 20
4.2419116229
 30
0.0
 10
5.3912776796
 20
4.2318405499
 30
0.0
 10
5.3753222901
 20
4.2212293265
 30
0.0
 10
5.3599807923
 20
4.2100988972
 30
0.0
 10
5.3452823434
 20
4.1984697064
 30
0.0
 10
5.3312557146
 20
4.1863621344
 30
0.0
 10
5.3179261304
 20
4.1738002236
 30
0.0
 10
5.3053182356
 20
4.1608077751
 30
0.0
 10
5.293457061
 20
4.1474078975
 30
0.0
 10
5.2823648429
 20
4.1336258476
 30
0.0
 10
5.2720612425
 20
4.1194882622
 30
0.0
 10
5.2625663311
 20
4.1050210304
 30
0.0
 10
5.2538996099
 20
4.0902504964
 30
0.0
 10
5.2460756475
 20
4.0752057447
 30
0.0
 10
5.2391089636
 20
4.0599154256
 30
0.0
 10
5.2330144738
 20
4.0444073284
 30
0.0
 10
5.2278034267
 20
4.0287109379
 30
0.0
 10
5.2249157543
 20
4.0181091486
 30
0.0
 10
5.2236243652
 20
4.0127904542
 30
0.0
 11
6.1821799765
 21
4.012816232
 31
0.0
 11
6.1778660902
 21
4.0286592497
 31
0.0
 11
6.172660892
 21
4.0443429605
 31
0.0
 11
6.1665732585
 21
4.0598391801
 31
0.0
 11
6.1596141963
 21
4.0751195199
 31
0.0
 11
6.151797947
 21
4.0901552815
 31
0.0
 11
6.1431390233
 21
4.1049177406
 31
0.0
 11
6.1336525642
 21
4.119378463
 31
0.0
 11
6.1233572128
 21
4.1335106379
 31
0.0
 11
6.1122728295
 21
4.1472880187
 31
0.0
 11
6.1004193442
 21
4.160684393
 31
0.0
 11
6.0878188411
 21
4.1736746139
 31
0.0
 11
6.0744959416
 21
4.18623479
 31
0.0
 11
6.0604754127
 21
4.1983411018
 31
0.0
 11
6.0457827158
 21
4.2099702292
 31
0.0
 11
6.0304462127
 21
4.2211009377
 31
0.0
 11
6.0144950227
 21
4.2317125377
 31
0.0
 11
5.9979583588
 21
4.2417844291
 31
0.0
 11
5.9808672846
 21
4.2512977851
 31
0.0
 11
5.9451530017
 21
4.2685801367
 31
0.0
 11
5.9265960608
 21
4.2763156762
 31
0.0
 11
5.9076191425
 21
4.28342831
 31
0.0
 11
5.8882580362
 21
4.2899048358
 31
0.0
 11
5.8685486216
 21
4.2957322278
 31
0.0
 11
5.8485279829
 21
4.3008998104
 31
0.0
 11
5.8282340603
 21
4.3053985784
 31
0.0
 11
5.8077048133
 21
4.3092195667
 31
0.0
 11
5.786978557
 21
4.3123550026
 31
0.0
 11
5.7660944488
 21
4.3147999411
 31
0.0
 11
5.7450917682
 21
4.3165498471
 31
0.0
 11
5.7028881883
 21
4.3179503112
 31
0.0
 11
5.6606847371
 21
4.3165475769
 31
0.0
 11
5.6396822168
 21
4.3147965414
 31
0.0
 11
5.6187983325
 21
4.3123504807
 31
0.0
 11
5.5980723638
 21
4.3092139299
 31
0.0
 11
5.5775434673
 21
4.3053918366
 31
0.0
 11
5.5572499566
 21
4.3008919779
 31
0.0
 11
5.5372297914
 21
4.2957233192
 31
0.0
 11
5.5175209116
 21
4.2898948661
 31
0.0
 11
5.4981603986
 21
4.2834172992
 31
0.0
 11
5.4791841317
 21
4.2763036457
 31
0.0
 11
5.4606279002
 21
4.2685671079
 31
0.0
 11
5.424915201
 21
4.2512828356
 31
0.0
 11
5.4078249985
 21
4.2417685608
 31
0.0
 11
5.3912892587
 21
4.2316957791
 31
0.0
 11
5.3753390409
 21
4.2210833215
 31
0.0
 11
5.3600035572
 21
4.2099517888
 31
0.0
 11
5.3453119267
 21
4.1983218709
 31
0.0
 11
5.3312925079
 21
4.1862148046
 31
0.0
 11
5.3179707585
 21
4.1736539126
 31
0.0
 11
5.3053714457
 21
4.1606630144
 31
0.0
 11
5.2935191896
 21
4.1472660021
 31
0.0
 11
5.2824360683
 21
4.1334880253
 31
0.0
 11
5.2721420112
 21
4.1193552969
 31
0.0
 11
5.2626568785
 21
4.1048940636
 31
0.0
 11
5.253999308
 21
4.0901311386
 31
0.0
 11
5.2461844356
 21
4.0750949576
 31
0.0
 11
5.2392267737
 21
4.0598142449
 31
0.0
 11
5.233140562
 21
4.0443176988
 31
0.0
 11
5.2279368005
 21
4.0286337071
 31
0.0
 11
5.2236243652
 21
4.0127904542
 31
0.0
  0
SPLINE
  5
25B
100
AcDbEntity
  8
0
100
AcDbSpline
 62
6
  6
CONTINUOUS
 70
0
 71
3
 72
26
 73
22
 74
20
 42
0.0000001
 43
0.0000001
 44
0.0000000001
 12
-0.2259591424
 22
0.2132576416
 32
0.0
 13
0.0873577493
 23
0.2981693804
 33
0.0
 40
0.0
 40
0.0
 40
0.0
 40
0.0
 40
0.066952734
 40
0.1330842091
 40
0.1658367952
 40
0.1983763798
 40
0.2628278633
 40
0.3264979474
 40
0.3894508009
 40
0.4517550347
 40
0.4826929112
 40
0.5134997415
 40
0.5747600304
 40
0.6356507926
 40
0.6962874034
 40
0.7567909368
 40
0.7870374826
 40
0.817298438
 40
0.8779146769
 40
0.9387734086
 40
1.0
 40
1.0
 40
1.0
 40
1.0
 10
5.4168973274
 20
3.4169189753
 30
0.0
 10
5.4118544667
 20
3.4216783693
 30
0.0
 10
5.4020940883
 20
3.4314226096
 30
0.0
 10
5.3906573758
 20
3.4442504073
 30
0.0
 10
5.3820661597
 20
3.4548101916
 30
0.0
 10
5.3739074984
 20
3.4654892988
 30
0.0
 10
5.3644227685
 20
3.4791750725
 30
0.0
 10
5.3542043824
 20
3.4961378761
 30
0.0
 10
5.3452257589
 20
3.5135389618
 30
0.0
 10
5.3387890264
 20
3.5283949492
 30
0.0
 10
5.3343010224
 20
3.5404354738
 30
0.0
 10
5.3302721899
 20
3.5525233279
 30
0.0
 10
5.3260622159
 20
3.5678102664
 30
0.0
 10
5.3223604462
 20
3.5863924971
 30
0.0
 10
5.3200394319
 20
3.6051184731
 30
0.0
 10
5.3192650484
 20
3.6207937737
 30
0.0
 10
5.3193474013
 20
3.6333288691
 30
0.0
 10
5.3198982013
 20
3.6458637677
 30
0.0
 10
5.3214671833
 20
3.6615162938
 30
0.0
 10
5.324753302
 20
3.6801672005
 30
0.0
 10
5.3278669746
 20
3.6924359678
 30
0.0
 10
5.329649847
 20
3.6985212661
 30
0.0
 11
5.4168973274
 21
3.4169189753
 31
0.0
 11
5.4021812609
 21
3.4316219639
 31
0.0
 11
5.3885143656
 21
3.4469648896
 31
0.0
 11
5.3820931041
 21
3.4548595098
 31
0.0
 11
5.3759562122
 21
3.4628940367
 31
0.0
 11
5.3645568103
 21
3.4793580901
 31
0.0
 11
5.3543566553
 21
3.4963081226
 31
0.0
 11
5.3453947257
 21
3.5136938454
 31
0.0
 11
5.3377058508
 21
3.5314594786
 31
0.0
 11
5.3343493887
 21
3.5404669282
 31
0.0
 11
5.3313235536
 21
3.5495478528
 31
0.0
 11
5.3262754613
 21
3.5678999813
 31
0.0
 11
5.3225841503
 21
3.5864553205
 31
0.0
 11
5.3202694816
 21
3.6051525675
 31
0.0
 11
5.3193440672
 21
3.6239284051
 31
0.0
 11
5.3194058574
 21
3.6333258945
 31
0.0
 11
5.3198185344
 21
3.6427190033
 31
0.0
 11
5.3216959507
 21
3.6614588428
 31
0.0
 11
5.3249747583
 21
3.6800813923
 31
0.0
 11
5.329649847
 21
3.6985212661
 31
0.0
  0
SPLINE
  5
25C
100
AcDbEntity
  8
0
100
AcDbSpline
 62
6
  6
CONTINUOUS
 70
0
 71
3
 72
11
 73
7
 74
5
 42
0.0000001
 43
0.0000001
 44
0.0000000001
 12
0.0186835376
 22
0.0591006663
 32
0.0
 13
0.031474812
 23
0.0533975612
 33
0.0
 40
0.0
 40
0.0
 40
0.0
 40
0.0
 40
0.2469114277
 40
0.4957879369
 40
0.7467828901
 40
1.0
 40
1.0
 40
1.0
 40
1.0
 10
5.331264256
 20
3.7038225912
 30
0.0
 10
5.3328019824
 20
3.7086868012
 30
0.0
 10
5.3361754652
 20
3.7183661033
 30
0.0
 10
5.3420868971
 20
3.7326269297
 30
0.0
 10
5.3488518695
 20
3.7466478263
 30
0.0
 10
5.3538974185
 20
3.755769207
 30
0.0
 10
5.3565540722
 20
3.7602762657
 30
0.0
 11
5.331264256
 21
3.7038225912
 31
0.0
 11
5.336298781
 21
3.7182752666
 31
0.0
 11
5.3422023539
 21
3.7325271851
 31
0.0
 11
5.3489598297
 21
3.7465405473
 31
0.0
 11
5.3565540722
 21
3.7602762657
 31
0.0
  0
SPLINE
  5
25D
100
AcDbEntity
  8
0
100
AcDbSpline
 62
6
  6
CONTINUOUS
 70
0
 71
3
 72
33
 73
29
 74
27
 42
0.0000001
 43
0.0000001
 44
0.0000000001
 12
-0.2405046312
 22
-0.2481888425
 32
0.0
 13
-0.2413124968
 23
0.2474034317
 33
0.0
 40
0.0
 40
0.0
 40
0.0
 40
0.0
 40
0.0284728189
 40
0.0573939019
 40
0.086762437
 40
0.116571685
 40
0.1468099547
 40
0.1774594698
 40
0.2084985659
 40
0.2399006663
 40
0.3036509896
 40
0.3684476195
 40
0.4339667295
 40
0.4668962711
 40
0.4998729996
 40
0.5328509615
 40
0.56578421
 40
0.6313179739
 40
0.6961384218
 40
0.7599207947
 40
0.7913415745
 40
0.8224009144
 40
0.8530719606
 40
0.8833328362
 40
0.9131655071
 40
0.9425579488
 40
0.9715031809
 40
1.0
 40
1.0
 40
1.0
 40
1.0
 10
5.8602832243
 20
3.9192896859
 30
0.0
 10
5.8580006094
 20
3.9169341405
 30
0.0
 10
5.8532531883
 20
3.9123254733
 30
0.0
 10
5.8456800525
 20
3.905794399
 30
0.0
 10
5.8376247998
 20
3.8996117254
 30
0.0
 10
5.8291150219
 20
3.8937984411
 30
0.0
 10
5.8201789207
 20
3.8883747609
 30
0.0
 10
5.8108475069
 20
3.8833576432
 30
0.0
 10
5.8011513027
 20
3.8787651832
 30
0.0
 10
5.7877159577
 20
3.8732003124
 30
0.0
 10
5.7701927567
 20
3.8674037424
 30
0.0
 10
5.7483756115
 20
3.8623873596
 30
0.0
 10
5.7297132993
 20
3.8598509676
 30
0.0
 10
5.7146040349
 20
3.8588213863
 30
0.0
 10
5.7032117593
 20
3.8585536234
 30
0.0
 10
5.6918184482
 20
3.8587940984
 30
0.0
 10
5.6767045046
 20
3.8597875727
 30
0.0
 10
5.6580313087
 20
3.8622794267
 30
0.0
 10
5.6361939352
 20
3.8672436322
 30
0.0
 10
5.6186478556
 20
3.872998043
 30
0.0
 10
5.6051903345
 20
3.8785305807
 30
0.0
 10
5.5954754488
 20
3.8830997537
 30
0.0
 10
5.5861236394
 20
3.8880944951
 30
0.0
 10
5.5771654944
 20
3.8934967506
 30
0.0
 10
5.568632038
 20
3.8992895574
 30
0.0
 10
5.5605516612
 20
3.905452924
 30
0.0
 10
5.5529519096
 20
3.9119657499
 30
0.0
 10
5.5481857376
 20
3.9165630008
 30
0.0
 10
5.5458935247
 20
3.918913071
 30
0.0
 11
5.8602832243
 21
3.9192896859
 31
0.0
 11
5.8532257232
 21
3.9124324269
 31
0.0
 11
5.8456595817
 21
3.9059012143
 31
0.0
 11
5.8376106391
 21
3.8997179325
 31
0.0
 11
5.8291061843
 21
3.8939034895
 31
0.0
 11
5.8201746565
 21
3.8884777829
 31
0.0
 11
5.8108467052
 21
3.8834587624
 31
0.0
 11
5.801153483
 21
3.8788638571
 31
0.0
 11
5.7911280133
 21
3.8747082641
 31
0.0
 11
5.7702167634
 21
3.8677701878
 31
0.0
 11
5.7483956356
 21
3.862738259
 31
0.0
 11
5.7259595609
 21
3.8596805101
 31
0.0
 11
5.7146054513
 21
3.8589060959
 31
0.0
 11
5.7032117999
 21
3.8586383693
 31
0.0
 11
5.6918171133
 21
3.8588787921
 31
0.0
 11
5.6804598981
 21
3.8596260159
 31
0.0
 11
5.6580114509
 21
3.8626299924
 31
0.0
 11
5.6361698826
 21
3.8676096068
 31
0.0
 11
5.615230403
 21
3.874497543
 31
0.0
 11
5.6051880284
 21
3.8786291128
 31
0.0
 11
5.595476082
 21
3.8832007601
 31
0.0
 11
5.586127691
 21
3.8881974114
 31
0.0
 11
5.5771740618
 21
3.8936017018
 31
0.0
 11
5.5686458947
 21
3.8993957266
 31
0.0
 11
5.5605717648
 21
3.9055597077
 31
0.0
 11
5.5529789764
 21
3.912072749
 31
0.0
 11
5.5458935247
 21
3.918913071
 31
0.0
  0
SPLINE
  5
25E
100
AcDbEntity
  8
0
100
AcDbSpline
 62
6
  6
CONTINUOUS
 70
0
 71
3
 72
12
 73
8
 74
6
 42
0.0000001
 43
0.0000001
 44
0.0000000001
 12
0.0056619246
 22
-0.0680993531
 32
0.0
 13
0.0247076725
 23
-0.0637111466
 33
0.0
 40
0.0
 40
0.0
 40
0.0
 40
0.0
 40
0.2478715456
 40
0.3722181833
 40
0.4968900338
 40
0.7474208166
 40
1.0
 40
1.0
 40
1.0
 40
1.0
 10
5.3311979547
 20
3.679339754
 30
0.0
 10
5.3316657647
 20
3.6737131233
 30
0.0
 10
5.3326783786
 20
3.665285414
 30
0.0
 10
5.3346391068
 20
3.6541365655
 30
0.0
 10
5.3370155101
 20
3.6430063044
 30
0.0
 10
5.340756144
 20
3.6291914725
 30
0.0
 10
5.3445306108
 20
3.6183595113
 30
0.0
 10
5.3466108254
 20
3.6129954749
 30
0.0
 11
5.3311979547
 21
3.679339754
 31
0.0
 11
5.3332167163
 21
3.6625223532
 31
0.0
 11
5.3346881861
 21
3.654153589
 31
0.0
 11
5.3364665561
 21
3.6458219025
 31
0.0
 11
5.3409365331
 21
3.6292959051
 31
0.0
 11
5.3466108254
 21
3.6129954749
 31
0.0
  0
SPLINE
  5
25F
100
AcDbEntity
  8
0
100
AcDbSpline
 62
6
  6
CONTINUOUS
 70
0
 71
3
 72
62
 73
58
 74
56
 42
0.0000001
 43
0.0000001
 44
0.0000000001
 12
0.3480890811
 22
-0.882926133
 32
0.0
 13
-0.0
 23
0.9490651004
 33
0.0
 40
0.0
 40
0.0
 40
0.0
 40
0.0
 40
0.0141238013
 40
0.0283681367
 40
0.0427436914
 40
0.0572601253
 40
0.0719258171
 40
0.0867476499
 40
0.1017313145
 40
0.1168810742
 40
0.1321992451
 40
0.1476868865
 40
0.1791615768
 40
0.1951507942
 40
0.2113005056
 40
0.2276054174
 40
0.2440588965
 40
0.260653525
 40
0.2773810164
 40
0.2942317829
 40
0.3111955055
 40
0.3454123502
 40
0.3799422698
 40
0.3972954226
 40
0.4146876747
 40
0.4321051782
 40
0.4495339852
 40
0.4669599591
 40
0.484368825
 40
0.5190734821
 40
0.553541225
 40
0.5706548765
 40
0.587669559
 40
0.6045728821
 40
0.6213529695
 40
0.6379988559
 40
0.6545001188
 40
0.6870246574
 40
0.7188671606
 40
0.7345198484
 40
0.7499853711
 40
0.7652605504
 40
0.7803433967
 40
0.7952338788
 40
0.8099333141
 40
0.8244442209
 40
0.8387710076
 40
0.8668890257
 40
0.8943620232
 40
0.9078890035
 40
0.9212902392
 40
0.9345815767
 40
0.9477805665
 40
0.9609056739
 40
0.973974206
 40
0.9870007771
 40
1.0
 40
1.0
 40
1.0
 40
1.0
 10
5.3471177687
 20
3.611699024
 30
0.0
 10
5.348756549
 20
3.6075422663
 30
0.0
 10
5.3522730255
 20
3.5992800765
 30
0.0
 10
5.3582168372
 20
3.5871278401
 30
0.0
 10
5.3648391857
 20
3.5751891162
 30
0.0
 10
5.3721281701
 20
3.5634882873
 30
0.0
 10
5.380068918
 20
3.5520475352
 30
0.0
 10
5.388644662
 20
3.5408879612
 30
0.0
 10
5.3978392652
 20
3.5300312134
 30
0.0
 10
5.4076350415
 20
3.5194985463
 30
0.0
 10
5.4180117811
 20
3.509308666
 30
0.0
 10
5.4326710596
 20
3.4961367085
 30
0.0
 10
5.4483458843
 20
3.4838057855
 30
0.0
 10
5.4649040804
 20
3.4723611507
 30
0.0
 10
5.4778585987
 20
3.4641643539
 30
0.0
 10
5.4912557309
 20
3.45641642
 30
0.0
 10
5.5050689782
 20
3.449130533
 30
0.0
 10
5.5192714617
 20
3.4423210226
 30
0.0
 10
5.5338355944
 20
3.4360014867
 30
0.0
 10
5.5487322631
 20
3.430182277
 30
0.0
 10
5.5690547807
 20
3.423085341
 30
0.0
 10
5.5951235067
 20
3.4155375164
 30
0.0
 10
5.6217764311
 20
3.4098098381
 30
0.0
 10
5.6434158972
 20
3.4063192904
 30
0.0
 10
5.6597911174
 20
3.4042507064
 30
0.0
 10
5.6762510556
 20
3.4027400964
 30
0.0
 10
5.6927635624
 20
3.4017908987
 30
0.0
 10
5.7092961916
 20
3.4014029871
 30
0.0
 10
5.7312976849
 20
3.401633756
 30
0.0
 10
5.7586588028
 20
3.4033197345
 30
0.0
 10
5.7857483818
 20
3.4068624961
 30
0.0
 10
5.8070926126
 20
3.4108004802
 30
0.0
 10
5.8228595054
 20
3.4142862078
 30
0.0
 10
5.8383903494
 20
3.4183035169
 30
0.0
 10
5.853654386
 20
3.4228452259
 30
0.0
 10
5.8686221204
 20
3.4279007886
 30
0.0
 10
5.8880489917
 20
3.4352754128
 30
0.0
 10
5.9114409954
 20
3.4456996346
 30
0.0
 10
5.9337122607
 20
3.4577952411
 30
0.0
 10
5.9505989374
 20
3.468366906
 30
0.0
 10
5.9627060371
 20
3.4766710716
 30
0.0
 10
5.9743021375
 20
3.4853779834
 30
0.0
 10
5.98536356
 20
3.4944712889
 30
0.0
 10
5.9958690836
 20
3.5039316784
 30
0.0
 10
6.0057985174
 20
3.5137393691
 30
0.0
 10
6.0151316738
 20
3.5238757917
 30
0.0
 10
6.0266816826
 20
3.5377128142
 30
0.0
 10
6.0395830884
 20
3.5557289474
 30
0.0
 10
6.0504089583
 20
3.5747784242
 30
0.0
 10
6.0576602988
 20
3.5903944998
 30
0.0
 10
6.0623719109
 20
3.602221099
 30
0.0
 10
6.0663744975
 20
3.6141965601
 30
0.0
 10
6.0696612218
 20
3.626297696
 30
0.0
 10
6.072224051
 20
3.6385006305
 30
0.0
 10
6.0740573445
 20
3.6507793136
 30
0.0
 10
6.0751595189
 20
3.6631046775
 30
0.0
 10
6.0754053009
 20
3.6713401518
 30
0.0
 10
6.0754053009
 20
3.6754525214
 30
0.0
 11
5.3471177687
 21
3.611699024
 31
0.0
 11
5.3523642545
 21
3.5993640125
 31
0.0
 11
5.3583011354
 21
3.5872185836
 31
0.0
 11
5.3649164054
 21
3.5752863225
 31
0.0
 11
5.372197893
 21
3.563590734
 31
0.0
 11
5.3801310626
 21
3.552154173
 31
0.0
 11
5.3886996155
 21
3.5409981373
 31
0.0
 11
5.3978871993
 21
3.5301440984
 31
0.0
 11
5.4076761719
 21
3.5196129061
 31
0.0
 11
5.4180464524
 21
3.5094242348
 31
0.0
 11
5.4289776888
 21
3.4995976281
 31
0.0
 11
5.4524374869
 21
3.4811058411
 31
0.0
 11
5.4649189411
 21
3.4724751919
 31
0.0
 11
5.4778694239
 21
3.4642772756
 31
0.0
 11
5.4912634189
 21
3.4565275236
 31
0.0
 11
5.5050740648
 21
3.4492400349
 31
0.0
 11
5.5192744492
 21
3.4424288573
 31
0.0
 11
5.533836972
 21
3.4361071693
 31
0.0
 11
5.5487324284
 21
3.4302861197
 31
0.0
 11
5.5639313846
 21
3.4249765686
 31
0.0
 11
5.5951204113
 21
3.4159318935
 31
0.0
 11
5.6271582361
 21
3.4090380194
 31
0.0
 11
5.6434171656
 21
3.4064142586
 31
0.0
 11
5.6597933323
 21
3.4043450251
 31
0.0
 11
5.6762544795
 21
3.4028340887
 31
0.0
 11
5.6927682678
 21
3.4018844172
 31
0.0
 11
5.7093021012
 21
3.40149649
 31
0.0
 11
5.725823334
 21
3.4016703052
 31
0.0
 11
5.7586977031
 21
3.4037001902
 31
0.0
 11
5.7911323927
 21
3.4079515994
 31
0.0
 11
5.8071045691
 21
3.4108996751
 31
0.0
 11
5.8228715218
 21
3.4143871444
 31
0.0
 11
5.8384021745
 21
3.4184065907
 31
0.0
 11
5.8536656682
 21
3.4229501551
 31
0.0
 11
5.8686322667
 21
3.4280076917
 31
0.0
 11
5.8832725962
 21
3.4335683172
 31
0.0
 11
5.9114585149
 21
3.4461532888
 31
0.0
 11
5.9380023613
 21
3.4606000669
 31
0.0
 11
5.9505921043
 21
3.4684856148
 31
0.0
 11
5.962694195
 21
3.4767908456
 31
0.0
 11
5.9742847063
 21
3.4854987215
 31
0.0
 11
5.9853400515
 21
3.4945919719
 31
0.0
 11
5.9958389796
 21
3.5040517275
 31
0.0
 11
6.0057612188
 21
3.5138584489
 31
0.0
 11
6.0150865672
 21
3.5239925607
 31
0.0
 11
6.0237966328
 21
3.5344335671
 31
0.0
 11
6.0393054018
 21
3.5561501872
 31
0.0
 11
6.0521637325
 21
3.5788327629
 31
0.0
 11
6.0575673436
 21
3.5904781415
 31
0.0
 11
6.0622716798
 21
3.6022947889
 31
0.0
 11
6.0662679195
 21
3.6142593932
 31
0.0
 11
6.0695488416
 21
3.6263488009
 31
0.0
 11
6.0721072789
 21
3.6385398147
 31
0.0
 11
6.0739378945
 21
3.6508068629
 31
0.0
 11
6.0750380446
 21
3.6631208802
 31
0.0
 11
6.0754053009
 21
3.6754525214
 31
0.0
  0
SPLINE
  5
260
100
AcDbEntity
  8
0
100
AcDbSpline
 62
6
  6
CONTINUOUS
 70
0
 71
3
 72
64
 73
60
 74
58
 42
0.0000001
 43
0.0000001
 44
0.0000000001
 12
0.3523374792
 22
-0.8521627645
 32
0.0
 13
0.1008865424
 23
0.9165942298
 33
0.0
 40
0.0
 40
0.0
 40
0.0
 40
0.0
 40
0.0140731674
 40
0.0282729236
 40
0.0426044795
 40
0.057072284
 40
0.0716824533
 40
0.0864421946
 40
0.101357684
 40
0.1164336128
 40
0.1316719863
 40
0.1470734215
 40
0.1783564651
 40
0.2102727534
 40
0.2264615176
 40
0.2427943918
 40
0.2592644608
 40
0.2758641934
 40
0.2925851361
 40
0.3094179445
 40
0.3263527729
 40
0.3433792434
 40
0.3604861606
 40
0.3776618763
 40
0.4121667797
 40
0.4467984368
 40
0.4641317611
 40
0.4814577544
 40
0.4987632413
 40
0.5160351156
 40
0.5332604233
 40
0.5504262616
 40
0.5675198769
 40
0.5845290139
 40
0.6014419471
 40
0.6182472122
 40
0.6514864022
 40
0.6841718304
 40
0.700287608
 40
0.7162404358
 40
0.7320238079
 40
0.747632135
 40
0.7630613441
 40
0.7783083149
 40
0.7933708268
 40
0.8082482008
 40
0.8229413189
 40
0.8374520708
 40
0.8659331533
 40
0.8799229775
 40
0.8937526307
 40
0.9074312334
 40
0.9209692291
 40
0.9343780994
 40
0.9476708579
 40
0.9608628545
 40
0.9739705443
 40
0.9870111159
 40
1.0
 40
1.0
 40
1.0
 40
1.0
 10
5.3486722039
 20
3.6537640111
 30
0.0
 10
5.3503250387
 20
3.6497664681
 30
0.0
 10
5.3538539103
 20
3.6418198743
 30
0.0
 10
5.3597683445
 20
3.6301301313
 30
0.0
 10
5.3663145329
 20
3.6186420034
 30
0.0
 10
5.3734803808
 20
3.6073802896
 30
0.0
 10
5.3812520357
 20
3.5963664833
 30
0.0
 10
5.3896139973
 20
3.5856192066
 30
0.0
 10
5.3985516913
 20
3.5751568922
 30
0.0
 10
5.4080495665
 20
3.5649982828
 30
0.0
 10
5.4180893902
 20
3.5551602682
 30
0.0
 10
5.4322451129
 20
3.5424291435
 30
0.0
 10
5.451217301
 20
3.5274231768
 30
0.0
 10
5.4715295193
 20
3.5138525085
 30
0.0
 10
5.4886084986
 20
3.5038141168
 30
0.0
 10
5.5018733659
 20
3.4966779186
 30
0.0
 10
5.5155070176
 20
3.4899833398
 30
0.0
 10
5.5294852198
 20
3.4837430693
 30
0.0
 10
5.5437820023
 20
3.4779676219
 30
0.0
 10
5.558370794
 20
3.4726661415
 30
0.0
 10
5.5732250951
 20
3.4678483304
 30
0.0
 10
5.5883178252
 20
3.4635232397
 30
0.0
 10
5.6036210885
 20
3.459696953
 30
0.0
 10
5.6242979778
 20
3.4552625707
 30
0.0
 10
5.6505063342
 20
3.4510090062
 30
0.0
 10
5.6769859833
 20
3.4484895294
 30
0.0
 10
5.6982655222
 20
3.4475199194
 30
0.0
 10
5.7142399789
 20
3.4473165294
 30
0.0
 10
5.7301934763
 20
3.44763712
 30
0.0
 10
5.7460968885
 20
3.4484817714
 30
0.0
 10
5.761920957
 20
3.4498474974
 30
0.0
 10
5.7776366657
 20
3.4517306172
 30
0.0
 10
5.7932150204
 20
3.4541279611
 30
0.0
 10
5.808627243
 20
3.457034958
 30
0.0
 10
5.8238455345
 20
3.4604445866
 30
0.0
 10
5.8437655415
 20
3.4656325558
 30
0.0
 10
5.8680280693
 20
3.4733206746
 30
0.0
 10
5.8914835604
 20
3.4826462029
 30
0.0
 10
5.9095426472
 20
3.4910242884
 30
0.0
 10
5.922645395
 20
3.4977152383
 30
0.0
 10
5.9353445042
 20
3.5048298093
 30
0.0
 10
5.9476160706
 20
3.5123556426
 30
0.0
 10
5.959438034
 20
3.520277369
 30
0.0
 10
5.9707890124
 20
3.5285794661
 30
0.0
 10
5.9816475002
 20
3.5372470036
 30
0.0
 10
5.9919931281
 20
3.5462636347
 30
0.0
 10
6.0018081573
 20
3.5556117866
 30
0.0
 10
6.014084144
 20
3.5684118812
 30
0.0
 10
6.0253233858
 20
3.5818863126
 30
0.0
 10
6.0354073216
 20
3.5959570205
 30
0.0
 10
6.042314789
 20
3.6066871674
 30
0.0
 10
6.0485971688
 20
3.6176347878
 30
0.0
 10
6.0542443041
 20
3.6287786853
 30
0.0
 10
6.0592452885
 20
3.6400977623
 30
0.0
 10
6.0635895851
 20
3.6515712877
 30
0.0
 10
6.0672702449
 20
3.663177602
 30
0.0
 10
6.0702807622
 20
3.6748957508
 30
0.0
 10
6.0726137489
 20
3.6867034449
 30
0.0
 10
6.0737166807
 20
3.6946330771
 30
0.0
 10
6.0741534819
 20
3.6986015892
 30
0.0
 11
5.3486722039
 21
3.6537640111
 31
0.0
 11
5.3539362328
 21
3.6419023114
 31
0.0
 11
5.3598448752
 21
3.6302172267
 31
0.0
 11
5.3663853308
 21
3.6187336181
 31
0.0
 11
5.3735447513
 21
3.6074761723
 31
0.0
 11
5.381309372
 21
3.5964662622
 31
0.0
 11
5.3896646073
 21
3.5857222922
 31
0.0
 11
5.3985958426
 21
3.5752625616
 31
0.0
 11
5.4080876005
 21
3.5651052468
 31
0.0
 11
5.4181216993
 21
3.5552681381
 31
0.0
 11
5.4286794287
 21
3.5457689508
 31
0.0
 11
5.4512887597
 21
3.5278533482
 31
0.0
 11
5.4757480716
 21
3.5114849884
 31
0.0
 11
5.4886163327
 21
3.5039181396
 31
0.0
 11
5.501878609
 21
3.4967804525
 31
0.0
 11
5.5155103538
 21
3.4900844188
 31
0.0
 11
5.52948693
 21
3.4838424001
 31
0.0
 11
5.5437825418
 21
3.4780650955
 31
0.0
 11
5.5583705921
 21
3.4727620538
 31
0.0
 11
5.5732244661
 21
3.4679427973
 31
0.0
 11
5.588317115
 21
3.4636159968
 31
0.0
 11
5.6036204954
 21
3.4597883713
 31
0.0
 11
5.6191064256
 21
3.456466368
 31
0.0
 11
5.650512344
 21
3.4513621501
 31
0.0
 11
5.6823034264
 21
3.4483350245
 31
0.0
 11
5.6982704184
 21
3.4476071893
 31
0.0
 11
5.7142459373
 21
3.4474039164
 31
0.0
 11
5.7302006081
 21
3.447725052
 31
0.0
 11
5.7461050796
 21
3.4485701317
 31
0.0
 11
5.7619301633
 21
3.4499365613
 31
0.0
 11
5.7776467388
 21
3.4518208535
 31
0.0
 11
5.7932256945
 21
3.4542194927
 31
0.0
 11
5.8086383477
 21
3.4571277089
 31
0.0
 11
5.8238566346
 21
3.4605389219
 31
0.0
 11
5.8388525398
 21
3.4644464102
 31
0.0
 11
5.8680669191
 21
3.4737197147
 31
0.0
 11
5.8960672981
 21
3.4848736632
 31
0.0
 11
5.9095470379
 21
3.4911299456
 31
0.0
 11
5.9226469632
 21
3.4978227017
 31
0.0
 11
5.9353427964
 21
3.5049391551
 31
0.0
 11
5.9476106122
 21
3.5124661929
 31
0.0
 11
5.9594283236
 21
3.5203889468
 31
0.0
 11
5.9707744411
 21
3.5286919779
 31
0.0
 11
5.9816275118
 21
3.5373598224
 31
0.0
 11
5.9919674577
 21
3.546376077
 31
0.0
 11
6.0017759706
 21
3.5557231292
 31
0.0
 11
6.0110348589
 21
3.565383287
 31
0.0
 11
6.0278353341
 21
3.5855699746
 31
0.0
 11
6.0353469704
 21
3.596057894
 31
0.0
 11
6.0422467881
 21
3.6067828518
 31
0.0
 11
6.0485220919
 21
3.617724495
 31
0.0
 11
6.054162104
 21
3.6288616043
 31
0.0
 11
6.0591561355
 21
3.6401729203
 31
0.0
 11
6.063494256
 21
3.6516372394
 31
0.0
 11
6.0671693059
 21
3.6632335618
 31
0.0
 11
6.0701747585
 21
3.674940934
 31
0.0
 11
6.0725042095
 21
3.6867382485
 31
0.0
 11
6.0741534819
 21
3.6986015892
 31
0.0
  0
SPLINE
  5
261
100
AcDbEntity
  8
0
100
AcDbSpline
 62
6
  6
CONTINUOUS
 70
0
 71
3
 72
61
 73
57
 74
55
 42
0.0000001
 43
0.0000001
 44
0.0000000001
 12
0.2646176953
 22
-0.8847365802
 32
0.0
 13
0.20297686
 23
0.9008783133
 33
0.0
 40
0.0
 40
0.0
 40
0.0
 40
0.0
 40
0.0138565576
 40
0.0278087736
 40
0.0418694188
 40
0.0560491556
 40
0.070357585
 40
0.0848033906
 40
0.099393931
 40
0.1141352821
 40
0.1290324877
 40
0.1440892282
 40
0.1746813355
 40
0.2059220946
 40
0.2217840751
 40
0.2378003211
 40
0.2539660653
 40
0.2702752793
 40
0.2867211985
 40
0.3032963653
 40
0.3199921441
 40
0.3367991352
 40
0.3707016582
 40
0.4049228516
 40
0.4393689285
 40
0.4739395553
 40
0.4912416142
 40
0.5085357727
 40
0.5258087998
 40
0.543047589
 40
0.5602392726
 40
0.5773710544
 40
0.6114000887
 40
0.645043646
 40
0.6616951334
 40
0.6782176442
 40
0.6946014807
 40
0.7108374932
 40
0.7269176822
 40
0.7428349846
 40
0.758582967
 40
0.7741562239
 40
0.7895507565
 40
0.804763412
 40
0.8346290819
 40
0.863760359
 40
0.878060263
 40
0.8921867972
 40
0.9061462788
 40
0.9199462783
 40
0.9335959544
 40
0.947105656
 40
0.9604867875
 40
0.9737524505
 40
0.9869180484
 40
1.0
 40
1.0
 40
1.0
 40
1.0
 10
5.3402953093
 20
3.7232333952
 30
0.0
 10
5.3415175395
 20
3.7191469274
 30
0.0
 10
5.3441878591
 20
3.7110090842
 30
0.0
 10
5.3488407006
 20
3.6989841363
 30
0.0
 10
5.3541452487
 20
3.6871228114
 30
0.0
 10
5.3600902885
 20
3.6754463207
 30
0.0
 10
5.3666651192
 20
3.6639757481
 30
0.0
 10
5.3738589275
 20
3.6527326626
 30
0.0
 10
5.3816572071
 20
3.6417365094
 30
0.0
 10
5.3900450337
 20
3.6310065104
 30
0.0
 10
5.3990080205
 20
3.6205621362
 30
0.0
 10
5.4117694675
 20
3.6069720916
 30
0.0
 10
5.4290938954
 20
3.5908003049
 30
0.0
 10
5.4479032622
 20
3.5759837625
 30
0.0
 10
5.4638599018
 20
3.5648912521
 30
0.0
 10
5.476328719
 20
3.5569315162
 30
0.0
 10
5.4892135522
 20
3.5493889329
 30
0.0
 10
5.5024903932
 20
3.5422755266
 30
0.0
 10
5.5161350455
 20
3.5356040607
 30
0.0
 10
5.530122957
 20
3.5293872923
 30
0.0
 10
5.5444280952
 20
3.5236348769
 30
0.0
 10
5.5639434394
 20
3.5165772944
 30
0.0
 10
5.5889831632
 20
3.5089828108
 30
0.0
 10
5.6197731034
 20
3.5018891442
 30
0.0
 10
5.6511712411
 20
3.4968385768
 30
0.0
 10
5.6776467027
 20
3.4943562252
 30
0.0
 10
5.6989200274
 20
3.493415758
 30
0.0
 10
5.714888404
 20
3.4932336733
 30
0.0
 10
5.7308345371
 20
3.4935753498
 30
0.0
 10
5.74672926
 20
3.4944406876
 30
0.0
 10
5.7625436113
 20
3.4958263953
 30
0.0
 10
5.7834343939
 20
3.4983571872
 30
0.0
 10
5.8091804977
 20
3.5027928647
 30
0.0
 10
5.8344237036
 20
3.5089305242
 30
0.0
 10
5.8541304017
 20
3.5148321284
 30
0.0
 10
5.8685837109
 20
3.5197225404
 30
0.0
 10
5.8827329694
 20
3.525082031
 30
0.0
 10
5.896551907
 20
3.5309013994
 30
0.0
 10
5.9100151727
 20
3.5371691472
 30
0.0
 10
5.9230985434
 20
3.5438723534
 30
0.0
 10
5.9357778124
 20
3.5509986733
 30
0.0
 10
5.9480290567
 20
3.5585353429
 30
0.0
 10
5.9598307356
 20
3.5664670679
 30
0.0
 10
5.9748438157
 20
3.5774797705
 30
0.0
 10
5.9923998008
 20
3.5921412551
 30
0.0
 10
6.0083974063
 20
3.6080988008
 30
0.0
 10
6.0200369981
 20
3.6214639775
 30
0.0
 10
6.028131832
 20
3.6317031273
 30
0.0
 10
6.0356295649
 20
3.6421986813
 30
0.0
 10
6.0425151844
 20
3.6529319053
 30
0.0
 10
6.0487763621
 20
3.6638819277
 30
0.0
 10
6.054402437
 20
3.6750273694
 30
0.0
 10
6.0593823639
 20
3.686347274
 30
0.0
 10
6.0637057786
 20
3.6978209688
 30
0.0
 10
6.0673658564
 20
3.7094263427
 30
0.0
 10
6.0693649554
 20
3.7172598214
 30
0.0
 10
6.0702500665
 20
3.7211882369
 30
0.0
 11
5.3402953093
 21
3.7232333952
 31
0.0
 11
5.344282952
 21
3.7110746002
 31
0.0
 11
5.348930072
 21
3.6990575129
 31
0.0
 11
5.3542282897
 21
3.6872031785
 31
0.0
 11
5.3601669908
 21
3.6755328633
 31
0.0
 11
5.3667354242
 21
3.6640678474
 31
0.0
 11
5.3739223455
 21
3.6528291785
 31
0.0
 11
5.3817138895
 21
3.6418366704
 31
0.0
 11
5.3900953238
 21
3.6311097286
 31
0.0
 11
5.399051875
 21
3.6206677378
 31
0.0
 11
5.4085672633
 21
3.6105293184
 31
0.0
 11
5.4292016776
 21
3.5912337382
 31
0.0
 11
5.4518482629
 21
3.5733610217
 31
0.0
 11
5.4638739947
 21
3.5649977909
 31
0.0
 11
5.4763392245
 21
3.5570370353
 31
0.0
 11
5.4892211325
 21
3.5494928395
 31
0.0
 11
5.5024955486
 21
3.542377955
 31
0.0
 11
5.5161382319
 21
3.5357050638
 31
0.0
 11
5.5301245801
 21
3.5294863878
 31
0.0
 11
5.5444284834
 21
3.5237322312
 31
0.0
 11
5.559023439
 21
3.518452398
 31
0.0
 11
5.5889796437
 21
3.5093531382
 31
0.0
 11
5.6197729379
 21
3.5022498433
 31
0.0
 11
5.6511777768
 21
3.4971913231
 31
0.0
 11
5.6829628097
 21
3.4942089177
 31
0.0
 11
5.6989249921
 21
3.4935029302
 31
0.0
 11
5.7148944476
 21
3.4933210379
 31
0.0
 11
5.7308417537
 21
3.4936632474
 31
0.0
 11
5.7467375561
 21
3.4945289783
 31
0.0
 11
5.7625527613
 21
3.495915415
 31
0.0
 11
5.7782583379
 21
3.4978192099
 31
0.0
 11
5.8092250653
 21
3.503163499
 31
0.0
 11
5.8394108221
 21
3.5105169918
 31
0.0
 11
5.8541409626
 21
3.5149300831
 31
0.0
 11
5.8685932815
 21
3.5198223348
 31
0.0
 11
5.8827412355
 21
3.5251840114
 31
0.0
 11
5.8965583605
 21
3.5310052764
 31
0.0
 11
5.9100193966
 21
3.5372747495
 31
0.0
 11
5.9231000234
 21
3.5439798463
 31
0.0
 11
5.9357759463
 21
3.5511079495
 31
0.0
 11
5.9480234954
 21
3.5586458187
 31
0.0
 11
5.9598207355
 21
3.5665784834
 31
0.0
 11
5.97114603
 21
3.574890675
 31
0.0
 11
5.9922966358
 21
3.5925908789
 31
0.0
 11
6.0113211879
 21
3.6116109567
 31
0.0
 11
6.0199911634
 21
3.6215716012
 31
0.0
 11
6.0280786423
 21
3.6318074622
 31
0.0
 11
6.0355688153
 21
3.6422991903
 31
0.0
 11
6.0424470795
 21
3.6530273378
 31
0.0
 11
6.0487011256
 21
3.6639713644
 31
0.0
 11
6.0543200765
 21
3.675110047
 31
0.0
 11
6.0592930794
 21
3.6864221526
 31
0.0
 11
6.0636103478
 21
3.6978865231
 31
0.0
 11
6.067264867
 21
3.7094821952
 31
0.0
 11
6.0702500665
 21
3.7211882369
 31
0.0
  0
SPLINE
  5
262
100
AcDbEntity
  8
0
100
AcDbSpline
 62
6
  6
CONTINUOUS
 70
0
 71
3
 72
59
 73
55
 74
53
 42
0.0000001
 43
0.0000001
 44
0.0000000001
 12
0.0
 22
-0.5460069091
 32
0.0
 13
0.0
 23
0.5460069091
 33
0.0
 40
0.0
 40
0.0
 40
0.0
 40
0.0
 40
0.0134942655
 40
0.0270190512
 40
0.040590819
 40
0.0542272577
 40
0.0679498573
 40
0.0817797776
 40
0.0957363078
 40
0.109835519
 40
0.1240916694
 40
0.1385173927
 40
0.1531231748
 40
0.167917723
 40
0.1829076566
 40
0.1980970505
 40
0.2290726231
 40
0.2608489609
 40
0.2770318614
 40
0.2933996588
 40
0.3266482445
 40
0.3605193079
 40
0.3776605229
 40
0.394917721
 40
0.42971305
 40
0.4472254204
 40
0.4647899024
 40
0.5
 40
0.5352100976
 40
0.5527745796
 40
0.57028695
 40
0.605082279
 40
0.6223394771
 40
0.6394806921
 40
0.6733517555
 40
0.7066003412
 40
0.7229681386
 40
0.7391510391
 40
0.7709273769
 40
0.8019029495
 40
0.8170923434
 40
0.832082277
 40
0.8468768252
 40
0.8614826073
 40
0.8759083306
 40
0.890164481
 40
0.9042636922
 40
0.9182202224
 40
0.9320501427
 40
0.9457727423
 40
0.959409181
 40
0.9729809488
 40
0.9865057345
 40
1.0
 40
1.0
 40
1.0
 40
1.0
 10
5.8989053009
 20
3.8512999319
 30
0.0
 10
5.8989053009
 20
3.8488439445
 30
0.0
 10
5.8987471351
 20
3.843924973
 30
0.0
 10
5.8980380771
 20
3.8365666798
 30
0.0
 10
5.8968586165
 20
3.8292424917
 30
0.0
 10
5.8952103244
 20
3.8219726107
 30
0.0
 10
5.893098578
 20
3.8147747059
 30
0.0
 10
5.8905283305
 20
3.8076656261
 30
0.0
 10
5.8875053243
 20
3.8006623724
 30
0.0
 10
5.8840379328
 20
3.7937813473
 30
0.0
 10
5.8801341028
 20
3.7870394785
 30
0.0
 10
5.8758028852
 20
3.7804534559
 30
0.0
 10
5.8710557664
 20
3.7740384716
 30
0.0
 10
5.8659037486
 20
3.7678102623
 30
0.0
 10
5.8603589627
 20
3.7617838592
 30
0.0
 10
5.8524106338
 20
3.7539864391
 30
0.0
 10
5.8415462165
 20
3.7448277598
 30
0.0
 10
5.8297185682
 20
3.7366356511
 30
0.0
 10
5.8196651659
 20
3.7306294319
 30
0.0
 10
5.8091213893
 20
3.7249437728
 30
0.0
 10
5.7952893581
 20
3.7186073728
 30
0.0
 10
5.7808507003
 20
3.7133871089
 30
0.0
 10
5.7689315447
 20
3.709867169
 30
0.0
 10
5.756720166
 20
3.7067780294
 30
0.0
 10
5.7442703643
 20
3.7043944825
 30
0.0
 10
5.7316619389
 20
3.7027190039
 30
0.0
 10
5.7189234321
 20
3.7015164012
 30
0.0
 10
5.7029053009
 20
3.7009142492
 30
0.0
 10
5.6868871697
 20
3.7015164012
 30
0.0
 10
5.6741486629
 20
3.7027190039
 30
0.0
 10
5.6615402375
 20
3.7043944825
 30
0.0
 10
5.6490904358
 20
3.7067780294
 30
0.0
 10
5.6368790571
 20
3.709867169
 30
0.0
 10
5.6249599015
 20
3.7133871089
 30
0.0
 10
5.6105212437
 20
3.7186073728
 30
0.0
 10
5.5966892125
 20
3.7249437728
 30
0.0
 10
5.5861454359
 20
3.7306294319
 30
0.0
 10
5.5760920336
 20
3.7366356511
 30
0.0
 10
5.5642643853
 20
3.7448277598
 30
0.0
 10
5.553399968
 20
3.7539864391
 30
0.0
 10
5.5454516391
 20
3.7617838592
 30
0.0
 10
5.5399068532
 20
3.7678102623
 30
0.0
 10
5.5347548354
 20
3.7740384716
 30
0.0
 10
5.5300077166
 20
3.7804534559
 30
0.0
 10
5.525676499
 20
3.7870394785
 30
0.0
 10
5.521772669
 20
3.7937813473
 30
0.0
 10
5.5183052775
 20
3.8006623724
 30
0.0
 10
5.5152822713
 20
3.8076656261
 30
0.0
 10
5.5127120238
 20
3.8147747059
 30
0.0
 10
5.5106002774
 20
3.8219726107
 30
0.0
 10
5.5089519853
 20
3.8292424917
 30
0.0
 10
5.5077725247
 20
3.8365666798
 30
0.0
 10
5.5070634667
 20
3.843924973
 30
0.0
 10
5.5069053009
 20
3.8488439445
 30
0.0
 10
5.5069053009
 20
3.8512999319
 30
0.0
 11
5.8989053009
 21
3.8512999319
 31
0.0
 11
5.8986690372
 21
3.8439357588
 31
0.0
 11
5.8979613497
 21
3.8365851203
 31
0.0
 11
5.8967838941
 21
3.8292689852
 31
0.0
 11
5.8951390332
 21
3.8220073573
 31
0.0
 11
5.893031289
 21
3.814817296
 31
0.0
 11
5.8904655966
 21
3.8077153014
 31
0.0
 11
5.8874477524
 21
3.8007179782
 31
0.0
 11
5.8839855748
 21
3.7938421773
 31
0.0
 11
5.8800871825
 21
3.7871047803
 31
0.0
 11
5.875761688
 21
3.7805222237
 31
0.0
 11
5.8710200182
 21
3.7741101315
 31
0.0
 11
5.8658733149
 21
3.7678840311
 31
0.0
 11
5.8603338081
 21
3.7618589451
 31
0.0
 11
5.8544152829
 21
3.7560491746
 31
0.0
 11
5.8414980792
 21
3.7451317003
 31
0.0
 11
5.8272463413
 21
3.735236553
 31
0.0
 11
5.8196622371
 21
3.7307026998
 31
0.0
 11
5.811797038
 21
3.7264591906
 31
0.0
 11
5.7952989608
 21
3.7188842568
 31
0.0
 11
5.7779112165
 21
3.7125843944
 31
0.0
 11
5.7689356405
 21
3.7099322125
 31
0.0
 11
5.7598010905
 21
3.7076204096
 31
0.0
 11
5.7411429611
 21
3.7040403495
 31
0.0
 11
5.7316644714
 21
3.702780313
 31
0.0
 11
5.7221166535
 21
3.7018783296
 31
0.0
 11
5.7029053009
 21
3.7011552211
 31
0.0
 11
5.6836939483
 21
3.7018783296
 31
0.0
 11
5.6741461303
 21
3.702780313
 31
0.0
 11
5.6646676407
 21
3.7040403495
 31
0.0
 11
5.6460095113
 21
3.7076204096
 31
0.0
 11
5.6368749613
 21
3.7099322125
 31
0.0
 11
5.6278993853
 21
3.7125843944
 31
0.0
 11
5.610511641
 21
3.7188842568
 31
0.0
 11
5.5940135638
 21
3.7264591906
 31
0.0
 11
5.5861483647
 21
3.7307026998
 31
0.0
 11
5.5785642605
 21
3.735236553
 31
0.0
 11
5.5643125226
 21
3.7451317003
 31
0.0
 11
5.5513953189
 21
3.7560491746
 31
0.0
 11
5.5454767937
 21
3.7618589451
 31
0.0
 11
5.5399372869
 21
3.7678840311
 31
0.0
 11
5.5347905836
 21
3.7741101315
 31
0.0
 11
5.5300489138
 21
3.7805222237
 31
0.0
 11
5.5257234193
 21
3.7871047803
 31
0.0
 11
5.521825027
 21
3.7938421773
 31
0.0
 11
5.5183628494
 21
3.8007179782
 31
0.0
 11
5.5153450052
 21
3.8077153014
 31
0.0
 11
5.5127793128
 21
3.814817296
 31
0.0
 11
5.5106715686
 21
3.8220073573
 31
0.0
 11
5.5090267077
 21
3.8292689852
 31
0.0
 11
5.5078492521
 21
3.8365851203
 31
0.0
 11
5.5071415646
 21
3.8439357588
 31
0.0
 11
5.5069053009
 21
3.8512999319
 31
0.0
  0
SPLINE
  5
263
100
AcDbEntity
  8
0
100
AcDbSpline
 62
6
  6
CONTINUOUS
 70
0
 71
3
 72
60
 73
56
 74
54
 42
0.0000001
 43
0.0000001
 44
0.0000000001
 12
0.3389581309
 22
-0.8046866897
 32
0.0
 13
0.2830849478
 23
0.8260001183
 33
0.0
 40
0.0
 40
0.0
 40
0.0
 40
0.0
 40
0.0139396313
 40
0.0279899833
 40
0.0421594703
 40
0.0564557659
 40
0.0708854404
 40
0.0854539609
 40
0.1001659341
 40
0.1150250345
 40
0.1300335166
 40
0.1451926298
 40
0.1605028561
 40
0.1759636158
 40
0.1915730131
 40
0.207328368
 40
0.239257401
 40
0.2717175108
 40
0.3046584115
 40
0.3380184718
 40
0.3717277734
 40
0.4057087019
 40
0.4398782518
 40
0.4570083618
 40
0.4741523645
 40
0.491298971
 40
0.5084367729
 40
0.525554325
 40
0.5426402657
 40
0.5596833444
 40
0.5766723404
 40
0.5935961513
 40
0.6104440572
 40
0.6272058104
 40
0.6438713631
 40
0.6768710321
 40
0.6931918906
 40
0.70938082
 40
0.7413281358
 40
0.7726659688
 40
0.8033540749
 40
0.8184490635
 40
0.8333733472
 40
0.8481261885
 40
0.8627081382
 40
0.8771205524
 40
0.891365746
 40
0.9054475616
 40
0.9193710445
 40
0.9331421436
 40
0.946767923
 40
0.9602567925
 40
0.9736180609
 40
0.9868619109
 40
1.0
 40
1.0
 40
1.0
 40
1.0
 10
5.3493107429
 20
3.7440631509
 30
0.0
 10
5.3508857267
 20
3.740324139
 30
0.0
 10
5.3542296815
 20
3.7328914659
 30
0.0
 10
5.3597888318
 20
3.7219475101
 30
0.0
 10
5.3659015586
 20
3.7111830766
 30
0.0
 10
5.3725590113
 20
3.7006162643
 30
0.0
 10
5.3797495581
 20
3.690263163
 30
0.0
 10
5.3874609632
 20
3.68013961
 30
0.0
 10
5.3956811718
 20
3.6702616342
 30
0.0
 10
5.4043976309
 20
3.6606452946
 30
0.0
 10
5.4135952954
 20
3.6513047768
 30
0.0
 10
5.4232591729
 20
3.6422544391
 30
0.0
 10
5.4333743423
 20
3.6335089661
 30
0.0
 10
5.4439245888
 20
3.6250822159
 30
0.0
 10
5.4548923143
 20
3.6169863099
 30
0.0
 10
5.4701147262
 20
3.6066047583
 30
0.0
 10
5.4901022441
 20
3.5945360133
 30
0.0
 10
5.5153449648
 20
3.581630435
 30
0.0
 10
5.5417942975
 20
3.5703184939
 30
0.0
 10
5.5692772418
 20
3.5606646281
 30
0.0
 10
5.5976190723
 20
3.5527306693
 30
0.0
 10
5.6266359321
 20
3.5465594582
 30
0.0
 10
5.6512067386
 20
3.5429213102
 30
0.0
 10
5.6710291515
 20
3.5409180391
 30
0.0
 10
5.6859613837
 20
3.5398735769
 30
0.0
 10
5.7009207568
 20
3.5392891732
 30
0.0
 10
5.7158833612
 20
3.5391646369
 30
0.0
 10
5.7308250671
 20
3.5394999986
 30
0.0
 10
5.7457217655
 20
3.5402952507
 30
0.0
 10
5.7605494651
 20
3.5415476455
 30
0.0
 10
5.7752842749
 20
3.5432543584
 30
0.0
 10
5.7899023498
 20
3.5454127924
 30
0.0
 10
5.8043799296
 20
3.5480195516
 30
0.0
 10
5.8186941925
 20
3.5510690113
 30
0.0
 10
5.8374672425
 20
3.5557019889
 30
0.0
 10
5.8558838302
 20
3.5612081189
 30
0.0
 10
5.8738580845
 20
3.5675784857
 30
0.0
 10
5.8913220393
 20
3.5744401274
 30
0.0
 10
5.9124072354
 20
3.5840013109
 30
0.0
 10
5.936473463
 20
3.597045659
 30
0.0
 10
5.9553828466
 20
3.6091837907
 30
0.0
 10
5.969676675
 20
3.6195769501
 30
0.0
 10
5.9799089883
 20
3.6276518108
 30
0.0
 10
5.9896940175
 20
3.6360354055
 30
0.0
 10
5.999016923
 20
3.6447130584
 30
0.0
 10
6.0078626556
 20
3.653670323
 30
0.0
 10
6.0162160423
 20
3.6628931337
 30
0.0
 10
6.0240637999
 20
3.6723659196
 30
0.0
 10
6.0313939199
 20
3.6820724981
 30
0.0
 10
6.0381943011
 20
3.6919969929
 30
0.0
 10
6.0444527229
 20
3.7021236259
 30
0.0
 10
6.0501599438
 20
3.7124348091
 30
0.0
 10
6.0553072068
 20
3.7229131584
 30
0.0
 10
6.0598854404
 20
3.7335410694
 30
0.0
 10
6.0625628578
 20
3.7407419618
 30
0.0
 10
6.0638025896
 20
3.7443593162
 30
0.0
 11
5.3493107429
 21
3.7440631509
 31
0.0
 11
5.3543024707
 21
3.732962263
 31
0.0
 11
5.3598564688
 21
3.7220232077
 31
0.0
 11
5.3659639272
 21
3.7112634683
 31
0.0
 11
5.372615741
 21
3.7007003957
 31
0.0
 11
5.3798007187
 21
3.6903504023
 31
0.0
 11
5.3875067692
 21
3.680229496
 31
0.0
 11
5.3957217972
 21
3.6703536827
 31
0.0
 11
5.4044330726
 21
3.6607386374
 31
0.0
 11
5.413625941
 21
3.6513990325
 31
0.0
 11
5.4232853851
 21
3.6423493513
 31
0.0
 11
5.4333963615
 21
3.6336040588
 31
0.0
 11
5.4439427334
 21
3.6251768666
 31
0.0
 11
5.4549069021
 21
3.6170804782
 31
0.0
 11
5.4662711671
 21
3.6093275271
 31
0.0
 11
5.4901274647
 21
3.5949008398
 31
0.0
 11
5.5153565602
 21
3.5819851069
 31
0.0
 11
5.5417964411
 21
3.5706612565
 31
0.0
 11
5.5692753745
 21
3.560997246
 31
0.0
 11
5.5976167195
 21
3.5530529805
 31
0.0
 11
5.6266372079
 21
3.5468745876
 31
0.0
 11
5.6561502172
 21
3.5424991884
 31
0.0
 11
5.6710317787
 21
3.5409951303
 31
0.0
 11
5.6859647788
 21
3.5399503318
 31
0.0
 11
5.7009251405
 21
3.5393657437
 31
0.0
 11
5.7158887148
 21
3.539241366
 31
0.0
 11
5.7308313514
 21
3.5395771866
 31
0.0
 11
5.7457289324
 21
3.5403727444
 31
0.0
 11
5.760557471
 21
3.5416257339
 31
0.0
 11
5.7752930146
 21
3.5433333758
 31
0.0
 11
5.7899116129
 21
3.5454928832
 31
0.0
 11
5.8043896061
 21
3.5481006013
 31
0.0
 11
5.8187038794
 21
3.5511512486
 31
0.0
 11
5.8328313778
 21
3.5546393639
 31
0.0
 11
5.8604346031
 21
3.5629045535
 31
0.0
 11
5.8738661191
 21
3.5676667723
 31
0.0
 11
5.8870218217
 21
3.5728380253
 31
0.0
 11
5.9124203616
 21
3.5843730498
 31
0.0
 11
5.9364671929
 21
3.5974300526
 31
0.0
 11
5.9590058578
 21
3.6119220782
 31
0.0
 11
5.9696644
 21
3.6196756558
 31
0.0
 11
5.9798922046
 21
3.6277507755
 31
0.0
 11
5.9896726171
 21
3.6361340913
 31
0.0
 11
5.9989904704
 21
3.6448111891
 31
0.0
 11
6.0078307187
 21
3.6537675685
 31
0.0
 11
6.0161784464
 21
3.6629886623
 31
0.0
 11
6.0240203997
 21
3.6724590603
 31
0.0
 11
6.0313444702
 21
3.6821627712
 31
0.0
 11
6.0381385719
 21
3.692083792
 31
0.0
 11
6.044391046
 21
3.7022059281
 31
0.0
 11
6.0500923966
 21
3.7125120134
 31
0.0
 11
6.0552338111
 21
3.7229845747
 31
0.0
 11
6.0598064823
 21
3.7336061393
 31
0.0
 11
6.0638025896
 21
3.7443593162
 31
0.0
  0
SPLINE
  5
264
100
AcDbEntity
  8
0
100
AcDbSpline
 62
9
  6
CONTINUOUS
 70
0
 71
3
 72
67
 73
63
 74
61
 42
0.0000001
 43
0.0000001
 44
0.0000000001
 12
0.0
 22
1.3581347019
 32
0.0
 13
0.0
 23
-1.3581347019
 33
0.0
 40
0.0
 40
0.0
 40
0.0
 40
0.0
 40
0.0134926603
 40
0.0270164935
 40
0.0405879363
 40
0.0542241383
 40
0.0679461382
 40
0.0817750467
 40
0.0957304699
 40
0.1098287835
 40
0.1240840969
 40
0.1385090013
 40
0.153114008
 40
0.1679076026
 40
0.1828965655
 40
0.1980851343
 40
0.2134753986
 40
0.229067906
 40
0.244860945
 40
0.2608508697
 40
0.2933917709
 40
0.3099352233
 40
0.3266456349
 40
0.343511944
 40
0.3605217329
 40
0.3949114145
 40
0.4122685929
 40
0.4297110139
 40
0.4472223973
 40
0.4647858188
 40
0.482384125
 40
0.5
 40
0.517615875
 40
0.5352141812
 40
0.5527776027
 40
0.5702889861
 40
0.5877314071
 40
0.6050885855
 40
0.6394782671
 40
0.656488056
 40
0.6733543651
 40
0.6900647767
 40
0.7066082291
 40
0.7391491303
 40
0.755139055
 40
0.770932094
 40
0.7865246014
 40
0.8019148657
 40
0.8171034345
 40
0.8320923974
 40
0.846885992
 40
0.8614909987
 40
0.8759159031
 40
0.8901712165
 40
0.9042695301
 40
0.9182249533
 40
0.9320538618
 40
0.9457758617
 40
0.9594120637
 40
0.9729835065
 40
0.9865073397
 40
1.0
 40
1.0
 40
1.0
 40
1.0
 10
6.1904053009
 20
4.0764005732
 30
0.0
 10
6.1904053009
 20
4.0825088566
 30
0.0
 10
6.1900118192
 20
4.094743123
 30
0.0
 10
6.188248054
 20
4.1130447778
 30
0.0
 10
6.1853147171
 20
4.1312622939
 30
0.0
 10
6.1812151162
 20
4.1493449103
 30
0.0
 10
6.1759623365
 20
4.1672480568
 30
0.0
 10
6.1695698104
 20
4.184930078
 30
0.0
 10
6.1620508581
 20
4.2023486635
 30
0.0
 10
6.1534260691
 20
4.2194630276
 30
0.0
 10
6.1437168183
 20
4.2362320048
 30
0.0
 10
6.1329441424
 20
4.2526132688
 30
0.0
 10
6.1211362739
 20
4.268568462
 30
0.0
 10
6.1083224284
 20
4.2840600098
 30
0.0
 10
6.0945315106
 20
4.2990490471
 30
0.0
 10
6.079798382
 20
4.3135008662
 30
0.0
 10
6.0641591511
 20
4.3273816259
 30
0.0
 10
6.0476499013
 20
4.3406558966
 30
0.0
 10
6.0303109808
 20
4.3532933931
 30
0.0
 10
6.0060054798
 20
4.3693461707
 30
0.0
 10
5.9803357912
 20
4.3838944685
 30
0.0
 10
5.9535283048
 20
4.3968922938
 30
0.0
 10
5.932705308
 20
4.4059233294
 30
0.0
 10
5.9113297951
 20
4.4141605255
 30
0.0
 10
5.8820587573
 20
4.4240958551
 30
0.0
 10
5.8519969314
 20
4.4323171199
 30
0.0
 10
5.8213491276
 20
4.4388117814
 30
0.0
 10
5.7980036014
 20
4.4428255663
 30
0.0
 10
5.7744298887
 20
4.4459568145
 30
0.0
 10
5.7506841637
 20
4.4481999492
 30
0.0
 10
5.7268234948
 20
4.4495475191
 30
0.0
 10
5.7029053009
 20
4.4499964391
 30
0.0
 10
5.678987107
 20
4.4495475191
 30
0.0
 10
5.6551264381
 20
4.4481999492
 30
0.0
 10
5.6313807131
 20
4.4459568145
 30
0.0
 10
5.6078070004
 20
4.4428255663
 30
0.0
 10
5.5844614742
 20
4.4388117814
 30
0.0
 10
5.5538136704
 20
4.4323171199
 30
0.0
 10
5.5237518445
 20
4.4240958551
 30
0.0
 10
5.4944808067
 20
4.4141605255
 30
0.0
 10
5.4731052938
 20
4.4059233294
 30
0.0
 10
5.452282297
 20
4.3968922938
 30
0.0
 10
5.4254748106
 20
4.3838944685
 30
0.0
 10
5.399805122
 20
4.3693461707
 30
0.0
 10
5.375499621
 20
4.3532933931
 30
0.0
 10
5.3581607005
 20
4.3406558966
 30
0.0
 10
5.3416514507
 20
4.3273816259
 30
0.0
 10
5.3260122198
 20
4.3135008662
 30
0.0
 10
5.3112790912
 20
4.2990490471
 30
0.0
 10
5.2974881734
 20
4.2840600098
 30
0.0
 10
5.2846743279
 20
4.268568462
 30
0.0
 10
5.2728664594
 20
4.2526132688
 30
0.0
 10
5.2620937835
 20
4.2362320048
 30
0.0
 10
5.2523845327
 20
4.2194630276
 30
0.0
 10
5.2437597437
 20
4.2023486635
 30
0.0
 10
5.2362407914
 20
4.184930078
 30
0.0
 10
5.2298482653
 20
4.1672480568
 30
0.0
 10
5.2245954856
 20
4.1493449103
 30
0.0
 10
5.2204958847
 20
4.1312622939
 30
0.0
 10
5.2175625478
 20
4.1130447778
 30
0.0
 10
5.2157987826
 20
4.094743123
 30
0.0
 10
5.2154053009
 20
4.0825088566
 30
0.0
 10
5.2154053009
 20
4.0764005732
 30
0.0
 11
6.1904053009
 21
4.0764005732
 31
0.0
 11
6.1898175905
 21
4.0947159965
 31
0.0
 11
6.1880573348
 21
4.1129986403
 31
0.0
 11
6.1851288467
 21
4.1311963587
 31
0.0
 11
6.1810376673
 21
4.1492586181
 31
0.0
 11
6.1757950055
 21
4.167142328
 31
0.0
 11
6.1694137038
 21
4.1848065432
 31
0.0
 11
6.1619076225
 21
4.2022102214
 31
0.0
 11
6.1532960461
 21
4.2193118008
 31
0.0
 11
6.1436000589
 21
4.2360695468
 31
0.0
 11
6.1328415623
 21
4.2524421029
 31
0.0
 11
6.1210474918
 21
4.2683904444
 31
0.0
 11
6.1082467009
 21
4.2838764357
 31
0.0
 11
6.0944686775
 21
4.2988622546
 31
0.0
 11
6.0797474267
 21
4.3133123138
 31
0.0
 11
6.0641189251
 21
4.3271920009
 31
0.0
 11
6.0476196236
 21
4.3404670433
 31
0.0
 11
6.0302898728
 21
4.3531059722
 31
0.0
 11
6.0121719665
 21
4.3650787168
 31
0.0
 11
5.9737454362
 21
4.386909735
 31
0.0
 11
5.9535303217
 21
4.3967164065
 31
0.0
 11
5.9327110954
 21
4.4057509174
 31
0.0
 11
5.9113381329
 21
4.4139919293
 31
0.0
 11
5.8894634069
 21
4.4214202246
 31
0.0
 11
5.8444188916
 21
4.4337662871
 31
0.0
 11
5.821358079
 21
4.4386554041
 31
0.0
 11
5.7980118143
 21
4.4426713838
 31
0.0
 11
5.7744363108
 21
4.4458047597
 31
0.0
 11
5.7506886138
 21
4.448048858
 31
0.0
 11
5.7268258091
 21
4.4493972469
 31
0.0
 11
5.7029053009
 21
4.4498467494
 31
0.0
 11
5.6789847927
 21
4.4493972469
 31
0.0
 11
5.655121988
 21
4.448048858
 31
0.0
 11
5.631374291
 21
4.4458047597
 31
0.0
 11
5.6077987875
 21
4.4426713838
 31
0.0
 11
5.5844525228
 21
4.4386554041
 31
0.0
 11
5.5613917102
 21
4.4337662871
 31
0.0
 11
5.5163471949
 21
4.4214202246
 31
0.0
 11
5.4944724689
 21
4.4139919293
 31
0.0
 11
5.4730995064
 21
4.4057509174
 31
0.0
 11
5.4522802801
 21
4.3967164065
 31
0.0
 11
5.4320651656
 21
4.386909735
 31
0.0
 11
5.3936386353
 21
4.3650787168
 31
0.0
 11
5.375520729
 21
4.3531059722
 31
0.0
 11
5.3581909782
 21
4.3404670433
 31
0.0
 11
5.3416916767
 21
4.3271920009
 31
0.0
 11
5.3260631751
 21
4.3133123138
 31
0.0
 11
5.3113419243
 21
4.2988622546
 31
0.0
 11
5.2975639009
 21
4.2838764357
 31
0.0
 11
5.28476311
 21
4.2683904444
 31
0.0
 11
5.2729690395
 21
4.2524421029
 31
0.0
 11
5.2622105429
 21
4.2360695468
 31
0.0
 11
5.2525145557
 21
4.2193118008
 31
0.0
 11
5.2439029793
 21
4.2022102214
 31
0.0
 11
5.236396898
 21
4.1848065432
 31
0.0
 11
5.2300155963
 21
4.167142328
 31
0.0
 11
5.2247729345
 21
4.1492586181
 31
0.0
 11
5.2206817551
 21
4.1311963587
 31
0.0
 11
5.217753267
 21
4.1129986403
 31
0.0
 11
5.2159930113
 21
4.0947159965
 31
0.0
 11
5.2154053009
 21
4.0764005732
 31
0.0
  0
SPLINE
  5
265
100
AcDbEntity
  8
0
100
AcDbSpline
 62
6
  6
CONTINUOUS
 70
0
 71
3
 72
15
 73
11
 74
9
 42
0.0000001
 43
0.0000001
 44
0.0000000001
 12
-0.0000028876
 22
-0.1187249812
 32
0.0
 13
0.0584088794
 23
-0.1033635525
 33
0.0
 40
0.0
 40
0.0
 40
0.0
 40
0.0
 40
0.1227520468
 40
0.245727013
 40
0.3691421984
 40
0.4932133522
 40
0.6181571473
 40
0.7441786892
 40
0.8714276574
 40
1.0
 40
1.0
 40
1.0
 40
1.0
 10
5.3304053612
 20
3.6552499217
 30
0.0
 10
5.3304052431
 20
3.6503920102
 30
0.0
 10
5.3307301102
 20
3.6406642535
 30
0.0
 10
5.3321890562
 20
3.6261182371
 30
0.0
 10
5.3346152199
 20
3.6116484453
 30
0.0
 10
5.3380038738
 20
3.5972936401
 30
0.0
 10
5.3423446512
 20
3.5830898306
 30
0.0
 10
5.3476280618
 20
3.5690746716
 30
0.0
 10
5.353837315
 20
3.5552877439
 30
0.0
 10
5.3585558008
 20
3.5463221263
 30
0.0
 10
5.3610590563
 20
3.5418922282
 30
0.0
 11
5.3304053612
 21
3.6552499217
 31
0.0
 11
5.3308911
 21
3.6406842842
 31
0.0
 11
5.3323467001
 21
3.6261568246
 31
0.0
 11
5.3347678446
 21
3.6117057759
 31
0.0
 11
5.3381489657
 21
3.5973687227
 31
0.0
 11
5.3424811595
 21
3.5831814692
 31
0.0
 11
5.3477546314
 21
3.5691797156
 31
0.0
 11
5.3539539804
 21
3.5554026116
 31
0.0
 11
5.3610590563
 21
3.5418922282
 31
0.0
  0
SPLINE
  5
266
100
AcDbEntity
  8
0
100
AcDbSpline
 62
9
  6
CONTINUOUS
 70
0
 71
3
 72
11
 73
7
 74
5
 42
0.0000001
 43
0.0000001
 44
0.0000000001
 12
-0.0096679775
 22
-0.0657804647
 32
0.0
 13
-0.0238834207
 23
-0.0620493476
 33
0.0
 40
0.0
 40
0.0
 40
0.0
 40
0.0
 40
0.247971812
 40
0.4970910147
 40
0.7476705822
 40
1.0
 40
1.0
 40
1.0
 40
1.0
 10
6.1898288952
 20
3.8896524741
 30
0.0
 10
6.1890297666
 20
3.8842152404
 30
0.0
 10
6.1871186016
 20
3.8733585891
 30
0.0
 10
6.1833344898
 20
3.8572178138
 30
0.0
 10
6.1786337397
 20
3.8412191938
 30
0.0
 10
6.1749084757
 20
3.8307076744
 30
0.0
 10
6.1728996458
 20
3.8254887158
 30
0.0
 11
6.1898288952
 21
3.8896524741
 31
0.0
 11
6.1869725318
 21
3.8734148561
 31
0.0
 11
6.1831941428
 21
3.8572883527
 31
0.0
 11
6.178500263
 21
3.8413029316
 31
0.0
 11
6.1728996458
 21
3.8254887158
 31
0.0
  0
SPLINE
  5
267
100
AcDbEntity
  8
0
100
AcDbSpline
 62
9
  6
CONTINUOUS
 70
0
 71
3
 72
11
 73
7
 74
5
 42
0.0000001
 43
0.0000001
 44
0.0000000001
 12
-0.0238927714
 22
0.0620708519
 32
0.0
 13
-0.0096672231
 23
0.065804255
 33
0.0
 40
0.0
 40
0.0
 40
0.0
 40
0.0
 40
0.2523303025
 40
0.5029101403
 40
0.752028976
 40
1.0
 40
1.0
 40
1.0
 40
1.0
 10
5.2329127198
 20
3.8254841263
 30
0.0
 10
5.2309030963
 20
3.8307049119
 30
0.0
 10
5.2271764514
 20
3.8412201427
 30
0.0
 10
5.2224742335
 20
3.8572244799
 30
0.0
 10
5.2186893319
 20
3.8733710563
 30
0.0
 10
5.2167780781
 20
3.884231615
 30
0.0
 10
5.2159790144
 20
3.8896707978
 30
0.0
 11
5.2329127198
 21
3.8254841263
 31
0.0
 11
5.2273100186
 21
3.8413039379
 31
0.0
 11
5.222614685
 21
3.8572950692
 31
0.0
 11
5.2188355074
 21
3.8734273572
 31
0.0
 11
5.2159790144
 21
3.8896707978
 31
0.0
  0
SPLINE
  5
268
100
AcDbEntity
  8
0
100
AcDbSpline
 62
9
  6
CONTINUOUS
 70
0
 71
3
 72
69
 73
65
 74
63
 42
0.0000001
 43
0.0000001
 44
0.0000000001
 12
-0.0
 22
1.3651065033
 32
0.0
 13
0.0
 23
-1.3651065033
 33
0.0
 40
0.0
 40
0.0
 40
0.0
 40
0.0
 40
0.0134930371
 40
0.0202494795
 40
0.0270149187
 40
0.0405804877
 40
0.0542128406
 40
0.0679337462
 40
0.0817632406
 40
0.0957190625
 40
0.1098175263
 40
0.1240730913
 40
0.1384982828
 40
0.1531038814
 40
0.1678981912
 40
0.1828875706
 40
0.1980765099
 40
0.2134671205
 40
0.2290598517
 40
0.2448531768
 40
0.2608434602
 40
0.293385129
 40
0.3099290438
 40
0.3266399743
 40
0.3435067153
 40
0.3605170078
 40
0.3776576879
 40
0.3949143818
 40
0.4297086027
 40
0.4472204551
 40
0.464784401
 40
0.4823832996
 40
0.4999996853
 40
0.5176160702
 40
0.5352149683
 40
0.5527789144
 40
0.5702907651
 40
0.6050849848
 40
0.622341676
 40
0.6394823548
 40
0.6733523771
 40
0.6900633063
 40
0.706607218
 40
0.7229745325
 40
0.7391567803
 40
0.7551470592
 40
0.7709403804
 40
0.7865331123
 40
0.8019237197
 40
0.817112658
 40
0.8321020376
 40
0.8468963437
 40
0.8615019406
 40
0.8759271262
 40
0.8901826791
 40
0.9042811298
 40
0.9182369337
 40
0.9320664099
 40
0.9457872973
 40
0.9594196175
 40
0.9729851384
 40
0.9797505539
 40
0.9865069783
 40
1.0
 40
1.0
 40
1.0
 40
1.0
 10
5.2129053009
 20
3.9316483831
 30
0.0
 10
5.2129053009
 20
3.937788194
 30
0.0
 10
5.2132011929
 20
3.9470059679
 30
0.0
 10
5.2141838402
 20
3.9592608595
 30
0.0
 10
5.2155604073
 20
3.9715114073
 30
0.0
 10
5.218020474
 20
3.9867802836
 30
0.0
 10
5.2221386599
 20
4.0049509305
 30
0.0
 10
5.2274166907
 20
4.022944525
 30
0.0
 10
5.2338418609
 20
4.0407172697
 30
0.0
 10
5.2413967767
 20
4.0582269586
 30
0.0
 10
5.2500654647
 20
4.0754298459
 30
0.0
 10
5.2598250929
 20
4.0922849153
 30
0.0
 10
5.2706514359
 20
4.1087519441
 30
0.0
 10
5.282520087
 20
4.1247898705
 30
0.0
 10
5.2954001002
 20
4.1403615996
 30
0.0
 10
5.3092608856
 20
4.1554293606
 30
0.0
 10
5.3240698502
 20
4.1699559314
 30
0.0
 10
5.3397895561
 20
4.183908349
 30
0.0
 10
5.3563831605
 20
4.1972518691
 30
0.0
 10
5.3738111606
 20
4.2099548308
 30
0.0
 10
5.3982417416
 20
4.2260906907
 30
0.0
 10
5.4240433387
 20
4.2407149224
 30
0.0
 10
5.4509890027
 20
4.2537800917
 30
0.0
 10
5.4719195524
 20
4.2628577847
 30
0.0
 10
5.4934047118
 20
4.2711383431
 30
0.0
 10
5.515393747
 20
4.2786017684
 30
0.0
 10
5.5378344586
 20
4.2852289366
 30
0.0
 10
5.5683635594
 20
4.2929519241
 30
0.0
 10
5.5994893318
 20
4.2989116526
 30
0.0
 10
5.631011157
 20
4.3031002977
 30
0.0
 10
5.6548799936
 20
4.3053541155
 30
0.0
 10
5.6788637612
 20
4.3067085277
 30
0.0
 10
5.7029054812
 20
4.3071610525
 30
0.0
 10
5.7269472006
 20
4.3067085232
 30
0.0
 10
5.7509309678
 20
4.3053540751
 30
0.0
 10
5.774799796
 20
4.3031002688
 30
0.0
 10
5.8063216563
 20
4.2989115785
 30
0.0
 10
5.8374471815
 20
4.2929519281
 30
0.0
 10
5.8679768378
 20
4.2852287261
 30
0.0
 10
5.8977749758
 20
4.2764288085
 30
0.0
 10
5.9267926651
 20
4.2659364065
 30
0.0
 10
5.9548212354
 20
4.2537802735
 30
0.0
 10
5.975145197
 20
4.2439257054
 30
0.0
 10
5.9948142062
 20
4.2333198755
 30
0.0
 10
6.0137813367
 20
4.2219874524
 30
0.0
 10
6.0319999911
 20
4.2099544774
 30
0.0
 10
6.0494276125
 20
4.1972517093
 30
0.0
 10
6.0660213159
 20
4.1839081431
 30
0.0
 10
6.0817409745
 20
4.1699557167
 30
0.0
 10
6.0965499286
 20
4.1554291282
 30
0.0
 10
6.1104107175
 20
4.1403613753
 30
0.0
 10
6.1232906968
 20
4.1247896201
 30
0.0
 10
6.1351593381
 20
4.1087516941
 30
0.0
 10
6.1459856744
 20
4.0922846707
 30
0.0
 10
6.1557452575
 20
4.0754295917
 30
0.0
 10
6.1644139438
 20
4.0582267262
 30
0.0
 10
6.1719688354
 20
4.0407170503
 30
0.0
 10
6.178393966
 20
4.0229443183
 30
0.0
 10
6.183671994
 20
4.0049507558
 30
0.0
 10
6.1877901494
 20
3.9867801479
 30
0.0
 10
6.1902502074
 20
3.9715113188
 30
0.0
 10
6.1916267712
 20
3.9592608118
 30
0.0
 10
6.1926094128
 20
3.9470059457
 30
0.0
 10
6.1929053009
 20
3.937788187
 30
0.0
 10
6.1929053009
 20
3.9316483831
 30
0.0
 11
5.2129053009
 21
3.9316483831
 31
0.0
 11
5.2134952906
 21
3.9500583645
 31
0.0
 11
5.2142322793
 21
3.9592521361
 31
0.0
 11
5.2152634877
 21
3.96842993
 31
0.0
 11
5.2182065082
 21
3.986713023
 31
0.0
 11
5.2223167106
 21
4.0048630631
 31
0.0
 11
5.2275848089
 21
4.0228374525
 31
0.0
 11
5.233998366
 21
4.0405933765
 31
0.0
 11
5.2415411905
 21
4.0580877579
 31
0.0
 11
5.250196289
 21
4.0752777002
 31
0.0
 11
5.2599420683
 21
4.0921218556
 31
0.0
 11
5.2707547499
 21
4.1085796117
 31
0.0
 11
5.2826093233
 21
4.1246108567
 31
0.0
 11
5.2954761027
 21
4.1401773807
 31
0.0
 11
5.3093242686
 21
4.1552414374
 31
0.0
 11
5.3241210848
 21
4.1697664003
 31
0.0
 11
5.3398299408
 21
4.1837179051
 31
0.0
 11
5.3564136508
 21
4.1970619389
 31
0.0
 11
5.3738323662
 21
4.2097664046
 31
0.0
 11
5.3920434832
 21
4.2218011876
 31
0.0
 11
5.4306676442
 21
4.2437457367
 31
0.0
 11
5.450986985
 21
4.2536032584
 31
0.0
 11
5.4719136466
 21
4.2626846294
 31
0.0
 11
5.4933966404
 21
4.2709687649
 31
0.0
 11
5.5153842906
 21
4.2784354654
 31
0.0
 11
5.5378239687
 21
4.2850662432
 31
0.0
 11
5.5606611581
 21
4.2908460038
 31
0.0
 11
5.6073079611
 21
4.2997968921
 31
0.0
 11
5.6310050286
 21
4.302947132
 31
0.0
 11
5.6548753859
 21
4.3052023725
 31
0.0
 11
5.6788614954
 21
4.3065577145
 31
0.0
 11
5.7029054815
 21
4.3070101602
 31
0.0
 11
5.7269494663
 21
4.3065577047
 31
0.0
 11
5.7509355738
 21
4.30520234
 31
0.0
 11
5.7748059311
 21
4.3029470955
 31
0.0
 11
5.798502994
 21
4.2997968396
 31
0.0
 11
5.8451497912
 21
4.290845929
 31
0.0
 11
5.8679869718
 21
4.2850661489
 31
0.0
 11
5.8904266434
 21
4.2784353556
 31
0.0
 11
5.9338972711
 21
4.2626844957
 31
0.0
 11
5.9548239269
 21
4.2536031159
 31
0.0
 11
5.9751432595
 21
4.2437455868
 31
0.0
 11
5.9948069538
 21
4.2331364179
 31
0.0
 11
6.0137673993
 21
4.2218010162
 31
0.0
 11
6.0319785016
 21
4.2097662219
 31
0.0
 11
6.0493971992
 21
4.1970617409
 31
0.0
 11
6.0659809081
 21
4.1837177043
 31
0.0
 11
6.0816897452
 21
4.1697661846
 31
0.0
 11
6.0964865475
 21
4.1552412097
 31
0.0
 11
6.1103347099
 21
4.1401771492
 31
0.0
 11
6.1232014641
 21
4.124610611
 31
0.0
 11
6.1350560261
 21
4.1085793604
 31
0.0
 11
6.1458686945
 21
4.0921216052
 31
0.0
 11
6.1556144409
 21
4.0752774499
 31
0.0
 11
6.1642695274
 21
4.0580875216
 31
0.0
 11
6.1718123278
 21
4.0405931565
 31
0.0
 11
6.1782258542
 21
4.0228372479
 31
0.0
 11
6.1834939408
 21
4.004862881
 31
0.0
 11
6.1876041203
 21
3.9867128815
 31
0.0
 11
6.1905471265
 21
3.9684298526
 31
0.0
 11
6.1915783314
 21
3.9592520909
 31
0.0
 11
6.192315316
 21
3.9500583436
 31
0.0
 11
6.1929053009
 21
3.9316483831
 31
0.0
  0
ENDSEC
  0
SECTION
  2
OBJECTS
  0
DICTIONARY
  5
C
100
AcDbDictionary
280
0
281
1
  3
ACAD_GROUP
350
D
  3
ACAD_MLINESTYLE
350
17
  3
ACAD_LAYOUT
350
1A
  3
ACAD_PLOTSETTINGS
350
19
  3
ACAD_PLOTSTYLENAME
350
E
  0
DICTIONARY
  5
D
102
{ACAD_REACTORS
330
C
102
}
100
AcDbDictionary
280
0
281
1
  0
ACDBDICTIONARYWDFLT
  5
E
102
{ACAD_REACTORS
330
C
102
}
100
AcDbDictionary
281
1
  3
Normal
350
F
100
AcDbDictionaryWithDefault
340
F
  0
DICTIONARY
  5
17
102
{ACAD_REACTORS
330
C
102
}
100
AcDbDictionary
280
0
281
1
  3
Standard
350
18
  0
DICTIONARY
  5
19
102
{ACAD_REACTORS
330
C
102
}
100
AcDbDictionary
281
1
  0
DICTIONARY
  5
1A
102
{ACAD_REACTORS
330
C
102
}
100
AcDbDictionary
281
1
  3
Model
350
269
  3
Layout1
350
26A
  0
ACDBPLACEHOLDER
  5
F
102
{ACAD_REACTORS
330
E
102
}
  0
MLINESTYLE
  5
18
102
{ACAD_REACTORS
330
17
102
}
100
AcDbMlineStyle
  2
STANDARD
 70
0
  3

 62
256
 51
90.0
 52
90.0
 71
2
 49
0.5
 62
256
  6
BYLAYER
 49
-0.5
 62
256
  6
BYLAYER
  0
LAYOUT
  5
269
102
{ACAD_REACTORS
330
1A
102
}
100
AcDbPlotSettings
  1

  2
none_device
  4
ISO_A4_(297.00_x_210.00_MM)
  6

 40
0.0
 41
0.0
 42
0.0
 43
0.0
 44
297.0
 45
210.0
 46
0.0
 47
0.0
 48
0.0
 49
0.0
140
0.0
141
0.0
142
1.0
143
1.0
 70
1024
 72
0
 73
0
 74
0
  7

 75
0
147
1.0
148
0.0
149
0.0
100
AcDbLayout
  1
Model
 70
0
 71
0
 10
0.0
 20
0.0
 11
11.6929133858
 21
8.2677165354
 12
0.0
 22
0.0
 32
0.0
 14
0.0
 24
0.0
 34
0.0
 15
0.0
 25
0.0
 35
0.0
146
0.0
 13
0.0
 23
0.0
 33
0.0
 16
1.0
 26
0.0
 36
0.0
 17
0.0
 27
1.0
 37
0.0
 76
0
330
204
345
0
346
0
  0
LAYOUT
  5
26A
102
{ACAD_REACTORS
330
1A
102
}
100
AcDbPlotSettings
  1

  2
none_device
  4
ISO_A4_(297.00_x_210.00_MM)
  6

 40
0.0
 41
0.0
 42
0.0
 43
0.0
 44
297.0
 45
210.0
 46
0.0
 47
0.0
 48
0.0
 49
0.0
140
0.0
141
0.0
142
1.0
143
1.0
 70
0
 72
0
 73
0
 74
0
  7

 75
0
147
1.0
148
0.0
149
0.0
100
AcDbLayout
  1
Layout1
 70
0
 71
1
 10
0.0
 20
0.0
 11
11.6929133858
 21
8.2677165354
 12
0.0
 22
0.0
 32
0.0
 14
0.0
 24
0.0
 34
0.0
 15
0.0
 25
0.0
 35
0.0
146
0.0
 13
0.0
 23
0.0
 33
0.0
 16
1.0
 26
0.0
 36
0.0
 17
0.0
 27
1.0
 37
0.0
 76
0
330
205
345
0
346
0
  0
ENDSEC
  0
EOF
