  0
SECTION
  2
HEADER
  9
$ACADVER
  1
AC1021
  9
$DWGCODEPAGE
  3
ANSI_1252
  9
$EXTMAX
 10
33.1102362205
 20
23.3858267717
 30
0.0
  9
$EXTMIN
 10
0.0
 20
0.0
 30
0.0
  9
$LIMMIN
 10
0.0
 20
0.0
  9
$LIMMAX
 10
33.1102362205
 20
23.3858267717
  9
$VIEWCTR
 10
16.5551181102
 20
11.6929133858
  9
$VIEWSIZE
 40
23.3858267717
  9
$CLAYER
  8
0
  9
$LTSCALE
 40
1.8210629921
  9
$CELTYPE
  6
BYLAYER
  9
$DIMSCALE
 40
1.0
  9
$DIMASZ
 40
0.1875
  9
$DIMEXO
 40
0.2069389764
  9
$DIMDLI
 40
1.2581889764
  9
$DIMEXE
 40
0.595984252
  9
$DIMCEN
 40
0.297992126
  9
$DIMLFAC
 40
1.0
  9
$DIMBLK
  1
_CLOSED
  9
$DIMTXT
 40
0.15625
  9
$DIMTOL
 70
0
  9
$DIMLIM
 70
0
  9
$DIMTFAC
 40
1.0
  9
$PDMODE
 70
3
  9
$PDSIZE
 40
0.3125
  9
$HANDSEED
  5
58C
  9
$TILEMODE
 70
1
  9
$MEASUREMENT
 70
0
  9
$INSUNITS
 70
1
  0
ENDSEC
  0
SECTION
  2
CLASSES
  0
CLASS
  1
ACDBDICTIONARYWDFLT
  2
AcDbDictionaryWithDefault
  3
AutoCAD 2000
 90
0
 91
1
280
0
281
0
  0
CLASS
  1
ACDBPLACEHOLDER
  2
AcDbPlaceHolder
  3
AutoCAD 2000
 90
0
 91
1
280
0
281
0
  0
CLASS
  1
LAYOUT
  2
AcDbLayout
  3
AutoCAD 2000
 90
0
 91
0
280
0
281
0
  0
ENDSEC
  0
SECTION
  2
TABLES
  0
TABLE
  2
VPORT
  5
8
100
AcDbSymbolTable
 70
2
  0
VPORT
  5
1F4
100
AcDbSymbolTableRecord
100
AcDbViewportTableRecord
  2
*ACTIVE
 70
0
 10
0.0
 20
0.0
 11
1.0
 21
1.0
 12
16.5551181102
 22
11.6929133858
 13
0.0
 23
0.0
 14
1.0
 24
1.0
 15
0.0
 25
0.0
 16
0.0
 26
0.0
 36
1.0
 17
0.0
 27
0.0
 37
0.0
 40
23.3858267717
 41
1.4158249158
 42
50.0
 43
0.0
 44
0.0
 50
0.0
 51
0.0
 71
0
 72
100
 73
1
 74
1
 75
0
 76
0
 77
0
 78
0
  0
ENDTAB
  0
TABLE
  2
LTYPE
  5
5
100
AcDbSymbolTable
 70
6
  0
LTYPE
  5
14
100
AcDbSymbolTableRecord
100
AcDbLinetypeTableRecord
  2
BYBLOCK
 70
0
  3

 72
65
 73
0
 40
0.0
  0
LTYPE
  5
15
100
AcDbSymbolTableRecord
100
AcDbLinetypeTableRecord
  2
BYLAYER
 70
0
  3

 72
65
 73
0
 40
0.0
  0
LTYPE
  5
16
100
AcDbSymbolTableRecord
100
AcDbLinetypeTableRecord
  2
CONTINUOUS
 70
64
  3
Solid line
 72
65
 73
0
 40
0.0
  0
LTYPE
  5
1F5
100
AcDbSymbolTableRecord
100
AcDbLinetypeTableRecord
  2
CENTER
 70
64
  3
____ _ ____ _ ____ _ ____ _ ____ _ ____ _ ____
 72
65
 73
4
 40
0.6
 49
0.375
 74
0
 49
-0.075
 74
0
 49
0.075
 74
0
 49
-0.075
 74
0
  0
LTYPE
  5
1F6
100
AcDbSymbolTableRecord
100
AcDbLinetypeTableRecord
  2
HIDDEN
 70
64
  3
- - - - - - - - - - - - - - - - - - - -
 72
65
 73
2
 40
0.2
 49
0.1
 74
0
 49
-0.1
 74
0
  0
LTYPE
  5
1F7
100
AcDbSymbolTableRecord
100
AcDbLinetypeTableRecord
  2
PHANTOM
 70
64
  3
_____ _ _ _____ _ _ _____ _ _ _____
 72
65
 73
6
 40
0.8
 49
0.45
 74
0
 49
-0.05
 74
0
 49
0.1
 74
0
 49
-0.05
 74
0
 49
0.1
 74
0
 49
-0.05
 74
0
  0
LTYPE
  5
1F8
100
AcDbSymbolTableRecord
100
AcDbLinetypeTableRecord
  2
DOT
 70
64
  3
. . . . . . . . . . . . . . . . . . . .
 72
65
 73
2
 40
0.2
 49
0.1
 74
0
 49
-0.1
 74
0
  0
LTYPE
  5
1F9
100
AcDbSymbolTableRecord
100
AcDbLinetypeTableRecord
  2
DASHED
 70
64
  3
- - - - - - - - - - - - - - - - - - - -
 72
65
 73
2
 40
0.2
 49
0.1
 74
0
 49
-0.1
 74
0
  0
ENDTAB
  0
TABLE
  2
LAYER
  5
2
100
AcDbSymbolTable
 70
36
  0
LAYER
  5
10
100
AcDbSymbolTableRecord
100
AcDbLayerTableRecord
  2
0
 70
0
 62
7
  6
CONTINUOUS
370
-3
390
F
  0
LAYER
  5
1FA
100
AcDbSymbolTableRecord
100
AcDbLayerTableRecord
  2
DEFAULT_1
 70
0
 62
7
  6
CENTER
370
-3
390
F
  0
LAYER
  5
1FB
100
AcDbSymbolTableRecord
100
AcDbLayerTableRecord
  2
DEFAULT_2
 70
0
 62
8
  6
HIDDEN
370
-3
390
F
  0
LAYER
  5
1FC
100
AcDbSymbolTableRecord
100
AcDbLayerTableRecord
  2
DEFAULT_3
 70
0
 62
7
  6
PHANTOM
370
-3
390
F
  0
LAYER
  5
1FD
100
AcDbSymbolTableRecord
100
AcDbLayerTableRecord
  2
DEFAULT_COORDINATE_SYSTEM
 70
0
 62
7
  6
CONTINUOUS
370
-3
390
F
  0
LAYER
  5
1FE
100
AcDbSymbolTableRecord
100
AcDbLayerTableRecord
  2
DEFAULT_DATUM_AXES
 70
0
 62
7
  6
CONTINUOUS
370
-3
390
F
  0
LAYER
  5
1FF
100
AcDbSymbolTableRecord
100
AcDbLayerTableRecord
  2
DEFAULT_DATUM_CURVES
 70
0
 62
7
  6
CONTINUOUS
370
-3
390
F
  0
LAYER
  5
200
100
AcDbSymbolTableRecord
100
AcDbLayerTableRecord
  2
DEFAULT_DATUM_PLANES
 70
0
 62
7
  6
CONTINUOUS
370
-3
390
F
  0
ENDTAB
  0
TABLE
  2
STYLE
  5
3
100
AcDbSymbolTable
 70
1
  0
STYLE
  5
11
100
AcDbSymbolTableRecord
100
AcDbTextStyleTableRecord
  2
STANDARD
 70
0
 40
0.0
 41
0.8
 50
0.0
 71
0
 42
0.2
  3
txt
  4

  0
STYLE
  5
201
100
AcDbSymbolTableRecord
100
AcDbTextStyleTableRecord
  2
TEXTSTYLE_1
 70
0
 40
0.0
 41
0.8
 50
0.0
 71
0
 42
0.2
  3
gdt
  4

  0
ENDTAB
  0
TABLE
  2
VIEW
  5
6
100
AcDbSymbolTable
 70
0
  0
ENDTAB
  0
TABLE
  2
UCS
  5
7
100
AcDbSymbolTable
 70
0
  0
ENDTAB
  0
TABLE
  2
APPID
  5
9
100
AcDbSymbolTable
 70
1
  0
APPID
  5
202
100
AcDbSymbolTableRecord
100
AcDbRegAppTableRecord
  2
ACAD
 70
0
  0
ENDTAB
  0
TABLE
  2
BLOCK_RECORD
  5
1
100
AcDbSymbolTable
 70
0
  0
BLOCK_RECORD
  5
203
100
AcDbSymbolTableRecord
100
AcDbBlockTableRecord
  2
*Model_Space
  0
BLOCK_RECORD
  5
204
100
AcDbSymbolTableRecord
100
AcDbBlockTableRecord
  2
*Paper_Space
  0
ENDTAB
  0
TABLE
  2
DIMSTYLE
  5
A
100
AcDbSymbolTable
 70
1
100
AcDbDimStyleTable
 71
0
  0
DIMSTYLE
105
205
100
AcDbSymbolTableRecord
100
AcDbDimStyleTableRecord
  2
STANDARD
 70
0
  3

  4

 40
1.0
 41
0.1875
 42
0.0625
 43
0.38
 44
0.18
 45
0.0
 46
0.0
 47
0.001
 48
0.001
140
0.15625
141
0.09
142
0.0
143
25.4
144
1.0
145
0.0
146
1.0
147
0.09
 71
0.0
 72
0.0
 73
1
 74
1
 75
0
 76
0
 77
0
 78
4
170
0
171
2
172
0
173
0
174
0
175
0
176
0
177
0
178
0
270
2
271
3
272
3
273
2
274
2
275
0
280
0
281
0
282
0
283
1
284
4
285
0
286
0
287
3
288
0
340
11
  0
ENDTAB
  0
ENDSEC
  0
SECTION
  2
BLOCKS
  0
BLOCK
  5
20
100
AcDbEntity
  8
0
100
AcDbBlockBegin
  2
*Model_Space
 70
0
 10
0.0
 20
0.0
 30
0.0
  3
*Model_Space
  1

  0
ENDBLK
  5
21
100
AcDbEntity
  8
0
100
AcDbBlockEnd
  0
BLOCK
  5
1C
100
AcDbEntity
  8
0
100
AcDbBlockBegin
  2
*Paper_Space
 70
0
 10
0.0
 20
0.0
 30
0.0
  3
*Paper_Space
  1

  0
ENDBLK
  5
1D
100
AcDbEntity
  8
0
100
AcDbBlockEnd
  0
ENDSEC
  0
SECTION
  2
ENTITIES
  0
LINE
  5
206
100
AcDbEntity
  8
0
100
AcDbLine
 62
6
  6
CONTINUOUS
 10
2.9455240627
 20
13.3914893517
 11
2.9455240627
 21
13.2414893517
  0
LINE
  5
207
100
AcDbEntity
  8
0
100
AcDbLine
 62
6
  6
CONTINUOUS
 10
2.9455426472
 20
12.9914893517
 11
2.9455426472
 21
12.9164893517
  0
LINE
  5
208
100
AcDbEntity
  8
0
100
AcDbLine
 62
7
  6
CONTINUOUS
 10
2.9460662194
 20
12.9914893517
 11
2.9460662194
 21
12.9164893517
  0
LINE
  5
209
100
AcDbEntity
  8
0
100
AcDbLine
 62
6
  6
CONTINUOUS
 10
2.9465419848
 20
12.9914893517
 11
2.9465419848
 21
12.9164893517
  0
LINE
  5
20A
100
AcDbEntity
  8
0
100
AcDbLine
 62
6
  6
CONTINUOUS
 10
2.9481120635
 20
12.9914893517
 11
2.9481120635
 21
12.9164893517
  0
LINE
  5
20B
100
AcDbEntity
  8
0
100
AcDbLine
 62
6
  6
CONTINUOUS
 10
2.9490630147
 20
12.9914893517
 11
2.9490630147
 21
12.9164893517
  0
LINE
  5
20C
100
AcDbEntity
  8
0
100
AcDbLine
 62
6
  6
CONTINUOUS
 10
2.951677687
 20
12.9914893517
 11
2.951677687
 21
12.9164893517
  0
LINE
  5
20D
100
AcDbEntity
  8
0
100
AcDbLine
 62
6
  6
CONTINUOUS
 10
2.9531026654
 20
12.9914893517
 11
2.9531026654
 21
12.9164893517
  0
LINE
  5
20E
100
AcDbEntity
  8
0
100
AcDbLine
 62
6
  6
CONTINUOUS
 10
2.9567587457
 20
12.9914893517
 11
2.9567587457
 21
12.9164893517
  0
LINE
  5
20F
100
AcDbEntity
  8
0
100
AcDbLine
 62
7
  6
CONTINUOUS
 10
2.9586560152
 20
12.9914893517
 11
2.9586560152
 21
12.9164893517
  0
LINE
  5
210
100
AcDbEntity
  8
0
100
AcDbLine
 62
6
  6
CONTINUOUS
 10
2.9633490491
 20
12.9914893517
 11
2.9633490491
 21
12.9164893517
  0
LINE
  5
211
100
AcDbEntity
  8
0
100
AcDbLine
 62
7
  6
CONTINUOUS
 10
2.9657162981
 20
12.9914893517
 11
2.9657162981
 21
12.9164893517
  0
LINE
  5
212
100
AcDbEntity
  8
0
100
AcDbLine
 62
6
  6
CONTINUOUS
 10
2.971440568
 20
12.9914893517
 11
2.971440568
 21
12.9164893517
  0
LINE
  5
213
100
AcDbEntity
  8
0
100
AcDbLine
 62
6
  6
CONTINUOUS
 10
2.9742749124
 20
12.9914893517
 11
2.9742749124
 21
12.9164893517
  0
LINE
  5
214
100
AcDbEntity
  8
0
100
AcDbLine
 62
7
  6
CONTINUOUS
 10
2.981023444
 20
12.9914893517
 11
2.981023444
 21
12.9164893517
  0
LINE
  5
215
100
AcDbEntity
  8
0
100
AcDbLine
 62
7
  6
CONTINUOUS
 10
2.9843214307
 20
12.9914893517
 11
2.9843214307
 21
12.9164893517
  0
LINE
  5
216
100
AcDbEntity
  8
0
100
AcDbLine
 62
6
  6
CONTINUOUS
 10
2.992086002
 20
12.9914893517
 11
2.992086002
 21
12.9164893517
  0
LINE
  5
217
100
AcDbEntity
  8
0
100
AcDbLine
 62
6
  6
CONTINUOUS
 10
2.9955240627
 20
13.1914893517
 11
2.9955240627
 21
12.9914893517
  0
LINE
  5
218
100
AcDbEntity
  8
0
100
AcDbLine
 62
6
  6
CONTINUOUS
 10
2.9958436127
 20
12.9914893517
 11
2.9958436127
 21
12.9164893517
  0
LINE
  5
219
100
AcDbEntity
  8
0
100
AcDbLine
 62
6
  6
CONTINUOUS
 10
3.0046147639
 20
12.9914893517
 11
3.0046147639
 21
12.9164893517
  0
LINE
  5
21A
100
AcDbEntity
  8
0
100
AcDbLine
 62
6
  6
CONTINUOUS
 10
3.0088274207
 20
12.9914893517
 11
3.0088274207
 21
12.9164893517
  0
LINE
  5
21B
100
AcDbEntity
  8
0
100
AcDbLine
 62
6
  6
CONTINUOUS
 10
3.0185944653
 20
12.9914893517
 11
3.0185944653
 21
12.9164893517
  0
LINE
  5
21C
100
AcDbEntity
  8
0
100
AcDbLine
 62
6
  6
CONTINUOUS
 10
3.0232570356
 20
12.9914893517
 11
3.0232570356
 21
12.9164893517
  0
LINE
  5
21D
100
AcDbEntity
  8
0
100
AcDbLine
 62
6
  6
CONTINUOUS
 10
3.0340080741
 20
12.9914893517
 11
3.0340080741
 21
12.9164893517
  0
LINE
  5
21E
100
AcDbEntity
  8
0
100
AcDbLine
 62
7
  6
CONTINUOUS
 10
3.0391148774
 20
12.9914893517
 11
3.0391148774
 21
12.9164893517
  0
LINE
  5
21F
100
AcDbEntity
  8
0
100
AcDbLine
 62
6
  6
CONTINUOUS
 10
3.0426362613
 20
12.9164893517
 11
3.0426362613
 21
12.9914893517
  0
LINE
  5
220
100
AcDbEntity
  8
0
100
AcDbLine
 62
7
  6
CONTINUOUS
 10
3.0508368113
 20
12.9914893517
 11
3.0508368113
 21
12.9164893517
  0
LINE
  5
221
100
AcDbEntity
  8
0
100
AcDbLine
 62
7
  6
CONTINUOUS
 10
3.0563816257
 20
12.9914893517
 11
3.0563816257
 21
12.9164893517
  0
LINE
  5
222
100
AcDbEntity
  8
0
100
AcDbLine
 62
6
  6
CONTINUOUS
 10
3.0690601735
 20
12.9914893517
 11
3.0690601735
 21
12.9164893517
  0
LINE
  5
223
100
AcDbEntity
  8
0
100
AcDbLine
 62
7
  6
CONTINUOUS
 10
3.0750362435
 20
12.9914893517
 11
3.0750362435
 21
12.9164893517
  0
LINE
  5
224
100
AcDbEntity
  8
0
100
AcDbLine
 62
7
  6
CONTINUOUS
 10
3.0763155164
 20
12.9164893517
 11
3.0763155164
 21
12.9914893517
  0
LINE
  5
225
100
AcDbEntity
  8
0
100
AcDbLine
 62
6
  6
CONTINUOUS
 10
3.0886559585
 20
12.9914893517
 11
3.0886559585
 21
12.9164893517
  0
LINE
  5
226
100
AcDbEntity
  8
0
100
AcDbLine
 62
6
  6
CONTINUOUS
 10
3.0950560031
 20
12.9914893517
 11
3.0950560031
 21
12.9164893517
  0
LINE
  5
227
100
AcDbEntity
  8
0
100
AcDbLine
 62
7
  6
CONTINUOUS
 10
3.1096002917
 20
12.9914893517
 11
3.1096002917
 21
12.9164893517
  0
LINE
  5
228
100
AcDbEntity
  8
0
100
AcDbLine
 62
6
  6
CONTINUOUS
 10
3.1164165136
 20
12.9914893517
 11
3.1164165136
 21
12.9164893517
  0
LINE
  5
229
100
AcDbEntity
  8
0
100
AcDbLine
 62
6
  6
CONTINUOUS
 10
3.1318676558
 20
12.9914893517
 11
3.1318676558
 21
12.9164893517
  0
LINE
  5
22A
100
AcDbEntity
  8
0
100
AcDbLine
 62
6
  6
CONTINUOUS
 10
3.1390917503
 20
12.9914893517
 11
3.1390917503
 21
12.9164893517
  0
LINE
  5
22B
100
AcDbEntity
  8
0
100
AcDbLine
 62
6
  6
CONTINUOUS
 10
3.1554309214
 20
12.9914893517
 11
3.1554309214
 21
12.9164893517
  0
LINE
  5
22C
100
AcDbEntity
  8
0
100
AcDbLine
 62
7
  6
CONTINUOUS
 10
3.1630540872
 20
12.9914893517
 11
3.1630540872
 21
12.9164893517
  0
LINE
  5
22D
100
AcDbEntity
  8
0
100
AcDbLine
 62
7
  6
CONTINUOUS
 10
3.1802613803
 20
12.9914893517
 11
3.1802613803
 21
12.9164893517
  0
LINE
  5
22E
100
AcDbEntity
  8
0
100
AcDbLine
 62
6
  6
CONTINUOUS
 10
3.1882743296
 20
12.9914893517
 11
3.1882743296
 21
12.9164893517
  0
LINE
  5
22F
100
AcDbEntity
  8
0
100
AcDbLine
 62
6
  6
CONTINUOUS
 10
3.2063287803
 20
12.9914893517
 11
3.2063287803
 21
12.9164893517
  0
LINE
  5
230
100
AcDbEntity
  8
0
100
AcDbLine
 62
7
  6
CONTINUOUS
 10
3.2147217507
 20
12.9914893517
 11
3.2147217507
 21
12.9164893517
  0
LINE
  5
231
100
AcDbEntity
  8
0
100
AcDbLine
 62
7
  6
CONTINUOUS
 10
3.2336013624
 20
12.9914893517
 11
3.2336013624
 21
12.9164893517
  0
LINE
  5
232
100
AcDbEntity
  8
0
100
AcDbLine
 62
6
  6
CONTINUOUS
 10
3.2423641283
 20
12.9914893517
 11
3.2423641283
 21
12.9164893517
  0
LINE
  5
233
100
AcDbEntity
  8
0
100
AcDbLine
 62
6
  6
CONTINUOUS
 10
3.2620458992
 20
12.9914893517
 11
3.2620458992
 21
12.9164893517
  0
LINE
  5
234
100
AcDbEntity
  8
0
100
AcDbLine
 62
7
  6
CONTINUOUS
 10
3.2711677845
 20
12.9914893517
 11
3.2711677845
 21
12.9164893517
  0
LINE
  5
235
100
AcDbEntity
  8
0
100
AcDbLine
 62
7
  6
CONTINUOUS
 10
3.2916277353
 20
12.9914893517
 11
3.2916277353
 21
12.9164893517
  0
LINE
  5
236
100
AcDbEntity
  8
0
100
AcDbLine
 62
6
  6
CONTINUOUS
 10
3.3010976264
 20
12.9914893517
 11
3.3010976264
 21
12.9164893517
  0
LINE
  5
237
100
AcDbEntity
  8
0
100
AcDbLine
 62
6
  6
CONTINUOUS
 10
3.3223108299
 20
12.9914893517
 11
3.3223108299
 21
12.9164893517
  0
LINE
  5
238
100
AcDbEntity
  8
0
100
AcDbLine
 62
7
  6
CONTINUOUS
 10
3.3321171892
 20
12.9914893517
 11
3.3321171892
 21
12.9164893517
  0
LINE
  5
239
100
AcDbEntity
  8
0
100
AcDbLine
 62
7
  6
CONTINUOUS
 10
3.3540578002
 20
12.9914893517
 11
3.3540578002
 21
12.9164893517
  0
LINE
  5
23A
100
AcDbEntity
  8
0
100
AcDbLine
 62
6
  6
CONTINUOUS
 10
3.3641886802
 20
12.9914893517
 11
3.3641886802
 21
12.9164893517
  0
LINE
  5
23B
100
AcDbEntity
  8
0
100
AcDbLine
 62
6
  6
CONTINUOUS
 10
3.3853502094
 20
12.9164893517
 11
3.3853502094
 21
12.9914893517
  0
LINE
  5
23C
100
AcDbEntity
  8
0
100
AcDbLine
 62
6
  6
CONTINUOUS
 10
3.3868299676
 20
12.9914893517
 11
3.3868299676
 21
12.9164893517
  0
LINE
  5
23D
100
AcDbEntity
  8
0
100
AcDbLine
 62
7
  6
CONTINUOUS
 10
3.3972730254
 20
12.9914893517
 11
3.3972730254
 21
12.9164893517
  0
LINE
  5
23E
100
AcDbEntity
  8
0
100
AcDbLine
 62
7
  6
CONTINUOUS
 10
3.4205874042
 20
12.9914893517
 11
3.4205874042
 21
12.9164893517
  0
LINE
  5
23F
100
AcDbEntity
  8
0
100
AcDbLine
 62
6
  6
CONTINUOUS
 10
3.4313299164
 20
12.9914893517
 11
3.4313299164
 21
12.9164893517
  0
LINE
  5
240
100
AcDbEntity
  8
0
100
AcDbLine
 62
6
  6
CONTINUOUS
 10
3.4523366744
 20
12.9164893517
 11
3.4523366744
 21
12.9914893517
  0
LINE
  5
241
100
AcDbEntity
  8
0
100
AcDbLine
 62
6
  6
CONTINUOUS
 10
3.4552889818
 20
12.9914893517
 11
3.4552889818
 21
12.9164893517
  0
LINE
  5
242
100
AcDbEntity
  8
0
100
AcDbLine
 62
6
  6
CONTINUOUS
 10
3.4555240627
 20
12.5414893517
 11
3.4555240627
 21
12.6164893517
  0
LINE
  5
243
100
AcDbEntity
  8
0
100
AcDbLine
 62
7
  6
CONTINUOUS
 10
3.4663178604
 20
12.9914893517
 11
3.4663178604
 21
12.9164893517
  0
LINE
  5
244
100
AcDbEntity
  8
0
100
AcDbLine
 62
7
  6
CONTINUOUS
 10
3.4908924217
 20
12.9914893517
 11
3.4908924217
 21
12.9164893517
  0
LINE
  5
245
100
AcDbEntity
  8
0
100
AcDbLine
 62
6
  6
CONTINUOUS
 10
3.5021942297
 20
12.9914893517
 11
3.5021942297
 21
12.9164893517
  0
LINE
  5
246
100
AcDbEntity
  8
0
100
AcDbLine
 62
6
  6
CONTINUOUS
 10
3.5055240627
 20
12.7164893517
 11
3.5055240627
 21
12.6164893517
  0
LINE
  5
247
100
AcDbEntity
  8
0
100
AcDbLine
 62
7
  6
CONTINUOUS
 10
3.5229438738
 20
12.9164893517
 11
3.5229438738
 21
12.9914893517
  0
LINE
  5
248
100
AcDbEntity
  8
0
100
AcDbLine
 62
7
  6
CONTINUOUS
 10
3.5273543468
 20
12.9914893517
 11
3.5273543468
 21
12.9164893517
  0
LINE
  5
249
100
AcDbEntity
  8
0
100
AcDbLine
 62
6
  6
CONTINUOUS
 10
3.5389153147
 20
12.9914893517
 11
3.5389153147
 21
12.9164893517
  0
LINE
  5
24A
100
AcDbEntity
  8
0
100
AcDbLine
 62
7
  6
CONTINUOUS
 10
3.5594983953
 20
12.9164893517
 11
3.5594983953
 21
12.9914893517
  0
LINE
  5
24B
100
AcDbEntity
  8
0
100
AcDbLine
 62
7
  6
CONTINUOUS
 10
3.5646303337
 20
12.9914893517
 11
3.5646303337
 21
12.9164893517
  0
LINE
  5
24C
100
AcDbEntity
  8
0
100
AcDbLine
 62
7
  6
CONTINUOUS
 10
3.5764363763
 20
12.9914893517
 11
3.5764363763
 21
12.9164893517
  0
LINE
  5
24D
100
AcDbEntity
  8
0
100
AcDbLine
 62
7
  6
CONTINUOUS
 10
3.6026749675
 20
12.9914893517
 11
3.6026749675
 21
12.9164893517
  0
LINE
  5
24E
100
AcDbEntity
  8
0
100
AcDbLine
 62
6
  6
CONTINUOUS
 10
3.6147117008
 20
12.9914893517
 11
3.6147117008
 21
12.9164893517
  0
LINE
  5
24F
100
AcDbEntity
  8
0
100
AcDbLine
 62
6
  6
CONTINUOUS
 10
3.6285240627
 20
12.4149893517
 11
3.6285240627
 21
12.3884893517
  0
LINE
  5
250
100
AcDbEntity
  8
0
100
AcDbLine
 62
6
  6
CONTINUOUS
 10
3.6348866562
 20
12.9164893517
 11
3.6348866562
 21
12.9914893517
  0
LINE
  5
251
100
AcDbEntity
  8
0
100
AcDbLine
 62
6
  6
CONTINUOUS
 10
3.6414418965
 20
12.9914893517
 11
3.6414418965
 21
12.9164893517
  0
LINE
  5
252
100
AcDbEntity
  8
0
100
AcDbLine
 62
6
  6
CONTINUOUS
 10
3.6536946558
 20
12.9914893517
 11
3.6536946558
 21
12.9164893517
  0
LINE
  5
253
100
AcDbEntity
  8
0
100
AcDbLine
 62
7
  6
CONTINUOUS
 10
3.6736285465
 20
12.9164893517
 11
3.6736285465
 21
12.9914893517
  0
LINE
  5
254
100
AcDbEntity
  8
0
100
AcDbLine
 62
7
  6
CONTINUOUS
 10
3.6808838894
 20
12.9914893517
 11
3.6808838894
 21
12.9164893517
  0
LINE
  5
255
100
AcDbEntity
  8
0
100
AcDbLine
 62
7
  6
CONTINUOUS
 10
3.6933377464
 20
12.9914893517
 11
3.6933377464
 21
12.9164893517
  0
LINE
  5
256
100
AcDbEntity
  8
0
100
AcDbLine
 62
6
  6
CONTINUOUS
 10
3.6955240627
 20
10.5014893517
 11
3.6955240627
 21
9.7664893517
  0
LINE
  5
257
100
AcDbEntity
  8
0
100
AcDbLine
 62
7
  6
CONTINUOUS
 10
3.720952892
 20
12.9914893517
 11
3.720952892
 21
12.9164893517
  0
LINE
  5
258
100
AcDbEntity
  8
0
100
AcDbLine
 62
6
  6
CONTINUOUS
 10
3.7335926737
 20
12.9914893517
 11
3.7335926737
 21
12.9164893517
  0
LINE
  5
259
100
AcDbEntity
  8
0
100
AcDbLine
 62
6
  6
CONTINUOUS
 10
3.7529718993
 20
12.9164893517
 11
3.7529718993
 21
12.9914893517
  0
LINE
  5
25A
100
AcDbEntity
  8
0
100
AcDbLine
 62
6
  6
CONTINUOUS
 10
3.7555240627
 20
12.2614893517
 11
3.7555240627
 21
12.2354893517
  0
LINE
  5
25B
100
AcDbEntity
  8
0
100
AcDbLine
 62
6
  6
CONTINUOUS
 10
3.7616000865
 20
12.9914893517
 11
3.7616000865
 21
12.9164893517
  0
LINE
  5
25C
100
AcDbEntity
  8
0
100
AcDbLine
 62
6
  6
CONTINUOUS
 10
3.7744103932
 20
12.9914893517
 11
3.7744103932
 21
12.9164893517
  0
LINE
  5
25D
100
AcDbEntity
  8
0
100
AcDbLine
 62
7
  6
CONTINUOUS
 10
3.7934766942
 20
12.9164893517
 11
3.7934766942
 21
12.9914893517
  0
LINE
  5
25E
100
AcDbEntity
  8
0
100
AcDbLine
 62
7
  6
CONTINUOUS
 10
3.8027759505
 20
12.9914893517
 11
3.8027759505
 21
12.9164893517
  0
LINE
  5
25F
100
AcDbEntity
  8
0
100
AcDbLine
 62
6
  6
CONTINUOUS
 10
3.8157411749
 20
12.9914893517
 11
3.8157411749
 21
12.9164893517
  0
LINE
  5
260
100
AcDbEntity
  8
0
100
AcDbLine
 62
6
  6
CONTINUOUS
 10
3.8330240627
 20
9.6914893517
 11
3.8330240627
 21
9.6414893517
  0
LINE
  5
261
100
AcDbEntity
  8
0
100
AcDbLine
 62
7
  6
CONTINUOUS
 10
3.8344713218
 20
12.9164893517
 11
3.8344713218
 21
12.9914893517
  0
LINE
  5
262
100
AcDbEntity
  8
0
100
AcDbLine
 62
7
  6
CONTINUOUS
 10
3.8444303176
 20
12.9914893517
 11
3.8444303176
 21
12.9164893517
  0
LINE
  5
263
100
AcDbEntity
  8
0
100
AcDbLine
 62
6
  6
CONTINUOUS
 10
3.8455240627
 20
12.2354893517
 11
3.8455240627
 21
10.5014893517
  0
LINE
  5
264
100
AcDbEntity
  8
0
100
AcDbLine
 62
6
  6
CONTINUOUS
 10
3.8575346635
 20
12.9914893517
 11
3.8575346635
 21
12.9164893517
  0
LINE
  5
265
100
AcDbEntity
  8
0
100
AcDbLine
 62
7
  6
CONTINUOUS
 10
3.8759058366
 20
12.9164893517
 11
3.8759058366
 21
12.9914893517
  0
LINE
  5
266
100
AcDbEntity
  8
0
100
AcDbLine
 62
7
  6
CONTINUOUS
 10
3.8865124383
 20
12.9914893517
 11
3.8865124383
 21
12.9164893517
  0
LINE
  5
267
100
AcDbEntity
  8
0
100
AcDbLine
 62
7
  6
CONTINUOUS
 10
3.8997399402
 20
12.9914893517
 11
3.8997399402
 21
12.9164893517
  0
LINE
  5
268
100
AcDbEntity
  8
0
100
AcDbLine
 62
7
  6
CONTINUOUS
 10
3.9289710421
 20
12.9914893517
 11
3.9289710421
 21
12.9164893517
  0
LINE
  5
269
100
AcDbEntity
  8
0
100
AcDbLine
 62
6
  6
CONTINUOUS
 10
3.9423055842
 20
12.9914893517
 11
3.9423055842
 21
12.9164893517
  0
LINE
  5
26A
100
AcDbEntity
  8
0
100
AcDbLine
 62
7
  6
CONTINUOUS
 10
3.9598921269
 20
12.9164893517
 11
3.9598921269
 21
12.9914893517
  0
LINE
  5
26B
100
AcDbEntity
  8
0
100
AcDbLine
 62
7
  6
CONTINUOUS
 10
3.9717543997
 20
12.9914893517
 11
3.9717543997
 21
12.9164893517
  0
LINE
  5
26C
100
AcDbEntity
  8
0
100
AcDbLine
 62
6
  6
CONTINUOUS
 10
3.9851797359
 20
12.9914893517
 11
3.9851797359
 21
12.9164893517
  0
LINE
  5
26D
100
AcDbEntity
  8
0
100
AcDbLine
 62
6
  6
CONTINUOUS
 10
4.002341578
 20
12.9164893517
 11
4.002341578
 21
12.9914893517
  0
LINE
  5
26E
100
AcDbEntity
  8
0
100
AcDbLine
 62
6
  6
CONTINUOUS
 10
4.0148103862
 20
12.9914893517
 11
4.0148103862
 21
12.9164893517
  0
LINE
  5
26F
100
AcDbEntity
  8
0
100
AcDbLine
 62
6
  6
CONTINUOUS
 10
4.0283101598
 20
12.9914893517
 11
4.0283101598
 21
12.9164893517
  0
LINE
  5
270
100
AcDbEntity
  8
0
100
AcDbLine
 62
6
  6
CONTINUOUS
 10
4.0450263923
 20
12.9164893517
 11
4.0450263923
 21
12.9914893517
  0
LINE
  5
271
100
AcDbEntity
  8
0
100
AcDbLine
 62
6
  6
CONTINUOUS
 10
4.0580865444
 20
12.9914893517
 11
4.0580865444
 21
12.9164893517
  0
LINE
  5
272
100
AcDbEntity
  8
0
100
AcDbLine
 62
6
  6
CONTINUOUS
 10
4.0716443081
 20
12.9914893517
 11
4.0716443081
 21
12.9164893517
  0
LINE
  5
273
100
AcDbEntity
  8
0
100
AcDbLine
 62
6
  6
CONTINUOUS
 10
4.0878945647
 20
12.9164893517
 11
4.0878945647
 21
12.9914893517
  0
LINE
  5
274
100
AcDbEntity
  8
0
100
AcDbLine
 62
6
  6
CONTINUOUS
 10
4.1015301491
 20
12.9914893517
 11
4.1015301491
 21
12.9164893517
  0
LINE
  5
275
100
AcDbEntity
  8
0
100
AcDbLine
 62
7
  6
CONTINUOUS
 10
4.1151293848
 20
12.9914893517
 11
4.1151293848
 21
12.9164893517
  0
LINE
  5
276
100
AcDbEntity
  8
0
100
AcDbLine
 62
7
  6
CONTINUOUS
 10
4.1308938672
 20
12.9164893517
 11
4.1308938672
 21
12.9914893517
  0
LINE
  5
277
100
AcDbEntity
  8
0
100
AcDbLine
 62
6
  6
CONTINUOUS
 10
4.1450882709
 20
12.9914893517
 11
4.1450882709
 21
12.9164893517
  0
LINE
  5
278
100
AcDbEntity
  8
0
100
AcDbLine
 62
6
  6
CONTINUOUS
 10
4.15871241
 20
12.9914893517
 11
4.15871241
 21
12.9164893517
  0
LINE
  5
279
100
AcDbEntity
  8
0
100
AcDbLine
 62
7
  6
CONTINUOUS
 10
4.1739719116
 20
12.9164893517
 11
4.1739719116
 21
12.9914893517
  0
LINE
  5
27A
100
AcDbEntity
  8
0
100
AcDbLine
 62
7
  6
CONTINUOUS
 10
4.1887078409
 20
12.9914893517
 11
4.1887078409
 21
12.9164893517
  0
LINE
  5
27B
100
AcDbEntity
  8
0
100
AcDbLine
 62
6
  6
CONTINUOUS
 10
4.2023402846
 20
12.9914893517
 11
4.2023402846
 21
12.9164893517
  0
LINE
  5
27C
100
AcDbEntity
  8
0
100
AcDbLine
 62
7
  6
CONTINUOUS
 10
4.2170762139
 20
12.9164893517
 11
4.2170762139
 21
12.9914893517
  0
LINE
  5
27D
100
AcDbEntity
  8
0
100
AcDbLine
 62
7
  6
CONTINUOUS
 10
4.2323357154
 20
12.9914893517
 11
4.2323357154
 21
12.9164893517
  0
LINE
  5
27E
100
AcDbEntity
  8
0
100
AcDbLine
 62
6
  6
CONTINUOUS
 10
4.2459598546
 20
12.9914893517
 11
4.2459598546
 21
12.9164893517
  0
LINE
  5
27F
100
AcDbEntity
  8
0
100
AcDbLine
 62
6
  6
CONTINUOUS
 10
4.2601542583
 20
12.9164893517
 11
4.2601542583
 21
12.9914893517
  0
LINE
  5
280
100
AcDbEntity
  8
0
100
AcDbLine
 62
6
  6
CONTINUOUS
 10
4.2759187407
 20
12.9914893517
 11
4.2759187407
 21
12.9164893517
  0
LINE
  5
281
100
AcDbEntity
  8
0
100
AcDbLine
 62
6
  6
CONTINUOUS
 10
4.2895179764
 20
12.9914893517
 11
4.2895179764
 21
12.9164893517
  0
LINE
  5
282
100
AcDbEntity
  8
0
100
AcDbLine
 62
6
  6
CONTINUOUS
 10
4.3031535607
 20
12.9164893517
 11
4.3031535607
 21
12.9914893517
  0
LINE
  5
283
100
AcDbEntity
  8
0
100
AcDbLine
 62
6
  6
CONTINUOUS
 10
4.3194038173
 20
12.9914893517
 11
4.3194038173
 21
12.9164893517
  0
LINE
  5
284
100
AcDbEntity
  8
0
100
AcDbLine
 62
6
  6
CONTINUOUS
 10
4.3329615811
 20
12.9914893517
 11
4.3329615811
 21
12.9164893517
  0
LINE
  5
285
100
AcDbEntity
  8
0
100
AcDbLine
 62
6
  6
CONTINUOUS
 10
4.3460217332
 20
12.9164893517
 11
4.3460217332
 21
12.9914893517
  0
LINE
  5
286
100
AcDbEntity
  8
0
100
AcDbLine
 62
6
  6
CONTINUOUS
 10
4.3627379656
 20
12.9914893517
 11
4.3627379656
 21
12.9164893517
  0
LINE
  5
287
100
AcDbEntity
  8
0
100
AcDbLine
 62
7
  6
CONTINUOUS
 10
4.3762377393
 20
12.9914893517
 11
4.3762377393
 21
12.9164893517
  0
LINE
  5
288
100
AcDbEntity
  8
0
100
AcDbLine
 62
7
  6
CONTINUOUS
 10
4.3887065475
 20
12.9164893517
 11
4.3887065475
 21
12.9914893517
  0
LINE
  5
289
100
AcDbEntity
  8
0
100
AcDbLine
 62
6
  6
CONTINUOUS
 10
4.4058683895
 20
12.9914893517
 11
4.4058683895
 21
12.9164893517
  0
LINE
  5
28A
100
AcDbEntity
  8
0
100
AcDbLine
 62
6
  6
CONTINUOUS
 10
4.4192937258
 20
12.9914893517
 11
4.4192937258
 21
12.9164893517
  0
LINE
  5
28B
100
AcDbEntity
  8
0
100
AcDbLine
 62
6
  6
CONTINUOUS
 10
4.4311559986
 20
12.9164893517
 11
4.4311559986
 21
12.9914893517
  0
LINE
  5
28C
100
AcDbEntity
  8
0
100
AcDbLine
 62
6
  6
CONTINUOUS
 10
4.4487425413
 20
12.9914893517
 11
4.4487425413
 21
12.9164893517
  0
LINE
  5
28D
100
AcDbEntity
  8
0
100
AcDbLine
 62
7
  6
CONTINUOUS
 10
4.4620770834
 20
12.9914893517
 11
4.4620770834
 21
12.9164893517
  0
LINE
  5
28E
100
AcDbEntity
  8
0
100
AcDbLine
 62
7
  6
CONTINUOUS
 10
4.4913081853
 20
12.9914893517
 11
4.4913081853
 21
12.9164893517
  0
LINE
  5
28F
100
AcDbEntity
  8
0
100
AcDbLine
 62
6
  6
CONTINUOUS
 10
4.5045356872
 20
12.9914893517
 11
4.5045356872
 21
12.9164893517
  0
LINE
  5
290
100
AcDbEntity
  8
0
100
AcDbLine
 62
7
  6
CONTINUOUS
 10
4.5151422889
 20
12.9164893517
 11
4.5151422889
 21
12.9914893517
  0
LINE
  5
291
100
AcDbEntity
  8
0
100
AcDbLine
 62
7
  6
CONTINUOUS
 10
4.533513462
 20
12.9914893517
 11
4.533513462
 21
12.9164893517
  0
LINE
  5
292
100
AcDbEntity
  8
0
100
AcDbLine
 62
6
  6
CONTINUOUS
 10
4.5455240627
 20
12.2354893517
 11
4.5455240627
 21
11.7144893517
  0
LINE
  5
293
100
AcDbEntity
  8
0
100
AcDbLine
 62
6
  6
CONTINUOUS
 10
4.5455240627
 20
11.5184893517
 11
4.5455240627
 21
10.5014893517
  0
LINE
  5
294
100
AcDbEntity
  8
0
100
AcDbLine
 62
6
  6
CONTINUOUS
 10
4.5466178079
 20
12.9914893517
 11
4.5466178079
 21
12.9164893517
  0
LINE
  5
295
100
AcDbEntity
  8
0
100
AcDbLine
 62
6
  6
CONTINUOUS
 10
4.5565768037
 20
12.9164893517
 11
4.5565768037
 21
12.9914893517
  0
LINE
  5
296
100
AcDbEntity
  8
0
100
AcDbLine
 62
6
  6
CONTINUOUS
 10
4.5580240627
 20
9.6914893517
 11
4.5580240627
 21
9.6414893517
  0
LINE
  5
297
100
AcDbEntity
  8
0
100
AcDbLine
 62
6
  6
CONTINUOUS
 10
4.5753069506
 20
12.9914893517
 11
4.5753069506
 21
12.9164893517
  0
LINE
  5
298
100
AcDbEntity
  8
0
100
AcDbLine
 62
6
  6
CONTINUOUS
 10
4.588272175
 20
12.9914893517
 11
4.588272175
 21
12.9164893517
  0
LINE
  5
299
100
AcDbEntity
  8
0
100
AcDbLine
 62
6
  6
CONTINUOUS
 10
4.5975714313
 20
12.9164893517
 11
4.5975714313
 21
12.9914893517
  0
LINE
  5
29A
100
AcDbEntity
  8
0
100
AcDbLine
 62
6
  6
CONTINUOUS
 10
4.6166377323
 20
12.9914893517
 11
4.6166377323
 21
12.9164893517
  0
LINE
  5
29B
100
AcDbEntity
  8
0
100
AcDbLine
 62
6
  6
CONTINUOUS
 10
4.629448039
 20
12.9914893517
 11
4.629448039
 21
12.9164893517
  0
LINE
  5
29C
100
AcDbEntity
  8
0
100
AcDbLine
 62
6
  6
CONTINUOUS
 10
4.6355240627
 20
12.2614893517
 11
4.6355240627
 21
12.2354893517
  0
LINE
  5
29D
100
AcDbEntity
  8
0
100
AcDbLine
 62
6
  6
CONTINUOUS
 10
4.6380762261
 20
12.9164893517
 11
4.6380762261
 21
12.9914893517
  0
LINE
  5
29E
100
AcDbEntity
  8
0
100
AcDbLine
 62
6
  6
CONTINUOUS
 10
4.6574554518
 20
12.9914893517
 11
4.6574554518
 21
12.9164893517
  0
LINE
  5
29F
100
AcDbEntity
  8
0
100
AcDbLine
 62
7
  6
CONTINUOUS
 10
4.6700952335
 20
12.9914893517
 11
4.6700952335
 21
12.9164893517
  0
LINE
  5
2A0
100
AcDbEntity
  8
0
100
AcDbLine
 62
6
  6
CONTINUOUS
 10
4.6955240627
 20
10.5014893517
 11
4.6955240627
 21
10.4514893517
  0
LINE
  5
2A1
100
AcDbEntity
  8
0
100
AcDbLine
 62
6
  6
CONTINUOUS
 10
4.6955240627
 20
9.8164893517
 11
4.6955240627
 21
9.7664893517
  0
LINE
  5
2A2
100
AcDbEntity
  8
0
100
AcDbLine
 62
7
  6
CONTINUOUS
 10
4.6977103791
 20
12.9914893517
 11
4.6977103791
 21
12.9164893517
  0
LINE
  5
2A3
100
AcDbEntity
  8
0
100
AcDbLine
 62
7
  6
CONTINUOUS
 10
4.7101642361
 20
12.9914893517
 11
4.7101642361
 21
12.9164893517
  0
LINE
  5
2A4
100
AcDbEntity
  8
0
100
AcDbLine
 62
7
  6
CONTINUOUS
 10
4.717419579
 20
12.9164893517
 11
4.717419579
 21
12.9914893517
  0
LINE
  5
2A5
100
AcDbEntity
  8
0
100
AcDbLine
 62
6
  6
CONTINUOUS
 10
4.7373534697
 20
12.9914893517
 11
4.7373534697
 21
12.9164893517
  0
LINE
  5
2A6
100
AcDbEntity
  8
0
100
AcDbLine
 62
6
  6
CONTINUOUS
 10
4.7496062289
 20
12.9914893517
 11
4.7496062289
 21
12.9164893517
  0
LINE
  5
2A7
100
AcDbEntity
  8
0
100
AcDbLine
 62
6
  6
CONTINUOUS
 10
4.7561614693
 20
12.9164893517
 11
4.7561614693
 21
12.9914893517
  0
LINE
  5
2A8
100
AcDbEntity
  8
0
100
AcDbLine
 62
6
  6
CONTINUOUS
 10
4.7625240627
 20
12.4149893517
 11
4.7625240627
 21
12.3884893517
  0
LINE
  5
2A9
100
AcDbEntity
  8
0
100
AcDbLine
 62
6
  6
CONTINUOUS
 10
4.7763364247
 20
12.9914893517
 11
4.7763364247
 21
12.9164893517
  0
LINE
  5
2AA
100
AcDbEntity
  8
0
100
AcDbLine
 62
7
  6
CONTINUOUS
 10
4.788373158
 20
12.9914893517
 11
4.788373158
 21
12.9164893517
  0
LINE
  5
2AB
100
AcDbEntity
  8
0
100
AcDbLine
 62
7
  6
CONTINUOUS
 10
4.8146117492
 20
12.9914893517
 11
4.8146117492
 21
12.9164893517
  0
LINE
  5
2AC
100
AcDbEntity
  8
0
100
AcDbLine
 62
7
  6
CONTINUOUS
 10
4.8264177918
 20
12.9914893517
 11
4.8264177918
 21
12.9164893517
  0
LINE
  5
2AD
100
AcDbEntity
  8
0
100
AcDbLine
 62
7
  6
CONTINUOUS
 10
4.8521328108
 20
12.9914893517
 11
4.8521328108
 21
12.9164893517
  0
LINE
  5
2AE
100
AcDbEntity
  8
0
100
AcDbLine
 62
6
  6
CONTINUOUS
 10
4.8636937787
 20
12.9914893517
 11
4.8636937787
 21
12.9164893517
  0
LINE
  5
2AF
100
AcDbEntity
  8
0
100
AcDbLine
 62
6
  6
CONTINUOUS
 10
4.8681042517
 20
12.9164893517
 11
4.8681042517
 21
12.9914893517
  0
LINE
  5
2B0
100
AcDbEntity
  8
0
100
AcDbLine
 62
6
  6
CONTINUOUS
 10
4.8855240627
 20
12.7164893517
 11
4.8855240627
 21
12.6164893517
  0
LINE
  5
2B1
100
AcDbEntity
  8
0
100
AcDbLine
 62
6
  6
CONTINUOUS
 10
4.8888538957
 20
12.9914893517
 11
4.8888538957
 21
12.9164893517
  0
LINE
  5
2B2
100
AcDbEntity
  8
0
100
AcDbLine
 62
7
  6
CONTINUOUS
 10
4.9001557038
 20
12.9914893517
 11
4.9001557038
 21
12.9164893517
  0
LINE
  5
2B3
100
AcDbEntity
  8
0
100
AcDbLine
 62
7
  6
CONTINUOUS
 10
4.9038393379
 20
12.9164893517
 11
4.9038393379
 21
12.9914893517
  0
LINE
  5
2B4
100
AcDbEntity
  8
0
100
AcDbLine
 62
6
  6
CONTINUOUS
 10
4.9247302651
 20
12.9914893517
 11
4.9247302651
 21
12.9164893517
  0
LINE
  5
2B5
100
AcDbEntity
  8
0
100
AcDbLine
 62
6
  6
CONTINUOUS
 10
4.9355240627
 20
12.5414893517
 11
4.9355240627
 21
12.6164893517
  0
LINE
  5
2B6
100
AcDbEntity
  8
0
100
AcDbLine
 62
6
  6
CONTINUOUS
 10
4.9357591437
 20
12.9914893517
 11
4.9357591437
 21
12.9164893517
  0
LINE
  5
2B7
100
AcDbEntity
  8
0
100
AcDbLine
 62
6
  6
CONTINUOUS
 10
4.938711451
 20
12.9164893517
 11
4.938711451
 21
12.9914893517
  0
LINE
  5
2B8
100
AcDbEntity
  8
0
100
AcDbLine
 62
6
  6
CONTINUOUS
 10
4.959718209
 20
12.9914893517
 11
4.959718209
 21
12.9164893517
  0
LINE
  5
2B9
100
AcDbEntity
  8
0
100
AcDbLine
 62
7
  6
CONTINUOUS
 10
4.9704607213
 20
12.9914893517
 11
4.9704607213
 21
12.9164893517
  0
LINE
  5
2BA
100
AcDbEntity
  8
0
100
AcDbLine
 62
7
  6
CONTINUOUS
 10
4.9937751001
 20
12.9914893517
 11
4.9937751001
 21
12.9164893517
  0
LINE
  5
2BB
100
AcDbEntity
  8
0
100
AcDbLine
 62
7
  6
CONTINUOUS
 10
5.0042181578
 20
12.9914893517
 11
5.0042181578
 21
12.9164893517
  0
LINE
  5
2BC
100
AcDbEntity
  8
0
100
AcDbLine
 62
7
  6
CONTINUOUS
 10
5.0268594452
 20
12.9914893517
 11
5.0268594452
 21
12.9164893517
  0
LINE
  5
2BD
100
AcDbEntity
  8
0
100
AcDbLine
 62
7
  6
CONTINUOUS
 10
5.0369903252
 20
12.9914893517
 11
5.0369903252
 21
12.9164893517
  0
LINE
  5
2BE
100
AcDbEntity
  8
0
100
AcDbLine
 62
7
  6
CONTINUOUS
 10
5.0589309363
 20
12.9914893517
 11
5.0589309363
 21
12.9164893517
  0
LINE
  5
2BF
100
AcDbEntity
  8
0
100
AcDbLine
 62
7
  6
CONTINUOUS
 10
5.0687372956
 20
12.9914893517
 11
5.0687372956
 21
12.9164893517
  0
LINE
  5
2C0
100
AcDbEntity
  8
0
100
AcDbLine
 62
7
  6
CONTINUOUS
 10
5.089950499
 20
12.9914893517
 11
5.089950499
 21
12.9164893517
  0
LINE
  5
2C1
100
AcDbEntity
  8
0
100
AcDbLine
 62
7
  6
CONTINUOUS
 10
5.0994203902
 20
12.9914893517
 11
5.0994203902
 21
12.9164893517
  0
LINE
  5
2C2
100
AcDbEntity
  8
0
100
AcDbLine
 62
7
  6
CONTINUOUS
 10
5.119880341
 20
12.9914893517
 11
5.119880341
 21
12.9164893517
  0
LINE
  5
2C3
100
AcDbEntity
  8
0
100
AcDbLine
 62
7
  6
CONTINUOUS
 10
5.1290022263
 20
12.9914893517
 11
5.1290022263
 21
12.9164893517
  0
LINE
  5
2C4
100
AcDbEntity
  8
0
100
AcDbLine
 62
7
  6
CONTINUOUS
 10
5.1486839971
 20
12.9914893517
 11
5.1486839971
 21
12.9164893517
  0
LINE
  5
2C5
100
AcDbEntity
  8
0
100
AcDbLine
 62
6
  6
CONTINUOUS
 10
5.157446763
 20
12.9914893517
 11
5.157446763
 21
12.9164893517
  0
LINE
  5
2C6
100
AcDbEntity
  8
0
100
AcDbLine
 62
7
  6
CONTINUOUS
 10
5.1763263748
 20
12.9914893517
 11
5.1763263748
 21
12.9164893517
  0
LINE
  5
2C7
100
AcDbEntity
  8
0
100
AcDbLine
 62
6
  6
CONTINUOUS
 10
5.1847193452
 20
12.9914893517
 11
5.1847193452
 21
12.9164893517
  0
LINE
  5
2C8
100
AcDbEntity
  8
0
100
AcDbLine
 62
7
  6
CONTINUOUS
 10
5.2027737959
 20
12.9914893517
 11
5.2027737959
 21
12.9164893517
  0
LINE
  5
2C9
100
AcDbEntity
  8
0
100
AcDbLine
 62
6
  6
CONTINUOUS
 10
5.2107867452
 20
12.9914893517
 11
5.2107867452
 21
12.9164893517
  0
LINE
  5
2CA
100
AcDbEntity
  8
0
100
AcDbLine
 62
6
  6
CONTINUOUS
 10
5.2279940383
 20
12.9914893517
 11
5.2279940383
 21
12.9164893517
  0
LINE
  5
2CB
100
AcDbEntity
  8
0
100
AcDbLine
 62
6
  6
CONTINUOUS
 10
5.2356172041
 20
12.9914893517
 11
5.2356172041
 21
12.9164893517
  0
LINE
  5
2CC
100
AcDbEntity
  8
0
100
AcDbLine
 62
7
  6
CONTINUOUS
 10
5.2519563751
 20
12.9914893517
 11
5.2519563751
 21
12.9164893517
  0
LINE
  5
2CD
100
AcDbEntity
  8
0
100
AcDbLine
 62
7
  6
CONTINUOUS
 10
5.2591804697
 20
12.9914893517
 11
5.2591804697
 21
12.9164893517
  0
LINE
  5
2CE
100
AcDbEntity
  8
0
100
AcDbLine
 62
6
  6
CONTINUOUS
 10
5.2746316119
 20
12.9914893517
 11
5.2746316119
 21
12.9164893517
  0
LINE
  5
2CF
100
AcDbEntity
  8
0
100
AcDbLine
 62
6
  6
CONTINUOUS
 10
5.2814478338
 20
12.9914893517
 11
5.2814478338
 21
12.9164893517
  0
LINE
  5
2D0
100
AcDbEntity
  8
0
100
AcDbLine
 62
6
  6
CONTINUOUS
 10
5.2959921224
 20
12.9914893517
 11
5.2959921224
 21
12.9164893517
  0
LINE
  5
2D1
100
AcDbEntity
  8
0
100
AcDbLine
 62
6
  6
CONTINUOUS
 10
5.302392167
 20
12.9914893517
 11
5.302392167
 21
12.9164893517
  0
LINE
  5
2D2
100
AcDbEntity
  8
0
100
AcDbLine
 62
7
  6
CONTINUOUS
 10
5.316011882
 20
12.9914893517
 11
5.316011882
 21
12.9164893517
  0
LINE
  5
2D3
100
AcDbEntity
  8
0
100
AcDbLine
 62
7
  6
CONTINUOUS
 10
5.321987952
 20
12.9914893517
 11
5.321987952
 21
12.9164893517
  0
LINE
  5
2D4
100
AcDbEntity
  8
0
100
AcDbLine
 62
6
  6
CONTINUOUS
 10
5.3322647083
 20
12.9164893517
 11
5.3322647083
 21
12.9914893517
  0
LINE
  5
2D5
100
AcDbEntity
  8
0
100
AcDbLine
 62
7
  6
CONTINUOUS
 10
5.3346664998
 20
12.9914893517
 11
5.3346664998
 21
12.9164893517
  0
LINE
  5
2D6
100
AcDbEntity
  8
0
100
AcDbLine
 62
6
  6
CONTINUOUS
 10
5.3402113142
 20
12.9914893517
 11
5.3402113142
 21
12.9164893517
  0
LINE
  5
2D7
100
AcDbEntity
  8
0
100
AcDbLine
 62
6
  6
CONTINUOUS
 10
5.3519332481
 20
12.9914893517
 11
5.3519332481
 21
12.9164893517
  0
LINE
  5
2D8
100
AcDbEntity
  8
0
100
AcDbLine
 62
6
  6
CONTINUOUS
 10
5.3570400514
 20
12.9914893517
 11
5.3570400514
 21
12.9164893517
  0
LINE
  5
2D9
100
AcDbEntity
  8
0
100
AcDbLine
 62
6
  6
CONTINUOUS
 10
5.3677910898
 20
12.9914893517
 11
5.3677910898
 21
12.9164893517
  0
LINE
  5
2DA
100
AcDbEntity
  8
0
100
AcDbLine
 62
6
  6
CONTINUOUS
 10
5.3724536602
 20
12.9914893517
 11
5.3724536602
 21
12.9164893517
  0
LINE
  5
2DB
100
AcDbEntity
  8
0
100
AcDbLine
 62
6
  6
CONTINUOUS
 10
5.3822207048
 20
12.9914893517
 11
5.3822207048
 21
12.9164893517
  0
LINE
  5
2DC
100
AcDbEntity
  8
0
100
AcDbLine
 62
7
  6
CONTINUOUS
 10
5.3864333616
 20
12.9914893517
 11
5.3864333616
 21
12.9164893517
  0
LINE
  5
2DD
100
AcDbEntity
  8
0
100
AcDbLine
 62
6
  6
CONTINUOUS
 10
5.3952045127
 20
12.9914893517
 11
5.3952045127
 21
12.9164893517
  0
LINE
  5
2DE
100
AcDbEntity
  8
0
100
AcDbLine
 62
6
  6
CONTINUOUS
 10
5.3955240627
 20
13.1914893517
 11
5.3955240627
 21
12.9914893517
  0
LINE
  5
2DF
100
AcDbEntity
  8
0
100
AcDbLine
 62
6
  6
CONTINUOUS
 10
5.3989621235
 20
12.9914893517
 11
5.3989621235
 21
12.9164893517
  0
LINE
  5
2E0
100
AcDbEntity
  8
0
100
AcDbLine
 62
6
  6
CONTINUOUS
 10
5.4067266948
 20
12.9914893517
 11
5.4067266948
 21
12.9164893517
  0
LINE
  5
2E1
100
AcDbEntity
  8
0
100
AcDbLine
 62
7
  6
CONTINUOUS
 10
5.4100246814
 20
12.9914893517
 11
5.4100246814
 21
12.9164893517
  0
LINE
  5
2E2
100
AcDbEntity
  8
0
100
AcDbLine
 62
6
  6
CONTINUOUS
 10
5.4167732131
 20
12.9914893517
 11
5.4167732131
 21
12.9164893517
  0
LINE
  5
2E3
100
AcDbEntity
  8
0
100
AcDbLine
 62
6
  6
CONTINUOUS
 10
5.4196075575
 20
12.9914893517
 11
5.4196075575
 21
12.9164893517
  0
LINE
  5
2E4
100
AcDbEntity
  8
0
100
AcDbLine
 62
7
  6
CONTINUOUS
 10
5.4253318274
 20
12.9914893517
 11
5.4253318274
 21
12.9164893517
  0
LINE
  5
2E5
100
AcDbEntity
  8
0
100
AcDbLine
 62
6
  6
CONTINUOUS
 10
5.4276990764
 20
12.9914893517
 11
5.4276990764
 21
12.9164893517
  0
LINE
  5
2E6
100
AcDbEntity
  8
0
100
AcDbLine
 62
7
  6
CONTINUOUS
 10
5.4323921103
 20
12.9914893517
 11
5.4323921103
 21
12.9164893517
  0
LINE
  5
2E7
100
AcDbEntity
  8
0
100
AcDbLine
 62
6
  6
CONTINUOUS
 10
5.4342893798
 20
12.9914893517
 11
5.4342893798
 21
12.9164893517
  0
LINE
  5
2E8
100
AcDbEntity
  8
0
100
AcDbLine
 62
6
  6
CONTINUOUS
 10
5.4379454601
 20
12.9914893517
 11
5.4379454601
 21
12.9164893517
  0
LINE
  5
2E9
100
AcDbEntity
  8
0
100
AcDbLine
 62
6
  6
CONTINUOUS
 10
5.4393704385
 20
12.9914893517
 11
5.4393704385
 21
12.9164893517
  0
LINE
  5
2EA
100
AcDbEntity
  8
0
100
AcDbLine
 62
6
  6
CONTINUOUS
 10
5.4419851107
 20
12.9914893517
 11
5.4419851107
 21
12.9164893517
  0
LINE
  5
2EB
100
AcDbEntity
  8
0
100
AcDbLine
 62
6
  6
CONTINUOUS
 10
5.4429360619
 20
12.9914893517
 11
5.4429360619
 21
12.9164893517
  0
LINE
  5
2EC
100
AcDbEntity
  8
0
100
AcDbLine
 62
6
  6
CONTINUOUS
 10
5.4445061406
 20
12.9914893517
 11
5.4445061406
 21
12.9164893517
  0
LINE
  5
2ED
100
AcDbEntity
  8
0
100
AcDbLine
 62
7
  6
CONTINUOUS
 10
5.4449819061
 20
12.9914893517
 11
5.4449819061
 21
12.9164893517
  0
LINE
  5
2EE
100
AcDbEntity
  8
0
100
AcDbLine
 62
6
  6
CONTINUOUS
 10
5.4455054782
 20
12.9914893517
 11
5.4455054782
 21
12.9164893517
  0
LINE
  5
2EF
100
AcDbEntity
  8
0
100
AcDbLine
 62
6
  6
CONTINUOUS
 10
5.4455240627
 20
13.3914893517
 11
5.4455240627
 21
13.2414893517
  0
LINE
  5
2F0
100
AcDbEntity
  8
0
100
AcDbLine
 62
6
  6
CONTINUOUS
 10
5.4455240627
 20
13.2414893517
 11
5.3955240627
 21
13.1914893517
  0
LINE
  5
2F1
100
AcDbEntity
  8
0
100
AcDbLine
 62
6
  6
CONTINUOUS
 10
2.9455240627
 20
13.2414893517
 11
2.9955240627
 21
13.1914893517
  0
LINE
  5
2F2
100
AcDbEntity
  8
0
100
AcDbLine
 62
6
  6
CONTINUOUS
 10
28.8110240627
 20
9.6414893517
 11
28.0860240627
 21
9.6414893517
  0
LINE
  5
2F3
100
AcDbEntity
  8
0
100
AcDbLine
 62
6
  6
CONTINUOUS
 10
3.8330240627
 20
9.6414893517
 11
4.5580240627
 21
9.6414893517
  0
LINE
  5
2F4
100
AcDbEntity
  8
0
100
AcDbLine
 62
6
  6
CONTINUOUS
 10
28.8610240627
 20
9.6914893517
 11
28.0360240627
 21
9.6914893517
  0
LINE
  5
2F5
100
AcDbEntity
  8
0
100
AcDbLine
 62
6
  6
CONTINUOUS
 10
4.6080240627
 20
9.6914893517
 11
3.7830240627
 21
9.6914893517
  0
LINE
  5
2F6
100
AcDbEntity
  8
0
100
AcDbLine
 62
6
  6
CONTINUOUS
 10
28.9485240627
 20
9.7664893517
 11
27.9485240627
 21
9.7664893517
  0
LINE
  5
2F7
100
AcDbEntity
  8
0
100
AcDbLine
 62
6
  6
CONTINUOUS
 10
4.6955240627
 20
9.7664893517
 11
3.6955240627
 21
9.7664893517
  0
LINE
  5
2F8
100
AcDbEntity
  8
0
100
AcDbLine
 62
6
  6
CONTINUOUS
 10
4.6923717319
 20
9.8214893517
 11
27.9516763308
 21
9.8214893517
  0
LINE
  5
2F9
100
AcDbEntity
  8
0
100
AcDbLine
 62
6
  6
CONTINUOUS
 10
4.692371764
 20
10.4464893517
 11
27.9516763693
 21
10.4464893517
  0
LINE
  5
2FA
100
AcDbEntity
  8
0
100
AcDbLine
 62
6
  6
CONTINUOUS
 10
28.9485240627
 20
10.5014893517
 11
27.9485240627
 21
10.5014893517
  0
LINE
  5
2FB
100
AcDbEntity
  8
0
100
AcDbLine
 62
6
  6
CONTINUOUS
 10
3.6955240627
 20
10.5014893517
 11
4.6955240627
 21
10.5014893517
  0
LINE
  5
2FC
100
AcDbEntity
  8
0
100
AcDbLine
 62
6
  6
CONTINUOUS
 10
28.8885240627
 20
12.2354893517
 11
28.0085240627
 21
12.2354893517
  0
LINE
  5
2FD
100
AcDbEntity
  8
0
100
AcDbLine
 62
6
  6
CONTINUOUS
 10
3.7555240627
 20
12.2354893517
 11
4.6355240627
 21
12.2354893517
  0
LINE
  5
2FE
100
AcDbEntity
  8
0
100
AcDbLine
 62
9
  6
CONTINUOUS
 10
28.8885240627
 20
12.2614893517
 11
28.0085240627
 21
12.2614893517
  0
LINE
  5
2FF
100
AcDbEntity
  8
0
100
AcDbLine
 62
9
  6
CONTINUOUS
 10
3.7555240627
 20
12.2614893517
 11
4.6355240627
 21
12.2614893517
  0
LINE
  5
300
100
AcDbEntity
  8
0
100
AcDbLine
 62
6
  6
CONTINUOUS
 10
29.0155240627
 20
12.3884893517
 11
27.8815240627
 21
12.3884893517
  0
LINE
  5
301
100
AcDbEntity
  8
0
100
AcDbLine
 62
6
  6
CONTINUOUS
 10
3.6285240627
 20
12.3884893517
 11
4.7625240627
 21
12.3884893517
  0
LINE
  5
302
100
AcDbEntity
  8
0
100
AcDbLine
 62
9
  6
CONTINUOUS
 10
29.0155240627
 20
12.4149893517
 11
27.8815240627
 21
12.4149893517
  0
LINE
  5
303
100
AcDbEntity
  8
0
100
AcDbLine
 62
9
  6
CONTINUOUS
 10
3.6285240627
 20
12.4149893517
 11
4.7625240627
 21
12.4149893517
  0
LINE
  5
304
100
AcDbEntity
  8
0
100
AcDbLine
 62
6
  6
CONTINUOUS
 10
3.4555369969
 20
12.5414893517
 11
4.9355111286
 21
12.5414893517
  0
LINE
  5
305
100
AcDbEntity
  8
0
100
AcDbLine
 62
6
  6
CONTINUOUS
 10
27.7085369969
 20
12.5414893517
 11
29.1885111286
 21
12.5414893517
  0
LINE
  5
306
100
AcDbEntity
  8
0
100
AcDbLine
 62
6
  6
CONTINUOUS
 10
3.4555369969
 20
12.6164893517
 11
4.9355111286
 21
12.6164893517
  0
LINE
  5
307
100
AcDbEntity
  8
0
100
AcDbLine
 62
6
  6
CONTINUOUS
 10
27.7085369969
 20
12.6164893517
 11
29.1885111286
 21
12.6164893517
  0
LINE
  5
308
100
AcDbEntity
  8
0
100
AcDbLine
 62
6
  6
CONTINUOUS
 10
3.2705240627
 20
12.7164893517
 11
5.1205240627
 21
12.7164893517
  0
LINE
  5
309
100
AcDbEntity
  8
0
100
AcDbLine
 62
6
  6
CONTINUOUS
 10
27.5235240627
 20
12.7164893517
 11
29.3735240627
 21
12.7164893517
  0
LINE
  5
30A
100
AcDbEntity
  8
0
100
AcDbLine
 62
6
  6
CONTINUOUS
 10
3.1205240627
 20
12.8164893517
 11
5.2705240627
 21
12.8164893517
  0
LINE
  5
30B
100
AcDbEntity
  8
0
100
AcDbLine
 62
6
  6
CONTINUOUS
 10
27.3735240627
 20
12.8164893517
 11
29.5235240627
 21
12.8164893517
  0
LINE
  5
30C
100
AcDbEntity
  8
0
100
AcDbLine
 62
6
  6
CONTINUOUS
 10
29.6806990764
 20
12.9164893517
 11
29.6783318274
 21
12.9164893517
  0
LINE
  5
30D
100
AcDbEntity
  8
0
100
AcDbLine
 62
7
  6
CONTINUOUS
 10
29.6597266948
 20
12.9164893517
 11
29.6519621235
 21
12.9164893517
  0
LINE
  5
30E
100
AcDbEntity
  8
0
100
AcDbLine
 62
6
  6
CONTINUOUS
 10
29.5932113142
 20
12.9164893517
 11
29.5876664998
 21
12.9164893517
  0
LINE
  5
30F
100
AcDbEntity
  8
0
100
AcDbLine
 62
6
  6
CONTINUOUS
 10
29.574987952
 20
12.9164893517
 11
29.569011882
 21
12.9164893517
  0
LINE
  5
310
100
AcDbEntity
  8
0
100
AcDbLine
 62
6
  6
CONTINUOUS
 10
27.3280362435
 20
12.9164893517
 11
27.3220601735
 21
12.9164893517
  0
LINE
  5
311
100
AcDbEntity
  8
0
100
AcDbLine
 62
6
  6
CONTINUOUS
 10
27.2187162981
 20
12.9164893517
 11
27.2163490491
 21
12.9164893517
  0
LINE
  5
312
100
AcDbEntity
  8
0
100
AcDbLine
 62
6
  6
CONTINUOUS
 10
5.4276990764
 20
12.9164893517
 11
5.4253318274
 21
12.9164893517
  0
LINE
  5
313
100
AcDbEntity
  8
0
100
AcDbLine
 62
6
  6
CONTINUOUS
 10
5.321987952
 20
12.9164893517
 11
5.316011882
 21
12.9164893517
  0
LINE
  5
314
100
AcDbEntity
  8
0
100
AcDbLine
 62
6
  6
CONTINUOUS
 10
3.6933377464
 20
12.9164893517
 11
3.6808838894
 21
12.9164893517
  0
LINE
  5
315
100
AcDbEntity
  8
0
100
AcDbLine
 62
6
  6
CONTINUOUS
 10
3.0750362435
 20
12.9164893517
 11
3.0690601735
 21
12.9164893517
  0
LINE
  5
316
100
AcDbEntity
  8
0
100
AcDbLine
 62
6
  6
CONTINUOUS
 10
3.0563816257
 20
12.9164893517
 11
3.0508368113
 21
12.9164893517
  0
LINE
  5
317
100
AcDbEntity
  8
0
100
AcDbLine
 62
7
  6
CONTINUOUS
 10
2.992086002
 20
12.9164893517
 11
2.9843214307
 21
12.9164893517
  0
LINE
  5
318
100
AcDbEntity
  8
0
100
AcDbLine
 62
6
  6
CONTINUOUS
 10
2.9657162981
 20
12.9164893517
 11
2.9633490491
 21
12.9164893517
  0
LINE
  5
319
100
AcDbEntity
  8
0
100
AcDbLine
 62
6
  6
CONTINUOUS
 10
2.9455426472
 20
12.9164893517
 11
2.9586560152
 21
12.9164893517
  0
LINE
  5
31A
100
AcDbEntity
  8
0
100
AcDbLine
 62
7
  6
CONTINUOUS
 10
2.9586560152
 20
12.9164893517
 11
2.9633490491
 21
12.9164893517
  0
LINE
  5
31B
100
AcDbEntity
  8
0
100
AcDbLine
 62
7
  6
CONTINUOUS
 10
2.9657162981
 20
12.9164893517
 11
2.971440568
 21
12.9164893517
  0
LINE
  5
31C
100
AcDbEntity
  8
0
100
AcDbLine
 62
6
  6
CONTINUOUS
 10
2.971440568
 20
12.9164893517
 11
2.9843214307
 21
12.9164893517
  0
LINE
  5
31D
100
AcDbEntity
  8
0
100
AcDbLine
 62
6
  6
CONTINUOUS
 10
2.992086002
 20
12.9164893517
 11
3.0391148774
 21
12.9164893517
  0
LINE
  5
31E
100
AcDbEntity
  8
0
100
AcDbLine
 62
7
  6
CONTINUOUS
 10
3.0391148774
 20
12.9164893517
 11
3.0508368113
 21
12.9164893517
  0
LINE
  5
31F
100
AcDbEntity
  8
0
100
AcDbLine
 62
7
  6
CONTINUOUS
 10
3.0563816257
 20
12.9164893517
 11
3.0690601735
 21
12.9164893517
  0
LINE
  5
320
100
AcDbEntity
  8
0
100
AcDbLine
 62
7
  6
CONTINUOUS
 10
3.0750362435
 20
12.9164893517
 11
3.0886559585
 21
12.9164893517
  0
LINE
  5
321
100
AcDbEntity
  8
0
100
AcDbLine
 62
6
  6
CONTINUOUS
 10
3.0886559585
 20
12.9164893517
 11
3.1630540872
 21
12.9164893517
  0
LINE
  5
322
100
AcDbEntity
  8
0
100
AcDbLine
 62
7
  6
CONTINUOUS
 10
3.1630540872
 20
12.9164893517
 11
3.1802613803
 21
12.9164893517
  0
LINE
  5
323
100
AcDbEntity
  8
0
100
AcDbLine
 62
6
  6
CONTINUOUS
 10
3.1802613803
 20
12.9164893517
 11
3.2147217507
 21
12.9164893517
  0
LINE
  5
324
100
AcDbEntity
  8
0
100
AcDbLine
 62
7
  6
CONTINUOUS
 10
3.2147217507
 20
12.9164893517
 11
3.2336013624
 21
12.9164893517
  0
LINE
  5
325
100
AcDbEntity
  8
0
100
AcDbLine
 62
6
  6
CONTINUOUS
 10
3.2336013624
 20
12.9164893517
 11
3.2711677845
 21
12.9164893517
  0
LINE
  5
326
100
AcDbEntity
  8
0
100
AcDbLine
 62
7
  6
CONTINUOUS
 10
3.2711677845
 20
12.9164893517
 11
3.2923680654
 21
12.9164893517
  0
LINE
  5
327
100
AcDbEntity
  8
0
100
AcDbLine
 62
6
  6
CONTINUOUS
 10
3.2923680654
 20
12.9164893517
 11
3.3321171892
 21
12.9164893517
  0
LINE
  5
328
100
AcDbEntity
  8
0
100
AcDbLine
 62
7
  6
CONTINUOUS
 10
3.3321171892
 20
12.9164893517
 11
3.3540578002
 21
12.9164893517
  0
LINE
  5
329
100
AcDbEntity
  8
0
100
AcDbLine
 62
6
  6
CONTINUOUS
 10
3.3540578002
 20
12.9164893517
 11
3.3972730254
 21
12.9164893517
  0
LINE
  5
32A
100
AcDbEntity
  8
0
100
AcDbLine
 62
7
  6
CONTINUOUS
 10
3.3972730254
 20
12.9164893517
 11
3.4205874042
 21
12.9164893517
  0
LINE
  5
32B
100
AcDbEntity
  8
0
100
AcDbLine
 62
6
  6
CONTINUOUS
 10
3.4205874042
 20
12.9164893517
 11
3.4663178604
 21
12.9164893517
  0
LINE
  5
32C
100
AcDbEntity
  8
0
100
AcDbLine
 62
7
  6
CONTINUOUS
 10
3.4663178604
 20
12.9164893517
 11
3.4908924217
 21
12.9164893517
  0
LINE
  5
32D
100
AcDbEntity
  8
0
100
AcDbLine
 62
6
  6
CONTINUOUS
 10
3.4908924217
 20
12.9164893517
 11
3.5229438738
 21
12.9164893517
  0
LINE
  5
32E
100
AcDbEntity
  8
0
100
AcDbLine
 62
7
  6
CONTINUOUS
 10
3.5229438738
 20
12.9164893517
 11
3.5273543468
 21
12.9164893517
  0
LINE
  5
32F
100
AcDbEntity
  8
0
100
AcDbLine
 62
6
  6
CONTINUOUS
 10
3.5273543468
 20
12.9164893517
 11
3.5594983953
 21
12.9164893517
  0
LINE
  5
330
100
AcDbEntity
  8
0
100
AcDbLine
 62
6
  6
CONTINUOUS
 10
3.5646303337
 20
12.9164893517
 11
3.5764363763
 21
12.9164893517
  0
LINE
  5
331
100
AcDbEntity
  8
0
100
AcDbLine
 62
7
  6
CONTINUOUS
 10
3.5594983953
 20
12.9164893517
 11
3.5646303337
 21
12.9164893517
  0
LINE
  5
332
100
AcDbEntity
  8
0
100
AcDbLine
 62
7
  6
CONTINUOUS
 10
3.5764363763
 20
12.9164893517
 11
3.6026749675
 21
12.9164893517
  0
LINE
  5
333
100
AcDbEntity
  8
0
100
AcDbLine
 62
7
  6
CONTINUOUS
 10
3.6736285465
 20
12.9164893517
 11
3.6808838894
 21
12.9164893517
  0
LINE
  5
334
100
AcDbEntity
  8
0
100
AcDbLine
 62
6
  6
CONTINUOUS
 10
3.6026749675
 20
12.9164893517
 11
3.6736285465
 21
12.9164893517
  0
LINE
  5
335
100
AcDbEntity
  8
0
100
AcDbLine
 62
7
  6
CONTINUOUS
 10
3.6933377464
 20
12.9164893517
 11
3.720952892
 21
12.9164893517
  0
LINE
  5
336
100
AcDbEntity
  8
0
100
AcDbLine
 62
6
  6
CONTINUOUS
 10
3.720952892
 20
12.9164893517
 11
3.7934766942
 21
12.9164893517
  0
LINE
  5
337
100
AcDbEntity
  8
0
100
AcDbLine
 62
7
  6
CONTINUOUS
 10
3.7934766942
 20
12.9164893517
 11
3.8027759505
 21
12.9164893517
  0
LINE
  5
338
100
AcDbEntity
  8
0
100
AcDbLine
 62
7
  6
CONTINUOUS
 10
3.8344713218
 20
12.9164893517
 11
3.8444303176
 21
12.9164893517
  0
LINE
  5
339
100
AcDbEntity
  8
0
100
AcDbLine
 62
6
  6
CONTINUOUS
 10
3.8027759505
 20
12.9164893517
 11
3.8344713218
 21
12.9164893517
  0
LINE
  5
33A
100
AcDbEntity
  8
0
100
AcDbLine
 62
6
  6
CONTINUOUS
 10
3.8444303176
 20
12.9164893517
 11
3.8759058366
 21
12.9164893517
  0
LINE
  5
33B
100
AcDbEntity
  8
0
100
AcDbLine
 62
6
  6
CONTINUOUS
 10
3.8865124383
 20
12.9164893517
 11
3.8997399402
 21
12.9164893517
  0
LINE
  5
33C
100
AcDbEntity
  8
0
100
AcDbLine
 62
7
  6
CONTINUOUS
 10
3.8759058366
 20
12.9164893517
 11
3.8865124383
 21
12.9164893517
  0
LINE
  5
33D
100
AcDbEntity
  8
0
100
AcDbLine
 62
7
  6
CONTINUOUS
 10
3.8997399402
 20
12.9164893517
 11
3.9289710421
 21
12.9164893517
  0
LINE
  5
33E
100
AcDbEntity
  8
0
100
AcDbLine
 62
7
  6
CONTINUOUS
 10
3.9598921269
 20
12.9164893517
 11
3.9717543997
 21
12.9164893517
  0
LINE
  5
33F
100
AcDbEntity
  8
0
100
AcDbLine
 62
6
  6
CONTINUOUS
 10
3.9289710421
 20
12.9164893517
 11
3.9598921269
 21
12.9164893517
  0
LINE
  5
340
100
AcDbEntity
  8
0
100
AcDbLine
 62
6
  6
CONTINUOUS
 10
3.9717543997
 20
12.9164893517
 11
4.1151293848
 21
12.9164893517
  0
LINE
  5
341
100
AcDbEntity
  8
0
100
AcDbLine
 62
7
  6
CONTINUOUS
 10
4.1151293848
 20
12.9164893517
 11
4.1308938672
 21
12.9164893517
  0
LINE
  5
342
100
AcDbEntity
  8
0
100
AcDbLine
 62
6
  6
CONTINUOUS
 10
4.1308938672
 20
12.9164893517
 11
4.1739719116
 21
12.9164893517
  0
LINE
  5
343
100
AcDbEntity
  8
0
100
AcDbLine
 62
7
  6
CONTINUOUS
 10
4.1739719116
 20
12.9164893517
 11
4.1887078409
 21
12.9164893517
  0
LINE
  5
344
100
AcDbEntity
  8
0
100
AcDbLine
 62
6
  6
CONTINUOUS
 10
4.1887078409
 20
12.9164893517
 11
4.2170762139
 21
12.9164893517
  0
LINE
  5
345
100
AcDbEntity
  8
0
100
AcDbLine
 62
7
  6
CONTINUOUS
 10
4.2170762139
 20
12.9164893517
 11
4.2323357154
 21
12.9164893517
  0
LINE
  5
346
100
AcDbEntity
  8
0
100
AcDbLine
 62
6
  6
CONTINUOUS
 10
4.2323357154
 20
12.9164893517
 11
4.3762377393
 21
12.9164893517
  0
LINE
  5
347
100
AcDbEntity
  8
0
100
AcDbLine
 62
7
  6
CONTINUOUS
 10
4.3762377393
 20
12.9164893517
 11
4.3887065475
 21
12.9164893517
  0
LINE
  5
348
100
AcDbEntity
  8
0
100
AcDbLine
 62
6
  6
CONTINUOUS
 10
4.3887065475
 20
12.9164893517
 11
4.4620770834
 21
12.9164893517
  0
LINE
  5
349
100
AcDbEntity
  8
0
100
AcDbLine
 62
7
  6
CONTINUOUS
 10
4.4620770834
 20
12.9164893517
 11
4.4913081853
 21
12.9164893517
  0
LINE
  5
34A
100
AcDbEntity
  8
0
100
AcDbLine
 62
7
  6
CONTINUOUS
 10
4.5151422889
 20
12.9164893517
 11
4.533513462
 21
12.9164893517
  0
LINE
  5
34B
100
AcDbEntity
  8
0
100
AcDbLine
 62
6
  6
CONTINUOUS
 10
4.4913081853
 20
12.9164893517
 11
4.5151422889
 21
12.9164893517
  0
LINE
  5
34C
100
AcDbEntity
  8
0
100
AcDbLine
 62
6
  6
CONTINUOUS
 10
4.533513462
 20
12.9164893517
 11
4.6700952335
 21
12.9164893517
  0
LINE
  5
34D
100
AcDbEntity
  8
0
100
AcDbLine
 62
6
  6
CONTINUOUS
 10
4.6977103791
 20
12.9164893517
 11
4.7101642361
 21
12.9164893517
  0
LINE
  5
34E
100
AcDbEntity
  8
0
100
AcDbLine
 62
7
  6
CONTINUOUS
 10
4.6700952335
 20
12.9164893517
 11
4.6977103791
 21
12.9164893517
  0
LINE
  5
34F
100
AcDbEntity
  8
0
100
AcDbLine
 62
7
  6
CONTINUOUS
 10
4.7101642361
 20
12.9164893517
 11
4.717419579
 21
12.9164893517
  0
LINE
  5
350
100
AcDbEntity
  8
0
100
AcDbLine
 62
6
  6
CONTINUOUS
 10
4.717419579
 20
12.9164893517
 11
4.788373158
 21
12.9164893517
  0
LINE
  5
351
100
AcDbEntity
  8
0
100
AcDbLine
 62
6
  6
CONTINUOUS
 10
4.8146117492
 20
12.9164893517
 11
4.8264177918
 21
12.9164893517
  0
LINE
  5
352
100
AcDbEntity
  8
0
100
AcDbLine
 62
7
  6
CONTINUOUS
 10
4.788373158
 20
12.9164893517
 11
4.8146117492
 21
12.9164893517
  0
LINE
  5
353
100
AcDbEntity
  8
0
100
AcDbLine
 62
7
  6
CONTINUOUS
 10
4.8264177918
 20
12.9164893517
 11
4.8521328108
 21
12.9164893517
  0
LINE
  5
354
100
AcDbEntity
  8
0
100
AcDbLine
 62
7
  6
CONTINUOUS
 10
4.9001557038
 20
12.9164893517
 11
4.9038393379
 21
12.9164893517
  0
LINE
  5
355
100
AcDbEntity
  8
0
100
AcDbLine
 62
6
  6
CONTINUOUS
 10
4.8521328108
 20
12.9164893517
 11
4.9001557038
 21
12.9164893517
  0
LINE
  5
356
100
AcDbEntity
  8
0
100
AcDbLine
 62
6
  6
CONTINUOUS
 10
4.9038393379
 20
12.9164893517
 11
4.9704607213
 21
12.9164893517
  0
LINE
  5
357
100
AcDbEntity
  8
0
100
AcDbLine
 62
6
  6
CONTINUOUS
 10
4.9937751001
 20
12.9164893517
 11
5.0042181578
 21
12.9164893517
  0
LINE
  5
358
100
AcDbEntity
  8
0
100
AcDbLine
 62
6
  6
CONTINUOUS
 10
5.0268594452
 20
12.9164893517
 11
5.0369903252
 21
12.9164893517
  0
LINE
  5
359
100
AcDbEntity
  8
0
100
AcDbLine
 62
6
  6
CONTINUOUS
 10
5.0589309363
 20
12.9164893517
 11
5.0687372956
 21
12.9164893517
  0
LINE
  5
35A
100
AcDbEntity
  8
0
100
AcDbLine
 62
6
  6
CONTINUOUS
 10
5.089950499
 20
12.9164893517
 11
5.09868006
 21
12.9164893517
  0
LINE
  5
35B
100
AcDbEntity
  8
0
100
AcDbLine
 62
6
  6
CONTINUOUS
 10
5.119880341
 20
12.9164893517
 11
5.127522468
 21
12.9164893517
  0
LINE
  5
35C
100
AcDbEntity
  8
0
100
AcDbLine
 62
6
  6
CONTINUOUS
 10
5.1486839971
 20
12.9164893517
 11
5.157446763
 21
12.9164893517
  0
LINE
  5
35D
100
AcDbEntity
  8
0
100
AcDbLine
 62
6
  6
CONTINUOUS
 10
5.1763263748
 20
12.9164893517
 11
5.1817670379
 21
12.9164893517
  0
LINE
  5
35E
100
AcDbEntity
  8
0
100
AcDbLine
 62
7
  6
CONTINUOUS
 10
4.9704607213
 20
12.9164893517
 11
4.9937751001
 21
12.9164893517
  0
LINE
  5
35F
100
AcDbEntity
  8
0
100
AcDbLine
 62
7
  6
CONTINUOUS
 10
5.0042181578
 20
12.9164893517
 11
5.0268594452
 21
12.9164893517
  0
LINE
  5
360
100
AcDbEntity
  8
0
100
AcDbLine
 62
7
  6
CONTINUOUS
 10
5.0369903252
 20
12.9164893517
 11
5.0589309363
 21
12.9164893517
  0
LINE
  5
361
100
AcDbEntity
  8
0
100
AcDbLine
 62
7
  6
CONTINUOUS
 10
5.0687372956
 20
12.9164893517
 11
5.089950499
 21
12.9164893517
  0
LINE
  5
362
100
AcDbEntity
  8
0
100
AcDbLine
 62
7
  6
CONTINUOUS
 10
5.09868006
 20
12.9164893517
 11
5.119880341
 21
12.9164893517
  0
LINE
  5
363
100
AcDbEntity
  8
0
100
AcDbLine
 62
7
  6
CONTINUOUS
 10
5.127522468
 20
12.9164893517
 11
5.1486839971
 21
12.9164893517
  0
LINE
  5
364
100
AcDbEntity
  8
0
100
AcDbLine
 62
7
  6
CONTINUOUS
 10
5.157446763
 20
12.9164893517
 11
5.1763263748
 21
12.9164893517
  0
LINE
  5
365
100
AcDbEntity
  8
0
100
AcDbLine
 62
7
  6
CONTINUOUS
 10
5.1817670379
 20
12.9164893517
 11
5.2027737959
 21
12.9164893517
  0
LINE
  5
366
100
AcDbEntity
  8
0
100
AcDbLine
 62
6
  6
CONTINUOUS
 10
5.2027737959
 20
12.9164893517
 11
5.2356172041
 21
12.9164893517
  0
LINE
  5
367
100
AcDbEntity
  8
0
100
AcDbLine
 62
7
  6
CONTINUOUS
 10
5.2356172041
 20
12.9164893517
 11
5.2519563751
 21
12.9164893517
  0
LINE
  5
368
100
AcDbEntity
  8
0
100
AcDbLine
 62
6
  6
CONTINUOUS
 10
5.2519563751
 20
12.9164893517
 11
5.302392167
 21
12.9164893517
  0
LINE
  5
369
100
AcDbEntity
  8
0
100
AcDbLine
 62
7
  6
CONTINUOUS
 10
5.302392167
 20
12.9164893517
 11
5.316011882
 21
12.9164893517
  0
LINE
  5
36A
100
AcDbEntity
  8
0
100
AcDbLine
 62
7
  6
CONTINUOUS
 10
5.321987952
 20
12.9164893517
 11
5.3346664998
 21
12.9164893517
  0
LINE
  5
36B
100
AcDbEntity
  8
0
100
AcDbLine
 62
6
  6
CONTINUOUS
 10
5.3346664998
 20
12.9164893517
 11
5.4196075575
 21
12.9164893517
  0
LINE
  5
36C
100
AcDbEntity
  8
0
100
AcDbLine
 62
7
  6
CONTINUOUS
 10
5.4196075575
 20
12.9164893517
 11
5.4253318274
 21
12.9164893517
  0
LINE
  5
36D
100
AcDbEntity
  8
0
100
AcDbLine
 62
7
  6
CONTINUOUS
 10
5.4276990764
 20
12.9164893517
 11
5.4323921103
 21
12.9164893517
  0
LINE
  5
36E
100
AcDbEntity
  8
0
100
AcDbLine
 62
6
  6
CONTINUOUS
 10
5.4323921103
 20
12.9164893517
 11
5.4455054782
 21
12.9164893517
  0
LINE
  5
36F
100
AcDbEntity
  8
0
100
AcDbLine
 62
6
  6
CONTINUOUS
 10
27.1985426472
 20
12.9164893517
 11
27.2116560152
 21
12.9164893517
  0
LINE
  5
370
100
AcDbEntity
  8
0
100
AcDbLine
 62
7
  6
CONTINUOUS
 10
27.2116560152
 20
12.9164893517
 11
27.2163490491
 21
12.9164893517
  0
LINE
  5
371
100
AcDbEntity
  8
0
100
AcDbLine
 62
7
  6
CONTINUOUS
 10
27.2187162981
 20
12.9164893517
 11
27.224440568
 21
12.9164893517
  0
LINE
  5
372
100
AcDbEntity
  8
0
100
AcDbLine
 62
6
  6
CONTINUOUS
 10
27.224440568
 20
12.9164893517
 11
27.3093816257
 21
12.9164893517
  0
LINE
  5
373
100
AcDbEntity
  8
0
100
AcDbLine
 62
7
  6
CONTINUOUS
 10
27.3093816257
 20
12.9164893517
 11
27.3220601735
 21
12.9164893517
  0
LINE
  5
374
100
AcDbEntity
  8
0
100
AcDbLine
 62
7
  6
CONTINUOUS
 10
27.3280362435
 20
12.9164893517
 11
27.3416559585
 21
12.9164893517
  0
LINE
  5
375
100
AcDbEntity
  8
0
100
AcDbLine
 62
6
  6
CONTINUOUS
 10
27.3416559585
 20
12.9164893517
 11
27.3920917503
 21
12.9164893517
  0
LINE
  5
376
100
AcDbEntity
  8
0
100
AcDbLine
 62
7
  6
CONTINUOUS
 10
27.3920917503
 20
12.9164893517
 11
27.4084309214
 21
12.9164893517
  0
LINE
  5
377
100
AcDbEntity
  8
0
100
AcDbLine
 62
6
  6
CONTINUOUS
 10
27.4084309214
 20
12.9164893517
 11
27.4412743296
 21
12.9164893517
  0
LINE
  5
378
100
AcDbEntity
  8
0
100
AcDbLine
 62
6
  6
CONTINUOUS
 10
27.4622810876
 20
12.9164893517
 11
27.4677217507
 21
12.9164893517
  0
LINE
  5
379
100
AcDbEntity
  8
0
100
AcDbLine
 62
6
  6
CONTINUOUS
 10
27.4866013624
 20
12.9164893517
 11
27.4953641283
 21
12.9164893517
  0
LINE
  5
37A
100
AcDbEntity
  8
0
100
AcDbLine
 62
6
  6
CONTINUOUS
 10
27.5165256575
 20
12.9164893517
 11
27.5241677845
 21
12.9164893517
  0
LINE
  5
37B
100
AcDbEntity
  8
0
100
AcDbLine
 62
6
  6
CONTINUOUS
 10
27.5453680654
 20
12.9164893517
 11
27.5540976264
 21
12.9164893517
  0
LINE
  5
37C
100
AcDbEntity
  8
0
100
AcDbLine
 62
6
  6
CONTINUOUS
 10
27.5753108299
 20
12.9164893517
 11
27.5851171892
 21
12.9164893517
  0
LINE
  5
37D
100
AcDbEntity
  8
0
100
AcDbLine
 62
6
  6
CONTINUOUS
 10
27.6070578002
 20
12.9164893517
 11
27.6171886802
 21
12.9164893517
  0
LINE
  5
37E
100
AcDbEntity
  8
0
100
AcDbLine
 62
6
  6
CONTINUOUS
 10
27.6398299676
 20
12.9164893517
 11
27.6502730254
 21
12.9164893517
  0
LINE
  5
37F
100
AcDbEntity
  8
0
100
AcDbLine
 62
7
  6
CONTINUOUS
 10
27.4677217507
 20
12.9164893517
 11
27.4866013624
 21
12.9164893517
  0
LINE
  5
380
100
AcDbEntity
  8
0
100
AcDbLine
 62
7
  6
CONTINUOUS
 10
27.4412743296
 20
12.9164893517
 11
27.4622810876
 21
12.9164893517
  0
LINE
  5
381
100
AcDbEntity
  8
0
100
AcDbLine
 62
7
  6
CONTINUOUS
 10
27.4953641283
 20
12.9164893517
 11
27.5165256575
 21
12.9164893517
  0
LINE
  5
382
100
AcDbEntity
  8
0
100
AcDbLine
 62
7
  6
CONTINUOUS
 10
27.5241677845
 20
12.9164893517
 11
27.5453680654
 21
12.9164893517
  0
LINE
  5
383
100
AcDbEntity
  8
0
100
AcDbLine
 62
7
  6
CONTINUOUS
 10
27.5540976264
 20
12.9164893517
 11
27.5753108299
 21
12.9164893517
  0
LINE
  5
384
100
AcDbEntity
  8
0
100
AcDbLine
 62
7
  6
CONTINUOUS
 10
27.5851171892
 20
12.9164893517
 11
27.6070578002
 21
12.9164893517
  0
LINE
  5
385
100
AcDbEntity
  8
0
100
AcDbLine
 62
7
  6
CONTINUOUS
 10
27.6171886802
 20
12.9164893517
 11
27.6398299676
 21
12.9164893517
  0
LINE
  5
386
100
AcDbEntity
  8
0
100
AcDbLine
 62
7
  6
CONTINUOUS
 10
27.6502730254
 20
12.9164893517
 11
27.6735874042
 21
12.9164893517
  0
LINE
  5
387
100
AcDbEntity
  8
0
100
AcDbLine
 62
6
  6
CONTINUOUS
 10
27.6735874042
 20
12.9164893517
 11
27.7402087876
 21
12.9164893517
  0
LINE
  5
388
100
AcDbEntity
  8
0
100
AcDbLine
 62
7
  6
CONTINUOUS
 10
27.7402087876
 20
12.9164893517
 11
27.7438924217
 21
12.9164893517
  0
LINE
  5
389
100
AcDbEntity
  8
0
100
AcDbLine
 62
6
  6
CONTINUOUS
 10
27.7438924217
 20
12.9164893517
 11
27.7919153147
 21
12.9164893517
  0
LINE
  5
38A
100
AcDbEntity
  8
0
100
AcDbLine
 62
6
  6
CONTINUOUS
 10
27.8176303337
 20
12.9164893517
 11
27.8294363763
 21
12.9164893517
  0
LINE
  5
38B
100
AcDbEntity
  8
0
100
AcDbLine
 62
7
  6
CONTINUOUS
 10
27.7919153147
 20
12.9164893517
 11
27.8176303337
 21
12.9164893517
  0
LINE
  5
38C
100
AcDbEntity
  8
0
100
AcDbLine
 62
7
  6
CONTINUOUS
 10
27.8294363763
 20
12.9164893517
 11
27.8556749675
 21
12.9164893517
  0
LINE
  5
38D
100
AcDbEntity
  8
0
100
AcDbLine
 62
6
  6
CONTINUOUS
 10
27.8556749675
 20
12.9164893517
 11
27.9266285465
 21
12.9164893517
  0
LINE
  5
38E
100
AcDbEntity
  8
0
100
AcDbLine
 62
6
  6
CONTINUOUS
 10
27.9338838894
 20
12.9164893517
 11
27.9463377464
 21
12.9164893517
  0
LINE
  5
38F
100
AcDbEntity
  8
0
100
AcDbLine
 62
7
  6
CONTINUOUS
 10
27.9266285465
 20
12.9164893517
 11
27.9338838894
 21
12.9164893517
  0
LINE
  5
390
100
AcDbEntity
  8
0
100
AcDbLine
 62
7
  6
CONTINUOUS
 10
27.9463377464
 20
12.9164893517
 11
27.973952892
 21
12.9164893517
  0
LINE
  5
391
100
AcDbEntity
  8
0
100
AcDbLine
 62
6
  6
CONTINUOUS
 10
27.973952892
 20
12.9164893517
 11
28.1105346635
 21
12.9164893517
  0
LINE
  5
392
100
AcDbEntity
  8
0
100
AcDbLine
 62
7
  6
CONTINUOUS
 10
28.1105346635
 20
12.9164893517
 11
28.1289058366
 21
12.9164893517
  0
LINE
  5
393
100
AcDbEntity
  8
0
100
AcDbLine
 62
6
  6
CONTINUOUS
 10
28.1289058366
 20
12.9164893517
 11
28.1527399402
 21
12.9164893517
  0
LINE
  5
394
100
AcDbEntity
  8
0
100
AcDbLine
 62
7
  6
CONTINUOUS
 10
28.1527399402
 20
12.9164893517
 11
28.1819710421
 21
12.9164893517
  0
LINE
  5
395
100
AcDbEntity
  8
0
100
AcDbLine
 62
6
  6
CONTINUOUS
 10
28.1819710421
 20
12.9164893517
 11
28.255341578
 21
12.9164893517
  0
LINE
  5
396
100
AcDbEntity
  8
0
100
AcDbLine
 62
7
  6
CONTINUOUS
 10
28.255341578
 20
12.9164893517
 11
28.2678103862
 21
12.9164893517
  0
LINE
  5
397
100
AcDbEntity
  8
0
100
AcDbLine
 62
6
  6
CONTINUOUS
 10
28.2678103862
 20
12.9164893517
 11
28.41171241
 21
12.9164893517
  0
LINE
  5
398
100
AcDbEntity
  8
0
100
AcDbLine
 62
7
  6
CONTINUOUS
 10
28.41171241
 20
12.9164893517
 11
28.4269719116
 21
12.9164893517
  0
LINE
  5
399
100
AcDbEntity
  8
0
100
AcDbLine
 62
6
  6
CONTINUOUS
 10
28.4269719116
 20
12.9164893517
 11
28.4553402846
 21
12.9164893517
  0
LINE
  5
39A
100
AcDbEntity
  8
0
100
AcDbLine
 62
7
  6
CONTINUOUS
 10
28.4553402846
 20
12.9164893517
 11
28.4700762139
 21
12.9164893517
  0
LINE
  5
39B
100
AcDbEntity
  8
0
100
AcDbLine
 62
6
  6
CONTINUOUS
 10
28.4700762139
 20
12.9164893517
 11
28.5131542583
 21
12.9164893517
  0
LINE
  5
39C
100
AcDbEntity
  8
0
100
AcDbLine
 62
7
  6
CONTINUOUS
 10
28.5131542583
 20
12.9164893517
 11
28.5289187407
 21
12.9164893517
  0
LINE
  5
39D
100
AcDbEntity
  8
0
100
AcDbLine
 62
6
  6
CONTINUOUS
 10
28.5289187407
 20
12.9164893517
 11
28.6722937258
 21
12.9164893517
  0
LINE
  5
39E
100
AcDbEntity
  8
0
100
AcDbLine
 62
7
  6
CONTINUOUS
 10
28.6722937258
 20
12.9164893517
 11
28.6841559986
 21
12.9164893517
  0
LINE
  5
39F
100
AcDbEntity
  8
0
100
AcDbLine
 62
6
  6
CONTINUOUS
 10
28.6841559986
 20
12.9164893517
 11
28.7150770834
 21
12.9164893517
  0
LINE
  5
3A0
100
AcDbEntity
  8
0
100
AcDbLine
 62
6
  6
CONTINUOUS
 10
28.7443081853
 20
12.9164893517
 11
28.7575356872
 21
12.9164893517
  0
LINE
  5
3A1
100
AcDbEntity
  8
0
100
AcDbLine
 62
7
  6
CONTINUOUS
 10
28.7150770834
 20
12.9164893517
 11
28.7443081853
 21
12.9164893517
  0
LINE
  5
3A2
100
AcDbEntity
  8
0
100
AcDbLine
 62
7
  6
CONTINUOUS
 10
28.7575356872
 20
12.9164893517
 11
28.7681422889
 21
12.9164893517
  0
LINE
  5
3A3
100
AcDbEntity
  8
0
100
AcDbLine
 62
6
  6
CONTINUOUS
 10
28.7681422889
 20
12.9164893517
 11
28.7996178079
 21
12.9164893517
  0
LINE
  5
3A4
100
AcDbEntity
  8
0
100
AcDbLine
 62
7
  6
CONTINUOUS
 10
28.7996178079
 20
12.9164893517
 11
28.8095768037
 21
12.9164893517
  0
LINE
  5
3A5
100
AcDbEntity
  8
0
100
AcDbLine
 62
6
  6
CONTINUOUS
 10
28.8095768037
 20
12.9164893517
 11
28.841272175
 21
12.9164893517
  0
LINE
  5
3A6
100
AcDbEntity
  8
0
100
AcDbLine
 62
7
  6
CONTINUOUS
 10
28.841272175
 20
12.9164893517
 11
28.8505714313
 21
12.9164893517
  0
LINE
  5
3A7
100
AcDbEntity
  8
0
100
AcDbLine
 62
6
  6
CONTINUOUS
 10
28.8505714313
 20
12.9164893517
 11
28.9230952335
 21
12.9164893517
  0
LINE
  5
3A8
100
AcDbEntity
  8
0
100
AcDbLine
 62
6
  6
CONTINUOUS
 10
28.9507103791
 20
12.9164893517
 11
28.9631642361
 21
12.9164893517
  0
LINE
  5
3A9
100
AcDbEntity
  8
0
100
AcDbLine
 62
7
  6
CONTINUOUS
 10
28.9230952335
 20
12.9164893517
 11
28.9507103791
 21
12.9164893517
  0
LINE
  5
3AA
100
AcDbEntity
  8
0
100
AcDbLine
 62
7
  6
CONTINUOUS
 10
28.9631642361
 20
12.9164893517
 11
28.970419579
 21
12.9164893517
  0
LINE
  5
3AB
100
AcDbEntity
  8
0
100
AcDbLine
 62
6
  6
CONTINUOUS
 10
28.970419579
 20
12.9164893517
 11
29.041373158
 21
12.9164893517
  0
LINE
  5
3AC
100
AcDbEntity
  8
0
100
AcDbLine
 62
6
  6
CONTINUOUS
 10
29.0676117492
 20
12.9164893517
 11
29.0794177918
 21
12.9164893517
  0
LINE
  5
3AD
100
AcDbEntity
  8
0
100
AcDbLine
 62
7
  6
CONTINUOUS
 10
29.041373158
 20
12.9164893517
 11
29.0676117492
 21
12.9164893517
  0
LINE
  5
3AE
100
AcDbEntity
  8
0
100
AcDbLine
 62
7
  6
CONTINUOUS
 10
29.0794177918
 20
12.9164893517
 11
29.0845497302
 21
12.9164893517
  0
LINE
  5
3AF
100
AcDbEntity
  8
0
100
AcDbLine
 62
6
  6
CONTINUOUS
 10
29.0845497302
 20
12.9164893517
 11
29.1166937787
 21
12.9164893517
  0
LINE
  5
3B0
100
AcDbEntity
  8
0
100
AcDbLine
 62
7
  6
CONTINUOUS
 10
29.1166937787
 20
12.9164893517
 11
29.1211042517
 21
12.9164893517
  0
LINE
  5
3B1
100
AcDbEntity
  8
0
100
AcDbLine
 62
6
  6
CONTINUOUS
 10
29.1211042517
 20
12.9164893517
 11
29.1531557038
 21
12.9164893517
  0
LINE
  5
3B2
100
AcDbEntity
  8
0
100
AcDbLine
 62
7
  6
CONTINUOUS
 10
29.1531557038
 20
12.9164893517
 11
29.1777302651
 21
12.9164893517
  0
LINE
  5
3B3
100
AcDbEntity
  8
0
100
AcDbLine
 62
6
  6
CONTINUOUS
 10
29.1777302651
 20
12.9164893517
 11
29.2234607213
 21
12.9164893517
  0
LINE
  5
3B4
100
AcDbEntity
  8
0
100
AcDbLine
 62
7
  6
CONTINUOUS
 10
29.2234607213
 20
12.9164893517
 11
29.2467751001
 21
12.9164893517
  0
LINE
  5
3B5
100
AcDbEntity
  8
0
100
AcDbLine
 62
6
  6
CONTINUOUS
 10
29.2467751001
 20
12.9164893517
 11
29.2899903252
 21
12.9164893517
  0
LINE
  5
3B6
100
AcDbEntity
  8
0
100
AcDbLine
 62
7
  6
CONTINUOUS
 10
29.2899903252
 20
12.9164893517
 11
29.3119309363
 21
12.9164893517
  0
LINE
  5
3B7
100
AcDbEntity
  8
0
100
AcDbLine
 62
6
  6
CONTINUOUS
 10
29.3119309363
 20
12.9164893517
 11
29.35168006
 21
12.9164893517
  0
LINE
  5
3B8
100
AcDbEntity
  8
0
100
AcDbLine
 62
7
  6
CONTINUOUS
 10
29.35168006
 20
12.9164893517
 11
29.372880341
 21
12.9164893517
  0
LINE
  5
3B9
100
AcDbEntity
  8
0
100
AcDbLine
 62
6
  6
CONTINUOUS
 10
29.372880341
 20
12.9164893517
 11
29.410446763
 21
12.9164893517
  0
LINE
  5
3BA
100
AcDbEntity
  8
0
100
AcDbLine
 62
7
  6
CONTINUOUS
 10
29.410446763
 20
12.9164893517
 11
29.4293263748
 21
12.9164893517
  0
LINE
  5
3BB
100
AcDbEntity
  8
0
100
AcDbLine
 62
6
  6
CONTINUOUS
 10
29.4293263748
 20
12.9164893517
 11
29.4637867452
 21
12.9164893517
  0
LINE
  5
3BC
100
AcDbEntity
  8
0
100
AcDbLine
 62
7
  6
CONTINUOUS
 10
29.4637867452
 20
12.9164893517
 11
29.4809940383
 21
12.9164893517
  0
LINE
  5
3BD
100
AcDbEntity
  8
0
100
AcDbLine
 62
6
  6
CONTINUOUS
 10
29.4809940383
 20
12.9164893517
 11
29.555392167
 21
12.9164893517
  0
LINE
  5
3BE
100
AcDbEntity
  8
0
100
AcDbLine
 62
7
  6
CONTINUOUS
 10
29.555392167
 20
12.9164893517
 11
29.569011882
 21
12.9164893517
  0
LINE
  5
3BF
100
AcDbEntity
  8
0
100
AcDbLine
 62
7
  6
CONTINUOUS
 10
29.574987952
 20
12.9164893517
 11
29.5876664998
 21
12.9164893517
  0
LINE
  5
3C0
100
AcDbEntity
  8
0
100
AcDbLine
 62
7
  6
CONTINUOUS
 10
29.5932113142
 20
12.9164893517
 11
29.6049332481
 21
12.9164893517
  0
LINE
  5
3C1
100
AcDbEntity
  8
0
100
AcDbLine
 62
6
  6
CONTINUOUS
 10
29.6049332481
 20
12.9164893517
 11
29.6519621235
 21
12.9164893517
  0
LINE
  5
3C2
100
AcDbEntity
  8
0
100
AcDbLine
 62
6
  6
CONTINUOUS
 10
29.6597266948
 20
12.9164893517
 11
29.6726075575
 21
12.9164893517
  0
LINE
  5
3C3
100
AcDbEntity
  8
0
100
AcDbLine
 62
7
  6
CONTINUOUS
 10
29.6726075575
 20
12.9164893517
 11
29.6783318274
 21
12.9164893517
  0
LINE
  5
3C4
100
AcDbEntity
  8
0
100
AcDbLine
 62
7
  6
CONTINUOUS
 10
29.6806990764
 20
12.9164893517
 11
29.6853921103
 21
12.9164893517
  0
LINE
  5
3C5
100
AcDbEntity
  8
0
100
AcDbLine
 62
6
  6
CONTINUOUS
 10
29.6853921103
 20
12.9164893517
 11
29.6985054782
 21
12.9164893517
  0
LINE
  5
3C6
100
AcDbEntity
  8
0
100
AcDbLine
 62
7
  6
CONTINUOUS
 10
29.6597266948
 20
12.9914893517
 11
29.6519621235
 21
12.9914893517
  0
LINE
  5
3C7
100
AcDbEntity
  8
0
100
AcDbLine
 62
7
  6
CONTINUOUS
 10
2.992086002
 20
12.9914893517
 11
2.9843214307
 21
12.9914893517
  0
LINE
  5
3C8
100
AcDbEntity
  8
0
100
AcDbLine
 62
6
  6
CONTINUOUS
 10
2.9633490491
 20
12.9914893517
 11
2.9657162981
 21
12.9914893517
  0
LINE
  5
3C9
100
AcDbEntity
  8
0
100
AcDbLine
 62
7
  6
CONTINUOUS
 10
2.9657162981
 20
12.9914893517
 11
2.971440568
 21
12.9914893517
  0
LINE
  5
3CA
100
AcDbEntity
  8
0
100
AcDbLine
 62
7
  6
CONTINUOUS
 10
2.9586560152
 20
12.9914893517
 11
2.9633490491
 21
12.9914893517
  0
LINE
  5
3CB
100
AcDbEntity
  8
0
100
AcDbLine
 62
6
  6
CONTINUOUS
 10
2.9455426472
 20
12.9914893517
 11
2.9586560152
 21
12.9914893517
  0
LINE
  5
3CC
100
AcDbEntity
  8
0
100
AcDbLine
 62
6
  6
CONTINUOUS
 10
2.971440568
 20
12.9914893517
 11
2.9843214307
 21
12.9914893517
  0
LINE
  5
3CD
100
AcDbEntity
  8
0
100
AcDbLine
 62
7
  6
CONTINUOUS
 10
3.0391148774
 20
12.9914893517
 11
3.0508368113
 21
12.9914893517
  0
LINE
  5
3CE
100
AcDbEntity
  8
0
100
AcDbLine
 62
6
  6
CONTINUOUS
 10
2.992086002
 20
12.9914893517
 11
3.0391148774
 21
12.9914893517
  0
LINE
  5
3CF
100
AcDbEntity
  8
0
100
AcDbLine
 62
6
  6
CONTINUOUS
 10
3.0690601735
 20
12.9914893517
 11
3.0750362435
 21
12.9914893517
  0
LINE
  5
3D0
100
AcDbEntity
  8
0
100
AcDbLine
 62
6
  6
CONTINUOUS
 10
3.0508368113
 20
12.9914893517
 11
3.0563816257
 21
12.9914893517
  0
LINE
  5
3D1
100
AcDbEntity
  8
0
100
AcDbLine
 62
7
  6
CONTINUOUS
 10
3.0563816257
 20
12.9914893517
 11
3.0690601735
 21
12.9914893517
  0
LINE
  5
3D2
100
AcDbEntity
  8
0
100
AcDbLine
 62
7
  6
CONTINUOUS
 10
3.0750362435
 20
12.9914893517
 11
3.0886559585
 21
12.9914893517
  0
LINE
  5
3D3
100
AcDbEntity
  8
0
100
AcDbLine
 62
6
  6
CONTINUOUS
 10
3.0886559585
 20
12.9914893517
 11
3.1630540872
 21
12.9914893517
  0
LINE
  5
3D4
100
AcDbEntity
  8
0
100
AcDbLine
 62
7
  6
CONTINUOUS
 10
3.1630540872
 20
12.9914893517
 11
3.1802613803
 21
12.9914893517
  0
LINE
  5
3D5
100
AcDbEntity
  8
0
100
AcDbLine
 62
6
  6
CONTINUOUS
 10
3.1802613803
 20
12.9914893517
 11
3.2147217507
 21
12.9914893517
  0
LINE
  5
3D6
100
AcDbEntity
  8
0
100
AcDbLine
 62
7
  6
CONTINUOUS
 10
3.2147217507
 20
12.9914893517
 11
3.235818746
 21
12.9914893517
  0
LINE
  5
3D7
100
AcDbEntity
  8
0
100
AcDbLine
 62
6
  6
CONTINUOUS
 10
3.235818746
 20
12.9914893517
 11
3.2711677845
 21
12.9914893517
  0
LINE
  5
3D8
100
AcDbEntity
  8
0
100
AcDbLine
 62
7
  6
CONTINUOUS
 10
3.2711677845
 20
12.9914893517
 11
3.2923680654
 21
12.9914893517
  0
LINE
  5
3D9
100
AcDbEntity
  8
0
100
AcDbLine
 62
6
  6
CONTINUOUS
 10
3.2923680654
 20
12.9914893517
 11
3.3321171892
 21
12.9914893517
  0
LINE
  5
3DA
100
AcDbEntity
  8
0
100
AcDbLine
 62
7
  6
CONTINUOUS
 10
3.3321171892
 20
12.9914893517
 11
3.3540578002
 21
12.9914893517
  0
LINE
  5
3DB
100
AcDbEntity
  8
0
100
AcDbLine
 62
6
  6
CONTINUOUS
 10
3.3540578002
 20
12.9914893517
 11
3.3972730254
 21
12.9914893517
  0
LINE
  5
3DC
100
AcDbEntity
  8
0
100
AcDbLine
 62
7
  6
CONTINUOUS
 10
3.3972730254
 20
12.9914893517
 11
3.4205874042
 21
12.9914893517
  0
LINE
  5
3DD
100
AcDbEntity
  8
0
100
AcDbLine
 62
6
  6
CONTINUOUS
 10
3.4205874042
 20
12.9914893517
 11
3.4663178604
 21
12.9914893517
  0
LINE
  5
3DE
100
AcDbEntity
  8
0
100
AcDbLine
 62
7
  6
CONTINUOUS
 10
3.4663178604
 20
12.9914893517
 11
3.4908924217
 21
12.9914893517
  0
LINE
  5
3DF
100
AcDbEntity
  8
0
100
AcDbLine
 62
6
  6
CONTINUOUS
 10
3.4908924217
 20
12.9914893517
 11
3.5229438738
 21
12.9914893517
  0
LINE
  5
3E0
100
AcDbEntity
  8
0
100
AcDbLine
 62
7
  6
CONTINUOUS
 10
3.5229438738
 20
12.9914893517
 11
3.5273543468
 21
12.9914893517
  0
LINE
  5
3E1
100
AcDbEntity
  8
0
100
AcDbLine
 62
6
  6
CONTINUOUS
 10
3.5273543468
 20
12.9914893517
 11
3.5594983953
 21
12.9914893517
  0
LINE
  5
3E2
100
AcDbEntity
  8
0
100
AcDbLine
 62
6
  6
CONTINUOUS
 10
3.5646303337
 20
12.9914893517
 11
3.5764363763
 21
12.9914893517
  0
LINE
  5
3E3
100
AcDbEntity
  8
0
100
AcDbLine
 62
7
  6
CONTINUOUS
 10
3.5594983953
 20
12.9914893517
 11
3.5646303337
 21
12.9914893517
  0
LINE
  5
3E4
100
AcDbEntity
  8
0
100
AcDbLine
 62
7
  6
CONTINUOUS
 10
3.5764363763
 20
12.9914893517
 11
3.6026749675
 21
12.9914893517
  0
LINE
  5
3E5
100
AcDbEntity
  8
0
100
AcDbLine
 62
7
  6
CONTINUOUS
 10
3.6736285465
 20
12.9914893517
 11
3.6808838894
 21
12.9914893517
  0
LINE
  5
3E6
100
AcDbEntity
  8
0
100
AcDbLine
 62
6
  6
CONTINUOUS
 10
3.6026749675
 20
12.9914893517
 11
3.6736285465
 21
12.9914893517
  0
LINE
  5
3E7
100
AcDbEntity
  8
0
100
AcDbLine
 62
6
  6
CONTINUOUS
 10
3.6808838894
 20
12.9914893517
 11
3.6933377464
 21
12.9914893517
  0
LINE
  5
3E8
100
AcDbEntity
  8
0
100
AcDbLine
 62
7
  6
CONTINUOUS
 10
3.6933377464
 20
12.9914893517
 11
3.720952892
 21
12.9914893517
  0
LINE
  5
3E9
100
AcDbEntity
  8
0
100
AcDbLine
 62
6
  6
CONTINUOUS
 10
3.720952892
 20
12.9914893517
 11
3.7934766942
 21
12.9914893517
  0
LINE
  5
3EA
100
AcDbEntity
  8
0
100
AcDbLine
 62
7
  6
CONTINUOUS
 10
3.7934766942
 20
12.9914893517
 11
3.8027759505
 21
12.9914893517
  0
LINE
  5
3EB
100
AcDbEntity
  8
0
100
AcDbLine
 62
7
  6
CONTINUOUS
 10
3.8344713218
 20
12.9914893517
 11
3.8444303176
 21
12.9914893517
  0
LINE
  5
3EC
100
AcDbEntity
  8
0
100
AcDbLine
 62
6
  6
CONTINUOUS
 10
3.8027759505
 20
12.9914893517
 11
3.8344713218
 21
12.9914893517
  0
LINE
  5
3ED
100
AcDbEntity
  8
0
100
AcDbLine
 62
6
  6
CONTINUOUS
 10
3.8444303176
 20
12.9914893517
 11
3.8759058366
 21
12.9914893517
  0
LINE
  5
3EE
100
AcDbEntity
  8
0
100
AcDbLine
 62
6
  6
CONTINUOUS
 10
3.8865124383
 20
12.9914893517
 11
3.8997399402
 21
12.9914893517
  0
LINE
  5
3EF
100
AcDbEntity
  8
0
100
AcDbLine
 62
7
  6
CONTINUOUS
 10
3.8759058366
 20
12.9914893517
 11
3.8865124383
 21
12.9914893517
  0
LINE
  5
3F0
100
AcDbEntity
  8
0
100
AcDbLine
 62
7
  6
CONTINUOUS
 10
3.8997399402
 20
12.9914893517
 11
3.9289710421
 21
12.9914893517
  0
LINE
  5
3F1
100
AcDbEntity
  8
0
100
AcDbLine
 62
7
  6
CONTINUOUS
 10
3.9598921269
 20
12.9914893517
 11
3.9717543997
 21
12.9914893517
  0
LINE
  5
3F2
100
AcDbEntity
  8
0
100
AcDbLine
 62
6
  6
CONTINUOUS
 10
3.9289710421
 20
12.9914893517
 11
3.9598921269
 21
12.9914893517
  0
LINE
  5
3F3
100
AcDbEntity
  8
0
100
AcDbLine
 62
6
  6
CONTINUOUS
 10
3.9717543997
 20
12.9914893517
 11
4.1151293848
 21
12.9914893517
  0
LINE
  5
3F4
100
AcDbEntity
  8
0
100
AcDbLine
 62
7
  6
CONTINUOUS
 10
4.1151293848
 20
12.9914893517
 11
4.1308938672
 21
12.9914893517
  0
LINE
  5
3F5
100
AcDbEntity
  8
0
100
AcDbLine
 62
6
  6
CONTINUOUS
 10
4.1308938672
 20
12.9914893517
 11
4.1739719116
 21
12.9914893517
  0
LINE
  5
3F6
100
AcDbEntity
  8
0
100
AcDbLine
 62
7
  6
CONTINUOUS
 10
4.1739719116
 20
12.9914893517
 11
4.1887078409
 21
12.9914893517
  0
LINE
  5
3F7
100
AcDbEntity
  8
0
100
AcDbLine
 62
6
  6
CONTINUOUS
 10
4.1887078409
 20
12.9914893517
 11
4.2170762139
 21
12.9914893517
  0
LINE
  5
3F8
100
AcDbEntity
  8
0
100
AcDbLine
 62
7
  6
CONTINUOUS
 10
4.2170762139
 20
12.9914893517
 11
4.2323357154
 21
12.9914893517
  0
LINE
  5
3F9
100
AcDbEntity
  8
0
100
AcDbLine
 62
6
  6
CONTINUOUS
 10
4.2323357154
 20
12.9914893517
 11
4.3762377393
 21
12.9914893517
  0
LINE
  5
3FA
100
AcDbEntity
  8
0
100
AcDbLine
 62
7
  6
CONTINUOUS
 10
4.3762377393
 20
12.9914893517
 11
4.3887065475
 21
12.9914893517
  0
LINE
  5
3FB
100
AcDbEntity
  8
0
100
AcDbLine
 62
6
  6
CONTINUOUS
 10
4.3887065475
 20
12.9914893517
 11
4.4620770834
 21
12.9914893517
  0
LINE
  5
3FC
100
AcDbEntity
  8
0
100
AcDbLine
 62
7
  6
CONTINUOUS
 10
4.4620770834
 20
12.9914893517
 11
4.4913081853
 21
12.9914893517
  0
LINE
  5
3FD
100
AcDbEntity
  8
0
100
AcDbLine
 62
7
  6
CONTINUOUS
 10
4.5151422889
 20
12.9914893517
 11
4.533513462
 21
12.9914893517
  0
LINE
  5
3FE
100
AcDbEntity
  8
0
100
AcDbLine
 62
6
  6
CONTINUOUS
 10
4.4913081853
 20
12.9914893517
 11
4.5151422889
 21
12.9914893517
  0
LINE
  5
3FF
100
AcDbEntity
  8
0
100
AcDbLine
 62
6
  6
CONTINUOUS
 10
4.533513462
 20
12.9914893517
 11
4.6700952335
 21
12.9914893517
  0
LINE
  5
400
100
AcDbEntity
  8
0
100
AcDbLine
 62
6
  6
CONTINUOUS
 10
4.6977103791
 20
12.9914893517
 11
4.7101642361
 21
12.9914893517
  0
LINE
  5
401
100
AcDbEntity
  8
0
100
AcDbLine
 62
7
  6
CONTINUOUS
 10
4.6700952335
 20
12.9914893517
 11
4.6977103791
 21
12.9914893517
  0
LINE
  5
402
100
AcDbEntity
  8
0
100
AcDbLine
 62
7
  6
CONTINUOUS
 10
4.7101642361
 20
12.9914893517
 11
4.717419579
 21
12.9914893517
  0
LINE
  5
403
100
AcDbEntity
  8
0
100
AcDbLine
 62
6
  6
CONTINUOUS
 10
4.717419579
 20
12.9914893517
 11
4.788373158
 21
12.9914893517
  0
LINE
  5
404
100
AcDbEntity
  8
0
100
AcDbLine
 62
7
  6
CONTINUOUS
 10
4.788373158
 20
12.9914893517
 11
4.8146117492
 21
12.9914893517
  0
LINE
  5
405
100
AcDbEntity
  8
0
100
AcDbLine
 62
6
  6
CONTINUOUS
 10
4.8146117492
 20
12.9914893517
 11
4.8264177918
 21
12.9914893517
  0
LINE
  5
406
100
AcDbEntity
  8
0
100
AcDbLine
 62
7
  6
CONTINUOUS
 10
4.8264177918
 20
12.9914893517
 11
4.8521328108
 21
12.9914893517
  0
LINE
  5
407
100
AcDbEntity
  8
0
100
AcDbLine
 62
7
  6
CONTINUOUS
 10
4.9001557038
 20
12.9914893517
 11
4.9038393379
 21
12.9914893517
  0
LINE
  5
408
100
AcDbEntity
  8
0
100
AcDbLine
 62
6
  6
CONTINUOUS
 10
4.8521328108
 20
12.9914893517
 11
4.9001557038
 21
12.9914893517
  0
LINE
  5
409
100
AcDbEntity
  8
0
100
AcDbLine
 62
6
  6
CONTINUOUS
 10
4.9038393379
 20
12.9914893517
 11
4.9704607213
 21
12.9914893517
  0
LINE
  5
40A
100
AcDbEntity
  8
0
100
AcDbLine
 62
6
  6
CONTINUOUS
 10
4.9937751001
 20
12.9914893517
 11
5.0042181578
 21
12.9914893517
  0
LINE
  5
40B
100
AcDbEntity
  8
0
100
AcDbLine
 62
7
  6
CONTINUOUS
 10
4.9704607213
 20
12.9914893517
 11
4.9937751001
 21
12.9914893517
  0
LINE
  5
40C
100
AcDbEntity
  8
0
100
AcDbLine
 62
6
  6
CONTINUOUS
 10
5.0268594452
 20
12.9914893517
 11
5.0369903252
 21
12.9914893517
  0
LINE
  5
40D
100
AcDbEntity
  8
0
100
AcDbLine
 62
7
  6
CONTINUOUS
 10
5.0042181578
 20
12.9914893517
 11
5.0268594452
 21
12.9914893517
  0
LINE
  5
40E
100
AcDbEntity
  8
0
100
AcDbLine
 62
6
  6
CONTINUOUS
 10
5.0589309363
 20
12.9914893517
 11
5.0687372956
 21
12.9914893517
  0
LINE
  5
40F
100
AcDbEntity
  8
0
100
AcDbLine
 62
7
  6
CONTINUOUS
 10
5.0369903252
 20
12.9914893517
 11
5.0589309363
 21
12.9914893517
  0
LINE
  5
410
100
AcDbEntity
  8
0
100
AcDbLine
 62
7
  6
CONTINUOUS
 10
5.0687372956
 20
12.9914893517
 11
5.089950499
 21
12.9914893517
  0
LINE
  5
411
100
AcDbEntity
  8
0
100
AcDbLine
 62
6
  6
CONTINUOUS
 10
5.089950499
 20
12.9914893517
 11
5.09868006
 21
12.9914893517
  0
LINE
  5
412
100
AcDbEntity
  8
0
100
AcDbLine
 62
7
  6
CONTINUOUS
 10
5.09868006
 20
12.9914893517
 11
5.119880341
 21
12.9914893517
  0
LINE
  5
413
100
AcDbEntity
  8
0
100
AcDbLine
 62
7
  6
CONTINUOUS
 10
5.1290022263
 20
12.9914893517
 11
5.1486839971
 21
12.9914893517
  0
LINE
  5
414
100
AcDbEntity
  8
0
100
AcDbLine
 62
6
  6
CONTINUOUS
 10
5.119880341
 20
12.9914893517
 11
5.1290022263
 21
12.9914893517
  0
LINE
  5
415
100
AcDbEntity
  8
0
100
AcDbLine
 62
7
  6
CONTINUOUS
 10
5.1552293795
 20
12.9914893517
 11
5.1763263748
 21
12.9914893517
  0
LINE
  5
416
100
AcDbEntity
  8
0
100
AcDbLine
 62
6
  6
CONTINUOUS
 10
5.1486839971
 20
12.9914893517
 11
5.1552293795
 21
12.9914893517
  0
LINE
  5
417
100
AcDbEntity
  8
0
100
AcDbLine
 62
7
  6
CONTINUOUS
 10
5.1847193452
 20
12.9914893517
 11
5.2027737959
 21
12.9914893517
  0
LINE
  5
418
100
AcDbEntity
  8
0
100
AcDbLine
 62
6
  6
CONTINUOUS
 10
5.1763263748
 20
12.9914893517
 11
5.1847193452
 21
12.9914893517
  0
LINE
  5
419
100
AcDbEntity
  8
0
100
AcDbLine
 62
6
  6
CONTINUOUS
 10
5.2027737959
 20
12.9914893517
 11
5.2356172041
 21
12.9914893517
  0
LINE
  5
41A
100
AcDbEntity
  8
0
100
AcDbLine
 62
7
  6
CONTINUOUS
 10
5.2356172041
 20
12.9914893517
 11
5.2519563751
 21
12.9914893517
  0
LINE
  5
41B
100
AcDbEntity
  8
0
100
AcDbLine
 62
6
  6
CONTINUOUS
 10
5.2519563751
 20
12.9914893517
 11
5.302392167
 21
12.9914893517
  0
LINE
  5
41C
100
AcDbEntity
  8
0
100
AcDbLine
 62
7
  6
CONTINUOUS
 10
5.302392167
 20
12.9914893517
 11
5.316011882
 21
12.9914893517
  0
LINE
  5
41D
100
AcDbEntity
  8
0
100
AcDbLine
 62
7
  6
CONTINUOUS
 10
5.321987952
 20
12.9914893517
 11
5.3346664998
 21
12.9914893517
  0
LINE
  5
41E
100
AcDbEntity
  8
0
100
AcDbLine
 62
6
  6
CONTINUOUS
 10
5.316011882
 20
12.9914893517
 11
5.321987952
 21
12.9914893517
  0
LINE
  5
41F
100
AcDbEntity
  8
0
100
AcDbLine
 62
7
  6
CONTINUOUS
 10
5.4196075575
 20
12.9914893517
 11
5.4253318274
 21
12.9914893517
  0
LINE
  5
420
100
AcDbEntity
  8
0
100
AcDbLine
 62
7
  6
CONTINUOUS
 10
5.4276990764
 20
12.9914893517
 11
5.4323921103
 21
12.9914893517
  0
LINE
  5
421
100
AcDbEntity
  8
0
100
AcDbLine
 62
6
  6
CONTINUOUS
 10
5.4253318274
 20
12.9914893517
 11
5.4276990764
 21
12.9914893517
  0
LINE
  5
422
100
AcDbEntity
  8
0
100
AcDbLine
 62
6
  6
CONTINUOUS
 10
5.3346664998
 20
12.9914893517
 11
5.4196075575
 21
12.9914893517
  0
LINE
  5
423
100
AcDbEntity
  8
0
100
AcDbLine
 62
6
  6
CONTINUOUS
 10
5.4323921103
 20
12.9914893517
 11
5.4455054782
 21
12.9914893517
  0
LINE
  5
424
100
AcDbEntity
  8
0
100
AcDbLine
 62
6
  6
CONTINUOUS
 10
27.2163490491
 20
12.9914893517
 11
27.2187162981
 21
12.9914893517
  0
LINE
  5
425
100
AcDbEntity
  8
0
100
AcDbLine
 62
7
  6
CONTINUOUS
 10
27.2116560152
 20
12.9914893517
 11
27.2163490491
 21
12.9914893517
  0
LINE
  5
426
100
AcDbEntity
  8
0
100
AcDbLine
 62
6
  6
CONTINUOUS
 10
27.1985426472
 20
12.9914893517
 11
27.2116560152
 21
12.9914893517
  0
LINE
  5
427
100
AcDbEntity
  8
0
100
AcDbLine
 62
7
  6
CONTINUOUS
 10
27.2187162981
 20
12.9914893517
 11
27.224440568
 21
12.9914893517
  0
LINE
  5
428
100
AcDbEntity
  8
0
100
AcDbLine
 62
7
  6
CONTINUOUS
 10
27.3093816257
 20
12.9914893517
 11
27.3220601735
 21
12.9914893517
  0
LINE
  5
429
100
AcDbEntity
  8
0
100
AcDbLine
 62
6
  6
CONTINUOUS
 10
27.224440568
 20
12.9914893517
 11
27.3093816257
 21
12.9914893517
  0
LINE
  5
42A
100
AcDbEntity
  8
0
100
AcDbLine
 62
6
  6
CONTINUOUS
 10
27.3220601735
 20
12.9914893517
 11
27.3280362435
 21
12.9914893517
  0
LINE
  5
42B
100
AcDbEntity
  8
0
100
AcDbLine
 62
7
  6
CONTINUOUS
 10
27.3280362435
 20
12.9914893517
 11
27.3416559585
 21
12.9914893517
  0
LINE
  5
42C
100
AcDbEntity
  8
0
100
AcDbLine
 62
6
  6
CONTINUOUS
 10
27.3416559585
 20
12.9914893517
 11
27.3920917503
 21
12.9914893517
  0
LINE
  5
42D
100
AcDbEntity
  8
0
100
AcDbLine
 62
7
  6
CONTINUOUS
 10
27.3920917503
 20
12.9914893517
 11
27.4084309214
 21
12.9914893517
  0
LINE
  5
42E
100
AcDbEntity
  8
0
100
AcDbLine
 62
7
  6
CONTINUOUS
 10
27.4412743296
 20
12.9914893517
 11
27.4593287803
 21
12.9914893517
  0
LINE
  5
42F
100
AcDbEntity
  8
0
100
AcDbLine
 62
6
  6
CONTINUOUS
 10
27.4084309214
 20
12.9914893517
 11
27.4412743296
 21
12.9914893517
  0
LINE
  5
430
100
AcDbEntity
  8
0
100
AcDbLine
 62
6
  6
CONTINUOUS
 10
27.4593287803
 20
12.9914893517
 11
27.4677217507
 21
12.9914893517
  0
LINE
  5
431
100
AcDbEntity
  8
0
100
AcDbLine
 62
6
  6
CONTINUOUS
 10
27.488818746
 20
12.9914893517
 11
27.4953641283
 21
12.9914893517
  0
LINE
  5
432
100
AcDbEntity
  8
0
100
AcDbLine
 62
7
  6
CONTINUOUS
 10
27.4953641283
 20
12.9914893517
 11
27.5150458992
 21
12.9914893517
  0
LINE
  5
433
100
AcDbEntity
  8
0
100
AcDbLine
 62
7
  6
CONTINUOUS
 10
27.4677217507
 20
12.9914893517
 11
27.488818746
 21
12.9914893517
  0
LINE
  5
434
100
AcDbEntity
  8
0
100
AcDbLine
 62
6
  6
CONTINUOUS
 10
27.5453680654
 20
12.9914893517
 11
27.5540976264
 21
12.9914893517
  0
LINE
  5
435
100
AcDbEntity
  8
0
100
AcDbLine
 62
6
  6
CONTINUOUS
 10
27.5150458992
 20
12.9914893517
 11
27.5241677845
 21
12.9914893517
  0
LINE
  5
436
100
AcDbEntity
  8
0
100
AcDbLine
 62
7
  6
CONTINUOUS
 10
27.5241677845
 20
12.9914893517
 11
27.5453680654
 21
12.9914893517
  0
LINE
  5
437
100
AcDbEntity
  8
0
100
AcDbLine
 62
6
  6
CONTINUOUS
 10
27.5753108299
 20
12.9914893517
 11
27.5851171892
 21
12.9914893517
  0
LINE
  5
438
100
AcDbEntity
  8
0
100
AcDbLine
 62
7
  6
CONTINUOUS
 10
27.5540976264
 20
12.9914893517
 11
27.5753108299
 21
12.9914893517
  0
LINE
  5
439
100
AcDbEntity
  8
0
100
AcDbLine
 62
6
  6
CONTINUOUS
 10
27.6070578002
 20
12.9914893517
 11
27.6171886802
 21
12.9914893517
  0
LINE
  5
43A
100
AcDbEntity
  8
0
100
AcDbLine
 62
7
  6
CONTINUOUS
 10
27.5851171892
 20
12.9914893517
 11
27.6070578002
 21
12.9914893517
  0
LINE
  5
43B
100
AcDbEntity
  8
0
100
AcDbLine
 62
6
  6
CONTINUOUS
 10
27.6398299676
 20
12.9914893517
 11
27.6502730254
 21
12.9914893517
  0
LINE
  5
43C
100
AcDbEntity
  8
0
100
AcDbLine
 62
7
  6
CONTINUOUS
 10
27.6171886802
 20
12.9914893517
 11
27.6398299676
 21
12.9914893517
  0
LINE
  5
43D
100
AcDbEntity
  8
0
100
AcDbLine
 62
7
  6
CONTINUOUS
 10
27.6502730254
 20
12.9914893517
 11
27.6735874042
 21
12.9914893517
  0
LINE
  5
43E
100
AcDbEntity
  8
0
100
AcDbLine
 62
7
  6
CONTINUOUS
 10
27.7402087876
 20
12.9914893517
 11
27.7438924217
 21
12.9914893517
  0
LINE
  5
43F
100
AcDbEntity
  8
0
100
AcDbLine
 62
6
  6
CONTINUOUS
 10
27.6735874042
 20
12.9914893517
 11
27.7402087876
 21
12.9914893517
  0
LINE
  5
440
100
AcDbEntity
  8
0
100
AcDbLine
 62
6
  6
CONTINUOUS
 10
27.7438924217
 20
12.9914893517
 11
27.7919153147
 21
12.9914893517
  0
LINE
  5
441
100
AcDbEntity
  8
0
100
AcDbLine
 62
7
  6
CONTINUOUS
 10
27.7919153147
 20
12.9914893517
 11
27.8176303337
 21
12.9914893517
  0
LINE
  5
442
100
AcDbEntity
  8
0
100
AcDbLine
 62
6
  6
CONTINUOUS
 10
27.8176303337
 20
12.9914893517
 11
27.8294363763
 21
12.9914893517
  0
LINE
  5
443
100
AcDbEntity
  8
0
100
AcDbLine
 62
7
  6
CONTINUOUS
 10
27.8294363763
 20
12.9914893517
 11
27.8556749675
 21
12.9914893517
  0
LINE
  5
444
100
AcDbEntity
  8
0
100
AcDbLine
 62
6
  6
CONTINUOUS
 10
27.8556749675
 20
12.9914893517
 11
27.9266285465
 21
12.9914893517
  0
LINE
  5
445
100
AcDbEntity
  8
0
100
AcDbLine
 62
6
  6
CONTINUOUS
 10
27.9338838894
 20
12.9914893517
 11
27.9463377464
 21
12.9914893517
  0
LINE
  5
446
100
AcDbEntity
  8
0
100
AcDbLine
 62
7
  6
CONTINUOUS
 10
27.9266285465
 20
12.9914893517
 11
27.9338838894
 21
12.9914893517
  0
LINE
  5
447
100
AcDbEntity
  8
0
100
AcDbLine
 62
7
  6
CONTINUOUS
 10
27.9463377464
 20
12.9914893517
 11
27.973952892
 21
12.9914893517
  0
LINE
  5
448
100
AcDbEntity
  8
0
100
AcDbLine
 62
7
  6
CONTINUOUS
 10
28.1105346635
 20
12.9914893517
 11
28.1289058366
 21
12.9914893517
  0
LINE
  5
449
100
AcDbEntity
  8
0
100
AcDbLine
 62
6
  6
CONTINUOUS
 10
27.973952892
 20
12.9914893517
 11
28.1105346635
 21
12.9914893517
  0
LINE
  5
44A
100
AcDbEntity
  8
0
100
AcDbLine
 62
6
  6
CONTINUOUS
 10
28.1289058366
 20
12.9914893517
 11
28.1527399402
 21
12.9914893517
  0
LINE
  5
44B
100
AcDbEntity
  8
0
100
AcDbLine
 62
7
  6
CONTINUOUS
 10
28.1527399402
 20
12.9914893517
 11
28.1819710421
 21
12.9914893517
  0
LINE
  5
44C
100
AcDbEntity
  8
0
100
AcDbLine
 62
6
  6
CONTINUOUS
 10
28.1819710421
 20
12.9914893517
 11
28.255341578
 21
12.9914893517
  0
LINE
  5
44D
100
AcDbEntity
  8
0
100
AcDbLine
 62
7
  6
CONTINUOUS
 10
28.255341578
 20
12.9914893517
 11
28.2678103862
 21
12.9914893517
  0
LINE
  5
44E
100
AcDbEntity
  8
0
100
AcDbLine
 62
6
  6
CONTINUOUS
 10
28.2678103862
 20
12.9914893517
 11
28.41171241
 21
12.9914893517
  0
LINE
  5
44F
100
AcDbEntity
  8
0
100
AcDbLine
 62
7
  6
CONTINUOUS
 10
28.41171241
 20
12.9914893517
 11
28.4269719116
 21
12.9914893517
  0
LINE
  5
450
100
AcDbEntity
  8
0
100
AcDbLine
 62
6
  6
CONTINUOUS
 10
28.4269719116
 20
12.9914893517
 11
28.4553402846
 21
12.9914893517
  0
LINE
  5
451
100
AcDbEntity
  8
0
100
AcDbLine
 62
7
  6
CONTINUOUS
 10
28.4553402846
 20
12.9914893517
 11
28.4700762139
 21
12.9914893517
  0
LINE
  5
452
100
AcDbEntity
  8
0
100
AcDbLine
 62
6
  6
CONTINUOUS
 10
28.4700762139
 20
12.9914893517
 11
28.5131542583
 21
12.9914893517
  0
LINE
  5
453
100
AcDbEntity
  8
0
100
AcDbLine
 62
7
  6
CONTINUOUS
 10
28.5131542583
 20
12.9914893517
 11
28.5289187407
 21
12.9914893517
  0
LINE
  5
454
100
AcDbEntity
  8
0
100
AcDbLine
 62
7
  6
CONTINUOUS
 10
28.6722937258
 20
12.9914893517
 11
28.6841559986
 21
12.9914893517
  0
LINE
  5
455
100
AcDbEntity
  8
0
100
AcDbLine
 62
6
  6
CONTINUOUS
 10
28.5289187407
 20
12.9914893517
 11
28.6722937258
 21
12.9914893517
  0
LINE
  5
456
100
AcDbEntity
  8
0
100
AcDbLine
 62
6
  6
CONTINUOUS
 10
28.6841559986
 20
12.9914893517
 11
28.7150770834
 21
12.9914893517
  0
LINE
  5
457
100
AcDbEntity
  8
0
100
AcDbLine
 62
7
  6
CONTINUOUS
 10
28.7150770834
 20
12.9914893517
 11
28.7443081853
 21
12.9914893517
  0
LINE
  5
458
100
AcDbEntity
  8
0
100
AcDbLine
 62
6
  6
CONTINUOUS
 10
28.7443081853
 20
12.9914893517
 11
28.7575356872
 21
12.9914893517
  0
LINE
  5
459
100
AcDbEntity
  8
0
100
AcDbLine
 62
7
  6
CONTINUOUS
 10
28.7575356872
 20
12.9914893517
 11
28.7681422889
 21
12.9914893517
  0
LINE
  5
45A
100
AcDbEntity
  8
0
100
AcDbLine
 62
6
  6
CONTINUOUS
 10
28.7681422889
 20
12.9914893517
 11
28.7996178079
 21
12.9914893517
  0
LINE
  5
45B
100
AcDbEntity
  8
0
100
AcDbLine
 62
7
  6
CONTINUOUS
 10
28.7996178079
 20
12.9914893517
 11
28.8095768037
 21
12.9914893517
  0
LINE
  5
45C
100
AcDbEntity
  8
0
100
AcDbLine
 62
6
  6
CONTINUOUS
 10
28.8095768037
 20
12.9914893517
 11
28.841272175
 21
12.9914893517
  0
LINE
  5
45D
100
AcDbEntity
  8
0
100
AcDbLine
 62
7
  6
CONTINUOUS
 10
28.841272175
 20
12.9914893517
 11
28.8505714313
 21
12.9914893517
  0
LINE
  5
45E
100
AcDbEntity
  8
0
100
AcDbLine
 62
6
  6
CONTINUOUS
 10
28.8505714313
 20
12.9914893517
 11
28.9230952335
 21
12.9914893517
  0
LINE
  5
45F
100
AcDbEntity
  8
0
100
AcDbLine
 62
7
  6
CONTINUOUS
 10
28.9230952335
 20
12.9914893517
 11
28.9507103791
 21
12.9914893517
  0
LINE
  5
460
100
AcDbEntity
  8
0
100
AcDbLine
 62
6
  6
CONTINUOUS
 10
28.9507103791
 20
12.9914893517
 11
28.9631642361
 21
12.9914893517
  0
LINE
  5
461
100
AcDbEntity
  8
0
100
AcDbLine
 62
7
  6
CONTINUOUS
 10
28.9631642361
 20
12.9914893517
 11
28.970419579
 21
12.9914893517
  0
LINE
  5
462
100
AcDbEntity
  8
0
100
AcDbLine
 62
6
  6
CONTINUOUS
 10
28.970419579
 20
12.9914893517
 11
29.041373158
 21
12.9914893517
  0
LINE
  5
463
100
AcDbEntity
  8
0
100
AcDbLine
 62
6
  6
CONTINUOUS
 10
29.0676117492
 20
12.9914893517
 11
29.0794177918
 21
12.9914893517
  0
LINE
  5
464
100
AcDbEntity
  8
0
100
AcDbLine
 62
7
  6
CONTINUOUS
 10
29.041373158
 20
12.9914893517
 11
29.0676117492
 21
12.9914893517
  0
LINE
  5
465
100
AcDbEntity
  8
0
100
AcDbLine
 62
7
  6
CONTINUOUS
 10
29.0794177918
 20
12.9914893517
 11
29.0845497302
 21
12.9914893517
  0
LINE
  5
466
100
AcDbEntity
  8
0
100
AcDbLine
 62
6
  6
CONTINUOUS
 10
29.0845497302
 20
12.9914893517
 11
29.1166937787
 21
12.9914893517
  0
LINE
  5
467
100
AcDbEntity
  8
0
100
AcDbLine
 62
7
  6
CONTINUOUS
 10
29.1166937787
 20
12.9914893517
 11
29.1211042517
 21
12.9914893517
  0
LINE
  5
468
100
AcDbEntity
  8
0
100
AcDbLine
 62
6
  6
CONTINUOUS
 10
29.1211042517
 20
12.9914893517
 11
29.1531557038
 21
12.9914893517
  0
LINE
  5
469
100
AcDbEntity
  8
0
100
AcDbLine
 62
7
  6
CONTINUOUS
 10
29.1531557038
 20
12.9914893517
 11
29.1777302651
 21
12.9914893517
  0
LINE
  5
46A
100
AcDbEntity
  8
0
100
AcDbLine
 62
6
  6
CONTINUOUS
 10
29.1777302651
 20
12.9914893517
 11
29.2234607213
 21
12.9914893517
  0
LINE
  5
46B
100
AcDbEntity
  8
0
100
AcDbLine
 62
7
  6
CONTINUOUS
 10
29.2234607213
 20
12.9914893517
 11
29.2467751001
 21
12.9914893517
  0
LINE
  5
46C
100
AcDbEntity
  8
0
100
AcDbLine
 62
6
  6
CONTINUOUS
 10
29.2467751001
 20
12.9914893517
 11
29.2899903252
 21
12.9914893517
  0
LINE
  5
46D
100
AcDbEntity
  8
0
100
AcDbLine
 62
7
  6
CONTINUOUS
 10
29.2899903252
 20
12.9914893517
 11
29.3119309363
 21
12.9914893517
  0
LINE
  5
46E
100
AcDbEntity
  8
0
100
AcDbLine
 62
6
  6
CONTINUOUS
 10
29.3119309363
 20
12.9914893517
 11
29.35168006
 21
12.9914893517
  0
LINE
  5
46F
100
AcDbEntity
  8
0
100
AcDbLine
 62
7
  6
CONTINUOUS
 10
29.35168006
 20
12.9914893517
 11
29.372880341
 21
12.9914893517
  0
LINE
  5
470
100
AcDbEntity
  8
0
100
AcDbLine
 62
6
  6
CONTINUOUS
 10
29.372880341
 20
12.9914893517
 11
29.4082293795
 21
12.9914893517
  0
LINE
  5
471
100
AcDbEntity
  8
0
100
AcDbLine
 62
7
  6
CONTINUOUS
 10
29.4082293795
 20
12.9914893517
 11
29.4293263748
 21
12.9914893517
  0
LINE
  5
472
100
AcDbEntity
  8
0
100
AcDbLine
 62
7
  6
CONTINUOUS
 10
29.4637867452
 20
12.9914893517
 11
29.4809940383
 21
12.9914893517
  0
LINE
  5
473
100
AcDbEntity
  8
0
100
AcDbLine
 62
6
  6
CONTINUOUS
 10
29.4293263748
 20
12.9914893517
 11
29.4637867452
 21
12.9914893517
  0
LINE
  5
474
100
AcDbEntity
  8
0
100
AcDbLine
 62
7
  6
CONTINUOUS
 10
29.555392167
 20
12.9914893517
 11
29.569011882
 21
12.9914893517
  0
LINE
  5
475
100
AcDbEntity
  8
0
100
AcDbLine
 62
6
  6
CONTINUOUS
 10
29.4809940383
 20
12.9914893517
 11
29.555392167
 21
12.9914893517
  0
LINE
  5
476
100
AcDbEntity
  8
0
100
AcDbLine
 62
6
  6
CONTINUOUS
 10
29.5876664998
 20
12.9914893517
 11
29.5932113142
 21
12.9914893517
  0
LINE
  5
477
100
AcDbEntity
  8
0
100
AcDbLine
 62
6
  6
CONTINUOUS
 10
29.569011882
 20
12.9914893517
 11
29.574987952
 21
12.9914893517
  0
LINE
  5
478
100
AcDbEntity
  8
0
100
AcDbLine
 62
7
  6
CONTINUOUS
 10
29.5932113142
 20
12.9914893517
 11
29.6049332481
 21
12.9914893517
  0
LINE
  5
479
100
AcDbEntity
  8
0
100
AcDbLine
 62
7
  6
CONTINUOUS
 10
29.574987952
 20
12.9914893517
 11
29.5876664998
 21
12.9914893517
  0
LINE
  5
47A
100
AcDbEntity
  8
0
100
AcDbLine
 62
6
  6
CONTINUOUS
 10
29.6049332481
 20
12.9914893517
 11
29.6519621235
 21
12.9914893517
  0
LINE
  5
47B
100
AcDbEntity
  8
0
100
AcDbLine
 62
6
  6
CONTINUOUS
 10
29.6783318274
 20
12.9914893517
 11
29.6806990764
 21
12.9914893517
  0
LINE
  5
47C
100
AcDbEntity
  8
0
100
AcDbLine
 62
6
  6
CONTINUOUS
 10
29.6597266948
 20
12.9914893517
 11
29.6726075575
 21
12.9914893517
  0
LINE
  5
47D
100
AcDbEntity
  8
0
100
AcDbLine
 62
6
  6
CONTINUOUS
 10
29.6853921103
 20
12.9914893517
 11
29.6985054782
 21
12.9914893517
  0
LINE
  5
47E
100
AcDbEntity
  8
0
100
AcDbLine
 62
7
  6
CONTINUOUS
 10
29.6806990764
 20
12.9914893517
 11
29.6853921103
 21
12.9914893517
  0
LINE
  5
47F
100
AcDbEntity
  8
0
100
AcDbLine
 62
7
  6
CONTINUOUS
 10
29.6726075575
 20
12.9914893517
 11
29.6783318274
 21
12.9914893517
  0
LINE
  5
480
100
AcDbEntity
  8
0
100
AcDbLine
 62
6
  6
CONTINUOUS
 10
2.9955240627
 20
13.1914893517
 11
5.3955240627
 21
13.1914893517
  0
LINE
  5
481
100
AcDbEntity
  8
0
100
AcDbLine
 62
6
  6
CONTINUOUS
 10
27.2485240627
 20
13.1914893517
 11
29.6485240627
 21
13.1914893517
  0
LINE
  5
482
100
AcDbEntity
  8
0
100
AcDbLine
 62
6
  6
CONTINUOUS
 10
2.9455240627
 20
13.2414893517
 11
5.4455240627
 21
13.2414893517
  0
LINE
  5
483
100
AcDbEntity
  8
0
100
AcDbLine
 62
6
  6
CONTINUOUS
 10
27.1985240627
 20
13.2414893517
 11
29.6985240627
 21
13.2414893517
  0
LINE
  5
484
100
AcDbEntity
  8
0
100
AcDbLine
 62
6
  6
CONTINUOUS
 10
2.9455240627
 20
13.3914893517
 11
5.4455240627
 21
13.3914893517
  0
LINE
  5
485
100
AcDbEntity
  8
0
100
AcDbLine
 62
6
  6
CONTINUOUS
 10
27.1985240627
 20
13.3914893517
 11
29.6985240627
 21
13.3914893517
  0
LINE
  5
486
100
AcDbEntity
  8
0
100
AcDbLine
 62
6
  6
CONTINUOUS
 10
29.6985240627
 20
13.2414893517
 11
29.6485240627
 21
13.1914893517
  0
LINE
  5
487
100
AcDbEntity
  8
0
100
AcDbLine
 62
6
  6
CONTINUOUS
 10
27.2485240627
 20
13.1914893517
 11
27.1985240627
 21
13.2414893517
  0
LINE
  5
488
100
AcDbEntity
  8
0
100
AcDbLine
 62
6
  6
CONTINUOUS
 10
27.1985240627
 20
13.3914893517
 11
27.1985240627
 21
13.2414893517
  0
LINE
  5
489
100
AcDbEntity
  8
0
100
AcDbLine
 62
6
  6
CONTINUOUS
 10
27.1985426472
 20
12.9914893517
 11
27.1985426472
 21
12.9164893517
  0
LINE
  5
48A
100
AcDbEntity
  8
0
100
AcDbLine
 62
7
  6
CONTINUOUS
 10
27.1990662194
 20
12.9914893517
 11
27.1990662194
 21
12.9164893517
  0
LINE
  5
48B
100
AcDbEntity
  8
0
100
AcDbLine
 62
6
  6
CONTINUOUS
 10
27.1995419848
 20
12.9914893517
 11
27.1995419848
 21
12.9164893517
  0
LINE
  5
48C
100
AcDbEntity
  8
0
100
AcDbLine
 62
6
  6
CONTINUOUS
 10
27.2011120635
 20
12.9914893517
 11
27.2011120635
 21
12.9164893517
  0
LINE
  5
48D
100
AcDbEntity
  8
0
100
AcDbLine
 62
6
  6
CONTINUOUS
 10
27.2020630147
 20
12.9914893517
 11
27.2020630147
 21
12.9164893517
  0
LINE
  5
48E
100
AcDbEntity
  8
0
100
AcDbLine
 62
6
  6
CONTINUOUS
 10
27.204677687
 20
12.9914893517
 11
27.204677687
 21
12.9164893517
  0
LINE
  5
48F
100
AcDbEntity
  8
0
100
AcDbLine
 62
6
  6
CONTINUOUS
 10
27.2061026654
 20
12.9914893517
 11
27.2061026654
 21
12.9164893517
  0
LINE
  5
490
100
AcDbEntity
  8
0
100
AcDbLine
 62
6
  6
CONTINUOUS
 10
27.2097587457
 20
12.9914893517
 11
27.2097587457
 21
12.9164893517
  0
LINE
  5
491
100
AcDbEntity
  8
0
100
AcDbLine
 62
7
  6
CONTINUOUS
 10
27.2116560152
 20
12.9914893517
 11
27.2116560152
 21
12.9164893517
  0
LINE
  5
492
100
AcDbEntity
  8
0
100
AcDbLine
 62
6
  6
CONTINUOUS
 10
27.2163490491
 20
12.9914893517
 11
27.2163490491
 21
12.9164893517
  0
LINE
  5
493
100
AcDbEntity
  8
0
100
AcDbLine
 62
7
  6
CONTINUOUS
 10
27.2187162981
 20
12.9914893517
 11
27.2187162981
 21
12.9164893517
  0
LINE
  5
494
100
AcDbEntity
  8
0
100
AcDbLine
 62
6
  6
CONTINUOUS
 10
27.224440568
 20
12.9914893517
 11
27.224440568
 21
12.9164893517
  0
LINE
  5
495
100
AcDbEntity
  8
0
100
AcDbLine
 62
6
  6
CONTINUOUS
 10
27.2272749124
 20
12.9914893517
 11
27.2272749124
 21
12.9164893517
  0
LINE
  5
496
100
AcDbEntity
  8
0
100
AcDbLine
 62
7
  6
CONTINUOUS
 10
27.234023444
 20
12.9914893517
 11
27.234023444
 21
12.9164893517
  0
LINE
  5
497
100
AcDbEntity
  8
0
100
AcDbLine
 62
6
  6
CONTINUOUS
 10
27.2373214307
 20
12.9914893517
 11
27.2373214307
 21
12.9164893517
  0
LINE
  5
498
100
AcDbEntity
  8
0
100
AcDbLine
 62
6
  6
CONTINUOUS
 10
27.245086002
 20
12.9914893517
 11
27.245086002
 21
12.9164893517
  0
LINE
  5
499
100
AcDbEntity
  8
0
100
AcDbLine
 62
6
  6
CONTINUOUS
 10
27.2485240627
 20
13.1914893517
 11
27.2485240627
 21
12.9914893517
  0
LINE
  5
49A
100
AcDbEntity
  8
0
100
AcDbLine
 62
6
  6
CONTINUOUS
 10
27.2488436127
 20
12.9914893517
 11
27.2488436127
 21
12.9164893517
  0
LINE
  5
49B
100
AcDbEntity
  8
0
100
AcDbLine
 62
7
  6
CONTINUOUS
 10
27.2576147639
 20
12.9914893517
 11
27.2576147639
 21
12.9164893517
  0
LINE
  5
49C
100
AcDbEntity
  8
0
100
AcDbLine
 62
6
  6
CONTINUOUS
 10
27.2618274207
 20
12.9914893517
 11
27.2618274207
 21
12.9164893517
  0
LINE
  5
49D
100
AcDbEntity
  8
0
100
AcDbLine
 62
6
  6
CONTINUOUS
 10
27.2715944653
 20
12.9914893517
 11
27.2715944653
 21
12.9164893517
  0
LINE
  5
49E
100
AcDbEntity
  8
0
100
AcDbLine
 62
6
  6
CONTINUOUS
 10
27.2762570356
 20
12.9914893517
 11
27.2762570356
 21
12.9164893517
  0
LINE
  5
49F
100
AcDbEntity
  8
0
100
AcDbLine
 62
6
  6
CONTINUOUS
 10
27.2870080741
 20
12.9914893517
 11
27.2870080741
 21
12.9164893517
  0
LINE
  5
4A0
100
AcDbEntity
  8
0
100
AcDbLine
 62
6
  6
CONTINUOUS
 10
27.2921148774
 20
12.9914893517
 11
27.2921148774
 21
12.9164893517
  0
LINE
  5
4A1
100
AcDbEntity
  8
0
100
AcDbLine
 62
6
  6
CONTINUOUS
 10
27.3038368113
 20
12.9914893517
 11
27.3038368113
 21
12.9164893517
  0
LINE
  5
4A2
100
AcDbEntity
  8
0
100
AcDbLine
 62
7
  6
CONTINUOUS
 10
27.3093816257
 20
12.9914893517
 11
27.3093816257
 21
12.9164893517
  0
LINE
  5
4A3
100
AcDbEntity
  8
0
100
AcDbLine
 62
6
  6
CONTINUOUS
 10
27.3117834171
 20
12.9164893517
 11
27.3117834171
 21
12.9914893517
  0
LINE
  5
4A4
100
AcDbEntity
  8
0
100
AcDbLine
 62
7
  6
CONTINUOUS
 10
27.3220601735
 20
12.9914893517
 11
27.3220601735
 21
12.9164893517
  0
LINE
  5
4A5
100
AcDbEntity
  8
0
100
AcDbLine
 62
7
  6
CONTINUOUS
 10
27.3280362435
 20
12.9914893517
 11
27.3280362435
 21
12.9164893517
  0
LINE
  5
4A6
100
AcDbEntity
  8
0
100
AcDbLine
 62
6
  6
CONTINUOUS
 10
27.3416559585
 20
12.9914893517
 11
27.3416559585
 21
12.9164893517
  0
LINE
  5
4A7
100
AcDbEntity
  8
0
100
AcDbLine
 62
6
  6
CONTINUOUS
 10
27.3480560031
 20
12.9914893517
 11
27.3480560031
 21
12.9164893517
  0
LINE
  5
4A8
100
AcDbEntity
  8
0
100
AcDbLine
 62
6
  6
CONTINUOUS
 10
27.3626002917
 20
12.9914893517
 11
27.3626002917
 21
12.9164893517
  0
LINE
  5
4A9
100
AcDbEntity
  8
0
100
AcDbLine
 62
6
  6
CONTINUOUS
 10
27.3694165136
 20
12.9914893517
 11
27.3694165136
 21
12.9164893517
  0
LINE
  5
4AA
100
AcDbEntity
  8
0
100
AcDbLine
 62
7
  6
CONTINUOUS
 10
27.3848676558
 20
12.9914893517
 11
27.3848676558
 21
12.9164893517
  0
LINE
  5
4AB
100
AcDbEntity
  8
0
100
AcDbLine
 62
7
  6
CONTINUOUS
 10
27.3920917503
 20
12.9914893517
 11
27.3920917503
 21
12.9164893517
  0
LINE
  5
4AC
100
AcDbEntity
  8
0
100
AcDbLine
 62
6
  6
CONTINUOUS
 10
27.4084309214
 20
12.9914893517
 11
27.4084309214
 21
12.9164893517
  0
LINE
  5
4AD
100
AcDbEntity
  8
0
100
AcDbLine
 62
6
  6
CONTINUOUS
 10
27.4160540872
 20
12.9914893517
 11
27.4160540872
 21
12.9164893517
  0
LINE
  5
4AE
100
AcDbEntity
  8
0
100
AcDbLine
 62
6
  6
CONTINUOUS
 10
27.4332613803
 20
12.9914893517
 11
27.4332613803
 21
12.9164893517
  0
LINE
  5
4AF
100
AcDbEntity
  8
0
100
AcDbLine
 62
7
  6
CONTINUOUS
 10
27.4412743296
 20
12.9914893517
 11
27.4412743296
 21
12.9164893517
  0
LINE
  5
4B0
100
AcDbEntity
  8
0
100
AcDbLine
 62
6
  6
CONTINUOUS
 10
27.4593287803
 20
12.9914893517
 11
27.4593287803
 21
12.9164893517
  0
LINE
  5
4B1
100
AcDbEntity
  8
0
100
AcDbLine
 62
7
  6
CONTINUOUS
 10
27.4677217507
 20
12.9914893517
 11
27.4677217507
 21
12.9164893517
  0
LINE
  5
4B2
100
AcDbEntity
  8
0
100
AcDbLine
 62
6
  6
CONTINUOUS
 10
27.4866013624
 20
12.9914893517
 11
27.4866013624
 21
12.9164893517
  0
LINE
  5
4B3
100
AcDbEntity
  8
0
100
AcDbLine
 62
7
  6
CONTINUOUS
 10
27.4953641283
 20
12.9914893517
 11
27.4953641283
 21
12.9164893517
  0
LINE
  5
4B4
100
AcDbEntity
  8
0
100
AcDbLine
 62
7
  6
CONTINUOUS
 10
27.5150458992
 20
12.9914893517
 11
27.5150458992
 21
12.9164893517
  0
LINE
  5
4B5
100
AcDbEntity
  8
0
100
AcDbLine
 62
7
  6
CONTINUOUS
 10
27.5241677845
 20
12.9914893517
 11
27.5241677845
 21
12.9164893517
  0
LINE
  5
4B6
100
AcDbEntity
  8
0
100
AcDbLine
 62
7
  6
CONTINUOUS
 10
27.5446277353
 20
12.9914893517
 11
27.5446277353
 21
12.9164893517
  0
LINE
  5
4B7
100
AcDbEntity
  8
0
100
AcDbLine
 62
7
  6
CONTINUOUS
 10
27.5540976264
 20
12.9914893517
 11
27.5540976264
 21
12.9164893517
  0
LINE
  5
4B8
100
AcDbEntity
  8
0
100
AcDbLine
 62
7
  6
CONTINUOUS
 10
27.5753108299
 20
12.9914893517
 11
27.5753108299
 21
12.9164893517
  0
LINE
  5
4B9
100
AcDbEntity
  8
0
100
AcDbLine
 62
7
  6
CONTINUOUS
 10
27.5851171892
 20
12.9914893517
 11
27.5851171892
 21
12.9164893517
  0
LINE
  5
4BA
100
AcDbEntity
  8
0
100
AcDbLine
 62
7
  6
CONTINUOUS
 10
27.6070578002
 20
12.9914893517
 11
27.6070578002
 21
12.9164893517
  0
LINE
  5
4BB
100
AcDbEntity
  8
0
100
AcDbLine
 62
7
  6
CONTINUOUS
 10
27.6171886802
 20
12.9914893517
 11
27.6171886802
 21
12.9164893517
  0
LINE
  5
4BC
100
AcDbEntity
  8
0
100
AcDbLine
 62
7
  6
CONTINUOUS
 10
27.6398299676
 20
12.9914893517
 11
27.6398299676
 21
12.9164893517
  0
LINE
  5
4BD
100
AcDbEntity
  8
0
100
AcDbLine
 62
7
  6
CONTINUOUS
 10
27.6502730254
 20
12.9914893517
 11
27.6502730254
 21
12.9164893517
  0
LINE
  5
4BE
100
AcDbEntity
  8
0
100
AcDbLine
 62
7
  6
CONTINUOUS
 10
27.6735874042
 20
12.9914893517
 11
27.6735874042
 21
12.9164893517
  0
LINE
  5
4BF
100
AcDbEntity
  8
0
100
AcDbLine
 62
6
  6
CONTINUOUS
 10
27.6843299164
 20
12.9914893517
 11
27.6843299164
 21
12.9164893517
  0
LINE
  5
4C0
100
AcDbEntity
  8
0
100
AcDbLine
 62
6
  6
CONTINUOUS
 10
27.7053366744
 20
12.9164893517
 11
27.7053366744
 21
12.9914893517
  0
LINE
  5
4C1
100
AcDbEntity
  8
0
100
AcDbLine
 62
6
  6
CONTINUOUS
 10
27.7082889818
 20
12.9914893517
 11
27.7082889818
 21
12.9164893517
  0
LINE
  5
4C2
100
AcDbEntity
  8
0
100
AcDbLine
 62
6
  6
CONTINUOUS
 10
27.7085240627
 20
12.5414893517
 11
27.7085240627
 21
12.6164893517
  0
LINE
  5
4C3
100
AcDbEntity
  8
0
100
AcDbLine
 62
6
  6
CONTINUOUS
 10
27.7193178604
 20
12.9914893517
 11
27.7193178604
 21
12.9164893517
  0
LINE
  5
4C4
100
AcDbEntity
  8
0
100
AcDbLine
 62
7
  6
CONTINUOUS
 10
27.7402087876
 20
12.9164893517
 11
27.7402087876
 21
12.9914893517
  0
LINE
  5
4C5
100
AcDbEntity
  8
0
100
AcDbLine
 62
7
  6
CONTINUOUS
 10
27.7438924217
 20
12.9914893517
 11
27.7438924217
 21
12.9164893517
  0
LINE
  5
4C6
100
AcDbEntity
  8
0
100
AcDbLine
 62
6
  6
CONTINUOUS
 10
27.7551942297
 20
12.9914893517
 11
27.7551942297
 21
12.9164893517
  0
LINE
  5
4C7
100
AcDbEntity
  8
0
100
AcDbLine
 62
6
  6
CONTINUOUS
 10
27.7585240627
 20
12.7164893517
 11
27.7585240627
 21
12.6164893517
  0
LINE
  5
4C8
100
AcDbEntity
  8
0
100
AcDbLine
 62
6
  6
CONTINUOUS
 10
27.7759438738
 20
12.9164893517
 11
27.7759438738
 21
12.9914893517
  0
LINE
  5
4C9
100
AcDbEntity
  8
0
100
AcDbLine
 62
6
  6
CONTINUOUS
 10
27.7803543468
 20
12.9914893517
 11
27.7803543468
 21
12.9164893517
  0
LINE
  5
4CA
100
AcDbEntity
  8
0
100
AcDbLine
 62
7
  6
CONTINUOUS
 10
27.7919153147
 20
12.9914893517
 11
27.7919153147
 21
12.9164893517
  0
LINE
  5
4CB
100
AcDbEntity
  8
0
100
AcDbLine
 62
7
  6
CONTINUOUS
 10
27.8176303337
 20
12.9914893517
 11
27.8176303337
 21
12.9164893517
  0
LINE
  5
4CC
100
AcDbEntity
  8
0
100
AcDbLine
 62
7
  6
CONTINUOUS
 10
27.8294363763
 20
12.9914893517
 11
27.8294363763
 21
12.9164893517
  0
LINE
  5
4CD
100
AcDbEntity
  8
0
100
AcDbLine
 62
7
  6
CONTINUOUS
 10
27.8556749675
 20
12.9914893517
 11
27.8556749675
 21
12.9164893517
  0
LINE
  5
4CE
100
AcDbEntity
  8
0
100
AcDbLine
 62
6
  6
CONTINUOUS
 10
27.8677117008
 20
12.9914893517
 11
27.8677117008
 21
12.9164893517
  0
LINE
  5
4CF
100
AcDbEntity
  8
0
100
AcDbLine
 62
6
  6
CONTINUOUS
 10
27.8815240627
 20
12.4149893517
 11
27.8815240627
 21
12.3884893517
  0
LINE
  5
4D0
100
AcDbEntity
  8
0
100
AcDbLine
 62
6
  6
CONTINUOUS
 10
27.8878866562
 20
12.9164893517
 11
27.8878866562
 21
12.9914893517
  0
LINE
  5
4D1
100
AcDbEntity
  8
0
100
AcDbLine
 62
6
  6
CONTINUOUS
 10
27.8944418965
 20
12.9914893517
 11
27.8944418965
 21
12.9164893517
  0
LINE
  5
4D2
100
AcDbEntity
  8
0
100
AcDbLine
 62
6
  6
CONTINUOUS
 10
27.9066946558
 20
12.9914893517
 11
27.9066946558
 21
12.9164893517
  0
LINE
  5
4D3
100
AcDbEntity
  8
0
100
AcDbLine
 62
7
  6
CONTINUOUS
 10
27.9266285465
 20
12.9164893517
 11
27.9266285465
 21
12.9914893517
  0
LINE
  5
4D4
100
AcDbEntity
  8
0
100
AcDbLine
 62
7
  6
CONTINUOUS
 10
27.9338838894
 20
12.9914893517
 11
27.9338838894
 21
12.9164893517
  0
LINE
  5
4D5
100
AcDbEntity
  8
0
100
AcDbLine
 62
7
  6
CONTINUOUS
 10
27.9463377464
 20
12.9914893517
 11
27.9463377464
 21
12.9164893517
  0
LINE
  5
4D6
100
AcDbEntity
  8
0
100
AcDbLine
 62
6
  6
CONTINUOUS
 10
27.9485240627
 20
10.5014893517
 11
27.9485240627
 21
10.4514893517
  0
LINE
  5
4D7
100
AcDbEntity
  8
0
100
AcDbLine
 62
6
  6
CONTINUOUS
 10
27.9485240627
 20
9.8164893517
 11
27.9485240627
 21
9.7664893517
  0
LINE
  5
4D8
100
AcDbEntity
  8
0
100
AcDbLine
 62
7
  6
CONTINUOUS
 10
27.973952892
 20
12.9914893517
 11
27.973952892
 21
12.9164893517
  0
LINE
  5
4D9
100
AcDbEntity
  8
0
100
AcDbLine
 62
6
  6
CONTINUOUS
 10
27.9865926737
 20
12.9914893517
 11
27.9865926737
 21
12.9164893517
  0
LINE
  5
4DA
100
AcDbEntity
  8
0
100
AcDbLine
 62
6
  6
CONTINUOUS
 10
28.0059718993
 20
12.9164893517
 11
28.0059718993
 21
12.9914893517
  0
LINE
  5
4DB
100
AcDbEntity
  8
0
100
AcDbLine
 62
6
  6
CONTINUOUS
 10
28.0085240627
 20
12.2614893517
 11
28.0085240627
 21
12.2354893517
  0
LINE
  5
4DC
100
AcDbEntity
  8
0
100
AcDbLine
 62
6
  6
CONTINUOUS
 10
28.0146000865
 20
12.9914893517
 11
28.0146000865
 21
12.9164893517
  0
LINE
  5
4DD
100
AcDbEntity
  8
0
100
AcDbLine
 62
6
  6
CONTINUOUS
 10
28.0274103932
 20
12.9914893517
 11
28.0274103932
 21
12.9164893517
  0
LINE
  5
4DE
100
AcDbEntity
  8
0
100
AcDbLine
 62
6
  6
CONTINUOUS
 10
28.0464766942
 20
12.9164893517
 11
28.0464766942
 21
12.9914893517
  0
LINE
  5
4DF
100
AcDbEntity
  8
0
100
AcDbLine
 62
6
  6
CONTINUOUS
 10
28.0557759505
 20
12.9914893517
 11
28.0557759505
 21
12.9164893517
  0
LINE
  5
4E0
100
AcDbEntity
  8
0
100
AcDbLine
 62
6
  6
CONTINUOUS
 10
28.0687411749
 20
12.9914893517
 11
28.0687411749
 21
12.9164893517
  0
LINE
  5
4E1
100
AcDbEntity
  8
0
100
AcDbLine
 62
6
  6
CONTINUOUS
 10
28.0860240627
 20
9.6914893517
 11
28.0860240627
 21
9.6414893517
  0
LINE
  5
4E2
100
AcDbEntity
  8
0
100
AcDbLine
 62
6
  6
CONTINUOUS
 10
28.0874713218
 20
12.9164893517
 11
28.0874713218
 21
12.9914893517
  0
LINE
  5
4E3
100
AcDbEntity
  8
0
100
AcDbLine
 62
6
  6
CONTINUOUS
 10
28.0974303176
 20
12.9914893517
 11
28.0974303176
 21
12.9164893517
  0
LINE
  5
4E4
100
AcDbEntity
  8
0
100
AcDbLine
 62
6
  6
CONTINUOUS
 10
28.0985240627
 20
12.2354893517
 11
28.0985240627
 21
11.7144893517
  0
LINE
  5
4E5
100
AcDbEntity
  8
0
100
AcDbLine
 62
6
  6
CONTINUOUS
 10
28.0985240627
 20
11.5184893517
 11
28.0985240627
 21
10.5014893517
  0
LINE
  5
4E6
100
AcDbEntity
  8
0
100
AcDbLine
 62
7
  6
CONTINUOUS
 10
28.1105346635
 20
12.9914893517
 11
28.1105346635
 21
12.9164893517
  0
LINE
  5
4E7
100
AcDbEntity
  8
0
100
AcDbLine
 62
7
  6
CONTINUOUS
 10
28.1289058366
 20
12.9164893517
 11
28.1289058366
 21
12.9914893517
  0
LINE
  5
4E8
100
AcDbEntity
  8
0
100
AcDbLine
 62
6
  6
CONTINUOUS
 10
28.1395124383
 20
12.9914893517
 11
28.1395124383
 21
12.9164893517
  0
LINE
  5
4E9
100
AcDbEntity
  8
0
100
AcDbLine
 62
7
  6
CONTINUOUS
 10
28.1527399402
 20
12.9914893517
 11
28.1527399402
 21
12.9164893517
  0
LINE
  5
4EA
100
AcDbEntity
  8
0
100
AcDbLine
 62
7
  6
CONTINUOUS
 10
28.1819710421
 20
12.9914893517
 11
28.1819710421
 21
12.9164893517
  0
LINE
  5
4EB
100
AcDbEntity
  8
0
100
AcDbLine
 62
6
  6
CONTINUOUS
 10
28.1953055842
 20
12.9914893517
 11
28.1953055842
 21
12.9164893517
  0
LINE
  5
4EC
100
AcDbEntity
  8
0
100
AcDbLine
 62
6
  6
CONTINUOUS
 10
28.2128921269
 20
12.9164893517
 11
28.2128921269
 21
12.9914893517
  0
LINE
  5
4ED
100
AcDbEntity
  8
0
100
AcDbLine
 62
6
  6
CONTINUOUS
 10
28.2247543997
 20
12.9914893517
 11
28.2247543997
 21
12.9164893517
  0
LINE
  5
4EE
100
AcDbEntity
  8
0
100
AcDbLine
 62
6
  6
CONTINUOUS
 10
28.2381797359
 20
12.9914893517
 11
28.2381797359
 21
12.9164893517
  0
LINE
  5
4EF
100
AcDbEntity
  8
0
100
AcDbLine
 62
7
  6
CONTINUOUS
 10
28.255341578
 20
12.9164893517
 11
28.255341578
 21
12.9914893517
  0
LINE
  5
4F0
100
AcDbEntity
  8
0
100
AcDbLine
 62
7
  6
CONTINUOUS
 10
28.2678103862
 20
12.9914893517
 11
28.2678103862
 21
12.9164893517
  0
LINE
  5
4F1
100
AcDbEntity
  8
0
100
AcDbLine
 62
6
  6
CONTINUOUS
 10
28.2813101598
 20
12.9914893517
 11
28.2813101598
 21
12.9164893517
  0
LINE
  5
4F2
100
AcDbEntity
  8
0
100
AcDbLine
 62
6
  6
CONTINUOUS
 10
28.2980263923
 20
12.9164893517
 11
28.2980263923
 21
12.9914893517
  0
LINE
  5
4F3
100
AcDbEntity
  8
0
100
AcDbLine
 62
6
  6
CONTINUOUS
 10
28.3110865444
 20
12.9914893517
 11
28.3110865444
 21
12.9164893517
  0
LINE
  5
4F4
100
AcDbEntity
  8
0
100
AcDbLine
 62
6
  6
CONTINUOUS
 10
28.3246443081
 20
12.9914893517
 11
28.3246443081
 21
12.9164893517
  0
LINE
  5
4F5
100
AcDbEntity
  8
0
100
AcDbLine
 62
6
  6
CONTINUOUS
 10
28.3408945647
 20
12.9164893517
 11
28.3408945647
 21
12.9914893517
  0
LINE
  5
4F6
100
AcDbEntity
  8
0
100
AcDbLine
 62
6
  6
CONTINUOUS
 10
28.3545301491
 20
12.9914893517
 11
28.3545301491
 21
12.9164893517
  0
LINE
  5
4F7
100
AcDbEntity
  8
0
100
AcDbLine
 62
6
  6
CONTINUOUS
 10
28.3681293848
 20
12.9914893517
 11
28.3681293848
 21
12.9164893517
  0
LINE
  5
4F8
100
AcDbEntity
  8
0
100
AcDbLine
 62
6
  6
CONTINUOUS
 10
28.3838938672
 20
12.9164893517
 11
28.3838938672
 21
12.9914893517
  0
LINE
  5
4F9
100
AcDbEntity
  8
0
100
AcDbLine
 62
6
  6
CONTINUOUS
 10
28.3980882709
 20
12.9914893517
 11
28.3980882709
 21
12.9164893517
  0
LINE
  5
4FA
100
AcDbEntity
  8
0
100
AcDbLine
 62
7
  6
CONTINUOUS
 10
28.41171241
 20
12.9914893517
 11
28.41171241
 21
12.9164893517
  0
LINE
  5
4FB
100
AcDbEntity
  8
0
100
AcDbLine
 62
7
  6
CONTINUOUS
 10
28.4269719116
 20
12.9164893517
 11
28.4269719116
 21
12.9914893517
  0
LINE
  5
4FC
100
AcDbEntity
  8
0
100
AcDbLine
 62
6
  6
CONTINUOUS
 10
28.4417078409
 20
12.9914893517
 11
28.4417078409
 21
12.9164893517
  0
LINE
  5
4FD
100
AcDbEntity
  8
0
100
AcDbLine
 62
7
  6
CONTINUOUS
 10
28.4553402846
 20
12.9914893517
 11
28.4553402846
 21
12.9164893517
  0
LINE
  5
4FE
100
AcDbEntity
  8
0
100
AcDbLine
 62
7
  6
CONTINUOUS
 10
28.4700762139
 20
12.9164893517
 11
28.4700762139
 21
12.9914893517
  0
LINE
  5
4FF
100
AcDbEntity
  8
0
100
AcDbLine
 62
6
  6
CONTINUOUS
 10
28.4853357154
 20
12.9914893517
 11
28.4853357154
 21
12.9164893517
  0
LINE
  5
500
100
AcDbEntity
  8
0
100
AcDbLine
 62
6
  6
CONTINUOUS
 10
28.4989598546
 20
12.9914893517
 11
28.4989598546
 21
12.9164893517
  0
LINE
  5
501
100
AcDbEntity
  8
0
100
AcDbLine
 62
7
  6
CONTINUOUS
 10
28.5131542583
 20
12.9164893517
 11
28.5131542583
 21
12.9914893517
  0
LINE
  5
502
100
AcDbEntity
  8
0
100
AcDbLine
 62
7
  6
CONTINUOUS
 10
28.5289187407
 20
12.9914893517
 11
28.5289187407
 21
12.9164893517
  0
LINE
  5
503
100
AcDbEntity
  8
0
100
AcDbLine
 62
6
  6
CONTINUOUS
 10
28.5425179764
 20
12.9914893517
 11
28.5425179764
 21
12.9164893517
  0
LINE
  5
504
100
AcDbEntity
  8
0
100
AcDbLine
 62
6
  6
CONTINUOUS
 10
28.5561535607
 20
12.9164893517
 11
28.5561535607
 21
12.9914893517
  0
LINE
  5
505
100
AcDbEntity
  8
0
100
AcDbLine
 62
6
  6
CONTINUOUS
 10
28.5724038173
 20
12.9914893517
 11
28.5724038173
 21
12.9164893517
  0
LINE
  5
506
100
AcDbEntity
  8
0
100
AcDbLine
 62
6
  6
CONTINUOUS
 10
28.5859615811
 20
12.9914893517
 11
28.5859615811
 21
12.9164893517
  0
LINE
  5
507
100
AcDbEntity
  8
0
100
AcDbLine
 62
6
  6
CONTINUOUS
 10
28.5990217332
 20
12.9164893517
 11
28.5990217332
 21
12.9914893517
  0
LINE
  5
508
100
AcDbEntity
  8
0
100
AcDbLine
 62
6
  6
CONTINUOUS
 10
28.6157379656
 20
12.9914893517
 11
28.6157379656
 21
12.9164893517
  0
LINE
  5
509
100
AcDbEntity
  8
0
100
AcDbLine
 62
6
  6
CONTINUOUS
 10
28.6292377393
 20
12.9914893517
 11
28.6292377393
 21
12.9164893517
  0
LINE
  5
50A
100
AcDbEntity
  8
0
100
AcDbLine
 62
6
  6
CONTINUOUS
 10
28.6417065475
 20
12.9164893517
 11
28.6417065475
 21
12.9914893517
  0
LINE
  5
50B
100
AcDbEntity
  8
0
100
AcDbLine
 62
6
  6
CONTINUOUS
 10
28.6588683895
 20
12.9914893517
 11
28.6588683895
 21
12.9164893517
  0
LINE
  5
50C
100
AcDbEntity
  8
0
100
AcDbLine
 62
7
  6
CONTINUOUS
 10
28.6722937258
 20
12.9914893517
 11
28.6722937258
 21
12.9164893517
  0
LINE
  5
50D
100
AcDbEntity
  8
0
100
AcDbLine
 62
7
  6
CONTINUOUS
 10
28.6841559986
 20
12.9164893517
 11
28.6841559986
 21
12.9914893517
  0
LINE
  5
50E
100
AcDbEntity
  8
0
100
AcDbLine
 62
6
  6
CONTINUOUS
 10
28.7017425413
 20
12.9914893517
 11
28.7017425413
 21
12.9164893517
  0
LINE
  5
50F
100
AcDbEntity
  8
0
100
AcDbLine
 62
7
  6
CONTINUOUS
 10
28.7150770834
 20
12.9914893517
 11
28.7150770834
 21
12.9164893517
  0
LINE
  5
510
100
AcDbEntity
  8
0
100
AcDbLine
 62
7
  6
CONTINUOUS
 10
28.7443081853
 20
12.9914893517
 11
28.7443081853
 21
12.9164893517
  0
LINE
  5
511
100
AcDbEntity
  8
0
100
AcDbLine
 62
7
  6
CONTINUOUS
 10
28.7575356872
 20
12.9914893517
 11
28.7575356872
 21
12.9164893517
  0
LINE
  5
512
100
AcDbEntity
  8
0
100
AcDbLine
 62
7
  6
CONTINUOUS
 10
28.7681422889
 20
12.9164893517
 11
28.7681422889
 21
12.9914893517
  0
LINE
  5
513
100
AcDbEntity
  8
0
100
AcDbLine
 62
6
  6
CONTINUOUS
 10
28.786513462
 20
12.9914893517
 11
28.786513462
 21
12.9164893517
  0
LINE
  5
514
100
AcDbEntity
  8
0
100
AcDbLine
 62
6
  6
CONTINUOUS
 10
28.7985240627
 20
12.2354893517
 11
28.7985240627
 21
10.5014893517
  0
LINE
  5
515
100
AcDbEntity
  8
0
100
AcDbLine
 62
7
  6
CONTINUOUS
 10
28.7996178079
 20
12.9914893517
 11
28.7996178079
 21
12.9164893517
  0
LINE
  5
516
100
AcDbEntity
  8
0
100
AcDbLine
 62
7
  6
CONTINUOUS
 10
28.8095768037
 20
12.9164893517
 11
28.8095768037
 21
12.9914893517
  0
LINE
  5
517
100
AcDbEntity
  8
0
100
AcDbLine
 62
6
  6
CONTINUOUS
 10
28.8110240627
 20
9.6914893517
 11
28.8110240627
 21
9.6414893517
  0
LINE
  5
518
100
AcDbEntity
  8
0
100
AcDbLine
 62
6
  6
CONTINUOUS
 10
28.8283069506
 20
12.9914893517
 11
28.8283069506
 21
12.9164893517
  0
LINE
  5
519
100
AcDbEntity
  8
0
100
AcDbLine
 62
7
  6
CONTINUOUS
 10
28.841272175
 20
12.9914893517
 11
28.841272175
 21
12.9164893517
  0
LINE
  5
51A
100
AcDbEntity
  8
0
100
AcDbLine
 62
7
  6
CONTINUOUS
 10
28.8505714313
 20
12.9164893517
 11
28.8505714313
 21
12.9914893517
  0
LINE
  5
51B
100
AcDbEntity
  8
0
100
AcDbLine
 62
6
  6
CONTINUOUS
 10
28.8696377323
 20
12.9914893517
 11
28.8696377323
 21
12.9164893517
  0
LINE
  5
51C
100
AcDbEntity
  8
0
100
AcDbLine
 62
6
  6
CONTINUOUS
 10
28.882448039
 20
12.9914893517
 11
28.882448039
 21
12.9164893517
  0
LINE
  5
51D
100
AcDbEntity
  8
0
100
AcDbLine
 62
6
  6
CONTINUOUS
 10
28.8885240627
 20
12.2614893517
 11
28.8885240627
 21
12.2354893517
  0
LINE
  5
51E
100
AcDbEntity
  8
0
100
AcDbLine
 62
6
  6
CONTINUOUS
 10
28.8910762261
 20
12.9164893517
 11
28.8910762261
 21
12.9914893517
  0
LINE
  5
51F
100
AcDbEntity
  8
0
100
AcDbLine
 62
6
  6
CONTINUOUS
 10
28.9104554518
 20
12.9914893517
 11
28.9104554518
 21
12.9164893517
  0
LINE
  5
520
100
AcDbEntity
  8
0
100
AcDbLine
 62
7
  6
CONTINUOUS
 10
28.9230952335
 20
12.9914893517
 11
28.9230952335
 21
12.9164893517
  0
LINE
  5
521
100
AcDbEntity
  8
0
100
AcDbLine
 62
6
  6
CONTINUOUS
 10
28.9485240627
 20
10.5014893517
 11
28.9485240627
 21
9.7664893517
  0
LINE
  5
522
100
AcDbEntity
  8
0
100
AcDbLine
 62
7
  6
CONTINUOUS
 10
28.9507103791
 20
12.9914893517
 11
28.9507103791
 21
12.9164893517
  0
LINE
  5
523
100
AcDbEntity
  8
0
100
AcDbLine
 62
7
  6
CONTINUOUS
 10
28.9631642361
 20
12.9914893517
 11
28.9631642361
 21
12.9164893517
  0
LINE
  5
524
100
AcDbEntity
  8
0
100
AcDbLine
 62
7
  6
CONTINUOUS
 10
28.970419579
 20
12.9164893517
 11
28.970419579
 21
12.9914893517
  0
LINE
  5
525
100
AcDbEntity
  8
0
100
AcDbLine
 62
6
  6
CONTINUOUS
 10
28.9903534697
 20
12.9914893517
 11
28.9903534697
 21
12.9164893517
  0
LINE
  5
526
100
AcDbEntity
  8
0
100
AcDbLine
 62
6
  6
CONTINUOUS
 10
29.0026062289
 20
12.9914893517
 11
29.0026062289
 21
12.9164893517
  0
LINE
  5
527
100
AcDbEntity
  8
0
100
AcDbLine
 62
6
  6
CONTINUOUS
 10
29.0091614693
 20
12.9164893517
 11
29.0091614693
 21
12.9914893517
  0
LINE
  5
528
100
AcDbEntity
  8
0
100
AcDbLine
 62
6
  6
CONTINUOUS
 10
29.0155240627
 20
12.4149893517
 11
29.0155240627
 21
12.3884893517
  0
LINE
  5
529
100
AcDbEntity
  8
0
100
AcDbLine
 62
6
  6
CONTINUOUS
 10
29.0293364247
 20
12.9914893517
 11
29.0293364247
 21
12.9164893517
  0
LINE
  5
52A
100
AcDbEntity
  8
0
100
AcDbLine
 62
7
  6
CONTINUOUS
 10
29.041373158
 20
12.9914893517
 11
29.041373158
 21
12.9164893517
  0
LINE
  5
52B
100
AcDbEntity
  8
0
100
AcDbLine
 62
7
  6
CONTINUOUS
 10
29.0676117492
 20
12.9914893517
 11
29.0676117492
 21
12.9164893517
  0
LINE
  5
52C
100
AcDbEntity
  8
0
100
AcDbLine
 62
7
  6
CONTINUOUS
 10
29.0794177918
 20
12.9914893517
 11
29.0794177918
 21
12.9164893517
  0
LINE
  5
52D
100
AcDbEntity
  8
0
100
AcDbLine
 62
7
  6
CONTINUOUS
 10
29.0845497302
 20
12.9164893517
 11
29.0845497302
 21
12.9914893517
  0
LINE
  5
52E
100
AcDbEntity
  8
0
100
AcDbLine
 62
6
  6
CONTINUOUS
 10
29.1051328108
 20
12.9914893517
 11
29.1051328108
 21
12.9164893517
  0
LINE
  5
52F
100
AcDbEntity
  8
0
100
AcDbLine
 62
7
  6
CONTINUOUS
 10
29.1166937787
 20
12.9914893517
 11
29.1166937787
 21
12.9164893517
  0
LINE
  5
530
100
AcDbEntity
  8
0
100
AcDbLine
 62
7
  6
CONTINUOUS
 10
29.1211042517
 20
12.9164893517
 11
29.1211042517
 21
12.9914893517
  0
LINE
  5
531
100
AcDbEntity
  8
0
100
AcDbLine
 62
6
  6
CONTINUOUS
 10
29.1385240627
 20
12.7164893517
 11
29.1385240627
 21
12.6164893517
  0
LINE
  5
532
100
AcDbEntity
  8
0
100
AcDbLine
 62
6
  6
CONTINUOUS
 10
29.1418538957
 20
12.9914893517
 11
29.1418538957
 21
12.9164893517
  0
LINE
  5
533
100
AcDbEntity
  8
0
100
AcDbLine
 62
7
  6
CONTINUOUS
 10
29.1531557038
 20
12.9914893517
 11
29.1531557038
 21
12.9164893517
  0
LINE
  5
534
100
AcDbEntity
  8
0
100
AcDbLine
 62
7
  6
CONTINUOUS
 10
29.1777302651
 20
12.9914893517
 11
29.1777302651
 21
12.9164893517
  0
LINE
  5
535
100
AcDbEntity
  8
0
100
AcDbLine
 62
6
  6
CONTINUOUS
 10
29.1885240627
 20
12.5414893517
 11
29.1885240627
 21
12.6164893517
  0
LINE
  5
536
100
AcDbEntity
  8
0
100
AcDbLine
 62
6
  6
CONTINUOUS
 10
29.1887591437
 20
12.9914893517
 11
29.1887591437
 21
12.9164893517
  0
LINE
  5
537
100
AcDbEntity
  8
0
100
AcDbLine
 62
6
  6
CONTINUOUS
 10
29.191711451
 20
12.9164893517
 11
29.191711451
 21
12.9914893517
  0
LINE
  5
538
100
AcDbEntity
  8
0
100
AcDbLine
 62
6
  6
CONTINUOUS
 10
29.212718209
 20
12.9914893517
 11
29.212718209
 21
12.9164893517
  0
LINE
  5
539
100
AcDbEntity
  8
0
100
AcDbLine
 62
7
  6
CONTINUOUS
 10
29.2234607213
 20
12.9914893517
 11
29.2234607213
 21
12.9164893517
  0
LINE
  5
53A
100
AcDbEntity
  8
0
100
AcDbLine
 62
7
  6
CONTINUOUS
 10
29.2467751001
 20
12.9914893517
 11
29.2467751001
 21
12.9164893517
  0
LINE
  5
53B
100
AcDbEntity
  8
0
100
AcDbLine
 62
6
  6
CONTINUOUS
 10
29.2572181578
 20
12.9914893517
 11
29.2572181578
 21
12.9164893517
  0
LINE
  5
53C
100
AcDbEntity
  8
0
100
AcDbLine
 62
6
  6
CONTINUOUS
 10
29.2586979161
 20
12.9164893517
 11
29.2586979161
 21
12.9914893517
  0
LINE
  5
53D
100
AcDbEntity
  8
0
100
AcDbLine
 62
6
  6
CONTINUOUS
 10
29.2798594452
 20
12.9914893517
 11
29.2798594452
 21
12.9164893517
  0
LINE
  5
53E
100
AcDbEntity
  8
0
100
AcDbLine
 62
7
  6
CONTINUOUS
 10
29.2899903252
 20
12.9914893517
 11
29.2899903252
 21
12.9164893517
  0
LINE
  5
53F
100
AcDbEntity
  8
0
100
AcDbLine
 62
7
  6
CONTINUOUS
 10
29.3119309363
 20
12.9914893517
 11
29.3119309363
 21
12.9164893517
  0
LINE
  5
540
100
AcDbEntity
  8
0
100
AcDbLine
 62
6
  6
CONTINUOUS
 10
29.3217372956
 20
12.9914893517
 11
29.3217372956
 21
12.9164893517
  0
LINE
  5
541
100
AcDbEntity
  8
0
100
AcDbLine
 62
6
  6
CONTINUOUS
 10
29.342950499
 20
12.9914893517
 11
29.342950499
 21
12.9164893517
  0
LINE
  5
542
100
AcDbEntity
  8
0
100
AcDbLine
 62
7
  6
CONTINUOUS
 10
29.3524203902
 20
12.9914893517
 11
29.3524203902
 21
12.9164893517
  0
LINE
  5
543
100
AcDbEntity
  8
0
100
AcDbLine
 62
7
  6
CONTINUOUS
 10
29.372880341
 20
12.9914893517
 11
29.372880341
 21
12.9164893517
  0
LINE
  5
544
100
AcDbEntity
  8
0
100
AcDbLine
 62
6
  6
CONTINUOUS
 10
29.3820022263
 20
12.9914893517
 11
29.3820022263
 21
12.9164893517
  0
LINE
  5
545
100
AcDbEntity
  8
0
100
AcDbLine
 62
6
  6
CONTINUOUS
 10
29.4016839971
 20
12.9914893517
 11
29.4016839971
 21
12.9164893517
  0
LINE
  5
546
100
AcDbEntity
  8
0
100
AcDbLine
 62
7
  6
CONTINUOUS
 10
29.410446763
 20
12.9914893517
 11
29.410446763
 21
12.9164893517
  0
LINE
  5
547
100
AcDbEntity
  8
0
100
AcDbLine
 62
7
  6
CONTINUOUS
 10
29.4293263748
 20
12.9914893517
 11
29.4293263748
 21
12.9164893517
  0
LINE
  5
548
100
AcDbEntity
  8
0
100
AcDbLine
 62
6
  6
CONTINUOUS
 10
29.4377193452
 20
12.9914893517
 11
29.4377193452
 21
12.9164893517
  0
LINE
  5
549
100
AcDbEntity
  8
0
100
AcDbLine
 62
6
  6
CONTINUOUS
 10
29.4557737959
 20
12.9914893517
 11
29.4557737959
 21
12.9164893517
  0
LINE
  5
54A
100
AcDbEntity
  8
0
100
AcDbLine
 62
7
  6
CONTINUOUS
 10
29.4637867452
 20
12.9914893517
 11
29.4637867452
 21
12.9164893517
  0
LINE
  5
54B
100
AcDbEntity
  8
0
100
AcDbLine
 62
7
  6
CONTINUOUS
 10
29.4809940383
 20
12.9914893517
 11
29.4809940383
 21
12.9164893517
  0
LINE
  5
54C
100
AcDbEntity
  8
0
100
AcDbLine
 62
6
  6
CONTINUOUS
 10
29.4886172041
 20
12.9914893517
 11
29.4886172041
 21
12.9164893517
  0
LINE
  5
54D
100
AcDbEntity
  8
0
100
AcDbLine
 62
6
  6
CONTINUOUS
 10
29.5049563751
 20
12.9914893517
 11
29.5049563751
 21
12.9164893517
  0
LINE
  5
54E
100
AcDbEntity
  8
0
100
AcDbLine
 62
6
  6
CONTINUOUS
 10
29.5121804697
 20
12.9914893517
 11
29.5121804697
 21
12.9164893517
  0
LINE
  5
54F
100
AcDbEntity
  8
0
100
AcDbLine
 62
6
  6
CONTINUOUS
 10
29.5276316119
 20
12.9914893517
 11
29.5276316119
 21
12.9164893517
  0
LINE
  5
550
100
AcDbEntity
  8
0
100
AcDbLine
 62
7
  6
CONTINUOUS
 10
29.5344478338
 20
12.9914893517
 11
29.5344478338
 21
12.9164893517
  0
LINE
  5
551
100
AcDbEntity
  8
0
100
AcDbLine
 62
6
  6
CONTINUOUS
 10
29.5489921224
 20
12.9914893517
 11
29.5489921224
 21
12.9164893517
  0
LINE
  5
552
100
AcDbEntity
  8
0
100
AcDbLine
 62
6
  6
CONTINUOUS
 10
29.555392167
 20
12.9914893517
 11
29.555392167
 21
12.9164893517
  0
LINE
  5
553
100
AcDbEntity
  8
0
100
AcDbLine
 62
7
  6
CONTINUOUS
 10
29.5677326091
 20
12.9164893517
 11
29.5677326091
 21
12.9914893517
  0
LINE
  5
554
100
AcDbEntity
  8
0
100
AcDbLine
 62
7
  6
CONTINUOUS
 10
29.569011882
 20
12.9914893517
 11
29.569011882
 21
12.9164893517
  0
LINE
  5
555
100
AcDbEntity
  8
0
100
AcDbLine
 62
6
  6
CONTINUOUS
 10
29.574987952
 20
12.9914893517
 11
29.574987952
 21
12.9164893517
  0
LINE
  5
556
100
AcDbEntity
  8
0
100
AcDbLine
 62
7
  6
CONTINUOUS
 10
29.5876664998
 20
12.9914893517
 11
29.5876664998
 21
12.9164893517
  0
LINE
  5
557
100
AcDbEntity
  8
0
100
AcDbLine
 62
7
  6
CONTINUOUS
 10
29.5932113142
 20
12.9914893517
 11
29.5932113142
 21
12.9164893517
  0
LINE
  5
558
100
AcDbEntity
  8
0
100
AcDbLine
 62
6
  6
CONTINUOUS
 10
29.6014118642
 20
12.9164893517
 11
29.6014118642
 21
12.9914893517
  0
LINE
  5
559
100
AcDbEntity
  8
0
100
AcDbLine
 62
7
  6
CONTINUOUS
 10
29.6049332481
 20
12.9914893517
 11
29.6049332481
 21
12.9164893517
  0
LINE
  5
55A
100
AcDbEntity
  8
0
100
AcDbLine
 62
6
  6
CONTINUOUS
 10
29.6100400514
 20
12.9914893517
 11
29.6100400514
 21
12.9164893517
  0
LINE
  5
55B
100
AcDbEntity
  8
0
100
AcDbLine
 62
6
  6
CONTINUOUS
 10
29.6207910898
 20
12.9914893517
 11
29.6207910898
 21
12.9164893517
  0
LINE
  5
55C
100
AcDbEntity
  8
0
100
AcDbLine
 62
6
  6
CONTINUOUS
 10
29.6254536602
 20
12.9914893517
 11
29.6254536602
 21
12.9164893517
  0
LINE
  5
55D
100
AcDbEntity
  8
0
100
AcDbLine
 62
6
  6
CONTINUOUS
 10
29.6352207048
 20
12.9914893517
 11
29.6352207048
 21
12.9164893517
  0
LINE
  5
55E
100
AcDbEntity
  8
0
100
AcDbLine
 62
6
  6
CONTINUOUS
 10
29.6394333616
 20
12.9914893517
 11
29.6394333616
 21
12.9164893517
  0
LINE
  5
55F
100
AcDbEntity
  8
0
100
AcDbLine
 62
6
  6
CONTINUOUS
 10
29.6482045127
 20
12.9914893517
 11
29.6482045127
 21
12.9164893517
  0
LINE
  5
560
100
AcDbEntity
  8
0
100
AcDbLine
 62
6
  6
CONTINUOUS
 10
29.6485240627
 20
13.1914893517
 11
29.6485240627
 21
12.9914893517
  0
LINE
  5
561
100
AcDbEntity
  8
0
100
AcDbLine
 62
6
  6
CONTINUOUS
 10
29.6519621235
 20
12.9914893517
 11
29.6519621235
 21
12.9164893517
  0
LINE
  5
562
100
AcDbEntity
  8
0
100
AcDbLine
 62
7
  6
CONTINUOUS
 10
29.6597266948
 20
12.9914893517
 11
29.6597266948
 21
12.9164893517
  0
LINE
  5
563
100
AcDbEntity
  8
0
100
AcDbLine
 62
7
  6
CONTINUOUS
 10
29.6630246814
 20
12.9914893517
 11
29.6630246814
 21
12.9164893517
  0
LINE
  5
564
100
AcDbEntity
  8
0
100
AcDbLine
 62
6
  6
CONTINUOUS
 10
29.6697732131
 20
12.9914893517
 11
29.6697732131
 21
12.9164893517
  0
LINE
  5
565
100
AcDbEntity
  8
0
100
AcDbLine
 62
6
  6
CONTINUOUS
 10
29.6726075575
 20
12.9914893517
 11
29.6726075575
 21
12.9164893517
  0
LINE
  5
566
100
AcDbEntity
  8
0
100
AcDbLine
 62
7
  6
CONTINUOUS
 10
29.6783318274
 20
12.9914893517
 11
29.6783318274
 21
12.9164893517
  0
LINE
  5
567
100
AcDbEntity
  8
0
100
AcDbLine
 62
6
  6
CONTINUOUS
 10
29.6806990764
 20
12.9914893517
 11
29.6806990764
 21
12.9164893517
  0
LINE
  5
568
100
AcDbEntity
  8
0
100
AcDbLine
 62
7
  6
CONTINUOUS
 10
29.6853921103
 20
12.9914893517
 11
29.6853921103
 21
12.9164893517
  0
LINE
  5
569
100
AcDbEntity
  8
0
100
AcDbLine
 62
6
  6
CONTINUOUS
 10
29.6872893798
 20
12.9914893517
 11
29.6872893798
 21
12.9164893517
  0
LINE
  5
56A
100
AcDbEntity
  8
0
100
AcDbLine
 62
6
  6
CONTINUOUS
 10
29.6909454601
 20
12.9914893517
 11
29.6909454601
 21
12.9164893517
  0
LINE
  5
56B
100
AcDbEntity
  8
0
100
AcDbLine
 62
6
  6
CONTINUOUS
 10
29.6923704385
 20
12.9914893517
 11
29.6923704385
 21
12.9164893517
  0
LINE
  5
56C
100
AcDbEntity
  8
0
100
AcDbLine
 62
6
  6
CONTINUOUS
 10
29.6949851107
 20
12.9914893517
 11
29.6949851107
 21
12.9164893517
  0
LINE
  5
56D
100
AcDbEntity
  8
0
100
AcDbLine
 62
6
  6
CONTINUOUS
 10
29.6959360619
 20
12.9914893517
 11
29.6959360619
 21
12.9164893517
  0
LINE
  5
56E
100
AcDbEntity
  8
0
100
AcDbLine
 62
6
  6
CONTINUOUS
 10
29.6975061406
 20
12.9914893517
 11
29.6975061406
 21
12.9164893517
  0
LINE
  5
56F
100
AcDbEntity
  8
0
100
AcDbLine
 62
7
  6
CONTINUOUS
 10
29.6979819061
 20
12.9914893517
 11
29.6979819061
 21
12.9164893517
  0
LINE
  5
570
100
AcDbEntity
  8
0
100
AcDbLine
 62
6
  6
CONTINUOUS
 10
29.6985054782
 20
12.9914893517
 11
29.6985054782
 21
12.9164893517
  0
LINE
  5
571
100
AcDbEntity
  8
0
100
AcDbLine
 62
6
  6
CONTINUOUS
 10
29.6985240627
 20
13.3914893517
 11
29.6985240627
 21
13.2414893517
  0
ARC
  5
572
100
AcDbEntity
  8
0
100
AcDbCircle
 62
6
  6
CONTINUOUS
 10
4.6830240627
 20
9.6914893517
 40
0.075
100
AcDbArc
 50
90.0000000001
 51
180.0
  0
ARC
  5
573
100
AcDbEntity
  8
0
100
AcDbCircle
 62
6
  6
CONTINUOUS
 10
3.7080240627
 20
9.6914893517
 40
0.075
100
AcDbArc
 50
0.0
 51
90.0
  0
ARC
  5
574
100
AcDbEntity
  8
0
100
AcDbCircle
 62
6
  6
CONTINUOUS
 10
3.5020240627
 20
12.4149893517
 40
0.1265
100
AcDbArc
 50
0.0
 51
90.0
  0
ARC
  5
575
100
AcDbEntity
  8
0
100
AcDbCircle
 62
6
  6
CONTINUOUS
 10
3.6285240627
 20
12.2614893517
 40
0.127
100
AcDbArc
 50
0.0
 51
90.0
  0
ARC
  5
576
100
AcDbEntity
  8
0
100
AcDbCircle
 62
6
  6
CONTINUOUS
 10
3.0205240627
 20
12.8164893517
 40
0.1
100
AcDbArc
 50
0.0
 51
88.4406982273
  0
ARC
  5
577
100
AcDbEntity
  8
0
100
AcDbCircle
 62
6
  6
CONTINUOUS
 10
3.1705240627
 20
12.7164893517
 40
0.1
100
AcDbArc
 50
0.0
 51
90.0
  0
ARC
  5
578
100
AcDbEntity
  8
0
100
AcDbCircle
 62
6
  6
CONTINUOUS
 10
4.7625240627
 20
12.2614893517
 40
0.127
100
AcDbArc
 50
90.0
 51
180.0
  0
ARC
  5
579
100
AcDbEntity
  8
0
100
AcDbCircle
 62
6
  6
CONTINUOUS
 10
4.8890240627
 20
12.4149893517
 40
0.1265
100
AcDbArc
 50
90.0
 51
180.0
  0
ARC
  5
57A
100
AcDbEntity
  8
0
100
AcDbCircle
 62
6
  6
CONTINUOUS
 10
5.2205240627
 20
12.7164893517
 40
0.1
100
AcDbArc
 50
90.0
 51
180.0
  0
ARC
  5
57B
100
AcDbEntity
  8
0
100
AcDbCircle
 62
6
  6
CONTINUOUS
 10
5.3705240627
 20
12.8164893517
 40
0.1
100
AcDbArc
 50
91.5593017727
 51
180.0
  0
ARC
  5
57C
100
AcDbEntity
  8
0
100
AcDbCircle
 62
6
  6
CONTINUOUS
 10
28.9360240627
 20
9.6914893517
 40
0.075
100
AcDbArc
 50
90.0
 51
180.0
  0
ARC
  5
57D
100
AcDbEntity
  8
0
100
AcDbCircle
 62
6
  6
CONTINUOUS
 10
27.9610240627
 20
9.6914893517
 40
0.075
100
AcDbArc
 50
0.0
 51
90.0
  0
ARC
  5
57E
100
AcDbEntity
  8
0
100
AcDbCircle
 62
6
  6
CONTINUOUS
 10
27.8815240627
 20
12.2614893517
 40
0.127
100
AcDbArc
 50
0.0
 51
90.0
  0
ARC
  5
57F
100
AcDbEntity
  8
0
100
AcDbCircle
 62
6
  6
CONTINUOUS
 10
27.7550240627
 20
12.4149893517
 40
0.1265
100
AcDbArc
 50
0.0
 51
90.0
  0
ARC
  5
580
100
AcDbEntity
  8
0
100
AcDbCircle
 62
6
  6
CONTINUOUS
 10
27.4235240627
 20
12.7164893517
 40
0.1
100
AcDbArc
 50
0.0
 51
90.0
  0
ARC
  5
581
100
AcDbEntity
  8
0
100
AcDbCircle
 62
6
  6
CONTINUOUS
 10
27.2735240627
 20
12.8164893517
 40
0.1
100
AcDbArc
 50
0.0
 51
88.4406982273
  0
ARC
  5
582
100
AcDbEntity
  8
0
100
AcDbCircle
 62
6
  6
CONTINUOUS
 10
29.0155240627
 20
12.2614893517
 40
0.127
100
AcDbArc
 50
90.0
 51
180.0
  0
ARC
  5
583
100
AcDbEntity
  8
0
100
AcDbCircle
 62
6
  6
CONTINUOUS
 10
29.1420240627
 20
12.4149893517
 40
0.1265
100
AcDbArc
 50
90.0
 51
180.0
  0
ARC
  5
584
100
AcDbEntity
  8
0
100
AcDbCircle
 62
6
  6
CONTINUOUS
 10
29.4735240627
 20
12.7164893517
 40
0.1
100
AcDbArc
 50
90.0
 51
180.0
  0
ARC
  5
585
100
AcDbEntity
  8
0
100
AcDbCircle
 62
6
  6
CONTINUOUS
 10
29.6235240627
 20
12.8164893517
 40
0.1
100
AcDbArc
 50
91.5593017727
 51
180.0
  0
SPLINE
  5
586
100
AcDbEntity
  8
0
100
AcDbSpline
 62
7
  6
CONTINUOUS
 70
0
 71
3
 72
73
 73
69
 74
67
 42
0.0000001
 43
0.0000001
 44
0.0000000001
 12
0.3670745351
 22
-0.5768711864
 32
0.0
 13
-0.3670719493
 23
-0.5768728314
 33
0.0
 40
0.0
 40
0.0
 40
0.0
 40
0.0
 40
0.0007067491
 40
0.0028157025
 40
0.0063099261
 40
0.0111671191
 40
0.0173471654
 40
0.0248062945
 40
0.0334966842
 40
0.0433621021
 40
0.0543454254
 40
0.0663885294
 40
0.079432159
 40
0.0934175395
 40
0.1082884696
 40
0.1239910844
 40
0.1576835567
 40
0.1755799514
 40
0.1941172589
 40
0.2132545103
 40
0.2329539054
 40
0.2531801093
 40
0.2738975289
 40
0.2950707603
 40
0.3166681338
 40
0.3609869246
 40
0.3722770744
 40
0.3836419156
 40
0.4065687111
 40
0.4297182788
 40
0.441363019
 40
0.4530454091
 40
0.4764907412
 40
0.4999945047
 40
0.5234984527
 40
0.5469438869
 40
0.5586261477
 40
0.5702706524
 40
0.5818709531
 40
0.5934215386
 40
0.6163487702
 40
0.6277135567
 40
0.639003565
 40
0.6613414411
 40
0.6833286073
 40
0.7049260548
 40
0.7260996133
 40
0.7468174096
 40
0.767043798
 40
0.7867434226
 40
0.8058809635
 40
0.8244185644
 40
0.8423151778
 40
0.8760081003
 40
0.8917109198
 40
0.9065820165
 40
0.9205675579
 40
0.9336113185
 40
0.9456545185
 40
0.956637908
 40
0.966503372
 40
0.9751937922
 40
0.9826529255
 40
0.9888329449
 40
0.9936901264
 40
0.9971843451
 40
0.9992932689
 40
1.0
 40
1.0
 40
1.0
 40
1.0
 10
27.9485240627
 20
10.4514893517
 30
0.0
 10
27.9486105393
 20
10.4513534507
 30
0.0
 10
27.9489548096
 20
10.4508118568
 30
0.0
 10
27.9497244103
 20
10.4495969496
 30
0.0
 10
27.950997549
 20
10.447581227
 30
0.0
 10
27.9527612832
 20
10.4447779095
 30
0.0
 10
27.9549954282
 20
10.441202916
 30
0.0
 10
27.9576772884
 20
10.4368775186
 30
0.0
 10
27.9607808214
 20
10.4318252977
 30
0.0
 10
27.9642749826
 20
10.4260704499
 30
0.0
 10
27.9681283035
 20
10.4196398338
 30
0.0
 10
27.9723068297
 20
10.4125598055
 30
0.0
 10
27.976773974
 20
10.4048558857
 30
0.0
 10
27.9814941074
 20
10.3965540026
 30
0.0
 10
27.9864293102
 20
10.3876777079
 30
0.0
 10
27.9934096083
 20
10.3748002605
 30
0.0
 10
28.0004761199
 20
10.3611858358
 30
0.0
 10
28.0075368022
 20
10.3468463036
 30
0.0
 10
28.0129525715
 20
10.3353962421
 30
0.0
 10
28.0183382819
 20
10.3234794096
 30
0.0
 10
28.023646615
 20
10.3111077091
 30
0.0
 10
28.0288313882
 20
10.298294127
 30
0.0
 10
28.0338425701
 20
10.2850516794
 30
0.0
 10
28.0386259887
 20
10.2713931061
 30
0.0
 10
28.0446792073
 20
10.2524876835
 30
0.0
 10
28.0493051554
 20
10.2354946693
 30
0.0
 10
28.0526971199
 20
10.2206113003
 30
0.0
 10
28.054828718
 20
10.210442855
 30
0.0
 10
28.0571705538
 20
10.1975589784
 30
0.0
 10
28.0590366636
 20
10.1845327058
 30
0.0
 10
28.0602268639
 20
10.1740062164
 30
0.0
 10
28.0612114611
 20
10.1633908321
 30
0.0
 10
28.0620424148
 20
10.1500494699
 30
0.0
 10
28.0623809772
 20
10.1339908241
 30
0.0
 10
28.062042134
 20
10.117932181
 30
0.0
 10
28.0612119441
 20
10.1045907266
 30
0.0
 10
28.0602274863
 20
10.0939754085
 30
0.0
 10
28.0593327064
 20
10.0860647558
 30
0.0
 10
28.0582852765
 20
10.0782031665
 30
0.0
 10
28.0566980838
 20
10.0678212163
 30
0.0
 10
28.0548293401
 20
10.0575384485
 30
0.0
 10
28.0526978295
 20
10.047370033
 30
0.0
 10
28.0504189477
 20
10.0373712911
 30
0.0
 10
28.0472909012
 20
10.025085051
 30
0.0
 10
28.0431278656
 20
10.010645994
 30
0.0
 10
28.0386266771
 20
9.9965874225
 30
0.0
 10
28.0338432228
 20
9.9829288991
 30
0.0
 10
28.0288319641
 20
9.9696862067
 30
0.0
 10
28.0236472993
 20
9.9568724014
 30
0.0
 10
28.0183388654
 20
9.9445005641
 30
0.0
 10
28.012953027
 20
9.9325835885
 30
0.0
 10
28.0075372929
 20
9.921133308
 30
0.0
 10
28.0004764947
 20
9.9067935877
 30
0.0
 10
27.9934099005
 20
9.8931789822
 30
0.0
 10
27.9864295298
 20
9.8803013611
 30
0.0
 10
27.9814942496
 20
9.8714249705
 30
0.0
 10
27.9767740792
 20
9.8631229884
 30
0.0
 10
27.9723068909
 20
9.8554189918
 30
0.0
 10
27.9681283256
 20
9.8483389091
 30
0.0
 10
27.9642749825
 20
9.841908251
 30
0.0
 10
27.9607808059
 20
9.8361533743
 30
0.0
 10
27.9576772618
 20
9.8311011386
 30
0.0
 10
27.9549953966
 20
9.8267757422
 30
0.0
 10
27.9527612602
 20
9.8232007526
 30
0.0
 10
27.9509975306
 20
9.8203974438
 30
0.0
 10
27.949724392
 20
9.8183817336
 30
0.0
 10
27.948954799
 20
9.8171668357
 30
0.0
 10
27.9486105365
 20
9.8166252497
 30
0.0
 10
27.9485240627
 20
9.8164893517
 30
0.0
 11
27.9485240627
 21
10.4514893517
 31
0.0
 11
27.9487833114
 21
10.4510815336
 31
0.0
 11
27.9495552503
 21
10.4498635398
 31
0.0
 11
27.9508311681
 21
10.4478435614
 31
0.0
 11
27.9525994731
 21
10.4450323211
 31
0.0
 11
27.9548390125
 21
10.4414489443
 31
0.0
 11
27.9575266347
 21
10.4371143089
 31
0.0
 11
27.9606365365
 21
10.4320509843
 31
0.0
 11
27.9641374341
 21
10.4262850356
 31
0.0
 11
27.9679973041
 21
10.4198429557
 31
0.0
 11
27.9721821711
 21
10.4127510699
 31
0.0
 11
27.9766557391
 21
10.4050355038
 31
0.0
 11
27.9813814985
 21
10.3967222255
 31
0.0
 11
27.9863217086
 21
10.3878348926
 31
0.0
 11
27.9914376457
 21
10.3783953198
 31
0.0
 11
28.0020396843
 21
10.3579424036
 31
0.0
 11
28.00744389
 21
10.3469636264
 31
0.0
 11
28.0128613899
 21
10.3355047108
 31
0.0
 11
28.0182478466
 21
10.3235795523
 31
0.0
 11
28.023556701
 21
10.311200285
 31
0.0
 11
28.028741199
 21
10.298379026
 31
0.0
 11
28.0337511887
 21
10.2851288709
 31
0.0
 11
28.0385328423
 21
10.2714639735
 31
0.0
 11
28.043032081
 21
10.2573987063
 31
0.0
 11
28.050956679
 21
10.2281499423
 31
0.0
 11
28.0526714957
 21
10.2206230908
 31
0.0
 11
28.0542654517
 21
10.2130175331
 31
0.0
 11
28.0570651939
 21
10.1975932103
 31
0.0
 11
28.0593050915
 21
10.1819238114
 31
0.0
 11
28.0601994057
 21
10.174012021
 31
0.0
 11
28.0609371183
 21
10.1660582412
 31
0.0
 11
28.0619319174
 21
10.1500582231
 31
0.0
 11
28.0622679826
 21
10.1339908705
 31
0.0
 11
28.0619318354
 21
10.1179233934
 31
0.0
 11
28.060937591
 21
10.1019232709
 31
0.0
 11
28.0601999509
 21
10.0939695731
 31
0.0
 11
28.0593054172
 21
10.0860579696
 31
0.0
 11
28.058258535
 21
10.078195571
 31
0.0
 11
28.0570655095
 21
10.0703884034
 31
0.0
 11
28.054266066
 21
10.0549637233
 31
0.0
 11
28.0526721668
 21
10.047358192
 31
0.0
 11
28.0509573172
 21
10.0398314472
 31
0.0
 11
28.0471934343
 21
10.0250287928
 31
0.0
 11
28.0430327414
 21
10.0105821233
 31
0.0
 11
28.0385335717
 21
9.9965167808
 31
0.0
 11
28.0337518398
 21
9.982851674
 31
0.0
 11
28.0287417895
 21
9.9696012663
 31
0.0
 11
28.0235573541
 21
9.956779846
 31
0.0
 11
28.018248432
 21
9.9444004369
 31
0.0
 11
28.0128618733
 21
9.9324751074
 31
0.0
 11
28.0074443524
 21
9.9210159797
 31
0.0
 11
28.002040089
 21
9.9100370643
 31
0.0
 11
27.9914379163
 21
9.889583871
 31
0.0
 11
27.9863219186
 21
9.8801441717
 31
0.0
 11
27.9813816454
 21
9.8712567435
 31
0.0
 11
27.9766558386
 21
9.8629433656
 31
0.0
 11
27.9721822272
 21
9.8552277213
 31
0.0
 11
27.9679973239
 21
9.8481357806
 31
0.0
 11
27.9641374316
 21
9.8416936613
 31
0.0
 11
27.9606365187
 21
9.835927685
 31
0.0
 11
27.9575266043
 21
9.8308643436
 31
0.0
 11
27.9548389787
 21
9.826529707
 31
0.0
 11
27.9525994513
 21
9.8229463444
 31
0.0
 11
27.9508311491
 21
9.8201351116
 31
0.0
 11
27.9495552299
 21
9.8181151381
 31
0.0
 11
27.9487833033
 21
9.8168971604
 31
0.0
 11
27.9485240627
 21
9.8164893517
 31
0.0
  0
SPLINE
  5
587
100
AcDbEntity
  8
0
100
AcDbSpline
 62
6
  6
CONTINUOUS
 70
0
 71
3
 72
25
 73
21
 74
19
 42
0.0000001
 43
0.0000001
 44
0.0000000001
 12
-0.0422322666
 22
0.1930311467
 32
0.0
 13
0.0422331375
 23
0.1930309543
 33
0.0
 40
0.0
 40
0.0
 40
0.0
 40
0.0
 40
0.0434564392
 40
0.1588907418
 40
0.2349446861
 40
0.2761431813
 40
0.3189752913
 40
0.3631038652
 40
0.4081984189
 40
0.4539344429
 40
0.4999903737
 40
0.5460463122
 40
0.5917823819
 40
0.63687704
 40
0.6810058226
 40
0.723838286
 40
0.7650372436
 40
0.8410925957
 40
0.9565336743
 40
1.0
 40
1.0
 40
1.0
 40
1.0
 10
4.5455240627
 20
11.5184893517
 30
0.0
 10
4.5449123081
 20
11.5212855005
 30
0.0
 10
4.5427583198
 20
11.5315280843
 30
0.0
 10
4.5400371336
 20
11.5467689061
 30
0.0
 10
4.5379472403
 20
11.5619552705
 30
0.0
 10
4.5367756715
 20
11.57243515
 30
0.0
 10
4.5359943169
 20
11.5808411703
 30
0.0
 10
4.5353578643
 20
11.5895168013
 30
0.0
 10
4.5348890057
 20
11.5983947032
 30
0.0
 10
4.5346001557
 20
11.6074073458
 30
0.0
 10
4.5345040395
 20
11.6164874496
 30
0.0
 10
4.5346000523
 20
11.6255675583
 30
0.0
 10
4.534888879
 20
11.6345802113
 30
0.0
 10
4.5353575678
 20
11.6434581464
 30
0.0
 10
4.5359940628
 20
11.6521338182
 30
0.0
 10
4.5367752424
 20
11.6605399223
 30
0.0
 10
4.537946852
 20
11.6710199455
 30
0.0
 10
4.5400366645
 20
11.6862068936
 30
0.0
 10
4.5427579356
 20
11.7014489126
 30
0.0
 10
4.5449121563
 20
11.7116925696
 30
0.0
 10
4.5455240627
 20
11.7144893517
 30
0.0
 11
4.5455240627
 21
11.5184893517
 31
0.0
 11
4.5437575449
 21
11.5268930054
 31
0.0
 11
4.5397619932
 21
11.5493510211
 31
0.0
 11
4.537716228
 21
11.5642399566
 31
0.0
 11
4.5368123036
 21
11.5723307473
 31
0.0
 11
4.536029165
 21
11.5807583818
 31
0.0
 11
4.5353918864
 21
11.5894551979
 31
0.0
 11
4.5349217701
 21
11.598353807
 31
0.0
 11
4.5346330279
 21
11.6073869713
 31
0.0
 11
4.5345361353
 21
11.6164874494
 31
0.0
 11
4.5346329376
 21
11.62558793
 31
0.0
 11
4.534921618
 21
11.6346211053
 31
0.0
 11
4.535391624
 21
11.6435197409
 31
0.0
 11
4.5360288724
 21
11.6522166006
 31
0.0
 11
4.5368119059
 21
11.660644315
 31
0.0
 11
4.5377158155
 21
11.6687351993
 31
0.0
 11
4.5397615068
 21
11.6836244257
 31
0.0
 11
4.5437571365
 21
11.7060837876
 31
0.0
 11
4.5455240627
 21
11.7144893517
 31
0.0
  0
SPLINE
  5
588
100
AcDbEntity
  8
0
100
AcDbSpline
 62
7
  6
CONTINUOUS
 70
0
 71
3
 72
73
 73
69
 74
67
 42
0.0000001
 43
0.0000001
 44
0.0000000001
 12
-0.3670769165
 22
0.5768696677
 32
0.0
 13
0.3670745576
 23
0.5768711684
 33
0.0
 40
0.0
 40
0.0
 40
0.0
 40
0.0
 40
0.000706765
 40
0.0028157456
 40
0.0063099771
 40
0.0111671954
 40
0.0173472917
 40
0.0248064454
 40
0.0334968637
 40
0.0433623178
 40
0.0543456601
 40
0.0663887729
 40
0.0794324082
 40
0.0934177899
 40
0.1082887009
 40
0.1239912873
 40
0.1576836845
 40
0.1755800225
 40
0.1941172678
 40
0.2132544527
 40
0.2329537745
 40
0.2531798929
 40
0.2738972052
 40
0.2950703425
 40
0.3166676555
 40
0.3609862959
 40
0.3722764724
 40
0.3836413281
 40
0.406568098
 40
0.4297176845
 40
0.441362483
 40
0.4530449217
 40
0.4764903227
 40
0.4999941549
 40
0.5234982115
 40
0.5469437545
 40
0.558626056
 40
0.57027059
 40
0.5818709198
 40
0.5934215331
 40
0.6163488037
 40
0.6277135952
 40
0.6390035988
 40
0.6613414482
 40
0.6833285677
 40
0.7049259623
 40
0.7260994909
 40
0.7468172647
 40
0.7670436268
 40
0.786743239
 40
0.8058807781
 40
0.8244183795
 40
0.8423149876
 40
0.8760079113
 40
0.8917107286
 40
0.9065818225
 40
0.9205673704
 40
0.9336111358
 40
0.9456543395
 40
0.9566377387
 40
0.9665032247
 40
0.9751936612
 40
0.9826528117
 40
0.9888328733
 40
0.9936900736
 40
0.9971842981
 40
0.9992932512
 40
1.0
 40
1.0
 40
1.0
 40
1.0
 10
4.6955240627
 20
9.8164893517
 30
0.0
 10
4.6954375837
 20
9.8166252555
 30
0.0
 10
4.6950933062
 20
9.8171668565
 30
0.0
 10
4.6943236981
 20
9.8183817727
 30
0.0
 10
4.6930505573
 20
9.8203975102
 30
0.0
 10
4.6912868124
 20
9.8232008434
 30
0.0
 10
4.6890526502
 20
9.826775853
 30
0.0
 10
4.6863707853
 20
9.831101275
 30
0.0
 10
4.68326724
 20
9.8361535122
 30
0.0
 10
4.6797730643
 20
9.8419083737
 30
0.0
 10
4.6759197455
 20
9.848339008
 30
0.0
 10
4.6717412118
 20
9.8554190407
 30
0.0
 10
4.6672740636
 20
9.8631229623
 30
0.0
 10
4.6625539417
 20
9.8714248487
 30
0.0
 10
4.6576187397
 20
9.8803011317
 30
0.0
 10
4.6506384551
 20
9.8931785546
 30
0.0
 10
4.6435719692
 20
9.9067929513
 30
0.0
 10
4.6365113015
 20
9.9211324413
 30
0.0
 10
4.6310955541
 20
9.9325824665
 30
0.0
 10
4.6257098662
 20
9.9444992585
 30
0.0
 10
4.6204015527
 20
9.9568709114
 30
0.0
 10
4.615216789
 20
9.9696844319
 30
0.0
 10
4.6102056321
 20
9.982926819
 30
0.0
 10
4.6054222354
 20
9.9965853366
 30
0.0
 10
4.5993690144
 20
10.0154906848
 30
0.0
 10
4.5947430454
 20
10.032483651
 30
0.0
 10
4.5913511138
 20
10.047367002
 30
0.0
 10
4.5892195016
 20
10.0575354477
 30
0.0
 10
4.5868776095
 20
10.0704193155
 30
0.0
 10
4.5850114877
 20
10.0834455996
 30
0.0
 10
4.5838213419
 20
10.0939721239
 30
0.0
 10
4.582836726
 20
10.1045875461
 30
0.0
 10
4.5820056931
 20
10.1179289462
 30
0.0
 10
4.5816671502
 20
10.1339876499
 30
0.0
 10
4.5820060278
 20
10.1500463565
 30
0.0
 10
4.5828361771
 20
10.1633878719
 30
0.0
 10
4.5838206246
 20
10.1740032321
 30
0.0
 10
4.5847154156
 20
10.1819139062
 30
0.0
 10
4.5857628502
 20
10.1897755147
 30
0.0
 10
4.5873500463
 20
10.2001574865
 30
0.0
 10
4.5892187889
 20
10.210440271
 30
0.0
 10
4.5913503003
 20
10.2206086955
 30
0.0
 10
4.5936291813
 20
10.2306074314
 30
0.0
 10
4.5967572225
 20
10.2428936544
 30
0.0
 10
4.6009202497
 20
10.2573326838
 30
0.0
 10
4.6054214311
 20
10.2713912265
 30
0.0
 10
4.61020488
 20
10.2850497263
 30
0.0
 10
4.6152161291
 20
10.2982924029
 30
0.0
 10
4.6204007766
 20
10.3111062001
 30
0.0
 10
4.6257092112
 20
10.3234780271
 30
0.0
 10
4.6310950519
 20
10.3353949981
 30
0.0
 10
4.6365107722
 20
10.3468452834
 30
0.0
 10
4.6435715747
 20
10.3611850007
 30
0.0
 10
4.6506381624
 20
10.3747996077
 30
0.0
 10
4.6576185316
 20
10.3876772287
 30
0.0
 10
4.6625538157
 20
10.3965536173
 30
0.0
 10
4.6672739796
 20
10.4048556053
 30
0.0
 10
4.6717411714
 20
10.4125596039
 30
0.0
 10
4.6759197414
 20
10.4196396886
 30
0.0
 10
4.6797730814
 20
10.4260703579
 30
0.0
 10
4.6832672673
 20
10.4318252417
 30
0.0
 10
4.6863708192
 20
10.4368774874
 30
0.0
 10
4.6890526869
 20
10.4412029024
 30
0.0
 10
4.6912868379
 20
10.444777904
 30
0.0
 10
4.6930505757
 20
10.4475812256
 30
0.0
 10
4.6943237152
 20
10.4495969498
 30
0.0
 10
4.6950933159
 20
10.450811857
 30
0.0
 10
4.6954375862
 20
10.4513534507
 30
0.0
 10
4.6955240627
 20
10.4514893517
 30
0.0
 11
4.6955240627
 21
9.8164893517
 31
0.0
 11
4.6952648068
 21
9.8168971781
 31
0.0
 11
4.6944928565
 21
9.8181151868
 31
0.0
 11
4.6932169388
 21
9.8201351716
 31
0.0
 11
4.6914486251
 21
9.8229464268
 31
0.0
 11
4.689209065
 21
9.8265298309
 31
0.0
 11
4.6865214376
 21
9.8308644829
 31
0.0
 11
4.6834115254
 21
9.8359278241
 31
0.0
 11
4.6799106131
 21
9.8416937927
 31
0.0
 11
4.6760507414
 21
9.8481358867
 31
0.0
 11
4.6718658704
 21
9.8552277771
 31
0.0
 11
4.6673922999
 21
9.8629433462
 31
0.0
 11
4.6626665458
 21
9.8712566284
 31
0.0
 11
4.657726341
 21
9.8801439493
 31
0.0
 11
4.6526104132
 21
9.889583505
 31
0.0
 11
4.6420084042
 21
9.9100363786
 31
0.0
 11
4.6366042143
 21
9.9210151202
 31
0.0
 11
4.6311867351
 21
9.9324739986
 31
0.0
 11
4.6258003
 21
9.9443991168
 31
0.0
 11
4.6204914634
 21
9.9567783372
 31
0.0
 11
4.6153069787
 21
9.9695995384
 31
0.0
 11
4.6102970143
 21
9.9828496246
 31
0.0
 11
4.6055153808
 21
9.9965144607
 31
0.0
 11
4.6010161395
 21
10.0105796836
 31
0.0
 11
4.5930915463
 21
10.0398283422
 31
0.0
 11
4.5913767335
 21
10.0473552133
 31
0.0
 11
4.5897827669
 21
10.0549607789
 31
0.0
 11
4.5869829803
 21
10.0703850757
 31
0.0
 11
4.5847430808
 21
10.0860544873
 31
0.0
 11
4.5838487909
 21
10.0939663205
 31
0.0
 11
4.5831110693
 21
10.1019201328
 31
0.0
 11
4.5821162096
 21
10.1179201942
 31
0.0
 11
4.5817801473
 21
10.1339875938
 31
0.0
 11
4.5821163125
 21
10.1500551448
 31
0.0
 11
4.5831105299
 21
10.1660553434
 31
0.0
 11
4.5838481635
 21
10.1740090698
 31
0.0
 11
4.5847427038
 21
10.1819206926
 31
0.0
 11
4.5857895915
 21
10.1897831105
 31
0.0
 11
4.5869826199
 21
10.1975902969
 31
0.0
 11
4.5897820646
 21
10.2130150037
 31
0.0
 11
4.5913759637
 21
10.2206205386
 31
0.0
 11
4.5930908126
 21
10.2281472802
 31
0.0
 11
4.5968546906
 21
10.242949917
 31
0.0
 11
4.6010153745
 21
10.2573965558
 31
0.0
 11
4.6055145348
 21
10.2714618632
 31
0.0
 11
4.6102962613
 21
10.2851269501
 31
0.0
 11
4.6153063023
 21
10.2983773448
 31
0.0
 11
4.6204907232
 21
10.3111987515
 31
0.0
 11
4.6257996435
 21
10.3235781521
 31
0.0
 11
4.6311862025
 21
10.3355034801
 31
0.0
 11
4.6366037161
 21
10.3469626116
 31
0.0
 11
4.6420079778
 21
10.3579415237
 31
0.0
 11
4.6526101471
 21
10.3783947197
 31
0.0
 11
4.6577261436
 21
10.3878344177
 31
0.0
 11
4.6626664169
 21
10.3967218435
 31
0.0
 11
4.6673922219
 21
10.4050352276
 31
0.0
 11
4.6718658354
 21
10.4127508745
 31
0.0
 11
4.6760507406
 21
10.419842817
 31
0.0
 11
4.6799106326
 21
10.4262849441
 31
0.0
 11
4.6834115549
 21
10.4320509322
 31
0.0
 11
4.686521475
 21
10.4371142831
 31
0.0
 11
4.6892091038
 21
10.4414489316
 31
0.0
 11
4.6914486491
 21
10.4450323171
 31
0.0
 11
4.6932169573
 21
10.4478435613
 31
0.0
 11
4.6944928753
 21
10.4498635401
 31
0.0
 11
4.6952648141
 21
10.4510815338
 31
0.0
 11
4.6955240627
 21
10.4514893517
 31
0.0
  0
SPLINE
  5
589
100
AcDbEntity
  8
0
100
AcDbSpline
 62
6
  6
CONTINUOUS
 70
0
 71
3
 72
25
 73
21
 74
19
 42
0.0000001
 43
0.0000001
 44
0.0000000001
 12
0.0422321942
 22
-0.1930311619
 32
0.0
 13
-0.0422330877
 23
-0.1930309644
 33
0.0
 40
0.0
 40
0.0
 40
0.0
 40
0.0
 40
0.0434556211
 40
0.1588899978
 40
0.2349440657
 40
0.2761426142
 40
0.318974781
 40
0.3631034276
 40
0.4081980742
 40
0.4539342019
 40
0.4999902391
 40
0.5460462848
 40
0.5917824611
 40
0.6368772139
 40
0.68100607
 40
0.7238385966
 40
0.7650376278
 40
0.8410931497
 40
0.9565343629
 40
1.0
 40
1.0
 40
1.0
 40
1.0
 10
28.0985240627
 20
11.7144893517
 30
0.0
 10
28.0991358048
 20
11.7116932554
 30
0.0
 10
28.1012897826
 20
11.7014507195
 30
0.0
 10
28.1040109701
 20
11.6862099395
 30
0.0
 10
28.1061008713
 20
11.6710235594
 30
0.0
 10
28.1072724404
 20
11.6605436645
 30
0.0
 10
28.1080538024
 20
11.6521376328
 30
0.0
 10
28.1086902539
 20
11.643461987
 30
0.0
 10
28.1091591172
 20
11.6345840676
 30
0.0
 10
28.1094479687
 20
11.6255714051
 30
0.0
 10
28.1095440852
 20
11.6164912804
 30
0.0
 10
28.1094480739
 20
11.6074111506
 30
0.0
 10
28.1091592449
 20
11.5983984773
 30
0.0
 10
28.1086905554
 20
11.5895205242
 30
0.0
 10
28.1080540593
 20
11.5808448371
 30
0.0
 10
28.1072728762
 20
11.5724387195
 30
0.0
 10
28.1061012635
 20
11.5619586763
 30
0.0
 10
28.1040114454
 20
11.5467717038
 30
0.0
 10
28.101290172
 20
11.5315297109
 30
0.0
 10
28.0991359588
 20
11.5212860897
 30
0.0
 10
28.0985240627
 20
11.5184893517
 30
0.0
 11
28.0985240627
 21
11.7144893517
 31
0.0
 11
28.1002905468
 21
11.7060858562
 31
0.0
 11
28.1042861105
 21
11.6836278277
 31
0.0
 11
28.1063318833
 21
11.6687388687
 31
0.0
 11
28.1072358095
 21
11.6606480676
 31
0.0
 11
28.1080189527
 21
11.6522204222
 31
0.0
 11
28.1086562327
 21
11.6435235918
 31
0.0
 11
28.1091263522
 21
11.6346249645
 31
0.0
 11
28.1094150963
 21
11.6255917797
 31
0.0
 11
28.1095119896
 21
11.6164912806
 31
0.0
 11
28.109415188
 21
11.6073907789
 31
0.0
 11
28.1091265062
 21
11.5983575825
 31
0.0
 11
28.1086564991
 21
11.5894589283
 31
0.0
 11
28.1080192492
 21
11.5807620542
 31
0.0
 11
28.107236213
 21
11.5723343274
 31
0.0
 11
28.1063323008
 21
11.5642434288
 31
0.0
 11
28.1042866023
 21
11.5493541695
 31
0.0
 11
28.1002909609
 21
11.5268947827
 31
0.0
 11
28.0985240627
 21
11.5184893517
 31
0.0
  0
ENDSEC
  0
SECTION
  2
OBJECTS
  0
DICTIONARY
  5
C
100
AcDbDictionary
280
0
281
1
  3
ACAD_GROUP
350
D
  3
ACAD_MLINESTYLE
350
17
  3
ACAD_LAYOUT
350
1A
  3
ACAD_PLOTSETTINGS
350
19
  3
ACAD_PLOTSTYLENAME
350
E
  0
DICTIONARY
  5
D
102
{ACAD_REACTORS
330
C
102
}
100
AcDbDictionary
280
0
281
1
  0
ACDBDICTIONARYWDFLT
  5
E
102
{ACAD_REACTORS
330
C
102
}
100
AcDbDictionary
281
1
  3
Normal
350
F
100
AcDbDictionaryWithDefault
340
F
  0
DICTIONARY
  5
17
102
{ACAD_REACTORS
330
C
102
}
100
AcDbDictionary
280
0
281
1
  3
Standard
350
18
  0
DICTIONARY
  5
19
102
{ACAD_REACTORS
330
C
102
}
100
AcDbDictionary
281
1
  0
DICTIONARY
  5
1A
102
{ACAD_REACTORS
330
C
102
}
100
AcDbDictionary
281
1
  3
Model
350
58A
  3
Layout1
350
58B
  0
ACDBPLACEHOLDER
  5
F
102
{ACAD_REACTORS
330
E
102
}
  0
MLINESTYLE
  5
18
102
{ACAD_REACTORS
330
17
102
}
100
AcDbMlineStyle
  2
STANDARD
 70
0
  3

 62
256
 51
90.0
 52
90.0
 71
2
 49
0.5
 62
256
  6
BYLAYER
 49
-0.5
 62
256
  6
BYLAYER
  0
LAYOUT
  5
58A
102
{ACAD_REACTORS
330
1A
102
}
100
AcDbPlotSettings
  1

  2
none_device
  4
ISO_A1_(594.00_x_841.00_MM)
  6

 40
0.0
 41
0.0
 42
0.0
 43
0.0
 44
841.0
 45
594.0
 46
0.0
 47
0.0
 48
0.0
 49
0.0
140
0.0
141
0.0
142
1.0
143
1.0
 70
1024
 72
0
 73
0
 74
0
  7

 75
0
147
1.0
148
0.0
149
0.0
100
AcDbLayout
  1
Model
 70
0
 71
0
 10
0.0
 20
0.0
 11
33.1102362205
 21
23.3858267717
 12
0.0
 22
0.0
 32
0.0
 14
0.0
 24
0.0
 34
0.0
 15
0.0
 25
0.0
 35
0.0
146
0.0
 13
0.0
 23
0.0
 33
0.0
 16
1.0
 26
0.0
 36
0.0
 17
0.0
 27
1.0
 37
0.0
 76
0
330
203
345
0
346
0
  0
LAYOUT
  5
58B
102
{ACAD_REACTORS
330
1A
102
}
100
AcDbPlotSettings
  1

  2
none_device
  4
ISO_A1_(594.00_x_841.00_MM)
  6

 40
0.0
 41
0.0
 42
0.0
 43
0.0
 44
841.0
 45
594.0
 46
0.0
 47
0.0
 48
0.0
 49
0.0
140
0.0
141
0.0
142
1.0
143
1.0
 70
0
 72
0
 73
0
 74
0
  7

 75
0
147
1.0
148
0.0
149
0.0
100
AcDbLayout
  1
Layout1
 70
0
 71
1
 10
0.0
 20
0.0
 11
33.1102362205
 21
23.3858267717
 12
0.0
 22
0.0
 32
0.0
 14
0.0
 24
0.0
 34
0.0
 15
0.0
 25
0.0
 35
0.0
146
0.0
 13
0.0
 23
0.0
 33
0.0
 16
1.0
 26
0.0
 36
0.0
 17
0.0
 27
1.0
 37
0.0
 76
0
330
204
345
0
346
0
  0
ENDSEC
  0
EOF
