  0
SECTION
  2
HEADER
  9
$ACADVER
  1
AC1021
  9
$DWGCODEPAGE
  3
ANSI_1252
  9
$EXTMAX
 10
16.5354330709
 20
11.6929133858
 30
0.0
  9
$EXTMIN
 10
0.0
 20
0.0
 30
0.0
  9
$LIMMIN
 10
0.0
 20
0.0
  9
$LIMMAX
 10
16.5354330709
 20
11.6929133858
  9
$VIEWCTR
 10
8.2677165354
 20
5.8464566929
  9
$VIEWSIZE
 40
11.6929133858
  9
$CLAYER
  8
0
  9
$LTSCALE
 40
0.9094488189
  9
$CELTYPE
  6
BYLAYER
  9
$DIMSCALE
 40
1.0
  9
$DIMASZ
 40
0.1875
  9
$DIMEXO
 40
0.1033464567
  9
$DIMDLI
 40
0.6283464567
  9
$DIMEXE
 40
0.2976377953
  9
$DIMCEN
 40
0.1488188976
  9
$DIMLFAC
 40
1.0
  9
$DIMBLK
  1
_CLOSED
  9
$DIMTXT
 40
0.15625
  9
$DIMTOL
 70
0
  9
$DIMLIM
 70
0
  9
$DIMTFAC
 40
1.0
  9
$PDMODE
 70
3
  9
$PDSIZE
 40
0.3125
  9
$HANDSEED
  5
3A2
  9
$TILEMODE
 70
1
  9
$MEASUREMENT
 70
0
  9
$INSUNITS
 70
1
  0
ENDSEC
  0
SECTION
  2
CLASSES
  0
CLASS
  1
ACDBDICTIONARYWDFLT
  2
AcDbDictionaryWithDefault
  3
AutoCAD 2000
 90
0
 91
1
280
0
281
0
  0
CLASS
  1
ACDBPLACEHOLDER
  2
AcDbPlaceHolder
  3
AutoCAD 2000
 90
0
 91
1
280
0
281
0
  0
CLASS
  1
LAYOUT
  2
AcDbLayout
  3
AutoCAD 2000
 90
0
 91
0
280
0
281
0
  0
ENDSEC
  0
SECTION
  2
TABLES
  0
TABLE
  2
VPORT
  5
8
100
AcDbSymbolTable
 70
2
  0
VPORT
  5
1F4
100
AcDbSymbolTableRecord
100
AcDbViewportTableRecord
  2
*ACTIVE
 70
0
 10
0.0
 20
0.0
 11
1.0
 21
1.0
 12
8.2677165354
 22
5.8464566929
 13
0.0
 23
0.0
 14
1.0
 24
1.0
 15
0.0
 25
0.0
 16
0.0
 26
0.0
 36
1.0
 17
0.0
 27
0.0
 37
0.0
 40
11.6929133858
 41
1.4141414141
 42
50.0
 43
0.0
 44
0.0
 50
0.0
 51
0.0
 71
0
 72
100
 73
1
 74
1
 75
0
 76
0
 77
0
 78
0
  0
ENDTAB
  0
TABLE
  2
LTYPE
  5
5
100
AcDbSymbolTable
 70
6
  0
LTYPE
  5
14
100
AcDbSymbolTableRecord
100
AcDbLinetypeTableRecord
  2
BYBLOCK
 70
0
  3

 72
65
 73
0
 40
0.0
  0
LTYPE
  5
15
100
AcDbSymbolTableRecord
100
AcDbLinetypeTableRecord
  2
BYLAYER
 70
0
  3

 72
65
 73
0
 40
0.0
  0
LTYPE
  5
16
100
AcDbSymbolTableRecord
100
AcDbLinetypeTableRecord
  2
CONTINUOUS
 70
64
  3
Solid line
 72
65
 73
0
 40
0.0
  0
LTYPE
  5
1F5
100
AcDbSymbolTableRecord
100
AcDbLinetypeTableRecord
  2
CENTER
 70
64
  3
____ _ ____ _ ____ _ ____ _ ____ _ ____ _ ____
 72
65
 73
4
 40
0.6
 49
0.375
 74
0
 49
-0.075
 74
0
 49
0.075
 74
0
 49
-0.075
 74
0
  0
LTYPE
  5
1F6
100
AcDbSymbolTableRecord
100
AcDbLinetypeTableRecord
  2
HIDDEN
 70
64
  3
- - - - - - - - - - - - - - - - - - - -
 72
65
 73
2
 40
0.2
 49
0.1
 74
0
 49
-0.1
 74
0
  0
LTYPE
  5
1F7
100
AcDbSymbolTableRecord
100
AcDbLinetypeTableRecord
  2
PHANTOM
 70
64
  3
_____ _ _ _____ _ _ _____ _ _ _____
 72
65
 73
6
 40
0.8
 49
0.45
 74
0
 49
-0.05
 74
0
 49
0.1
 74
0
 49
-0.05
 74
0
 49
0.1
 74
0
 49
-0.05
 74
0
  0
LTYPE
  5
1F8
100
AcDbSymbolTableRecord
100
AcDbLinetypeTableRecord
  2
DOT
 70
64
  3
. . . . . . . . . . . . . . . . . . . .
 72
65
 73
2
 40
0.2
 49
0.1
 74
0
 49
-0.1
 74
0
  0
LTYPE
  5
1F9
100
AcDbSymbolTableRecord
100
AcDbLinetypeTableRecord
  2
DASHED
 70
64
  3
- - - - - - - - - - - - - - - - - - - -
 72
65
 73
2
 40
0.2
 49
0.1
 74
0
 49
-0.1
 74
0
  0
ENDTAB
  0
TABLE
  2
LAYER
  5
2
100
AcDbSymbolTable
 70
36
  0
LAYER
  5
10
100
AcDbSymbolTableRecord
100
AcDbLayerTableRecord
  2
0
 70
0
 62
7
  6
CONTINUOUS
370
-3
390
F
  0
LAYER
  5
1FA
100
AcDbSymbolTableRecord
100
AcDbLayerTableRecord
  2
DEFAULT_1
 70
0
 62
7
  6
CENTER
370
-3
390
F
  0
LAYER
  5
1FB
100
AcDbSymbolTableRecord
100
AcDbLayerTableRecord
  2
DEFAULT_2
 70
0
 62
8
  6
HIDDEN
370
-3
390
F
  0
LAYER
  5
1FC
100
AcDbSymbolTableRecord
100
AcDbLayerTableRecord
  2
DEFAULT_3
 70
0
 62
7
  6
PHANTOM
370
-3
390
F
  0
LAYER
  5
1FD
100
AcDbSymbolTableRecord
100
AcDbLayerTableRecord
  2
DEFAULT_COORDINATE_SYSTEM
 70
0
 62
7
  6
CONTINUOUS
370
-3
390
F
  0
LAYER
  5
1FE
100
AcDbSymbolTableRecord
100
AcDbLayerTableRecord
  2
DEFAULT_DATUM_AXES
 70
0
 62
7
  6
CONTINUOUS
370
-3
390
F
  0
LAYER
  5
1FF
100
AcDbSymbolTableRecord
100
AcDbLayerTableRecord
  2
DEFAULT_DATUM_CURVES
 70
0
 62
7
  6
CONTINUOUS
370
-3
390
F
  0
LAYER
  5
200
100
AcDbSymbolTableRecord
100
AcDbLayerTableRecord
  2
DEFAULT_DATUM_PLANES
 70
0
 62
7
  6
CONTINUOUS
370
-3
390
F
  0
ENDTAB
  0
TABLE
  2
STYLE
  5
3
100
AcDbSymbolTable
 70
1
  0
STYLE
  5
11
100
AcDbSymbolTableRecord
100
AcDbTextStyleTableRecord
  2
STANDARD
 70
0
 40
0.0
 41
0.8
 50
0.0
 71
0
 42
0.2
  3
txt
  4

  0
STYLE
  5
201
100
AcDbSymbolTableRecord
100
AcDbTextStyleTableRecord
  2
TEXTSTYLE_1
 70
0
 40
0.0
 41
0.8
 50
0.0
 71
0
 42
0.2
  3
gdt
  4

  0
ENDTAB
  0
TABLE
  2
VIEW
  5
6
100
AcDbSymbolTable
 70
0
  0
ENDTAB
  0
TABLE
  2
UCS
  5
7
100
AcDbSymbolTable
 70
0
  0
ENDTAB
  0
TABLE
  2
APPID
  5
9
100
AcDbSymbolTable
 70
1
  0
APPID
  5
202
100
AcDbSymbolTableRecord
100
AcDbRegAppTableRecord
  2
ACAD
 70
0
  0
ENDTAB
  0
TABLE
  2
BLOCK_RECORD
  5
1
100
AcDbSymbolTable
 70
0
  0
BLOCK_RECORD
  5
203
100
AcDbSymbolTableRecord
100
AcDbBlockTableRecord
  2
*Model_Space
  0
BLOCK_RECORD
  5
204
100
AcDbSymbolTableRecord
100
AcDbBlockTableRecord
  2
*Paper_Space
  0
ENDTAB
  0
TABLE
  2
DIMSTYLE
  5
A
100
AcDbSymbolTable
 70
1
100
AcDbDimStyleTable
 71
0
  0
DIMSTYLE
105
205
100
AcDbSymbolTableRecord
100
AcDbDimStyleTableRecord
  2
STANDARD
 70
0
  3

  4

 40
1.0
 41
0.1875
 42
0.0625
 43
0.38
 44
0.18
 45
0.0
 46
0.0
 47
0.001
 48
0.001
140
0.15625
141
0.09
142
0.0
143
25.4
144
1.0
145
0.0
146
1.0
147
0.09
 71
0.0
 72
0.0
 73
1
 74
1
 75
0
 76
0
 77
0
 78
4
170
0
171
2
172
0
173
0
174
0
175
0
176
0
177
0
178
0
270
2
271
3
272
3
273
2
274
2
275
0
280
0
281
0
282
0
283
1
284
4
285
0
286
0
287
3
288
0
340
11
  0
ENDTAB
  0
ENDSEC
  0
SECTION
  2
BLOCKS
  0
BLOCK
  5
20
100
AcDbEntity
  8
0
100
AcDbBlockBegin
  2
*Model_Space
 70
0
 10
0.0
 20
0.0
 30
0.0
  3
*Model_Space
  1

  0
ENDBLK
  5
21
100
AcDbEntity
  8
0
100
AcDbBlockEnd
  0
BLOCK
  5
1C
100
AcDbEntity
  8
0
100
AcDbBlockBegin
  2
*Paper_Space
 70
0
 10
0.0
 20
0.0
 30
0.0
  3
*Paper_Space
  1

  0
ENDBLK
  5
1D
100
AcDbEntity
  8
0
100
AcDbBlockEnd
  0
ENDSEC
  0
SECTION
  2
ENTITIES
  0
LINE
  5
206
100
AcDbEntity
  8
0
100
AcDbLine
 62
6
  6
CONTINUOUS
 10
6.9999210691
 20
9.1444019592
 11
7.0200960244
 21
9.1509571995
  0
LINE
  5
207
100
AcDbEntity
  8
0
100
AcDbLine
 62
6
  6
CONTINUOUS
 10
8.6810462949
 20
9.6906326569
 11
8.7012212503
 21
9.6971878972
  0
LINE
  5
208
100
AcDbEntity
  8
0
100
AcDbLine
 62
6
  6
CONTINUOUS
 10
7.0199408287
 20
9.1831688882
 11
7.0403322686
 21
9.1890160395
  0
LINE
  5
209
100
AcDbEntity
  8
0
100
AcDbLine
 62
6
  6
CONTINUOUS
 10
8.7191051349
 20
9.6703964127
 11
8.7394965748
 21
9.676243564
  0
LINE
  5
20A
100
AcDbEntity
  8
0
100
AcDbLine
 62
6
  6
CONTINUOUS
 10
6.8906011237
 20
8.814089456
 11
6.9081876664
 21
8.8259517288
  0
LINE
  5
20B
100
AcDbEntity
  8
0
100
AcDbLine
 62
6
  6
CONTINUOUS
 10
8.3560408242
 20
9.8025410149
 11
8.3736273669
 21
9.8144032877
  0
LINE
  5
20C
100
AcDbEntity
  8
0
100
AcDbLine
 62
6
  6
CONTINUOUS
 10
6.899159738
 20
8.8568728136
 11
6.9171495548
 21
8.8681140988
  0
LINE
  5
20D
100
AcDbEntity
  8
0
100
AcDbLine
 62
6
  6
CONTINUOUS
 10
8.3982031941
 20
9.7935791265
 11
8.4161930109
 21
9.8048204117
  0
LINE
  5
20E
100
AcDbEntity
  8
0
100
AcDbLine
 62
6
  6
CONTINUOUS
 10
6.9092062563
 20
8.8993314174
 11
6.9275774293
 21
8.9099380191
  0
LINE
  5
20F
100
AcDbEntity
  8
0
100
AcDbLine
 62
6
  6
CONTINUOUS
 10
8.4400271145
 20
9.783151252
 11
8.4583982876
 21
9.7937578537
  0
LINE
  5
210
100
AcDbEntity
  8
0
100
AcDbLine
 62
6
  6
CONTINUOUS
 10
6.9207284383
 20
8.9414135381
 11
6.9394585853
 21
8.9513725339
  0
LINE
  5
211
100
AcDbEntity
  8
0
100
AcDbLine
 62
6
  6
CONTINUOUS
 10
8.4814616293
 20
9.7712700961
 11
8.5001917762
 21
9.7812290918
  0
LINE
  5
212
100
AcDbEntity
  8
0
100
AcDbLine
 62
6
  6
CONTINUOUS
 10
6.9337122463
 20
8.9830679052
 11
6.9527785472
 21
8.9923671615
  0
LINE
  5
213
100
AcDbEntity
  8
0
100
AcDbLine
 62
6
  6
CONTINUOUS
 10
8.5224562569
 20
9.7579501341
 11
8.5415225579
 21
9.7672493904
  0
LINE
  5
214
100
AcDbEntity
  8
0
100
AcDbLine
 62
6
  6
CONTINUOUS
 10
6.9481418612
 20
9.0242437692
 11
6.9675210869
 21
9.0328719564
  0
LINE
  5
215
100
AcDbEntity
  8
0
100
AcDbLine
 62
6
  6
CONTINUOUS
 10
8.5629610517
 20
9.7432075944
 11
8.5823402774
 21
9.7518357816
  0
LINE
  5
216
100
AcDbEntity
  8
0
100
AcDbLine
 62
6
  6
CONTINUOUS
 10
6.963999703
 20
9.0648909637
 11
6.9836682427
 21
9.0728375696
  0
LINE
  5
217
100
AcDbEntity
  8
0
100
AcDbLine
 62
6
  6
CONTINUOUS
 10
8.602926665
 20
9.7270604386
 11
8.6225952047
 21
9.7350070444
  0
LINE
  5
218
100
AcDbEntity
  8
0
100
AcDbLine
 62
6
  6
CONTINUOUS
 10
6.9812664513
 20
9.1049599663
 11
7.001200342
 21
9.1122153092
  0
LINE
  5
219
100
AcDbEntity
  8
0
100
AcDbLine
 62
6
  6
CONTINUOUS
 10
8.6423044046
 20
9.7095283393
 11
8.6622382953
 21
9.7167836822
  0
LINE
  5
21A
100
AcDbEntity
  8
0
100
AcDbLine
 62
6
  6
CONTINUOUS
 10
6.870951045
 20
8.5535081403
 11
6.8856869744
 21
8.5687676418
  0
LINE
  5
21B
100
AcDbEntity
  8
0
100
AcDbLine
 62
6
  6
CONTINUOUS
 10
8.0988567372
 20
9.8250417069
 11
8.1135926665
 21
9.8403012085
  0
LINE
  5
21C
100
AcDbEntity
  8
0
100
AcDbLine
 62
6
  6
CONTINUOUS
 10
6.8704274728
 20
8.5971360148
 11
6.8856869744
 21
8.6118719441
  0
LINE
  5
21D
100
AcDbEntity
  8
0
100
AcDbLine
 62
6
  6
CONTINUOUS
 10
8.1419610395
 20
9.8250417069
 11
8.157220541
 21
9.8397776363
  0
LINE
  5
21E
100
AcDbEntity
  8
0
100
AcDbLine
 62
6
  6
CONTINUOUS
 10
6.8714268104
 20
8.6407555848
 11
6.8871912928
 21
8.6549499885
  0
LINE
  5
21F
100
AcDbEntity
  8
0
100
AcDbLine
 62
6
  6
CONTINUOUS
 10
8.1850390839
 20
9.8235373885
 11
8.2008035663
 21
9.8377317922
  0
LINE
  5
220
100
AcDbEntity
  8
0
100
AcDbLine
 62
6
  6
CONTINUOUS
 10
6.8739478403
 20
8.6843137066
 11
6.8901980969
 21
8.697949291
  0
LINE
  5
221
100
AcDbEntity
  8
0
100
AcDbLine
 62
6
  6
CONTINUOUS
 10
8.2280383863
 20
9.8205305844
 11
8.2442886429
 21
9.8341661687
  0
LINE
  5
222
100
AcDbEntity
  8
0
100
AcDbLine
 62
6
  6
CONTINUOUS
 10
6.877987491
 20
8.7277573113
 11
6.8947037234
 21
8.7408174634
  0
LINE
  5
223
100
AcDbEntity
  8
0
100
AcDbLine
 62
6
  6
CONTINUOUS
 10
8.2709065588
 20
9.8160249579
 11
8.2876227912
 21
9.82908511
  0
LINE
  5
224
100
AcDbEntity
  8
0
100
AcDbLine
 62
6
  6
CONTINUOUS
 10
6.8835408408
 20
8.7710334695
 11
6.9007026829
 21
8.7835022777
  0
LINE
  5
225
100
AcDbEntity
  8
0
100
AcDbLine
 62
6
  6
CONTINUOUS
 10
8.3135913731
 20
9.8100259984
 11
8.3307532151
 21
9.8224948066
  0
LINE
  5
226
100
AcDbEntity
  8
0
100
AcDbLine
 62
6
  6
CONTINUOUS
 10
7.9272264036
 20
9.8100259984
 11
7.9396952118
 21
9.8271878405
  0
LINE
  5
227
100
AcDbEntity
  8
0
100
AcDbLine
 62
6
  6
CONTINUOUS
 10
7.9699112179
 20
9.8160249579
 11
7.98297137
 21
9.8327411903
  0
LINE
  5
228
100
AcDbEntity
  8
0
100
AcDbLine
 62
6
  6
CONTINUOUS
 10
8.0127793903
 20
9.8205305844
 11
8.0264149747
 21
9.836780841
  0
LINE
  5
229
100
AcDbEntity
  8
0
100
AcDbLine
 62
6
  6
CONTINUOUS
 10
8.0557786928
 20
9.8235373885
 11
8.0699730965
 21
9.8393018709
  0
LINE
  5
22A
100
AcDbEntity
  8
0
100
AcDbLine
 62
6
  6
CONTINUOUS
 10
6.9434792909
 20
8.1692061234
 11
6.9455838178
 21
8.1735210431
  0
LINE
  5
22B
100
AcDbEntity
  8
0
100
AcDbLine
 62
6
  6
CONTINUOUS
 10
7.7183615198
 20
9.7579501341
 11
7.7276607761
 21
9.777016435
  0
LINE
  5
22C
100
AcDbEntity
  8
0
100
AcDbLine
 62
6
  6
CONTINUOUS
 10
7.7593561474
 20
9.7712700961
 11
7.7693151432
 21
9.790000243
  0
LINE
  5
22D
100
AcDbEntity
  8
0
100
AcDbLine
 62
6
  6
CONTINUOUS
 10
7.8007906622
 20
9.783151252
 11
7.8113972639
 21
9.801522425
  0
LINE
  5
22E
100
AcDbEntity
  8
0
100
AcDbLine
 62
6
  6
CONTINUOUS
 10
7.8426145825
 20
9.7935791265
 11
7.8538558677
 21
9.8115689433
  0
LINE
  5
22F
100
AcDbEntity
  8
0
100
AcDbLine
 62
6
  6
CONTINUOUS
 10
7.8847769525
 20
9.8025410149
 11
7.8966392253
 21
9.8201275576
  0
LINE
  5
230
100
AcDbEntity
  8
0
100
AcDbLine
 62
6
  6
CONTINUOUS
 10
7.0135407841
 20
8.009507431
 11
7.0200960244
 21
8.0296823864
  0
LINE
  5
231
100
AcDbEntity
  8
0
100
AcDbLine
 62
6
  6
CONTINUOUS
 10
7.5597714818
 20
9.6906326569
 11
7.5663267221
 21
9.7108076122
  0
LINE
  5
232
100
AcDbEntity
  8
0
100
AcDbLine
 62
6
  6
CONTINUOUS
 10
6.9939449991
 20
8.048490386
 11
7.001200342
 21
8.0684242767
  0
LINE
  5
233
100
AcDbEntity
  8
0
100
AcDbLine
 62
6
  6
CONTINUOUS
 10
7.5985133721
 20
9.7095283393
 11
7.605768715
 21
9.72946223
  0
LINE
  5
234
100
AcDbEntity
  8
0
100
AcDbLine
 62
6
  6
CONTINUOUS
 10
6.9757216369
 20
8.0881334766
 11
6.9836682427
 21
8.1078020163
  0
LINE
  5
235
100
AcDbEntity
  8
0
100
AcDbLine
 62
6
  6
CONTINUOUS
 10
7.6378911117
 20
9.7270604386
 11
7.6458377176
 21
9.7467289783
  0
LINE
  5
236
100
AcDbEntity
  8
0
100
AcDbLine
 62
6
  6
CONTINUOUS
 10
6.9588928997
 20
8.1283884039
 11
6.9675210869
 21
8.1477676296
  0
LINE
  5
237
100
AcDbEntity
  8
0
100
AcDbLine
 62
6
  6
CONTINUOUS
 10
7.6778567249
 20
9.7432075944
 11
7.6864849121
 21
9.7625868201
  0
LINE
  5
238
100
AcDbEntity
  8
0
100
AcDbLine
 62
7
  6
CONTINUOUS
 10
9.2595513254
 20
8.0756796196
 11
9.2396174347
 21
8.0684242767
  0
LINE
  5
239
100
AcDbEntity
  8
0
100
AcDbLine
 62
6
  6
CONTINUOUS
 10
7.5985133721
 20
7.4711112466
 11
7.5785794814
 21
7.4638559037
  0
LINE
  5
23A
100
AcDbEntity
  8
0
100
AcDbLine
 62
6
  6
CONTINUOUS
 10
9.2408967076
 20
8.0362376268
 11
9.2207217522
 21
8.0296823864
  0
LINE
  5
23B
100
AcDbEntity
  8
0
100
AcDbLine
 62
6
  6
CONTINUOUS
 10
7.5597714818
 20
7.4900069291
 11
7.5395965264
 21
7.4834516887
  0
LINE
  5
23C
100
AcDbEntity
  8
0
100
AcDbLine
 62
6
  6
CONTINUOUS
 10
9.220876948
 20
7.9974706977
 11
9.200485508
 21
7.9916235464
  0
LINE
  5
23D
100
AcDbEntity
  8
0
100
AcDbLine
 62
6
  6
CONTINUOUS
 10
7.5217126418
 20
7.5102431733
 11
7.5013212019
 21
7.5043960219
  0
LINE
  5
23E
100
AcDbEntity
  8
0
100
AcDbLine
 62
6
  6
CONTINUOUS
 10
7.080315747
 20
7.89698996
 11
7.08472622
 21
7.917739604
  0
LINE
  5
23F
100
AcDbEntity
  8
0
100
AcDbLine
 62
6
  6
CONTINUOUS
 10
7.4478286994
 20
9.6260024613
 11
7.4522391724
 21
9.6467521054
  0
LINE
  5
240
100
AcDbEntity
  8
0
100
AcDbLine
 62
6
  6
CONTINUOUS
 10
7.0567524814
 20
7.9337110449
 11
7.0618844198
 21
7.9542941255
  0
LINE
  5
241
100
AcDbEntity
  8
0
100
AcDbLine
 62
6
  6
CONTINUOUS
 10
7.4843832209
 20
9.6488442615
 11
7.4895151593
 21
9.6694273421
  0
LINE
  5
242
100
AcDbEntity
  8
0
100
AcDbLine
 62
6
  6
CONTINUOUS
 10
7.0344851173
 20
7.9712321065
 11
7.0403322686
 21
7.9916235464
  0
LINE
  5
243
100
AcDbEntity
  8
0
100
AcDbLine
 62
6
  6
CONTINUOUS
 10
7.5217126418
 20
9.6703964127
 11
7.5275597931
 21
9.6907878526
  0
LINE
  5
244
100
AcDbEntity
  8
0
100
AcDbLine
 62
6
  6
CONTINUOUS
 10
7.9272264036
 20
7.3706135875
 11
7.9100645615
 21
7.3581447793
  0
LINE
  5
245
100
AcDbEntity
  8
0
100
AcDbLine
 62
6
  6
CONTINUOUS
 10
7.8847769525
 20
7.378098571
 11
7.8671904098
 21
7.3662362982
  0
LINE
  5
246
100
AcDbEntity
  8
0
100
AcDbLine
 62
6
  6
CONTINUOUS
 10
7.8426145825
 20
7.3870604594
 11
7.8246247658
 21
7.3758191743
  0
LINE
  5
247
100
AcDbEntity
  8
0
100
AcDbLine
 62
6
  6
CONTINUOUS
 10
7.8007906622
 20
7.3974883339
 11
7.7824194891
 21
7.3868817322
  0
LINE
  5
248
100
AcDbEntity
  8
0
100
AcDbLine
 62
6
  6
CONTINUOUS
 10
7.7593561474
 20
7.4093694899
 11
7.7406260005
 21
7.3994104941
  0
LINE
  5
249
100
AcDbEntity
  8
0
100
AcDbLine
 62
6
  6
CONTINUOUS
 10
7.7183615198
 20
7.4226894518
 11
7.6992952188
 21
7.4133901955
  0
LINE
  5
24A
100
AcDbEntity
  8
0
100
AcDbLine
 62
6
  6
CONTINUOUS
 10
9.2926759154
 20
8.1563958167
 11
9.2732966898
 21
8.1477676296
  0
LINE
  5
24B
100
AcDbEntity
  8
0
100
AcDbLine
 62
6
  6
CONTINUOUS
 10
7.6778567249
 20
7.4374319915
 11
7.6584774993
 21
7.4288038043
  0
LINE
  5
24C
100
AcDbEntity
  8
0
100
AcDbLine
 62
6
  6
CONTINUOUS
 10
9.2768180737
 20
8.1157486222
 11
9.2571495339
 21
8.1078020163
  0
LINE
  5
24D
100
AcDbEntity
  8
0
100
AcDbLine
 62
6
  6
CONTINUOUS
 10
7.6378911117
 20
7.4535791474
 11
7.618222572
 21
7.4456325415
  0
LINE
  5
24E
100
AcDbEntity
  8
0
100
AcDbLine
 62
6
  6
CONTINUOUS
 10
7.1869307248
 20
7.7589844105
 11
7.1884104831
 21
7.7801459396
  0
LINE
  5
24F
100
AcDbEntity
  8
0
100
AcDbLine
 62
7
  6
CONTINUOUS
 10
7.310235035
 20
9.5223181982
 11
7.3117147932
 21
9.5434797274
  0
LINE
  5
250
100
AcDbEntity
  8
0
100
AcDbLine
 62
6
  6
CONTINUOUS
 10
7.158486188
 20
7.7920687556
 11
7.1607035716
 21
7.8131657509
  0
LINE
  5
251
100
AcDbEntity
  8
0
100
AcDbLine
 62
6
  6
CONTINUOUS
 10
7.3432548463
 20
9.5500251097
 11
7.3454722298
 21
9.571122105
  0
LINE
  5
252
100
AcDbEntity
  8
0
100
AcDbLine
 62
6
  6
CONTINUOUS
 10
7.1312136059
 20
7.8261256467
 11
7.1341659132
 21
7.8471324047
  0
LINE
  5
253
100
AcDbEntity
  8
0
100
AcDbLine
 62
6
  6
CONTINUOUS
 10
7.3772215
 20
9.5765627681
 11
7.3801738074
 21
9.5975695261
  0
LINE
  5
254
100
AcDbEntity
  8
0
100
AcDbLine
 62
6
  6
CONTINUOUS
 10
7.1051462059
 20
7.8611135906
 11
7.10882984
 21
7.8820045178
  0
LINE
  5
255
100
AcDbEntity
  8
0
100
AcDbLine
 62
6
  6
CONTINUOUS
 10
7.4120936132
 20
9.6018988413
 11
7.4157772473
 21
9.6227897685
  0
LINE
  5
256
100
AcDbEntity
  8
0
100
AcDbLine
 62
6
  6
CONTINUOUS
 10
9.3698667317
 20
8.6271314457
 11
9.3551308023
 21
8.6118719441
  0
LINE
  5
257
100
AcDbEntity
  8
0
100
AcDbLine
 62
6
  6
CONTINUOUS
 10
8.1419610395
 20
7.355597879
 11
8.1272251102
 21
7.3403383775
  0
LINE
  5
258
100
AcDbEntity
  8
0
100
AcDbLine
 62
6
  6
CONTINUOUS
 10
9.3703903038
 20
8.5835035711
 11
9.3551308023
 21
8.5687676418
  0
LINE
  5
259
100
AcDbEntity
  8
0
100
AcDbLine
 62
6
  6
CONTINUOUS
 10
8.0988567372
 20
7.355597879
 11
8.0835972356
 21
7.3408619496
  0
LINE
  5
25A
100
AcDbEntity
  8
0
100
AcDbLine
 62
6
  6
CONTINUOUS
 10
8.0557786928
 20
7.3571021974
 11
8.0400142104
 21
7.3429077938
  0
LINE
  5
25B
100
AcDbEntity
  8
0
100
AcDbLine
 62
6
  6
CONTINUOUS
 10
8.0127793903
 20
7.3601090016
 11
7.9965291337
 21
7.3464734172
  0
LINE
  5
25C
100
AcDbEntity
  8
0
100
AcDbLine
 62
6
  6
CONTINUOUS
 10
7.9699112179
 20
7.3646146281
 11
7.9531949854
 21
7.3515544759
  0
LINE
  5
25D
100
AcDbEntity
  8
0
100
AcDbLine
 62
6
  6
CONTINUOUS
 10
7.3117147932
 20
7.6371598586
 11
7.310235035
 21
7.6583213877
  0
LINE
  5
25E
100
AcDbEntity
  8
0
100
AcDbLine
 62
6
  6
CONTINUOUS
 10
7.1884104831
 20
9.4004936463
 11
7.1869307248
 21
9.4216551755
  0
LINE
  5
25F
100
AcDbEntity
  8
0
100
AcDbLine
 62
6
  6
CONTINUOUS
 10
7.2789426258
 20
7.6659635147
 11
7.2782022957
 21
7.6871637957
  0
LINE
  5
260
100
AcDbEntity
  8
0
100
AcDbLine
 62
6
  6
CONTINUOUS
 10
7.217252891
 20
9.4325263856
 11
7.2165125609
 21
9.4537266665
  0
LINE
  5
261
100
AcDbEntity
  8
0
100
AcDbLine
 62
6
  6
CONTINUOUS
 10
7.2471956555
 20
7.6958933567
 11
7.2471956555
 21
7.7171065601
  0
LINE
  5
262
100
AcDbEntity
  8
0
100
AcDbLine
 62
6
  6
CONTINUOUS
 10
7.2471956555
 20
9.4635330258
 11
7.2471956555
 21
9.4847462293
  0
LINE
  5
263
100
AcDbEntity
  8
0
100
AcDbLine
 62
6
  6
CONTINUOUS
 10
7.2165125609
 20
7.7269129194
 11
7.217252891
 21
7.7481132003
  0
LINE
  5
264
100
AcDbEntity
  8
0
100
AcDbLine
 62
6
  6
CONTINUOUS
 10
7.2782022957
 20
9.4934757903
 11
7.2789426258
 21
9.5146760712
  0
LINE
  5
265
100
AcDbEntity
  8
0
100
AcDbLine
 62
6
  6
CONTINUOUS
 10
9.3444923831
 20
8.8435382715
 11
9.3326301103
 21
8.8259517288
  0
LINE
  5
266
100
AcDbEntity
  8
0
100
AcDbLine
 62
6
  6
CONTINUOUS
 10
8.3560408242
 20
7.378098571
 11
8.3441785514
 21
7.3605120283
  0
LINE
  5
267
100
AcDbEntity
  8
0
100
AcDbLine
 62
6
  6
CONTINUOUS
 10
9.352583902
 20
8.8006641198
 11
9.3401150938
 21
8.7835022777
  0
LINE
  5
268
100
AcDbEntity
  8
0
100
AcDbLine
 62
6
  6
CONTINUOUS
 10
8.3135913731
 20
7.3706135875
 11
8.3011225649
 21
7.3534517454
  0
LINE
  5
269
100
AcDbEntity
  8
0
100
AcDbLine
 62
6
  6
CONTINUOUS
 10
9.3591742054
 20
8.7575336959
 11
9.3461140532
 21
8.7408174634
  0
LINE
  5
26A
100
AcDbEntity
  8
0
100
AcDbLine
 62
6
  6
CONTINUOUS
 10
8.2709065588
 20
7.3646146281
 11
8.2578464067
 21
7.3478983956
  0
LINE
  5
26B
100
AcDbEntity
  8
0
100
AcDbLine
 62
6
  6
CONTINUOUS
 10
9.3642552641
 20
8.7141995476
 11
9.3506196797
 21
8.697949291
  0
LINE
  5
26C
100
AcDbEntity
  8
0
100
AcDbLine
 62
6
  6
CONTINUOUS
 10
8.2280383863
 20
7.3601090016
 11
8.214402802
 21
7.343858745
  0
LINE
  5
26D
100
AcDbEntity
  8
0
100
AcDbLine
 62
6
  6
CONTINUOUS
 10
9.3678208875
 20
8.6707144709
 11
9.3536264839
 21
8.6549499885
  0
LINE
  5
26E
100
AcDbEntity
  8
0
100
AcDbLine
 62
6
  6
CONTINUOUS
 10
8.1850390839
 20
7.3571021974
 11
8.1708446802
 21
7.3413377151
  0
LINE
  5
26F
100
AcDbEntity
  8
0
100
AcDbLine
 62
6
  6
CONTINUOUS
 10
7.3454722298
 20
7.6095174809
 11
7.3432548463
 21
7.6306144762
  0
LINE
  5
270
100
AcDbEntity
  8
0
100
AcDbLine
 62
6
  6
CONTINUOUS
 10
7.1607035716
 20
9.367473835
 11
7.158486188
 21
9.3885708303
  0
LINE
  5
271
100
AcDbEntity
  8
0
100
AcDbLine
 62
6
  6
CONTINUOUS
 10
9.2973384858
 20
9.0114334625
 11
9.2880392295
 21
8.9923671615
  0
LINE
  5
272
100
AcDbEntity
  8
0
100
AcDbLine
 62
6
  6
CONTINUOUS
 10
8.5224562569
 20
7.4226894518
 11
8.5131570006
 21
7.4036231509
  0
LINE
  5
273
100
AcDbEntity
  8
0
100
AcDbLine
 62
6
  6
CONTINUOUS
 10
9.3113181872
 20
8.9701026808
 11
9.3013591914
 21
8.9513725339
  0
LINE
  5
274
100
AcDbEntity
  8
0
100
AcDbLine
 62
6
  6
CONTINUOUS
 10
8.4814616293
 20
7.4093694899
 11
8.4715026335
 21
7.390639343
  0
LINE
  5
275
100
AcDbEntity
  8
0
100
AcDbLine
 62
6
  6
CONTINUOUS
 10
9.3238469491
 20
8.9283091922
 11
9.3132403474
 21
8.9099380191
  0
LINE
  5
276
100
AcDbEntity
  8
0
100
AcDbLine
 62
6
  6
CONTINUOUS
 10
8.4400271145
 20
7.3974883339
 11
8.4294205128
 21
7.3791171609
  0
LINE
  5
277
100
AcDbEntity
  8
0
100
AcDbLine
 62
6
  6
CONTINUOUS
 10
9.334909507
 20
8.8861039155
 11
9.3236682219
 21
8.8681140988
  0
LINE
  5
278
100
AcDbEntity
  8
0
100
AcDbLine
 62
6
  6
CONTINUOUS
 10
8.3982031941
 20
7.3870604594
 11
8.386961909
 21
7.3690706426
  0
LINE
  5
279
100
AcDbEntity
  8
0
100
AcDbLine
 62
6
  6
CONTINUOUS
 10
7.4157772473
 20
7.5578498174
 11
7.4120936132
 21
7.5787407446
  0
LINE
  5
27A
100
AcDbEntity
  8
0
100
AcDbLine
 62
6
  6
CONTINUOUS
 10
7.10882984
 20
9.2986350681
 11
7.1051462059
 21
9.3195259953
  0
LINE
  5
27B
100
AcDbEntity
  8
0
100
AcDbLine
 62
6
  6
CONTINUOUS
 10
7.3801738074
 20
7.5830700598
 11
7.3772215
 21
7.6040768178
  0
LINE
  5
27C
100
AcDbEntity
  8
0
100
AcDbLine
 62
6
  6
CONTINUOUS
 10
7.1341659132
 20
9.3335071813
 11
7.1312136059
 21
9.3545139393
  0
LINE
  5
27D
100
AcDbEntity
  8
0
100
AcDbLine
 62
6
  6
CONTINUOUS
 10
9.2272769926
 20
9.1711321549
 11
9.2207217522
 21
9.1509571995
  0
LINE
  5
27E
100
AcDbEntity
  8
0
100
AcDbLine
 62
6
  6
CONTINUOUS
 10
8.6810462949
 20
7.4900069291
 11
8.6744910545
 21
7.4698319737
  0
LINE
  5
27F
100
AcDbEntity
  8
0
100
AcDbLine
 62
6
  6
CONTINUOUS
 10
9.2468727776
 20
9.1321491999
 11
9.2396174347
 21
9.1122153092
  0
LINE
  5
280
100
AcDbEntity
  8
0
100
AcDbLine
 62
6
  6
CONTINUOUS
 10
8.6423044046
 20
7.4711112466
 11
8.6350490617
 21
7.4511773559
  0
LINE
  5
281
100
AcDbEntity
  8
0
100
AcDbLine
 62
6
  6
CONTINUOUS
 10
9.2650961398
 20
9.0925061093
 11
9.2571495339
 21
9.0728375696
  0
LINE
  5
282
100
AcDbEntity
  8
0
100
AcDbLine
 62
6
  6
CONTINUOUS
 10
8.602926665
 20
7.4535791474
 11
8.5949800591
 21
7.4339106076
  0
LINE
  5
283
100
AcDbEntity
  8
0
100
AcDbLine
 62
6
  6
CONTINUOUS
 10
9.281924877
 20
9.052251182
 11
9.2732966898
 21
9.0328719564
  0
LINE
  5
284
100
AcDbEntity
  8
0
100
AcDbLine
 62
6
  6
CONTINUOUS
 10
8.5629610517
 20
7.4374319915
 11
8.5543328646
 21
7.4180527659
  0
LINE
  5
285
100
AcDbEntity
  8
0
100
AcDbLine
 62
6
  6
CONTINUOUS
 10
7.5663267221
 20
7.4698319737
 11
7.5597714818
 21
7.4900069291
  0
LINE
  5
286
100
AcDbEntity
  8
0
100
AcDbLine
 62
6
  6
CONTINUOUS
 10
7.0200960244
 20
9.1509571995
 11
7.0135407841
 21
9.1711321549
  0
LINE
  5
287
100
AcDbEntity
  8
0
100
AcDbLine
 62
7
  6
CONTINUOUS
 10
7.5275597931
 20
7.4898517333
 11
7.5217126418
 21
7.5102431733
  0
LINE
  5
288
100
AcDbEntity
  8
0
100
AcDbLine
 62
6
  6
CONTINUOUS
 10
7.0403322686
 20
9.1890160395
 11
7.0344851173
 21
9.2094074794
  0
LINE
  5
289
100
AcDbEntity
  8
0
100
AcDbLine
 62
6
  6
CONTINUOUS
 10
7.4895151593
 20
7.5112122438
 11
7.4843832209
 21
7.5317953244
  0
LINE
  5
28A
100
AcDbEntity
  8
0
100
AcDbLine
 62
6
  6
CONTINUOUS
 10
7.0618844198
 20
9.2263454604
 11
7.0567524814
 21
9.246928541
  0
LINE
  5
28B
100
AcDbEntity
  8
0
100
AcDbLine
 62
6
  6
CONTINUOUS
 10
7.4522391724
 20
7.5338874806
 11
7.4478286994
 21
7.5546371246
  0
LINE
  5
28C
100
AcDbEntity
  8
0
100
AcDbLine
 62
6
  6
CONTINUOUS
 10
7.08472622
 20
9.2628999819
 11
7.080315747
 21
9.283649626
  0
LINE
  5
28D
100
AcDbEntity
  8
0
100
AcDbLine
 62
6
  6
CONTINUOUS
 10
9.1356715708
 20
9.3195259953
 11
9.1319879367
 21
9.2986350681
  0
LINE
  5
28E
100
AcDbEntity
  8
0
100
AcDbLine
 62
6
  6
CONTINUOUS
 10
8.8287241635
 20
7.5787407446
 11
8.8250405294
 21
7.5578498174
  0
LINE
  5
28F
100
AcDbEntity
  8
0
100
AcDbLine
 62
6
  6
CONTINUOUS
 10
9.1605020297
 20
9.283649626
 11
9.1560915567
 21
9.2628999819
  0
LINE
  5
290
100
AcDbEntity
  8
0
100
AcDbLine
 62
6
  6
CONTINUOUS
 10
8.7929890773
 20
7.5546371246
 11
8.7885786043
 21
7.5338874806
  0
LINE
  5
291
100
AcDbEntity
  8
0
100
AcDbLine
 62
6
  6
CONTINUOUS
 10
9.1840652953
 20
9.246928541
 11
9.1789333569
 21
9.2263454604
  0
LINE
  5
292
100
AcDbEntity
  8
0
100
AcDbLine
 62
6
  6
CONTINUOUS
 10
8.7564345558
 20
7.5317953244
 11
8.7513026174
 21
7.5112122438
  0
LINE
  5
293
100
AcDbEntity
  8
0
100
AcDbLine
 62
6
  6
CONTINUOUS
 10
9.2063326594
 20
9.2094074794
 11
9.200485508
 21
9.1890160395
  0
LINE
  5
294
100
AcDbEntity
  8
0
100
AcDbLine
 62
7
  6
CONTINUOUS
 10
8.7191051349
 20
7.5102431733
 11
8.7132579836
 21
7.4898517333
  0
LINE
  5
295
100
AcDbEntity
  8
0
100
AcDbLine
 62
6
  6
CONTINUOUS
 10
7.7276607761
 20
7.4036231509
 11
7.7183615198
 21
7.4226894518
  0
LINE
  5
296
100
AcDbEntity
  8
0
100
AcDbLine
 62
6
  6
CONTINUOUS
 10
6.9527785472
 20
8.9923671615
 11
6.9434792909
 21
9.0114334625
  0
LINE
  5
297
100
AcDbEntity
  8
0
100
AcDbLine
 62
6
  6
CONTINUOUS
 10
7.6864849121
 20
7.4180527659
 11
7.6778567249
 21
7.4374319915
  0
LINE
  5
298
100
AcDbEntity
  8
0
100
AcDbLine
 62
6
  6
CONTINUOUS
 10
6.9675210869
 20
9.0328719564
 11
6.9588928997
 21
9.052251182
  0
LINE
  5
299
100
AcDbEntity
  8
0
100
AcDbLine
 62
6
  6
CONTINUOUS
 10
7.6458377176
 20
7.4339106076
 11
7.6378911117
 21
7.4535791474
  0
LINE
  5
29A
100
AcDbEntity
  8
0
100
AcDbLine
 62
6
  6
CONTINUOUS
 10
6.9836682427
 20
9.0728375696
 11
6.9757216369
 21
9.0925061093
  0
LINE
  5
29B
100
AcDbEntity
  8
0
100
AcDbLine
 62
6
  6
CONTINUOUS
 10
7.605768715
 20
7.4511773559
 11
7.5985133721
 21
7.4711112466
  0
LINE
  5
29C
100
AcDbEntity
  8
0
100
AcDbLine
 62
6
  6
CONTINUOUS
 10
7.001200342
 20
9.1122153092
 11
6.9939449991
 21
9.1321491999
  0
LINE
  5
29D
100
AcDbEntity
  8
0
100
AcDbLine
 62
6
  6
CONTINUOUS
 10
9.0538870519
 20
9.4216551755
 11
9.0524072936
 21
9.4004936463
  0
LINE
  5
29E
100
AcDbEntity
  8
0
100
AcDbLine
 62
6
  6
CONTINUOUS
 10
8.9305827417
 20
7.6583213877
 11
8.9291029834
 21
7.6371598586
  0
LINE
  5
29F
100
AcDbEntity
  8
0
100
AcDbLine
 62
6
  6
CONTINUOUS
 10
9.0823315886
 20
9.3885708303
 11
9.0801142051
 21
9.367473835
  0
LINE
  5
2A0
100
AcDbEntity
  8
0
100
AcDbLine
 62
6
  6
CONTINUOUS
 10
8.8975629304
 20
7.6306144762
 11
8.8953455469
 21
7.6095174809
  0
LINE
  5
2A1
100
AcDbEntity
  8
0
100
AcDbLine
 62
6
  6
CONTINUOUS
 10
9.1096041708
 20
9.3545139393
 11
9.1066518635
 21
9.3335071813
  0
LINE
  5
2A2
100
AcDbEntity
  8
0
100
AcDbLine
 62
6
  6
CONTINUOUS
 10
8.8635962766
 20
7.6040768178
 11
8.8606439693
 21
7.5830700598
  0
LINE
  5
2A3
100
AcDbEntity
  8
0
100
AcDbLine
 62
6
  6
CONTINUOUS
 10
7.8966392253
 20
7.3605120283
 11
7.8847769525
 21
7.378098571
  0
LINE
  5
2A4
100
AcDbEntity
  8
0
100
AcDbLine
 62
6
  6
CONTINUOUS
 10
6.9081876664
 20
8.8259517288
 11
6.8963253936
 21
8.8435382715
  0
LINE
  5
2A5
100
AcDbEntity
  8
0
100
AcDbLine
 62
6
  6
CONTINUOUS
 10
7.8538558677
 20
7.3690706426
 11
7.8426145825
 21
7.3870604594
  0
LINE
  5
2A6
100
AcDbEntity
  8
0
100
AcDbLine
 62
6
  6
CONTINUOUS
 10
6.9171495548
 20
8.8681140988
 11
6.9059082696
 21
8.8861039155
  0
LINE
  5
2A7
100
AcDbEntity
  8
0
100
AcDbLine
 62
6
  6
CONTINUOUS
 10
7.8113972639
 20
7.3791171609
 11
7.8007906622
 21
7.3974883339
  0
LINE
  5
2A8
100
AcDbEntity
  8
0
100
AcDbLine
 62
6
  6
CONTINUOUS
 10
6.9275774293
 20
8.9099380191
 11
6.9169708276
 21
8.9283091922
  0
LINE
  5
2A9
100
AcDbEntity
  8
0
100
AcDbLine
 62
6
  6
CONTINUOUS
 10
7.7693151432
 20
7.390639343
 11
7.7593561474
 21
7.4093694899
  0
LINE
  5
2AA
100
AcDbEntity
  8
0
100
AcDbLine
 62
6
  6
CONTINUOUS
 10
6.9394585853
 20
8.9513725339
 11
6.9294995895
 21
8.9701026808
  0
LINE
  5
2AB
100
AcDbEntity
  8
0
100
AcDbLine
 62
7
  6
CONTINUOUS
 10
8.9291029834
 20
9.5434797274
 11
8.9305827417
 21
9.5223181982
  0
LINE
  5
2AC
100
AcDbEntity
  8
0
100
AcDbLine
 62
6
  6
CONTINUOUS
 10
9.0524072936
 20
7.7801459396
 11
9.0538870519
 21
7.7589844105
  0
LINE
  5
2AD
100
AcDbEntity
  8
0
100
AcDbLine
 62
6
  6
CONTINUOUS
 10
8.9618751508
 20
9.5146760712
 11
8.962615481
 21
9.4934757903
  0
LINE
  5
2AE
100
AcDbEntity
  8
0
100
AcDbLine
 62
6
  6
CONTINUOUS
 10
9.0235648856
 20
7.7481132003
 11
9.0243052158
 21
7.7269129194
  0
LINE
  5
2AF
100
AcDbEntity
  8
0
100
AcDbLine
 62
6
  6
CONTINUOUS
 10
8.9936221212
 20
9.4847462293
 11
8.9936221212
 21
9.4635330258
  0
LINE
  5
2B0
100
AcDbEntity
  8
0
100
AcDbLine
 62
6
  6
CONTINUOUS
 10
8.9936221212
 20
7.7171065601
 11
8.9936221212
 21
7.6958933567
  0
LINE
  5
2B1
100
AcDbEntity
  8
0
100
AcDbLine
 62
6
  6
CONTINUOUS
 10
9.0243052158
 20
9.4537266665
 11
9.0235648856
 21
9.4325263856
  0
LINE
  5
2B2
100
AcDbEntity
  8
0
100
AcDbLine
 62
6
  6
CONTINUOUS
 10
8.962615481
 20
7.6871637957
 11
8.9618751508
 21
7.6659635147
  0
LINE
  5
2B3
100
AcDbEntity
  8
0
100
AcDbLine
 62
6
  6
CONTINUOUS
 10
8.1135926665
 20
7.3403383775
 11
8.0988567372
 21
7.355597879
  0
LINE
  5
2B4
100
AcDbEntity
  8
0
100
AcDbLine
 62
6
  6
CONTINUOUS
 10
6.8856869744
 20
8.6118719441
 11
6.870951045
 21
8.6271314457
  0
LINE
  5
2B5
100
AcDbEntity
  8
0
100
AcDbLine
 62
6
  6
CONTINUOUS
 10
8.0699730965
 20
7.3413377151
 11
8.0557786928
 21
7.3571021974
  0
LINE
  5
2B6
100
AcDbEntity
  8
0
100
AcDbLine
 62
6
  6
CONTINUOUS
 10
6.8871912928
 20
8.6549499885
 11
6.8729968891
 21
8.6707144709
  0
LINE
  5
2B7
100
AcDbEntity
  8
0
100
AcDbLine
 62
6
  6
CONTINUOUS
 10
8.0264149747
 20
7.343858745
 11
8.0127793903
 21
7.3601090016
  0
LINE
  5
2B8
100
AcDbEntity
  8
0
100
AcDbLine
 62
6
  6
CONTINUOUS
 10
6.8901980969
 20
8.697949291
 11
6.8765625126
 21
8.7141995476
  0
LINE
  5
2B9
100
AcDbEntity
  8
0
100
AcDbLine
 62
6
  6
CONTINUOUS
 10
7.98297137
 20
7.3478983956
 11
7.9699112179
 21
7.3646146281
  0
LINE
  5
2BA
100
AcDbEntity
  8
0
100
AcDbLine
 62
6
  6
CONTINUOUS
 10
6.8947037234
 20
8.7408174634
 11
6.8816435713
 21
8.7575336959
  0
LINE
  5
2BB
100
AcDbEntity
  8
0
100
AcDbLine
 62
6
  6
CONTINUOUS
 10
7.9396952118
 20
7.3534517454
 11
7.9272264036
 21
7.3706135875
  0
LINE
  5
2BC
100
AcDbEntity
  8
0
100
AcDbLine
 62
6
  6
CONTINUOUS
 10
6.9007026829
 20
8.7835022777
 11
6.8882338747
 21
8.8006641198
  0
LINE
  5
2BD
100
AcDbEntity
  8
0
100
AcDbLine
 62
6
  6
CONTINUOUS
 10
8.8953455469
 20
9.571122105
 11
8.8975629304
 21
9.5500251097
  0
LINE
  5
2BE
100
AcDbEntity
  8
0
100
AcDbLine
 62
6
  6
CONTINUOUS
 10
9.0801142051
 20
7.8131657509
 11
9.0823315886
 21
7.7920687556
  0
LINE
  5
2BF
100
AcDbEntity
  8
0
100
AcDbLine
 62
6
  6
CONTINUOUS
 10
8.3736273669
 20
7.3662362982
 11
8.3560408242
 21
7.378098571
  0
LINE
  5
2C0
100
AcDbEntity
  8
0
100
AcDbLine
 62
6
  6
CONTINUOUS
 10
8.3307532151
 20
7.3581447793
 11
8.3135913731
 21
7.3706135875
  0
LINE
  5
2C1
100
AcDbEntity
  8
0
100
AcDbLine
 62
6
  6
CONTINUOUS
 10
8.2876227912
 20
7.3515544759
 11
8.2709065588
 21
7.3646146281
  0
LINE
  5
2C2
100
AcDbEntity
  8
0
100
AcDbLine
 62
6
  6
CONTINUOUS
 10
8.2442886429
 20
7.3464734172
 11
8.2280383863
 21
7.3601090016
  0
LINE
  5
2C3
100
AcDbEntity
  8
0
100
AcDbLine
 62
6
  6
CONTINUOUS
 10
8.2008035663
 20
7.3429077938
 11
8.1850390839
 21
7.3571021974
  0
LINE
  5
2C4
100
AcDbEntity
  8
0
100
AcDbLine
 62
6
  6
CONTINUOUS
 10
8.157220541
 20
7.3408619496
 11
8.1419610395
 21
7.355597879
  0
LINE
  5
2C5
100
AcDbEntity
  8
0
100
AcDbLine
 62
6
  6
CONTINUOUS
 10
6.8856869744
 20
8.5687676418
 11
6.8704274728
 21
8.5835035711
  0
LINE
  5
2C6
100
AcDbEntity
  8
0
100
AcDbLine
 62
6
  6
CONTINUOUS
 10
8.7885786043
 20
9.6467521054
 11
8.7929890773
 21
9.6260024613
  0
LINE
  5
2C7
100
AcDbEntity
  8
0
100
AcDbLine
 62
6
  6
CONTINUOUS
 10
9.1560915567
 20
7.917739604
 11
9.1605020297
 21
7.89698996
  0
LINE
  5
2C8
100
AcDbEntity
  8
0
100
AcDbLine
 62
6
  6
CONTINUOUS
 10
8.8250405294
 20
9.6227897685
 11
8.8287241635
 21
9.6018988413
  0
LINE
  5
2C9
100
AcDbEntity
  8
0
100
AcDbLine
 62
6
  6
CONTINUOUS
 10
9.1319879367
 20
7.8820045178
 11
9.1356715708
 21
7.8611135906
  0
LINE
  5
2CA
100
AcDbEntity
  8
0
100
AcDbLine
 62
6
  6
CONTINUOUS
 10
8.8606439693
 20
9.5975695261
 11
8.8635962766
 21
9.5765627681
  0
LINE
  5
2CB
100
AcDbEntity
  8
0
100
AcDbLine
 62
6
  6
CONTINUOUS
 10
9.1066518635
 20
7.8471324047
 11
9.1096041708
 21
7.8261256467
  0
LINE
  5
2CC
100
AcDbEntity
  8
0
100
AcDbLine
 62
6
  6
CONTINUOUS
 10
9.1995164375
 20
7.9594260639
 11
9.1789333569
 21
7.9542941255
  0
LINE
  5
2CD
100
AcDbEntity
  8
0
100
AcDbLine
 62
6
  6
CONTINUOUS
 10
7.4843832209
 20
7.5317953244
 11
7.4638001403
 21
7.526663386
  0
LINE
  5
2CE
100
AcDbEntity
  8
0
100
AcDbLine
 62
6
  6
CONTINUOUS
 10
8.7770176364
 20
7.526663386
 11
8.7564345558
 21
7.5317953244
  0
LINE
  5
2CF
100
AcDbEntity
  8
0
100
AcDbLine
 62
6
  6
CONTINUOUS
 10
7.0618844198
 20
7.9542941255
 11
7.0413013392
 21
7.9594260639
  0
LINE
  5
2D0
100
AcDbEntity
  8
0
100
AcDbLine
 62
6
  6
CONTINUOUS
 10
8.7394965748
 20
7.5043960219
 11
8.7191051349
 21
7.5102431733
  0
LINE
  5
2D1
100
AcDbEntity
  8
0
100
AcDbLine
 62
6
  6
CONTINUOUS
 10
7.0403322686
 20
7.9916235464
 11
7.0199408287
 21
7.9974706977
  0
LINE
  5
2D2
100
AcDbEntity
  8
0
100
AcDbLine
 62
6
  6
CONTINUOUS
 10
8.7012212503
 20
7.4834516887
 11
8.6810462949
 21
7.4900069291
  0
LINE
  5
2D3
100
AcDbEntity
  8
0
100
AcDbLine
 62
6
  6
CONTINUOUS
 10
7.0200960244
 20
8.0296823864
 11
6.9999210691
 21
8.0362376268
  0
LINE
  5
2D4
100
AcDbEntity
  8
0
100
AcDbLine
 62
6
  6
CONTINUOUS
 10
8.6622382953
 20
7.4638559037
 11
8.6423044046
 21
7.4711112466
  0
LINE
  5
2D5
100
AcDbEntity
  8
0
100
AcDbLine
 62
7
  6
CONTINUOUS
 10
7.001200342
 20
8.0684242767
 11
6.9812664513
 21
8.0756796196
  0
LINE
  5
2D6
100
AcDbEntity
  8
0
100
AcDbLine
 62
6
  6
CONTINUOUS
 10
8.6225952047
 20
7.4456325415
 11
8.602926665
 21
7.4535791474
  0
LINE
  5
2D7
100
AcDbEntity
  8
0
100
AcDbLine
 62
6
  6
CONTINUOUS
 10
6.9836682427
 20
8.1078020163
 11
6.963999703
 21
8.1157486222
  0
LINE
  5
2D8
100
AcDbEntity
  8
0
100
AcDbLine
 62
6
  6
CONTINUOUS
 10
8.5823402774
 20
7.4288038043
 11
8.5629610517
 21
7.4374319915
  0
LINE
  5
2D9
100
AcDbEntity
  8
0
100
AcDbLine
 62
6
  6
CONTINUOUS
 10
6.9675210869
 20
8.1477676296
 11
6.9481418612
 21
8.1563958167
  0
LINE
  5
2DA
100
AcDbEntity
  8
0
100
AcDbLine
 62
6
  6
CONTINUOUS
 10
8.5415225579
 20
7.4133901955
 11
8.5224562569
 21
7.4226894518
  0
LINE
  5
2DB
100
AcDbEntity
  8
0
100
AcDbLine
 62
6
  6
CONTINUOUS
 10
8.5001917762
 20
7.3994104941
 11
8.4814616293
 21
7.4093694899
  0
LINE
  5
2DC
100
AcDbEntity
  8
0
100
AcDbLine
 62
6
  6
CONTINUOUS
 10
8.4583982876
 20
7.3868817322
 11
8.4400271145
 21
7.3974883339
  0
LINE
  5
2DD
100
AcDbEntity
  8
0
100
AcDbLine
 62
6
  6
CONTINUOUS
 10
8.4161930109
 20
7.3758191743
 11
8.3982031941
 21
7.3870604594
  0
LINE
  5
2DE
100
AcDbEntity
  8
0
100
AcDbLine
 62
6
  6
CONTINUOUS
 10
8.6350490617
 20
9.72946223
 11
8.6423044046
 21
9.7095283393
  0
LINE
  5
2DF
100
AcDbEntity
  8
0
100
AcDbLine
 62
6
  6
CONTINUOUS
 10
9.2396174347
 20
8.0684242767
 11
9.2468727776
 21
8.048490386
  0
LINE
  5
2E0
100
AcDbEntity
  8
0
100
AcDbLine
 62
6
  6
CONTINUOUS
 10
8.6744910545
 20
9.7108076122
 11
8.6810462949
 21
9.6906326569
  0
LINE
  5
2E1
100
AcDbEntity
  8
0
100
AcDbLine
 62
6
  6
CONTINUOUS
 10
9.2207217522
 20
8.0296823864
 11
9.2272769926
 21
8.009507431
  0
LINE
  5
2E2
100
AcDbEntity
  8
0
100
AcDbLine
 62
6
  6
CONTINUOUS
 10
8.7132579836
 20
9.6907878526
 11
8.7191051349
 21
9.6703964127
  0
LINE
  5
2E3
100
AcDbEntity
  8
0
100
AcDbLine
 62
6
  6
CONTINUOUS
 10
9.200485508
 20
7.9916235464
 11
9.2063326594
 21
7.9712321065
  0
LINE
  5
2E4
100
AcDbEntity
  8
0
100
AcDbLine
 62
6
  6
CONTINUOUS
 10
8.7513026174
 20
9.6694273421
 11
8.7564345558
 21
9.6488442615
  0
LINE
  5
2E5
100
AcDbEntity
  8
0
100
AcDbLine
 62
6
  6
CONTINUOUS
 10
9.1789333569
 20
7.9542941255
 11
9.1840652953
 21
7.9337110449
  0
LINE
  5
2E6
100
AcDbEntity
  8
0
100
AcDbLine
 62
6
  6
CONTINUOUS
 10
9.1768412007
 20
7.922150077
 11
9.1560915567
 21
7.917739604
  0
LINE
  5
2E7
100
AcDbEntity
  8
0
100
AcDbLine
 62
6
  6
CONTINUOUS
 10
7.4478286994
 20
7.5546371246
 11
7.4270790553
 21
7.5502266516
  0
LINE
  5
2E8
100
AcDbEntity
  8
0
100
AcDbLine
 62
7
  6
CONTINUOUS
 10
9.1528788639
 20
7.8856881519
 11
9.1319879367
 21
7.8820045178
  0
LINE
  5
2E9
100
AcDbEntity
  8
0
100
AcDbLine
 62
6
  6
CONTINUOUS
 10
7.4120936132
 20
7.5787407446
 11
7.391202686
 21
7.5750571105
  0
LINE
  5
2EA
100
AcDbEntity
  8
0
100
AcDbLine
 62
6
  6
CONTINUOUS
 10
9.1276586215
 20
7.850084712
 11
9.1066518635
 21
7.8471324047
  0
LINE
  5
2EB
100
AcDbEntity
  8
0
100
AcDbLine
 62
6
  6
CONTINUOUS
 10
7.3772215
 20
7.6040768178
 11
7.356214742
 21
7.6011245105
  0
LINE
  5
2EC
100
AcDbEntity
  8
0
100
AcDbLine
 62
7
  6
CONTINUOUS
 10
9.1012112004
 20
7.8153831344
 11
9.0801142051
 21
7.8131657509
  0
LINE
  5
2ED
100
AcDbEntity
  8
0
100
AcDbLine
 62
6
  6
CONTINUOUS
 10
7.3432548463
 20
7.6306144762
 11
7.322157851
 21
7.6283970927
  0
LINE
  5
2EE
100
AcDbEntity
  8
0
100
AcDbLine
 62
6
  6
CONTINUOUS
 10
9.0735688227
 20
7.7816256979
 11
9.0524072936
 21
7.7801459396
  0
LINE
  5
2EF
100
AcDbEntity
  8
0
100
AcDbLine
 62
6
  6
CONTINUOUS
 10
7.310235035
 20
7.6583213877
 11
7.2890735058
 21
7.6568416294
  0
LINE
  5
2F0
100
AcDbEntity
  8
0
100
AcDbLine
 62
6
  6
CONTINUOUS
 10
9.0447651666
 20
7.7488535305
 11
9.0235648856
 21
7.7481132003
  0
LINE
  5
2F1
100
AcDbEntity
  8
0
100
AcDbLine
 62
6
  6
CONTINUOUS
 10
7.2782022957
 20
7.6871637957
 11
7.2570020148
 21
7.6864234655
  0
LINE
  5
2F2
100
AcDbEntity
  8
0
100
AcDbLine
 62
6
  6
CONTINUOUS
 10
9.0148353246
 20
7.7171065601
 11
8.9936221212
 21
7.7171065601
  0
LINE
  5
2F3
100
AcDbEntity
  8
0
100
AcDbLine
 62
6
  6
CONTINUOUS
 10
7.2471956555
 20
7.7171065601
 11
7.225982452
 21
7.7171065601
  0
LINE
  5
2F4
100
AcDbEntity
  8
0
100
AcDbLine
 62
6
  6
CONTINUOUS
 10
8.9838157619
 20
7.6864234655
 11
8.962615481
 21
7.6871637957
  0
LINE
  5
2F5
100
AcDbEntity
  8
0
100
AcDbLine
 62
6
  6
CONTINUOUS
 10
7.217252891
 20
7.7481132003
 11
7.1960526101
 21
7.7488535305
  0
LINE
  5
2F6
100
AcDbEntity
  8
0
100
AcDbLine
 62
6
  6
CONTINUOUS
 10
8.9517442708
 20
7.6568416294
 11
8.9305827417
 21
7.6583213877
  0
LINE
  5
2F7
100
AcDbEntity
  8
0
100
AcDbLine
 62
6
  6
CONTINUOUS
 10
7.1884104831
 20
7.7801459396
 11
7.1672489539
 21
7.7816256979
  0
LINE
  5
2F8
100
AcDbEntity
  8
0
100
AcDbLine
 62
6
  6
CONTINUOUS
 10
8.9186599257
 20
7.6283970927
 11
8.8975629304
 21
7.6306144762
  0
LINE
  5
2F9
100
AcDbEntity
  8
0
100
AcDbLine
 62
7
  6
CONTINUOUS
 10
7.1607035716
 20
7.8131657509
 11
7.1396065763
 21
7.8153831344
  0
LINE
  5
2FA
100
AcDbEntity
  8
0
100
AcDbLine
 62
6
  6
CONTINUOUS
 10
8.8846030346
 20
7.6011245105
 11
8.8635962766
 21
7.6040768178
  0
LINE
  5
2FB
100
AcDbEntity
  8
0
100
AcDbLine
 62
6
  6
CONTINUOUS
 10
7.1341659132
 20
7.8471324047
 11
7.1131591552
 21
7.850084712
  0
LINE
  5
2FC
100
AcDbEntity
  8
0
100
AcDbLine
 62
6
  6
CONTINUOUS
 10
8.8496150907
 20
7.5750571105
 11
8.8287241635
 21
7.5787407446
  0
LINE
  5
2FD
100
AcDbEntity
  8
0
100
AcDbLine
 62
7
  6
CONTINUOUS
 10
7.10882984
 20
7.8820045178
 11
7.0879389128
 21
7.8856881519
  0
LINE
  5
2FE
100
AcDbEntity
  8
0
100
AcDbLine
 62
6
  6
CONTINUOUS
 10
8.8137387213
 20
7.5502266516
 11
8.7929890773
 21
7.5546371246
  0
LINE
  5
2FF
100
AcDbEntity
  8
0
100
AcDbLine
 62
6
  6
CONTINUOUS
 10
7.08472622
 20
7.917739604
 11
7.0639765759
 21
7.922150077
  0
LINE
  5
300
100
AcDbEntity
  8
0
100
AcDbLine
 62
6
  6
CONTINUOUS
 10
8.4715026335
 20
9.790000243
 11
8.4814616293
 21
9.7712700961
  0
LINE
  5
301
100
AcDbEntity
  8
0
100
AcDbLine
 62
6
  6
CONTINUOUS
 10
8.5131570006
 20
9.777016435
 11
8.5224562569
 21
9.7579501341
  0
LINE
  5
302
100
AcDbEntity
  8
0
100
AcDbLine
 62
6
  6
CONTINUOUS
 10
9.2952339589
 20
8.1735210431
 11
9.2973384858
 21
8.1692061234
  0
LINE
  5
303
100
AcDbEntity
  8
0
100
AcDbLine
 62
6
  6
CONTINUOUS
 10
8.5543328646
 20
9.7625868201
 11
8.5629610517
 21
9.7432075944
  0
LINE
  5
304
100
AcDbEntity
  8
0
100
AcDbLine
 62
6
  6
CONTINUOUS
 10
9.2732966898
 20
8.1477676296
 11
9.281924877
 21
8.1283884039
  0
LINE
  5
305
100
AcDbEntity
  8
0
100
AcDbLine
 62
6
  6
CONTINUOUS
 10
8.5949800591
 20
9.7467289783
 11
8.602926665
 21
9.7270604386
  0
LINE
  5
306
100
AcDbEntity
  8
0
100
AcDbLine
 62
6
  6
CONTINUOUS
 10
9.2571495339
 20
8.1078020163
 11
9.2650961398
 21
8.0881334766
  0
LINE
  5
307
100
AcDbEntity
  8
0
100
AcDbLine
 62
6
  6
CONTINUOUS
 10
8.3011225649
 20
9.8271878405
 11
8.3135913731
 21
9.8100259984
  0
LINE
  5
308
100
AcDbEntity
  8
0
100
AcDbLine
 62
6
  6
CONTINUOUS
 10
8.3441785514
 20
9.8201275576
 11
8.3560408242
 21
9.8025410149
  0
LINE
  5
309
100
AcDbEntity
  8
0
100
AcDbLine
 62
6
  6
CONTINUOUS
 10
8.386961909
 20
9.8115689433
 11
8.3982031941
 21
9.7935791265
  0
LINE
  5
30A
100
AcDbEntity
  8
0
100
AcDbLine
 62
6
  6
CONTINUOUS
 10
8.4294205128
 20
9.801522425
 11
8.4400271145
 21
9.783151252
  0
LINE
  5
30B
100
AcDbEntity
  8
0
100
AcDbLine
 62
6
  6
CONTINUOUS
 10
8.0835972356
 20
9.8397776363
 11
8.0988567372
 21
9.8250417069
  0
LINE
  5
30C
100
AcDbEntity
  8
0
100
AcDbLine
 62
6
  6
CONTINUOUS
 10
9.3551308023
 20
8.6118719441
 11
9.3703903038
 21
8.5971360148
  0
LINE
  5
30D
100
AcDbEntity
  8
0
100
AcDbLine
 62
6
  6
CONTINUOUS
 10
8.1272251102
 20
9.8403012085
 11
8.1419610395
 21
9.8250417069
  0
LINE
  5
30E
100
AcDbEntity
  8
0
100
AcDbLine
 62
6
  6
CONTINUOUS
 10
9.3551308023
 20
8.5687676418
 11
9.3698667317
 21
8.5535081403
  0
LINE
  5
30F
100
AcDbEntity
  8
0
100
AcDbLine
 62
6
  6
CONTINUOUS
 10
8.1708446802
 20
9.8393018709
 11
8.1850390839
 21
9.8235373885
  0
LINE
  5
310
100
AcDbEntity
  8
0
100
AcDbLine
 62
6
  6
CONTINUOUS
 10
8.214402802
 20
9.836780841
 11
8.2280383863
 21
9.8205305844
  0
LINE
  5
311
100
AcDbEntity
  8
0
100
AcDbLine
 62
6
  6
CONTINUOUS
 10
8.2578464067
 20
9.8327411903
 11
8.2709065588
 21
9.8160249579
  0
LINE
  5
312
100
AcDbEntity
  8
0
100
AcDbLine
 62
6
  6
CONTINUOUS
 10
7.8246247658
 20
9.8048204117
 11
7.8426145825
 21
9.7935791265
  0
LINE
  5
313
100
AcDbEntity
  8
0
100
AcDbLine
 62
6
  6
CONTINUOUS
 10
9.3236682219
 20
8.8681140988
 11
9.3416580387
 21
8.8568728136
  0
LINE
  5
314
100
AcDbEntity
  8
0
100
AcDbLine
 62
6
  6
CONTINUOUS
 10
7.8671904098
 20
9.8144032877
 11
7.8847769525
 21
9.8025410149
  0
LINE
  5
315
100
AcDbEntity
  8
0
100
AcDbLine
 62
6
  6
CONTINUOUS
 10
9.3326301103
 20
8.8259517288
 11
9.350216653
 21
8.814089456
  0
LINE
  5
316
100
AcDbEntity
  8
0
100
AcDbLine
 62
6
  6
CONTINUOUS
 10
7.9100645615
 20
9.8224948066
 11
7.9272264036
 21
9.8100259984
  0
LINE
  5
317
100
AcDbEntity
  8
0
100
AcDbLine
 62
6
  6
CONTINUOUS
 10
9.3401150938
 20
8.7835022777
 11
9.3572769359
 21
8.7710334695
  0
LINE
  5
318
100
AcDbEntity
  8
0
100
AcDbLine
 62
6
  6
CONTINUOUS
 10
7.9531949854
 20
9.82908511
 11
7.9699112179
 21
9.8160249579
  0
LINE
  5
319
100
AcDbEntity
  8
0
100
AcDbLine
 62
6
  6
CONTINUOUS
 10
9.3461140532
 20
8.7408174634
 11
9.3628302857
 21
8.7277573113
  0
LINE
  5
31A
100
AcDbEntity
  8
0
100
AcDbLine
 62
6
  6
CONTINUOUS
 10
7.9965291337
 20
9.8341661687
 11
8.0127793903
 21
9.8205305844
  0
LINE
  5
31B
100
AcDbEntity
  8
0
100
AcDbLine
 62
6
  6
CONTINUOUS
 10
9.3506196797
 20
8.697949291
 11
9.3668699363
 21
8.6843137066
  0
LINE
  5
31C
100
AcDbEntity
  8
0
100
AcDbLine
 62
6
  6
CONTINUOUS
 10
8.0400142104
 20
9.8377317922
 11
8.0557786928
 21
9.8235373885
  0
LINE
  5
31D
100
AcDbEntity
  8
0
100
AcDbLine
 62
6
  6
CONTINUOUS
 10
9.3536264839
 20
8.6549499885
 11
9.3693909662
 21
8.6407555848
  0
LINE
  5
31E
100
AcDbEntity
  8
0
100
AcDbLine
 62
6
  6
CONTINUOUS
 10
7.0413013392
 20
9.221213522
 11
7.0618844198
 21
9.2263454604
  0
LINE
  5
31F
100
AcDbEntity
  8
0
100
AcDbLine
 62
6
  6
CONTINUOUS
 10
8.7564345558
 20
9.6488442615
 11
8.7770176364
 21
9.6539761999
  0
LINE
  5
320
100
AcDbEntity
  8
0
100
AcDbLine
 62
6
  6
CONTINUOUS
 10
7.0639765759
 20
9.2584895089
 11
7.08472622
 21
9.2628999819
  0
LINE
  5
321
100
AcDbEntity
  8
0
100
AcDbLine
 62
6
  6
CONTINUOUS
 10
8.7929890773
 20
9.6260024613
 11
8.8137387213
 21
9.6304129343
  0
LINE
  5
322
100
AcDbEntity
  8
0
100
AcDbLine
 62
6
  6
CONTINUOUS
 10
7.4270790553
 20
9.6304129343
 11
7.4478286994
 21
9.6260024613
  0
LINE
  5
323
100
AcDbEntity
  8
0
100
AcDbLine
 62
6
  6
CONTINUOUS
 10
9.1560915567
 20
9.2628999819
 11
9.1768412007
 21
9.2584895089
  0
LINE
  5
324
100
AcDbEntity
  8
0
100
AcDbLine
 62
6
  6
CONTINUOUS
 10
7.4638001403
 20
9.6539761999
 11
7.4843832209
 21
9.6488442615
  0
LINE
  5
325
100
AcDbEntity
  8
0
100
AcDbLine
 62
6
  6
CONTINUOUS
 10
9.1789333569
 20
9.2263454604
 11
9.1995164375
 21
9.221213522
  0
LINE
  5
326
100
AcDbEntity
  8
0
100
AcDbLine
 62
6
  6
CONTINUOUS
 10
7.5013212019
 20
9.676243564
 11
7.5217126418
 21
9.6703964127
  0
LINE
  5
327
100
AcDbEntity
  8
0
100
AcDbLine
 62
6
  6
CONTINUOUS
 10
9.200485508
 20
9.1890160395
 11
9.220876948
 21
9.1831688882
  0
LINE
  5
328
100
AcDbEntity
  8
0
100
AcDbLine
 62
6
  6
CONTINUOUS
 10
7.5395965264
 20
9.6971878972
 11
7.5597714818
 21
9.6906326569
  0
LINE
  5
329
100
AcDbEntity
  8
0
100
AcDbLine
 62
6
  6
CONTINUOUS
 10
9.2207217522
 20
9.1509571995
 11
9.2408967076
 21
9.1444019592
  0
LINE
  5
32A
100
AcDbEntity
  8
0
100
AcDbLine
 62
6
  6
CONTINUOUS
 10
7.5785794814
 20
9.7167836822
 11
7.5985133721
 21
9.7095283393
  0
LINE
  5
32B
100
AcDbEntity
  8
0
100
AcDbLine
 62
6
  6
CONTINUOUS
 10
9.2396174347
 20
9.1122153092
 11
9.2595513254
 21
9.1049599663
  0
LINE
  5
32C
100
AcDbEntity
  8
0
100
AcDbLine
 62
6
  6
CONTINUOUS
 10
7.618222572
 20
9.7350070444
 11
7.6378911117
 21
9.7270604386
  0
LINE
  5
32D
100
AcDbEntity
  8
0
100
AcDbLine
 62
6
  6
CONTINUOUS
 10
9.2571495339
 20
9.0728375696
 11
9.2768180737
 21
9.0648909637
  0
LINE
  5
32E
100
AcDbEntity
  8
0
100
AcDbLine
 62
6
  6
CONTINUOUS
 10
7.6584774993
 20
9.7518357816
 11
7.6778567249
 21
9.7432075944
  0
LINE
  5
32F
100
AcDbEntity
  8
0
100
AcDbLine
 62
6
  6
CONTINUOUS
 10
9.2732966898
 20
9.0328719564
 11
9.2926759154
 21
9.0242437692
  0
LINE
  5
330
100
AcDbEntity
  8
0
100
AcDbLine
 62
6
  6
CONTINUOUS
 10
7.6992952188
 20
9.7672493904
 11
7.7183615198
 21
9.7579501341
  0
LINE
  5
331
100
AcDbEntity
  8
0
100
AcDbLine
 62
6
  6
CONTINUOUS
 10
9.2880392295
 20
8.9923671615
 11
9.3071055304
 21
8.9830679052
  0
LINE
  5
332
100
AcDbEntity
  8
0
100
AcDbLine
 62
6
  6
CONTINUOUS
 10
7.7406260005
 20
9.7812290918
 11
7.7593561474
 21
9.7712700961
  0
LINE
  5
333
100
AcDbEntity
  8
0
100
AcDbLine
 62
6
  6
CONTINUOUS
 10
9.3013591914
 20
8.9513725339
 11
9.3200893383
 21
8.9414135381
  0
LINE
  5
334
100
AcDbEntity
  8
0
100
AcDbLine
 62
6
  6
CONTINUOUS
 10
7.7824194891
 20
9.7937578537
 11
7.8007906622
 21
9.783151252
  0
LINE
  5
335
100
AcDbEntity
  8
0
100
AcDbLine
 62
6
  6
CONTINUOUS
 10
9.3132403474
 20
8.9099380191
 11
9.3316115204
 21
8.8993314174
  0
LINE
  5
336
100
AcDbEntity
  8
0
100
AcDbLine
 62
7
  6
CONTINUOUS
 10
7.0879389128
 20
9.294951434
 11
7.10882984
 21
9.2986350681
  0
LINE
  5
337
100
AcDbEntity
  8
0
100
AcDbLine
 62
6
  6
CONTINUOUS
 10
8.8287241635
 20
9.6018988413
 11
8.8496150907
 21
9.6055824754
  0
LINE
  5
338
100
AcDbEntity
  8
0
100
AcDbLine
 62
6
  6
CONTINUOUS
 10
7.1131591552
 20
9.3305548739
 11
7.1341659132
 21
9.3335071813
  0
LINE
  5
339
100
AcDbEntity
  8
0
100
AcDbLine
 62
6
  6
CONTINUOUS
 10
8.8635962766
 20
9.5765627681
 11
8.8846030346
 21
9.5795150754
  0
LINE
  5
33A
100
AcDbEntity
  8
0
100
AcDbLine
 62
7
  6
CONTINUOUS
 10
7.1396065763
 20
9.3652564515
 11
7.1607035716
 21
9.367473835
  0
LINE
  5
33B
100
AcDbEntity
  8
0
100
AcDbLine
 62
6
  6
CONTINUOUS
 10
8.8975629304
 20
9.5500251097
 11
8.9186599257
 21
9.5522424933
  0
LINE
  5
33C
100
AcDbEntity
  8
0
100
AcDbLine
 62
6
  6
CONTINUOUS
 10
7.1672489539
 20
9.3990138881
 11
7.1884104831
 21
9.4004936463
  0
LINE
  5
33D
100
AcDbEntity
  8
0
100
AcDbLine
 62
6
  6
CONTINUOUS
 10
8.9305827417
 20
9.5223181982
 11
8.9517442708
 21
9.5237979565
  0
LINE
  5
33E
100
AcDbEntity
  8
0
100
AcDbLine
 62
6
  6
CONTINUOUS
 10
7.1960526101
 20
9.4317860555
 11
7.217252891
 21
9.4325263856
  0
LINE
  5
33F
100
AcDbEntity
  8
0
100
AcDbLine
 62
6
  6
CONTINUOUS
 10
8.962615481
 20
9.4934757903
 11
8.9838157619
 21
9.4942161204
  0
LINE
  5
340
100
AcDbEntity
  8
0
100
AcDbLine
 62
6
  6
CONTINUOUS
 10
7.225982452
 20
9.4635330258
 11
7.2471956555
 21
9.4635330258
  0
LINE
  5
341
100
AcDbEntity
  8
0
100
AcDbLine
 62
6
  6
CONTINUOUS
 10
8.9936221212
 20
9.4635330258
 11
9.0148353246
 21
9.4635330258
  0
LINE
  5
342
100
AcDbEntity
  8
0
100
AcDbLine
 62
6
  6
CONTINUOUS
 10
7.2570020148
 20
9.4942161204
 11
7.2782022957
 21
9.4934757903
  0
LINE
  5
343
100
AcDbEntity
  8
0
100
AcDbLine
 62
6
  6
CONTINUOUS
 10
9.0235648856
 20
9.4325263856
 11
9.0447651666
 21
9.4317860555
  0
LINE
  5
344
100
AcDbEntity
  8
0
100
AcDbLine
 62
6
  6
CONTINUOUS
 10
7.2890735058
 20
9.5237979565
 11
7.310235035
 21
9.5223181982
  0
LINE
  5
345
100
AcDbEntity
  8
0
100
AcDbLine
 62
6
  6
CONTINUOUS
 10
9.0524072936
 20
9.4004936463
 11
9.0735688227
 21
9.3990138881
  0
LINE
  5
346
100
AcDbEntity
  8
0
100
AcDbLine
 62
6
  6
CONTINUOUS
 10
7.322157851
 20
9.5522424933
 11
7.3432548463
 21
9.5500251097
  0
LINE
  5
347
100
AcDbEntity
  8
0
100
AcDbLine
 62
7
  6
CONTINUOUS
 10
9.0801142051
 20
9.367473835
 11
9.1012112004
 21
9.3652564515
  0
LINE
  5
348
100
AcDbEntity
  8
0
100
AcDbLine
 62
6
  6
CONTINUOUS
 10
7.356214742
 20
9.5795150754
 11
7.3772215
 21
9.5765627681
  0
LINE
  5
349
100
AcDbEntity
  8
0
100
AcDbLine
 62
6
  6
CONTINUOUS
 10
9.1066518635
 20
9.3335071813
 11
9.1276586215
 21
9.3305548739
  0
LINE
  5
34A
100
AcDbEntity
  8
0
100
AcDbLine
 62
6
  6
CONTINUOUS
 10
7.391202686
 20
9.6055824754
 11
7.4120936132
 21
9.6018988413
  0
LINE
  5
34B
100
AcDbEntity
  8
0
100
AcDbLine
 62
7
  6
CONTINUOUS
 10
9.1319879367
 20
9.2986350681
 11
9.1528788639
 21
9.294951434
  0
ARC
  5
34C
100
AcDbEntity
  8
0
100
AcDbCircle
 62
6
  6
CONTINUOUS
 10
8.1204088883
 20
5.2798376785
 40
3.5
100
AcDbArc
 50
97.7965985599
 51
82.2034014401
  0
ARC
  5
34D
100
AcDbEntity
  8
0
100
AcDbCircle
 62
6
  6
CONTINUOUS
 10
8.1204088883
 20
5.2798376785
 40
3.125
100
AcDbArc
 50
98.2497107408
 51
81.7502892592
  0
ARC
  5
34E
100
AcDbEntity
  8
0
100
AcDbCircle
 62
6
  6
CONTINUOUS
 10
8.1204088883
 20
8.590319793
 40
1.25
100
AcDbArc
 50
169.6875658564
 51
173.6567841423
  0
ARC
  5
34F
100
AcDbEntity
  8
0
100
AcDbCircle
 62
6
  6
CONTINUOUS
 10
8.1204088883
 20
8.590319793
 40
1.25
100
AcDbArc
 50
168.330505138
 51
169.6520775618
  0
ARC
  5
350
100
AcDbEntity
  8
0
100
AcDbCircle
 62
6
  6
CONTINUOUS
 10
8.1204088883
 20
8.590319793
 40
1.25
100
AcDbArc
 50
163.6875658564
 51
168.3124341436
  0
ARC
  5
351
100
AcDbEntity
  8
0
100
AcDbCircle
 62
6
  6
CONTINUOUS
 10
8.1204088883
 20
8.590319793
 40
1.25
100
AcDbArc
 50
162.3438991983
 51
163.6648119047
  0
ARC
  5
352
100
AcDbEntity
  8
0
100
AcDbCircle
 62
6
  6
CONTINUOUS
 10
8.1204088883
 20
8.590319793
 40
1.25
100
AcDbArc
 50
158.3477609844
 51
162.3124341436
  0
ARC
  5
353
100
AcDbEntity
  8
0
100
AcDbCircle
 62
6
  6
CONTINUOUS
 10
8.1204088883
 20
8.590319793
 40
1.25
100
AcDbArc
 50
152.3331665716
 51
158.3124341436
  0
ARC
  5
354
100
AcDbEntity
  8
0
100
AcDbCircle
 62
6
  6
CONTINUOUS
 10
8.1204088883
 20
8.590319793
 40
1.25
100
AcDbArc
 50
145.6875658564
 51
152.3124341436
  0
ARC
  5
355
100
AcDbEntity
  8
0
100
AcDbCircle
 62
6
  6
CONTINUOUS
 10
8.1204088883
 20
8.590319793
 40
1.25
100
AcDbArc
 50
135.6875658564
 51
145.6616477983
  0
ARC
  5
356
100
AcDbEntity
  8
0
100
AcDbCircle
 62
6
  6
CONTINUOUS
 10
8.1204088883
 20
8.590319793
 40
1.25
100
AcDbArc
 50
134.3396535959
 51
135.6603464041
  0
ARC
  5
357
100
AcDbEntity
  8
0
100
AcDbCircle
 62
6
  6
CONTINUOUS
 10
8.1204088883
 20
8.590319793
 40
1.25
100
AcDbArc
 50
124.3383522017
 51
134.3124341436
  0
ARC
  5
358
100
AcDbEntity
  8
0
100
AcDbCircle
 62
6
  6
CONTINUOUS
 10
8.1204088883
 20
8.590319793
 40
1.25
100
AcDbArc
 50
117.6875658564
 51
124.3124341436
  0
ARC
  5
359
100
AcDbEntity
  8
0
100
AcDbCircle
 62
6
  6
CONTINUOUS
 10
8.1204088883
 20
8.590319793
 40
1.25
100
AcDbArc
 50
111.6875658564
 51
117.6668334284
  0
ARC
  5
35A
100
AcDbEntity
  8
0
100
AcDbCircle
 62
6
  6
CONTINUOUS
 10
8.1204088883
 20
8.590319793
 40
1.25
100
AcDbArc
 50
107.6875658564
 51
111.6522390156
  0
ARC
  5
35B
100
AcDbEntity
  8
0
100
AcDbCircle
 62
6
  6
CONTINUOUS
 10
8.1204088883
 20
8.590319793
 40
1.25
100
AcDbArc
 50
106.3351880953
 51
107.6561008017
  0
ARC
  5
35C
100
AcDbEntity
  8
0
100
AcDbCircle
 62
6
  6
CONTINUOUS
 10
8.1204088883
 20
8.590319793
 40
1.25
100
AcDbArc
 50
101.6875658564
 51
106.3124341436
  0
ARC
  5
35D
100
AcDbEntity
  8
0
100
AcDbCircle
 62
6
  6
CONTINUOUS
 10
8.1204088883
 20
8.590319793
 40
1.25
100
AcDbArc
 50
100.3479224382
 51
101.669494862
  0
ARC
  5
35E
100
AcDbEntity
  8
0
100
AcDbCircle
 62
6
  6
CONTINUOUS
 10
8.1204088883
 20
8.590319793
 40
1.25
100
AcDbArc
 50
96.3432158577
 51
100.3124341436
  0
ARC
  5
35F
100
AcDbEntity
  8
0
100
AcDbCircle
 62
6
  6
CONTINUOUS
 10
8.1204088883
 20
8.590319793
 40
1.25
100
AcDbArc
 50
83.6875658564
 51
96.3124341436
  0
ARC
  5
360
100
AcDbEntity
  8
0
100
AcDbCircle
 62
6
  6
CONTINUOUS
 10
8.1204088883
 20
8.590319793
 40
1.25
100
AcDbArc
 50
79.6875658564
 51
83.6567841423
  0
ARC
  5
361
100
AcDbEntity
  8
0
100
AcDbCircle
 62
6
  6
CONTINUOUS
 10
8.1204088883
 20
8.590319793
 40
1.25
100
AcDbArc
 50
78.330505138
 51
79.6520775618
  0
ARC
  5
362
100
AcDbEntity
  8
0
100
AcDbCircle
 62
6
  6
CONTINUOUS
 10
8.1204088883
 20
8.590319793
 40
1.25
100
AcDbArc
 50
73.6875658564
 51
78.3124341436
  0
ARC
  5
363
100
AcDbEntity
  8
0
100
AcDbCircle
 62
6
  6
CONTINUOUS
 10
8.1204088883
 20
8.590319793
 40
1.25
100
AcDbArc
 50
72.3438991983
 51
73.6648119047
  0
ARC
  5
364
100
AcDbEntity
  8
0
100
AcDbCircle
 62
6
  6
CONTINUOUS
 10
8.1204088883
 20
8.590319793
 40
1.25
100
AcDbArc
 50
68.3477609844
 51
72.3124341436
  0
ARC
  5
365
100
AcDbEntity
  8
0
100
AcDbCircle
 62
6
  6
CONTINUOUS
 10
8.1204088883
 20
8.590319793
 40
1.25
100
AcDbArc
 50
62.3331665716
 51
68.3124341436
  0
ARC
  5
366
100
AcDbEntity
  8
0
100
AcDbCircle
 62
6
  6
CONTINUOUS
 10
8.1204088883
 20
8.590319793
 40
1.25
100
AcDbArc
 50
55.6875658564
 51
62.3124341436
  0
ARC
  5
367
100
AcDbEntity
  8
0
100
AcDbCircle
 62
6
  6
CONTINUOUS
 10
8.1204088883
 20
8.590319793
 40
1.25
100
AcDbArc
 50
45.6875658564
 51
55.6616477983
  0
ARC
  5
368
100
AcDbEntity
  8
0
100
AcDbCircle
 62
6
  6
CONTINUOUS
 10
8.1204088883
 20
8.590319793
 40
1.25
100
AcDbArc
 50
44.3396535959
 51
45.6603464041
  0
ARC
  5
369
100
AcDbEntity
  8
0
100
AcDbCircle
 62
6
  6
CONTINUOUS
 10
8.1204088883
 20
8.590319793
 40
1.25
100
AcDbArc
 50
16.3351880953
 51
17.6561008017
  0
ARC
  5
36A
100
AcDbEntity
  8
0
100
AcDbCircle
 62
6
  6
CONTINUOUS
 10
8.1204088883
 20
8.590319793
 40
1.25
100
AcDbArc
 50
10.3479224382
 51
11.669494862
  0
ARC
  5
36B
100
AcDbEntity
  8
0
100
AcDbCircle
 62
6
  6
CONTINUOUS
 10
8.1204088883
 20
8.590319793
 40
1.25
100
AcDbArc
 50
173.6875658564
 51
181.9488748058
  0
ARC
  5
36C
100
AcDbEntity
  8
0
100
AcDbCircle
 62
6
  6
CONTINUOUS
 10
8.1204088883
 20
8.590319793
 40
1.25
100
AcDbArc
 50
199.5394610208
 51
201.6522390156
  0
ARC
  5
36D
100
AcDbEntity
  8
0
100
AcDbCircle
 62
6
  6
CONTINUOUS
 10
8.1204088883
 20
8.590319793
 40
1.25
100
AcDbArc
 50
201.6875658564
 51
207.6668334284
  0
ARC
  5
36E
100
AcDbEntity
  8
0
100
AcDbCircle
 62
6
  6
CONTINUOUS
 10
8.1204088883
 20
8.590319793
 40
1.25
100
AcDbArc
 50
207.6875658564
 51
214.3124341436
  0
ARC
  5
36F
100
AcDbEntity
  8
0
100
AcDbCircle
 62
6
  6
CONTINUOUS
 10
8.1204088883
 20
8.590319793
 40
1.25
100
AcDbArc
 50
214.3383522017
 51
224.3124341436
  0
ARC
  5
370
100
AcDbEntity
  8
0
100
AcDbCircle
 62
6
  6
CONTINUOUS
 10
8.1204088883
 20
8.590319793
 40
1.25
100
AcDbArc
 50
224.3396535959
 51
225.6603464041
  0
ARC
  5
371
100
AcDbEntity
  8
0
100
AcDbCircle
 62
6
  6
CONTINUOUS
 10
8.1204088883
 20
8.590319793
 40
1.25
100
AcDbArc
 50
252.3438991983
 51
253.6648119047
  0
ARC
  5
372
100
AcDbEntity
  8
0
100
AcDbCircle
 62
6
  6
CONTINUOUS
 10
8.1204088883
 20
8.590319793
 40
1.25
100
AcDbArc
 50
258.330505138
 51
259.6520775618
  0
ARC
  5
373
100
AcDbEntity
  8
0
100
AcDbCircle
 62
6
  6
CONTINUOUS
 10
8.1204088883
 20
8.590319793
 40
1.25
100
AcDbArc
 50
280.3479224382
 51
281.669494862
  0
ARC
  5
374
100
AcDbEntity
  8
0
100
AcDbCircle
 62
6
  6
CONTINUOUS
 10
8.1204088883
 20
8.590319793
 40
1.25
100
AcDbArc
 50
286.3351880953
 51
287.6561008017
  0
ARC
  5
375
100
AcDbEntity
  8
0
100
AcDbCircle
 62
6
  6
CONTINUOUS
 10
8.1204088883
 20
8.590319793
 40
1.25
100
AcDbArc
 50
314.3396535959
 51
315.6603464041
  0
ARC
  5
376
100
AcDbEntity
  8
0
100
AcDbCircle
 62
6
  6
CONTINUOUS
 10
8.1204088883
 20
8.590319793
 40
1.25
100
AcDbArc
 50
225.6875658564
 51
235.6616477983
  0
ARC
  5
377
100
AcDbEntity
  8
0
100
AcDbCircle
 62
6
  6
CONTINUOUS
 10
8.1204088883
 20
8.590319793
 40
1.25
100
AcDbArc
 50
235.6875658564
 51
242.3124341436
  0
ARC
  5
378
100
AcDbEntity
  8
0
100
AcDbCircle
 62
6
  6
CONTINUOUS
 10
8.1204088883
 20
8.590319793
 40
1.25
100
AcDbArc
 50
242.3331665716
 51
248.3124341436
  0
ARC
  5
379
100
AcDbEntity
  8
0
100
AcDbCircle
 62
6
  6
CONTINUOUS
 10
8.1204088883
 20
8.590319793
 40
1.25
100
AcDbArc
 50
248.3477609844
 51
252.3124341436
  0
ARC
  5
37A
100
AcDbEntity
  8
0
100
AcDbCircle
 62
6
  6
CONTINUOUS
 10
8.1204088883
 20
8.590319793
 40
1.25
100
AcDbArc
 50
253.6875658564
 51
258.3124341436
  0
ARC
  5
37B
100
AcDbEntity
  8
0
100
AcDbCircle
 62
6
  6
CONTINUOUS
 10
8.1204088883
 20
8.590319793
 40
1.25
100
AcDbArc
 50
259.6875658564
 51
263.6567841423
  0
ARC
  5
37C
100
AcDbEntity
  8
0
100
AcDbCircle
 62
6
  6
CONTINUOUS
 10
8.1204088883
 20
8.590319793
 40
1.25
100
AcDbArc
 50
34.3383522017
 51
44.3124341436
  0
ARC
  5
37D
100
AcDbEntity
  8
0
100
AcDbCircle
 62
6
  6
CONTINUOUS
 10
8.1204088883
 20
8.590319793
 40
1.25
100
AcDbArc
 50
263.6875658564
 51
276.3124341436
  0
ARC
  5
37E
100
AcDbEntity
  8
0
100
AcDbCircle
 62
6
  6
CONTINUOUS
 10
8.1204088883
 20
8.590319793
 40
1.25
100
AcDbArc
 50
27.6875658564
 51
34.3124341436
  0
ARC
  5
37F
100
AcDbEntity
  8
0
100
AcDbCircle
 62
6
  6
CONTINUOUS
 10
8.1204088883
 20
8.590319793
 40
1.25
100
AcDbArc
 50
276.3432158577
 51
280.3124341436
  0
ARC
  5
380
100
AcDbEntity
  8
0
100
AcDbCircle
 62
6
  6
CONTINUOUS
 10
8.1204088883
 20
8.590319793
 40
1.25
100
AcDbArc
 50
21.6875658564
 51
27.6668334284
  0
ARC
  5
381
100
AcDbEntity
  8
0
100
AcDbCircle
 62
6
  6
CONTINUOUS
 10
8.1204088883
 20
8.590319793
 40
1.25
100
AcDbArc
 50
281.6875658564
 51
286.3124341436
  0
ARC
  5
382
100
AcDbEntity
  8
0
100
AcDbCircle
 62
6
  6
CONTINUOUS
 10
8.1204088883
 20
8.590319793
 40
1.25
100
AcDbArc
 50
17.6875658564
 51
21.6522390156
  0
ARC
  5
383
100
AcDbEntity
  8
0
100
AcDbCircle
 62
6
  6
CONTINUOUS
 10
8.1204088883
 20
8.590319793
 40
1.25
100
AcDbArc
 50
287.6875658564
 51
291.6522390156
  0
ARC
  5
384
100
AcDbEntity
  8
0
100
AcDbCircle
 62
6
  6
CONTINUOUS
 10
8.1204088883
 20
8.590319793
 40
1.25
100
AcDbArc
 50
11.6875658564
 51
16.3124341436
  0
ARC
  5
385
100
AcDbEntity
  8
0
100
AcDbCircle
 62
6
  6
CONTINUOUS
 10
8.1204088883
 20
8.590319793
 40
1.25
100
AcDbArc
 50
291.6875658564
 51
297.6668334284
  0
ARC
  5
386
100
AcDbEntity
  8
0
100
AcDbCircle
 62
6
  6
CONTINUOUS
 10
8.1204088883
 20
8.590319793
 40
1.25
100
AcDbArc
 50
6.3432158577
 51
10.3124341436
  0
ARC
  5
387
100
AcDbEntity
  8
0
100
AcDbCircle
 62
6
  6
CONTINUOUS
 10
8.1204088883
 20
8.590319793
 40
1.25
100
AcDbArc
 50
297.6875658564
 51
304.3124341436
  0
ARC
  5
388
100
AcDbEntity
  8
0
100
AcDbCircle
 62
6
  6
CONTINUOUS
 10
8.1204088883
 20
8.590319793
 40
1.25
100
AcDbArc
 50
358.0511358319
 51
6.3124341436
  0
ARC
  5
389
100
AcDbEntity
  8
0
100
AcDbCircle
 62
6
  6
CONTINUOUS
 10
8.1204088883
 20
8.590319793
 40
1.25
100
AcDbArc
 50
304.3383522017
 51
314.3124341436
  0
ARC
  5
38A
100
AcDbEntity
  8
0
100
AcDbCircle
 62
6
  6
CONTINUOUS
 10
8.1204088883
 20
8.590319793
 40
1.25
100
AcDbArc
 50
338.3477609844
 51
340.4605389792
  0
ARC
  5
38B
100
AcDbEntity
  8
0
100
AcDbCircle
 62
6
  6
CONTINUOUS
 10
8.1204088883
 20
8.590319793
 40
1.25
100
AcDbArc
 50
315.6875658564
 51
325.6616477983
  0
ARC
  5
38C
100
AcDbEntity
  8
0
100
AcDbCircle
 62
6
  6
CONTINUOUS
 10
8.1204088883
 20
8.590319793
 40
1.25
100
AcDbArc
 50
332.3331665716
 51
338.3124341436
  0
ARC
  5
38D
100
AcDbEntity
  8
0
100
AcDbCircle
 62
6
  6
CONTINUOUS
 10
8.1204088883
 20
8.590319793
 40
1.25
100
AcDbArc
 50
325.6875658564
 51
332.3124341436
  0
ARC
  5
38E
100
AcDbEntity
  8
0
100
AcDbCircle
 62
7
  6
CONTINUOUS
 10
8.1204088883
 20
8.590319793
 40
1.175
100
AcDbArc
 50
199.3466154038
 51
340.6533845962
  0
ARC
  5
38F
100
AcDbEntity
  8
0
100
AcDbCircle
 62
7
  6
CONTINUOUS
 10
8.1204088883
 20
8.590319793
 40
1.175
100
AcDbArc
 50
359.2783735171
 51
180.7216264829
  0
ARC
  5
390
100
AcDbEntity
  8
0
100
AcDbCircle
 62
6
  6
CONTINUOUS
 10
8.1204088883
 20
8.590319793
 40
1.075
100
AcDbArc
 50
0.9492432846
 51
179.0507567154
  0
ARC
  5
391
100
AcDbEntity
  8
0
100
AcDbCircle
 62
6
  6
CONTINUOUS
 10
8.1204088883
 20
8.590319793
 40
1.075
100
AcDbArc
 50
199.4139006829
 51
340.5860993171
  0
ARC
  5
392
100
AcDbEntity
  8
0
100
AcDbCircle
 62
7
  6
CONTINUOUS
 10
8.1204088883
 20
8.590319793
 40
1.025
100
AcDbArc
 50
1.918245078
 51
178.081754922
  0
ARC
  5
393
100
AcDbEntity
  8
0
100
AcDbCircle
 62
7
  6
CONTINUOUS
 10
8.1204088883
 20
8.590319793
 40
1.025
100
AcDbArc
 50
199.4537303659
 51
340.5462696341
  0
ARC
  5
394
100
AcDbEntity
  8
0
100
AcDbCircle
 62
6
  6
CONTINUOUS
 10
8.1204088883
 20
8.590319793
 40
0.925
100
AcDbArc
 50
4.045135432
 51
175.954864568
  0
ARC
  5
395
100
AcDbEntity
  8
0
100
AcDbCircle
 62
6
  6
CONTINUOUS
 10
8.1204088883
 20
8.590319793
 40
0.925
100
AcDbArc
 50
199.5563829623
 51
340.4436170377
  0
ARC
  5
396
100
AcDbEntity
  8
0
100
AcDbCircle
 62
6
  6
CONTINUOUS
 10
8.1204088883
 20
8.590319793
 40
0.74
100
AcDbArc
 50
8.6002336951
 51
171.3997663049
  0
ARC
  5
397
100
AcDbEntity
  8
0
100
AcDbCircle
 62
6
  6
CONTINUOUS
 10
8.1204088883
 20
8.590319793
 40
0.74
100
AcDbArc
 50
201.0002552508
 51
338.9997447492
  0
ARC
  5
398
100
AcDbEntity
  8
0
100
AcDbCircle
 62
7
  6
CONTINUOUS
 10
8.1204088883
 20
8.590319793
 40
0.6935
100
AcDbArc
 50
10.1702131497
 51
169.8297868503
  0
ARC
  5
399
100
AcDbEntity
  8
0
100
AcDbCircle
 62
7
  6
CONTINUOUS
 10
8.1204088883
 20
8.590319793
 40
0.6935
100
AcDbArc
 50
201.4879475482
 51
338.5120524518
  0
ARC
  5
39A
100
AcDbEntity
  8
0
100
AcDbCircle
 62
6
  6
CONTINUOUS
 10
8.1204088883
 20
8.590319793
 40
0.567
100
AcDbArc
 50
14.7527738692
 51
165.2472261308
  0
ARC
  5
39B
100
AcDbEntity
  8
0
100
AcDbCircle
 62
6
  6
CONTINUOUS
 10
8.1204088883
 20
8.590319793
 40
0.567
100
AcDbArc
 50
204.1331228051
 51
335.8668771949
  0
CIRCLE
  5
39C
100
AcDbEntity
  8
0
100
AcDbCircle
 62
6
  6
CONTINUOUS
 10
8.1204088883
 20
8.590319793
 40
0.5
  0
CIRCLE
  5
39D
100
AcDbEntity
  8
0
100
AcDbCircle
 62
7
  6
CONTINUOUS
 10
8.1204088883
 20
8.590319793
 40
0.4874999956
  0
CIRCLE
  5
39E
100
AcDbEntity
  8
0
100
AcDbCircle
 62
6
  6
CONTINUOUS
 10
8.1204088883
 20
8.590319793
 40
0.4125
  0
CIRCLE
  5
39F
100
AcDbEntity
  8
0
100
AcDbCircle
 62
6
  6
CONTINUOUS
 10
8.1204088883
 20
8.590319793
 40
0.3625
  0
ENDSEC
  0
SECTION
  2
OBJECTS
  0
DICTIONARY
  5
C
100
AcDbDictionary
280
0
281
1
  3
ACAD_GROUP
350
D
  3
ACAD_MLINESTYLE
350
17
  3
ACAD_LAYOUT
350
1A
  3
ACAD_PLOTSETTINGS
350
19
  3
ACAD_PLOTSTYLENAME
350
E
  0
DICTIONARY
  5
D
102
{ACAD_REACTORS
330
C
102
}
100
AcDbDictionary
280
0
281
1
  0
ACDBDICTIONARYWDFLT
  5
E
102
{ACAD_REACTORS
330
C
102
}
100
AcDbDictionary
281
1
  3
Normal
350
F
100
AcDbDictionaryWithDefault
340
F
  0
DICTIONARY
  5
17
102
{ACAD_REACTORS
330
C
102
}
100
AcDbDictionary
280
0
281
1
  3
Standard
350
18
  0
DICTIONARY
  5
19
102
{ACAD_REACTORS
330
C
102
}
100
AcDbDictionary
281
1
  0
DICTIONARY
  5
1A
102
{ACAD_REACTORS
330
C
102
}
100
AcDbDictionary
281
1
  3
Model
350
3A0
  3
Layout1
350
3A1
  0
ACDBPLACEHOLDER
  5
F
102
{ACAD_REACTORS
330
E
102
}
  0
MLINESTYLE
  5
18
102
{ACAD_REACTORS
330
17
102
}
100
AcDbMlineStyle
  2
STANDARD
 70
0
  3

 62
256
 51
90.0
 52
90.0
 71
2
 49
0.5
 62
256
  6
BYLAYER
 49
-0.5
 62
256
  6
BYLAYER
  0
LAYOUT
  5
3A0
102
{ACAD_REACTORS
330
1A
102
}
100
AcDbPlotSettings
  1

  2
none_device
  4
ISO_A3_(420.00_x_297.00_MM)
  6

 40
0.0
 41
0.0
 42
0.0
 43
0.0
 44
420.0
 45
297.0
 46
0.0
 47
0.0
 48
0.0
 49
0.0
140
0.0
141
0.0
142
1.0
143
1.0
 70
1024
 72
0
 73
0
 74
0
  7

 75
0
147
1.0
148
0.0
149
0.0
100
AcDbLayout
  1
Model
 70
0
 71
0
 10
0.0
 20
0.0
 11
16.5354330709
 21
11.6929133858
 12
0.0
 22
0.0
 32
0.0
 14
0.0
 24
0.0
 34
0.0
 15
0.0
 25
0.0
 35
0.0
146
0.0
 13
0.0
 23
0.0
 33
0.0
 16
1.0
 26
0.0
 36
0.0
 17
0.0
 27
1.0
 37
0.0
 76
0
330
203
345
0
346
0
  0
LAYOUT
  5
3A1
102
{ACAD_REACTORS
330
1A
102
}
100
AcDbPlotSettings
  1

  2
none_device
  4
ISO_A3_(420.00_x_297.00_MM)
  6

 40
0.0
 41
0.0
 42
0.0
 43
0.0
 44
420.0
 45
297.0
 46
0.0
 47
0.0
 48
0.0
 49
0.0
140
0.0
141
0.0
142
1.0
143
1.0
 70
0
 72
0
 73
0
 74
0
  7

 75
0
147
1.0
148
0.0
149
0.0
100
AcDbLayout
  1
Layout1
 70
0
 71
1
 10
0.0
 20
0.0
 11
16.5354330709
 21
11.6929133858
 12
0.0
 22
0.0
 32
0.0
 14
0.0
 24
0.0
 34
0.0
 15
0.0
 25
0.0
 35
0.0
146
0.0
 13
0.0
 23
0.0
 33
0.0
 16
1.0
 26
0.0
 36
0.0
 17
0.0
 27
1.0
 37
0.0
 76
0
330
204
345
0
346
0
  0
ENDSEC
  0
EOF
