  0
SECTION
  2
HEADER
  9
$ACADVER
  1
AC1021
  9
$DWGCODEPAGE
  3
ANSI_1252
  9
$EXTMAX
 10
23.3858267717
 20
16.5354330709
 30
0.0
  9
$EXTMIN
 10
0.0
 20
-0.0
 30
0.0
  9
$LIMMIN
 10
0.0
 20
-0.0
  9
$LIMMAX
 10
23.3858267717
 20
16.5354330709
  9
$VIEWCTR
 10
11.6929133858
 20
8.2677165354
  9
$VIEWSIZE
 40
16.5354330709
  9
$CLAYER
  8
0
  9
$LTSCALE
 40
1.2862204724
  9
$CELTYPE
  6
BYLAYER
  9
$DIMSCALE
 40
1.0
  9
$DIMASZ
 40
0.1
  9
$DIMEXO
 40
0.1461614173
  9
$DIMDLI
 40
0.8886614173
  9
$DIMEXE
 40
0.4209448819
  9
$DIMCEN
 40
0.2104724409
  9
$DIMLFAC
 40
1.0
  9
$DIMBLK
  1
_FILLED
  9
$DIMTXT
 40
0.08
  9
$DIMTOL
 70
1
  9
$DIMLIM
 70
0
  9
$DIMTFAC
 40
1.0
  9
$DIMTP
 40
0.001
  9
$DIMTM
 40
0.001
  9
$PDMODE
 70
3
  9
$PDSIZE
 40
0.06
  9
$HANDSEED
  5
35D
  9
$TILEMODE
 70
1
  9
$MEASUREMENT
 70
0
  9
$INSUNITS
 70
1
  0
ENDSEC
  0
SECTION
  2
CLASSES
  0
CLASS
  1
ACDBDICTIONARYWDFLT
  2
AcDbDictionaryWithDefault
  3
AutoCAD 2000
 90
0
 91
1
280
0
281
0
  0
CLASS
  1
ACDBPLACEHOLDER
  2
AcDbPlaceHolder
  3
AutoCAD 2000
 90
0
 91
1
280
0
281
0
  0
CLASS
  1
LAYOUT
  2
AcDbLayout
  3
AutoCAD 2000
 90
0
 91
0
280
0
281
0
  0
ENDSEC
  0
SECTION
  2
TABLES
  0
TABLE
  2
VPORT
  5
8
100
AcDbSymbolTable
 70
2
  0
VPORT
  5
1F4
100
AcDbSymbolTableRecord
100
AcDbViewportTableRecord
  2
*ACTIVE
 70
0
 10
0.0
 20
0.0
 11
1.0
 21
1.0
 12
11.6929133858
 22
8.2677165354
 13
0.0
 23
0.0
 14
1.0
 24
1.0
 15
0.0
 25
0.0
 16
0.0
 26
0.0
 36
1.0
 17
0.0
 27
0.0
 37
0.0
 40
16.5354330709
 41
1.4142857143
 42
50.0
 43
0.0
 44
0.0
 50
0.0
 51
0.0
 71
0
 72
100
 73
1
 74
1
 75
0
 76
0
 77
0
 78
0
  0
ENDTAB
  0
TABLE
  2
LTYPE
  5
5
100
AcDbSymbolTable
 70
6
  0
LTYPE
  5
14
100
AcDbSymbolTableRecord
100
AcDbLinetypeTableRecord
  2
BYBLOCK
 70
0
  3

 72
65
 73
0
 40
0.0
  0
LTYPE
  5
15
100
AcDbSymbolTableRecord
100
AcDbLinetypeTableRecord
  2
BYLAYER
 70
0
  3

 72
65
 73
0
 40
0.0
  0
LTYPE
  5
16
100
AcDbSymbolTableRecord
100
AcDbLinetypeTableRecord
  2
CONTINUOUS
 70
64
  3
Solid line
 72
65
 73
0
 40
0.0
  0
LTYPE
  5
1F5
100
AcDbSymbolTableRecord
100
AcDbLinetypeTableRecord
  2
CENTER
 70
64
  3
____ _ ____ _ ____ _ ____ _ ____ _ ____ _ ____
 72
65
 73
4
 40
0.6
 49
0.375
 74
0
 49
-0.075
 74
0
 49
0.075
 74
0
 49
-0.075
 74
0
  0
LTYPE
  5
1F6
100
AcDbSymbolTableRecord
100
AcDbLinetypeTableRecord
  2
HIDDEN
 70
64
  3
- - - - - - - - - - - - - - - - - - - -
 72
65
 73
2
 40
0.2
 49
0.1
 74
0
 49
-0.1
 74
0
  0
LTYPE
  5
1F7
100
AcDbSymbolTableRecord
100
AcDbLinetypeTableRecord
  2
PHANTOM
 70
64
  3
_____ _ _ _____ _ _ _____ _ _ _____
 72
65
 73
6
 40
0.8
 49
0.45
 74
0
 49
-0.05
 74
0
 49
0.1
 74
0
 49
-0.05
 74
0
 49
0.1
 74
0
 49
-0.05
 74
0
  0
LTYPE
  5
1F8
100
AcDbSymbolTableRecord
100
AcDbLinetypeTableRecord
  2
DOT
 70
64
  3
. . . . . . . . . . . . . . . . . . . .
 72
65
 73
2
 40
0.2
 49
0.1
 74
0
 49
-0.1
 74
0
  0
LTYPE
  5
1F9
100
AcDbSymbolTableRecord
100
AcDbLinetypeTableRecord
  2
DASHED
 70
64
  3
- - - - - - - - - - - - - - - - - - - -
 72
65
 73
2
 40
0.2
 49
0.1
 74
0
 49
-0.1
 74
0
  0
ENDTAB
  0
TABLE
  2
LAYER
  5
2
100
AcDbSymbolTable
 70
36
  0
LAYER
  5
10
100
AcDbSymbolTableRecord
100
AcDbLayerTableRecord
  2
0
 70
0
 62
7
  6
CONTINUOUS
370
-3
390
F
  0
LAYER
  5
1FA
100
AcDbSymbolTableRecord
100
AcDbLayerTableRecord
  2
DEFAULT_1
 70
0
 62
7
  6
CENTER
370
-3
390
F
  0
LAYER
  5
1FB
100
AcDbSymbolTableRecord
100
AcDbLayerTableRecord
  2
DEFAULT_2
 70
0
 62
8
  6
HIDDEN
370
-3
390
F
  0
LAYER
  5
1FC
100
AcDbSymbolTableRecord
100
AcDbLayerTableRecord
  2
DEFAULT_3
 70
0
 62
7
  6
PHANTOM
370
-3
390
F
  0
LAYER
  5
1FD
100
AcDbSymbolTableRecord
100
AcDbLayerTableRecord
  2
DEFAULT_COORDINATE_SYSTEM
 70
0
 62
7
  6
CONTINUOUS
370
-3
390
F
  0
LAYER
  5
1FE
100
AcDbSymbolTableRecord
100
AcDbLayerTableRecord
  2
DEFAULT_DATUM_AXES
 70
0
 62
7
  6
CONTINUOUS
370
-3
390
F
  0
LAYER
  5
1FF
100
AcDbSymbolTableRecord
100
AcDbLayerTableRecord
  2
DEFAULT_DATUM_CURVES
 70
0
 62
7
  6
CONTINUOUS
370
-3
390
F
  0
LAYER
  5
200
100
AcDbSymbolTableRecord
100
AcDbLayerTableRecord
  2
DEFAULT_DATUM_PLANES
 70
0
 62
7
  6
CONTINUOUS
370
-3
390
F
  0
ENDTAB
  0
TABLE
  2
STYLE
  5
3
100
AcDbSymbolTable
 70
1
  0
STYLE
  5
11
100
AcDbSymbolTableRecord
100
AcDbTextStyleTableRecord
  2
STANDARD
 70
0
 40
0.0
 41
0.8
 50
0.0
 71
0
 42
0.2
  3
txt
  4

  0
STYLE
  5
201
100
AcDbSymbolTableRecord
100
AcDbTextStyleTableRecord
  2
TEXTSTYLE_1
 70
0
 40
0.0
 41
0.8
 50
0.0
 71
0
 42
0.2
  3
gdt
  4

  0
ENDTAB
  0
TABLE
  2
VIEW
  5
6
100
AcDbSymbolTable
 70
0
  0
ENDTAB
  0
TABLE
  2
UCS
  5
7
100
AcDbSymbolTable
 70
0
  0
ENDTAB
  0
TABLE
  2
APPID
  5
9
100
AcDbSymbolTable
 70
1
  0
APPID
  5
202
100
AcDbSymbolTableRecord
100
AcDbRegAppTableRecord
  2
ACAD
 70
0
  0
ENDTAB
  0
TABLE
  2
BLOCK_RECORD
  5
1
100
AcDbSymbolTable
 70
0
  0
BLOCK_RECORD
  5
203
100
AcDbSymbolTableRecord
100
AcDbBlockTableRecord
  2
*Model_Space
  0
BLOCK_RECORD
  5
204
100
AcDbSymbolTableRecord
100
AcDbBlockTableRecord
  2
*Paper_Space
  0
ENDTAB
  0
TABLE
  2
DIMSTYLE
  5
A
100
AcDbSymbolTable
 70
1
100
AcDbDimStyleTable
 71
0
  0
DIMSTYLE
105
205
100
AcDbSymbolTableRecord
100
AcDbDimStyleTableRecord
  2
STANDARD
 70
0
  3

  4

 40
1.0
 41
0.1
 42
0.0625
 43
0.38
 44
0.18
 45
0.0
 46
0.0
 47
0.001
 48
0.001
140
0.08
141
0.09
142
0.0
143
25.4
144
1.0
145
0.0
146
1.0
147
0.09
 71
1.0
 72
0.0
 73
1
 74
1
 75
0
 76
0
 77
0
 78
4
170
0
171
2
172
0
173
0
174
0
175
0
176
0
177
0
178
0
270
2
271
3
272
3
273
2
274
2
275
0
280
0
281
0
282
0
283
1
284
4
285
0
286
0
287
3
288
0
340
11
  0
ENDTAB
  0
ENDSEC
  0
SECTION
  2
BLOCKS
  0
BLOCK
  5
20
100
AcDbEntity
  8
0
100
AcDbBlockBegin
  2
*Model_Space
 70
0
 10
0.0
 20
0.0
 30
0.0
  3
*Model_Space
  1

  0
ENDBLK
  5
21
100
AcDbEntity
  8
0
100
AcDbBlockEnd
  0
BLOCK
  5
1C
100
AcDbEntity
  8
0
100
AcDbBlockBegin
  2
*Paper_Space
 70
0
 10
0.0
 20
0.0
 30
0.0
  3
*Paper_Space
  1

  0
ENDBLK
  5
1D
100
AcDbEntity
  8
0
100
AcDbBlockEnd
  0
ENDSEC
  0
SECTION
  2
ENTITIES
  0
LINE
  5
206
100
AcDbEntity
  8
0
100
AcDbLine
 62
6
  6
CONTINUOUS
 10
2.1554970812
 20
7.0749109321
 11
2.1532796976
 21
7.0960079274
  0
LINE
  5
207
100
AcDbEntity
  8
0
100
AcDbLine
 62
6
  6
CONTINUOUS
 10
1.970728423
 20
8.8328672862
 11
1.9685110394
 21
8.8539642815
  0
LINE
  5
208
100
AcDbEntity
  8
0
100
AcDbLine
 62
7
  6
CONTINUOUS
 10
2.1217396446
 20
7.1025533097
 11
2.1202598863
 21
7.1237148389
  0
LINE
  5
209
100
AcDbEntity
  8
0
100
AcDbLine
 62
6
  6
CONTINUOUS
 10
1.9984353344
 20
8.8658870975
 11
1.9969555762
 21
8.8870486266
  0
LINE
  5
20A
100
AcDbEntity
  8
0
100
AcDbLine
 62
6
  6
CONTINUOUS
 10
2.0889674772
 20
7.1313569659
 11
2.0882271471
 21
7.1525572468
  0
LINE
  5
20B
100
AcDbEntity
  8
0
100
AcDbLine
 62
7
  6
CONTINUOUS
 10
2.0272777424
 20
8.8979198367
 11
2.0265374123
 21
8.9191201177
  0
LINE
  5
20C
100
AcDbEntity
  8
0
100
AcDbLine
 62
6
  6
CONTINUOUS
 10
2.0572205068
 20
7.1612868078
 11
2.0572205068
 21
7.1825000113
  0
LINE
  5
20D
100
AcDbEntity
  8
0
100
AcDbLine
 62
6
  6
CONTINUOUS
 10
2.0572205068
 20
8.928926477
 11
2.0572205068
 21
8.9501396804
  0
LINE
  5
20E
100
AcDbEntity
  8
0
100
AcDbLine
 62
7
  6
CONTINUOUS
 10
2.0265374123
 20
7.1923063706
 11
2.0272777424
 21
7.2135066515
  0
LINE
  5
20F
100
AcDbEntity
  8
0
100
AcDbLine
 62
6
  6
CONTINUOUS
 10
2.0882271471
 20
8.9588692414
 11
2.0889674772
 21
8.9800695224
  0
LINE
  5
210
100
AcDbEntity
  8
0
100
AcDbLine
 62
6
  6
CONTINUOUS
 10
1.9969555762
 20
7.2243778616
 11
1.9984353344
 21
7.2455393908
  0
LINE
  5
211
100
AcDbEntity
  8
0
100
AcDbLine
 62
7
  6
CONTINUOUS
 10
2.1202598863
 20
8.9877116494
 11
2.1217396446
 21
9.0088731785
  0
LINE
  5
212
100
AcDbEntity
  8
0
100
AcDbLine
 62
6
  6
CONTINUOUS
 10
1.9685110394
 20
7.2574622068
 11
1.970728423
 21
7.2785592021
  0
LINE
  5
213
100
AcDbEntity
  8
0
100
AcDbLine
 62
6
  6
CONTINUOUS
 10
2.1532796976
 20
9.0154185609
 11
2.1554970812
 21
9.0365155562
  0
LINE
  5
214
100
AcDbEntity
  8
0
100
AcDbLine
 62
7
  6
CONTINUOUS
 10
1.9412384573
 20
7.2915190978
 11
1.9441907646
 21
7.3125258558
  0
LINE
  5
215
100
AcDbEntity
  8
0
100
AcDbLine
 62
7
  6
CONTINUOUS
 10
2.1872463514
 20
9.0419562193
 11
2.1901986587
 21
9.0629629773
  0
LINE
  5
216
100
AcDbEntity
  8
0
100
AcDbLine
 62
6
  6
CONTINUOUS
 10
1.9151710572
 20
7.3265070418
 11
1.9188546913
 21
7.347397969
  0
LINE
  5
217
100
AcDbEntity
  8
0
100
AcDbLine
 62
7
  6
CONTINUOUS
 10
2.2221184645
 20
9.0672922925
 11
2.2258020987
 21
9.0881832197
  0
LINE
  5
218
100
AcDbEntity
  8
0
100
AcDbLine
 62
6
  6
CONTINUOUS
 10
1.8903405984
 20
7.3623834111
 11
1.8947510714
 21
7.3831330552
  0
LINE
  5
219
100
AcDbEntity
  8
0
100
AcDbLine
 62
6
  6
CONTINUOUS
 10
2.2578535507
 20
9.0913959125
 11
2.2622640237
 21
9.1121455565
  0
LINE
  5
21A
100
AcDbEntity
  8
0
100
AcDbLine
 62
6
  6
CONTINUOUS
 10
1.8667773328
 20
7.3991044961
 11
1.8719092712
 21
7.4196875767
  0
LINE
  5
21B
100
AcDbEntity
  8
0
100
AcDbLine
 62
6
  6
CONTINUOUS
 10
2.2944080723
 20
9.1142377127
 11
2.2995400107
 21
9.1348207933
  0
LINE
  5
21C
100
AcDbEntity
  8
0
100
AcDbLine
 62
6
  6
CONTINUOUS
 10
2.2995400107
 20
6.976605695
 11
2.2944080723
 21
6.9971887756
  0
LINE
  5
21D
100
AcDbEntity
  8
0
100
AcDbLine
 62
6
  6
CONTINUOUS
 10
1.8719092712
 20
8.6917389116
 11
1.8667773328
 21
8.7123219922
  0
LINE
  5
21E
100
AcDbEntity
  8
0
100
AcDbLine
 62
6
  6
CONTINUOUS
 10
2.2622640237
 20
6.9992809317
 11
2.2578535507
 21
7.0200305758
  0
LINE
  5
21F
100
AcDbEntity
  8
0
100
AcDbLine
 62
6
  6
CONTINUOUS
 10
1.8947510714
 20
8.7282934331
 11
1.8903405984
 21
8.7490430771
  0
LINE
  5
220
100
AcDbEntity
  8
0
100
AcDbLine
 62
7
  6
CONTINUOUS
 10
2.2258020987
 20
7.0232432686
 11
2.2221184645
 21
7.0441341958
  0
LINE
  5
221
100
AcDbEntity
  8
0
100
AcDbLine
 62
6
  6
CONTINUOUS
 10
1.9188546913
 20
8.7640285193
 11
1.9151710572
 21
8.7849194465
  0
LINE
  5
222
100
AcDbEntity
  8
0
100
AcDbLine
 62
7
  6
CONTINUOUS
 10
2.1901986587
 20
7.048463511
 11
2.1872463514
 21
7.069470269
  0
LINE
  5
223
100
AcDbEntity
  8
0
100
AcDbLine
 62
7
  6
CONTINUOUS
 10
1.9441907646
 20
8.7989006324
 11
1.9412384573
 21
8.8199073904
  0
LINE
  5
224
100
AcDbEntity
  8
0
100
AcDbLine
 62
7
  6
CONTINUOUS
 10
1.8445099687
 20
7.4366255577
 11
1.85035712
 21
7.4570169976
  0
LINE
  5
225
100
AcDbEntity
  8
0
100
AcDbLine
 62
7
  6
CONTINUOUS
 10
2.3317374931
 20
9.1357898638
 11
2.3375846444
 21
9.1561813038
  0
LINE
  5
226
100
AcDbEntity
  8
0
100
AcDbLine
 62
6
  6
CONTINUOUS
 10
1.8235656354
 20
7.4749008822
 11
1.8301208758
 21
7.4950758376
  0
LINE
  5
227
100
AcDbEntity
  8
0
100
AcDbLine
 62
7
  6
CONTINUOUS
 10
2.3697963331
 20
9.156026108
 11
2.3763515735
 21
9.1762010634
  0
LINE
  5
228
100
AcDbEntity
  8
0
100
AcDbLine
 62
7
  6
CONTINUOUS
 10
1.8039698505
 20
7.5138838372
 11
1.8112251933
 21
7.5338177279
  0
LINE
  5
229
100
AcDbEntity
  8
0
100
AcDbLine
 62
7
  6
CONTINUOUS
 10
2.4085382235
 20
9.1749217905
 11
2.4157935663
 21
9.1948556812
  0
LINE
  5
22A
100
AcDbEntity
  8
0
100
AcDbLine
 62
6
  6
CONTINUOUS
 10
1.7857464882
 20
7.5535269278
 11
1.7936930941
 21
7.5731954675
  0
LINE
  5
22B
100
AcDbEntity
  8
0
100
AcDbLine
 62
7
  6
CONTINUOUS
 10
2.4479159631
 20
9.1924538897
 11
2.455862569
 21
9.2121224295
  0
LINE
  5
22C
100
AcDbEntity
  8
0
100
AcDbLine
 62
6
  6
CONTINUOUS
 10
1.7689177511
 20
7.5937818551
 11
1.7775459382
 21
7.6131610807
  0
LINE
  5
22D
100
AcDbEntity
  8
0
100
AcDbLine
 62
6
  6
CONTINUOUS
 10
2.4878815763
 20
9.2086010456
 11
2.4965097634
 21
9.2279802712
  0
LINE
  5
22E
100
AcDbEntity
  8
0
100
AcDbLine
 62
6
  6
CONTINUOUS
 10
1.7535041422
 20
7.6345995746
 11
1.7628033986
 21
7.6536658756
  0
LINE
  5
22F
100
AcDbEntity
  8
0
100
AcDbLine
 62
6
  6
CONTINUOUS
 10
2.5283863711
 20
9.2233435853
 11
2.5376856274
 21
9.2424098862
  0
LINE
  5
230
100
AcDbEntity
  8
0
100
AcDbLine
 62
6
  6
CONTINUOUS
 10
2.5376856274
 20
6.8690166021
 11
2.5283863711
 21
6.888082903
  0
LINE
  5
231
100
AcDbEntity
  8
0
100
AcDbLine
 62
6
  6
CONTINUOUS
 10
1.7628033986
 20
8.4577606127
 11
1.7535041422
 21
8.4768269137
  0
LINE
  5
232
100
AcDbEntity
  8
0
100
AcDbLine
 62
6
  6
CONTINUOUS
 10
2.4965097634
 20
6.883446217
 11
2.4878815763
 21
6.9028254427
  0
LINE
  5
233
100
AcDbEntity
  8
0
100
AcDbLine
 62
6
  6
CONTINUOUS
 10
1.7775459382
 20
8.4982654075
 11
1.7689177511
 21
8.5176446332
  0
LINE
  5
234
100
AcDbEntity
  8
0
100
AcDbLine
 62
7
  6
CONTINUOUS
 10
2.455862569
 20
6.8993040588
 11
2.4479159631
 21
6.9189725985
  0
LINE
  5
235
100
AcDbEntity
  8
0
100
AcDbLine
 62
6
  6
CONTINUOUS
 10
1.7936930941
 20
8.5382310208
 11
1.7857464882
 21
8.5578995605
  0
LINE
  5
236
100
AcDbEntity
  8
0
100
AcDbLine
 62
7
  6
CONTINUOUS
 10
2.4157935663
 20
6.9165708071
 11
2.4085382235
 21
6.9365046978
  0
LINE
  5
237
100
AcDbEntity
  8
0
100
AcDbLine
 62
7
  6
CONTINUOUS
 10
1.8112251933
 20
8.5776087604
 11
1.8039698505
 21
8.5975426511
  0
LINE
  5
238
100
AcDbEntity
  8
0
100
AcDbLine
 62
7
  6
CONTINUOUS
 10
2.3763515735
 20
6.9352254249
 11
2.3697963331
 21
6.9554003802
  0
LINE
  5
239
100
AcDbEntity
  8
0
100
AcDbLine
 62
6
  6
CONTINUOUS
 10
1.8301208758
 20
8.6163506507
 11
1.8235656354
 21
8.6365256061
  0
LINE
  5
23A
100
AcDbEntity
  8
0
100
AcDbLine
 62
7
  6
CONTINUOUS
 10
2.3375846444
 20
6.9552451845
 11
2.3317374931
 21
6.9756366244
  0
LINE
  5
23B
100
AcDbEntity
  8
0
100
AcDbLine
 62
7
  6
CONTINUOUS
 10
1.85035712
 20
8.6544094907
 11
1.8445099687
 21
8.6748009306
  0
LINE
  5
23C
100
AcDbEntity
  8
0
100
AcDbLine
 62
6
  6
CONTINUOUS
 10
1.7395244408
 20
7.6759303563
 11
1.7494834366
 21
7.6946605032
  0
LINE
  5
23D
100
AcDbEntity
  8
0
100
AcDbLine
 62
6
  6
CONTINUOUS
 10
2.5693809988
 20
9.2366635472
 11
2.5793399945
 21
9.2553936941
  0
LINE
  5
23E
100
AcDbEntity
  8
0
100
AcDbLine
 62
6
  6
CONTINUOUS
 10
1.726995679
 20
7.7177238449
 11
1.7376022807
 21
7.736095018
  0
LINE
  5
23F
100
AcDbEntity
  8
0
100
AcDbLine
 62
6
  6
CONTINUOUS
 10
2.6108155135
 20
9.2485447031
 11
2.6214221153
 21
9.2669158762
  0
LINE
  5
240
100
AcDbEntity
  8
0
100
AcDbLine
 62
6
  6
CONTINUOUS
 10
1.715933121
 20
7.7599291216
 11
1.7271744061
 21
7.7779189383
  0
LINE
  5
241
100
AcDbEntity
  8
0
100
AcDbLine
 62
6
  6
CONTINUOUS
 10
2.6526394339
 20
9.2589725777
 11
2.6638807191
 21
9.2769623945
  0
LINE
  5
242
100
AcDbEntity
  8
0
100
AcDbLine
 62
6
  6
CONTINUOUS
 10
1.7063502449
 20
7.8024947656
 11
1.7182125178
 21
7.8200813083
  0
LINE
  5
243
100
AcDbEntity
  8
0
100
AcDbLine
 62
6
  6
CONTINUOUS
 10
2.6948018038
 20
9.2679344661
 11
2.7066640767
 21
9.2855210087
  0
LINE
  5
244
100
AcDbEntity
  8
0
100
AcDbLine
 62
6
  6
CONTINUOUS
 10
2.7066640767
 20
6.8259054795
 11
2.6948018038
 21
6.8434920222
  0
LINE
  5
245
100
AcDbEntity
  8
0
100
AcDbLine
 62
6
  6
CONTINUOUS
 10
1.7182125178
 20
8.29134518
 11
1.7063502449
 21
8.3089317227
  0
LINE
  5
246
100
AcDbEntity
  8
0
100
AcDbLine
 62
6
  6
CONTINUOUS
 10
2.6638807191
 20
6.8344640938
 11
2.6526394339
 21
6.8524539106
  0
LINE
  5
247
100
AcDbEntity
  8
0
100
AcDbLine
 62
6
  6
CONTINUOUS
 10
1.7271744061
 20
8.3335075499
 11
1.715933121
 21
8.3514973667
  0
LINE
  5
248
100
AcDbEntity
  8
0
100
AcDbLine
 62
6
  6
CONTINUOUS
 10
2.6214221153
 20
6.8445106121
 11
2.6108155135
 21
6.8628817851
  0
LINE
  5
249
100
AcDbEntity
  8
0
100
AcDbLine
 62
6
  6
CONTINUOUS
 10
1.7376022807
 20
8.3753314703
 11
1.726995679
 21
8.3937026434
  0
LINE
  5
24A
100
AcDbEntity
  8
0
100
AcDbLine
 62
6
  6
CONTINUOUS
 10
2.5793399945
 20
6.8560327941
 11
2.5693809988
 21
6.874762941
  0
LINE
  5
24B
100
AcDbEntity
  8
0
100
AcDbLine
 62
6
  6
CONTINUOUS
 10
1.7494834366
 20
8.4167659851
 11
1.7395244408
 21
8.435496132
  0
LINE
  5
24C
100
AcDbEntity
  8
0
100
AcDbLine
 62
7
  6
CONTINUOUS
 10
3.7053703982
 20
9.0365155562
 11
3.7075877818
 21
9.0154185609
  0
LINE
  5
24D
100
AcDbEntity
  8
0
100
AcDbLine
 62
7
  6
CONTINUOUS
 10
3.8901390564
 20
7.2785592021
 11
3.89235644
 21
7.2574622068
  0
LINE
  5
24E
100
AcDbEntity
  8
0
100
AcDbLine
 62
7
  6
CONTINUOUS
 10
3.7391278348
 20
9.0088731785
 11
3.7406075931
 21
8.9877116494
  0
LINE
  5
24F
100
AcDbEntity
  8
0
100
AcDbLine
 62
6
  6
CONTINUOUS
 10
3.862432145
 20
7.2455393908
 11
3.8639119032
 21
7.2243778616
  0
LINE
  5
250
100
AcDbEntity
  8
0
100
AcDbLine
 62
6
  6
CONTINUOUS
 10
3.7719000022
 20
8.9800695224
 11
3.7726403323
 21
8.9588692414
  0
LINE
  5
251
100
AcDbEntity
  8
0
100
AcDbLine
 62
7
  6
CONTINUOUS
 10
3.833589737
 20
7.2135066515
 11
3.8343300671
 21
7.1923063706
  0
LINE
  5
252
100
AcDbEntity
  8
0
100
AcDbLine
 62
7
  6
CONTINUOUS
 10
3.8036469726
 20
8.9501396804
 11
3.8036469726
 21
8.928926477
  0
LINE
  5
253
100
AcDbEntity
  8
0
100
AcDbLine
 62
7
  6
CONTINUOUS
 10
3.8036469726
 20
7.1825000113
 11
3.8036469726
 21
7.1612868078
  0
LINE
  5
254
100
AcDbEntity
  8
0
100
AcDbLine
 62
7
  6
CONTINUOUS
 10
3.8343300671
 20
8.9191201177
 11
3.833589737
 21
8.8979198367
  0
LINE
  5
255
100
AcDbEntity
  8
0
100
AcDbLine
 62
6
  6
CONTINUOUS
 10
3.7726403323
 20
7.1525572468
 11
3.7719000022
 21
7.1313569659
  0
LINE
  5
256
100
AcDbEntity
  8
0
100
AcDbLine
 62
6
  6
CONTINUOUS
 10
3.8639119032
 20
8.8870486266
 11
3.862432145
 21
8.8658870975
  0
LINE
  5
257
100
AcDbEntity
  8
0
100
AcDbLine
 62
7
  6
CONTINUOUS
 10
3.7406075931
 20
7.1237148389
 11
3.7391278348
 21
7.1025533097
  0
LINE
  5
258
100
AcDbEntity
  8
0
100
AcDbLine
 62
7
  6
CONTINUOUS
 10
3.89235644
 20
8.8539642815
 11
3.8901390564
 21
8.8328672862
  0
LINE
  5
259
100
AcDbEntity
  8
0
100
AcDbLine
 62
7
  6
CONTINUOUS
 10
3.7075877818
 20
7.0960079274
 11
3.7053703982
 21
7.0749109321
  0
LINE
  5
25A
100
AcDbEntity
  8
0
100
AcDbLine
 62
6
  6
CONTINUOUS
 10
3.9196290221
 20
8.8199073904
 11
3.9166767148
 21
8.7989006324
  0
LINE
  5
25B
100
AcDbEntity
  8
0
100
AcDbLine
 62
7
  6
CONTINUOUS
 10
3.673621128
 20
7.069470269
 11
3.6706688207
 21
7.048463511
  0
LINE
  5
25C
100
AcDbEntity
  8
0
100
AcDbLine
 62
7
  6
CONTINUOUS
 10
3.9456964222
 20
8.7849194465
 11
3.9420127881
 21
8.7640285193
  0
LINE
  5
25D
100
AcDbEntity
  8
0
100
AcDbLine
 62
6
  6
CONTINUOUS
 10
3.6387490149
 20
7.0441341958
 11
3.6350653807
 21
7.0232432686
  0
LINE
  5
25E
100
AcDbEntity
  8
0
100
AcDbLine
 62
6
  6
CONTINUOUS
 10
3.970526881
 20
8.7490430771
 11
3.966116408
 21
8.7282934331
  0
LINE
  5
25F
100
AcDbEntity
  8
0
100
AcDbLine
 62
7
  6
CONTINUOUS
 10
3.6030139287
 20
7.0200305758
 11
3.5986034557
 21
6.9992809317
  0
LINE
  5
260
100
AcDbEntity
  8
0
100
AcDbLine
 62
6
  6
CONTINUOUS
 10
3.9940901466
 20
8.7123219922
 11
3.9889582082
 21
8.6917389116
  0
LINE
  5
261
100
AcDbEntity
  8
0
100
AcDbLine
 62
7
  6
CONTINUOUS
 10
3.5664594071
 20
6.9971887756
 11
3.5613274687
 21
6.976605695
  0
LINE
  5
262
100
AcDbEntity
  8
0
100
AcDbLine
 62
6
  6
CONTINUOUS
 10
3.5291299863
 20
6.9756366244
 11
3.523282835
 21
6.9552451845
  0
LINE
  5
263
100
AcDbEntity
  8
0
100
AcDbLine
 62
6
  6
CONTINUOUS
 10
3.4910711463
 20
6.9554003802
 11
3.4845159059
 21
6.9352254249
  0
LINE
  5
264
100
AcDbEntity
  8
0
100
AcDbLine
 62
7
  6
CONTINUOUS
 10
3.4523292559
 20
6.9365046978
 11
3.4450739131
 21
6.9165708071
  0
LINE
  5
265
100
AcDbEntity
  8
0
100
AcDbLine
 62
6
  6
CONTINUOUS
 10
1.6982587261
 20
7.8453689173
 11
1.7107275342
 21
7.8625307594
  0
LINE
  5
266
100
AcDbEntity
  8
0
100
AcDbLine
 62
6
  6
CONTINUOUS
 10
2.737251255
 20
9.2754194496
 11
2.7497200631
 21
9.2925812917
  0
LINE
  5
267
100
AcDbEntity
  8
0
100
AcDbLine
 62
6
  6
CONTINUOUS
 10
1.6916684227
 20
7.8884993412
 11
1.7047285748
 21
7.9052155737
  0
LINE
  5
268
100
AcDbEntity
  8
0
100
AcDbLine
 62
7
  6
CONTINUOUS
 10
2.7799360692
 20
9.281418409
 11
2.7929962213
 21
9.2981346415
  0
LINE
  5
269
100
AcDbEntity
  8
0
100
AcDbLine
 62
6
  6
CONTINUOUS
 10
1.686587364
 20
7.9318334895
 11
1.7002229483
 21
7.9480837461
  0
LINE
  5
26A
100
AcDbEntity
  8
0
100
AcDbLine
 62
6
  6
CONTINUOUS
 10
2.8228042417
 20
9.2859240355
 11
2.836439826
 21
9.3021742921
  0
LINE
  5
26B
100
AcDbEntity
  8
0
100
AcDbLine
 62
6
  6
CONTINUOUS
 10
1.6830217405
 20
7.9753185662
 11
1.6972161442
 21
7.9910830486
  0
LINE
  5
26C
100
AcDbEntity
  8
0
100
AcDbLine
 62
6
  6
CONTINUOUS
 10
2.8658035441
 20
9.2889308397
 11
2.8799979478
 21
9.304695322
  0
LINE
  5
26D
100
AcDbEntity
  8
0
100
AcDbLine
 62
6
  6
CONTINUOUS
 10
2.8799979478
 20
6.8067311662
 11
2.8658035441
 21
6.8224956486
  0
LINE
  5
26E
100
AcDbEntity
  8
0
100
AcDbLine
 62
6
  6
CONTINUOUS
 10
1.6972161442
 20
8.1203434397
 11
1.6830217405
 21
8.1361079221
  0
LINE
  5
26F
100
AcDbEntity
  8
0
100
AcDbLine
 62
6
  6
CONTINUOUS
 10
2.836439826
 20
6.8092521961
 11
2.8228042417
 21
6.8255024527
  0
LINE
  5
270
100
AcDbEntity
  8
0
100
AcDbLine
 62
6
  6
CONTINUOUS
 10
1.7002229483
 20
8.1633427421
 11
1.686587364
 21
8.1795929987
  0
LINE
  5
271
100
AcDbEntity
  8
0
100
AcDbLine
 62
7
  6
CONTINUOUS
 10
2.7929962213
 20
6.8132918468
 11
2.7799360692
 21
6.8300080792
  0
LINE
  5
272
100
AcDbEntity
  8
0
100
AcDbLine
 62
6
  6
CONTINUOUS
 10
1.7047285748
 20
8.2062109146
 11
1.6916684227
 21
8.222927147
  0
LINE
  5
273
100
AcDbEntity
  8
0
100
AcDbLine
 62
6
  6
CONTINUOUS
 10
2.7497200631
 20
6.8188451966
 11
2.737251255
 21
6.8360070387
  0
LINE
  5
274
100
AcDbEntity
  8
0
100
AcDbLine
 62
6
  6
CONTINUOUS
 10
1.7107275342
 20
8.2488957289
 11
1.6982587261
 21
8.2660575709
  0
LINE
  5
275
100
AcDbEntity
  8
0
100
AcDbLine
 62
7
  6
CONTINUOUS
 10
3.4450739131
 20
9.1948556812
 11
3.4523292559
 21
9.1749217905
  0
LINE
  5
276
100
AcDbEntity
  8
0
100
AcDbLine
 62
6
  6
CONTINUOUS
 10
3.4845159059
 20
9.1762010634
 11
3.4910711463
 21
9.156026108
  0
LINE
  5
277
100
AcDbEntity
  8
0
100
AcDbLine
 62
6
  6
CONTINUOUS
 10
3.523282835
 20
9.1561813038
 11
3.5291299863
 21
9.1357898638
  0
LINE
  5
278
100
AcDbEntity
  8
0
100
AcDbLine
 62
7
  6
CONTINUOUS
 10
3.5613274687
 20
9.1348207933
 11
3.5664594071
 21
9.1142377127
  0
LINE
  5
279
100
AcDbEntity
  8
0
100
AcDbLine
 62
6
  6
CONTINUOUS
 10
3.9889582082
 20
7.4196875767
 11
3.9940901466
 21
7.3991044961
  0
LINE
  5
27A
100
AcDbEntity
  8
0
100
AcDbLine
 62
7
  6
CONTINUOUS
 10
3.5986034557
 20
9.1121455565
 11
3.6030139287
 21
9.0913959125
  0
LINE
  5
27B
100
AcDbEntity
  8
0
100
AcDbLine
 62
6
  6
CONTINUOUS
 10
3.966116408
 20
7.3831330552
 11
3.970526881
 21
7.3623834111
  0
LINE
  5
27C
100
AcDbEntity
  8
0
100
AcDbLine
 62
6
  6
CONTINUOUS
 10
3.6350653807
 20
9.0881832197
 11
3.6387490149
 21
9.0672922925
  0
LINE
  5
27D
100
AcDbEntity
  8
0
100
AcDbLine
 62
7
  6
CONTINUOUS
 10
3.9420127881
 20
7.347397969
 11
3.9456964222
 21
7.3265070418
  0
LINE
  5
27E
100
AcDbEntity
  8
0
100
AcDbLine
 62
7
  6
CONTINUOUS
 10
3.6706688207
 20
9.0629629773
 11
3.673621128
 21
9.0419562193
  0
LINE
  5
27F
100
AcDbEntity
  8
0
100
AcDbLine
 62
6
  6
CONTINUOUS
 10
3.9166767148
 20
7.3125258558
 11
3.9196290221
 21
7.2915190978
  0
LINE
  5
280
100
AcDbEntity
  8
0
100
AcDbLine
 62
6
  6
CONTINUOUS
 10
4.6804337397
 20
8.6807132441
 11
4.6804337397
 21
7.4307132441
  0
LINE
  5
281
100
AcDbEntity
  8
0
100
AcDbLine
 62
6
  6
CONTINUOUS
 10
3.4129515163
 20
6.9189725985
 11
3.4050049104
 21
6.8993040588
  0
LINE
  5
282
100
AcDbEntity
  8
0
100
AcDbLine
 62
7
  6
CONTINUOUS
 10
3.3729859031
 20
6.9028254427
 11
3.364357716
 21
6.883446217
  0
LINE
  5
283
100
AcDbEntity
  8
0
100
AcDbLine
 62
6
  6
CONTINUOUS
 10
3.3324811083
 20
6.888082903
 11
3.3231818519
 21
6.8690166021
  0
LINE
  5
284
100
AcDbEntity
  8
0
100
AcDbLine
 62
6
  6
CONTINUOUS
 10
3.2914864806
 20
6.874762941
 11
3.2815274849
 21
6.8560327941
  0
LINE
  5
285
100
AcDbEntity
  8
0
100
AcDbLine
 62
7
  6
CONTINUOUS
 10
3.2500519658
 20
6.8628817851
 11
3.2394453641
 21
6.8445106121
  0
LINE
  5
286
100
AcDbEntity
  8
0
100
AcDbLine
 62
6
  6
CONTINUOUS
 10
1.6809758964
 20
8.0189015914
 11
1.6957118257
 21
8.034161093
  0
LINE
  5
287
100
AcDbEntity
  8
0
100
AcDbLine
 62
6
  6
CONTINUOUS
 10
2.9088815885
 20
9.2904351581
 11
2.9236175178
 21
9.3056946596
  0
LINE
  5
288
100
AcDbEntity
  8
0
100
AcDbLine
 62
6
  6
CONTINUOUS
 10
1.6804523242
 20
8.062529466
 11
1.6957118257
 21
8.0772653953
  0
LINE
  5
289
100
AcDbEntity
  8
0
100
AcDbLine
 62
6
  6
CONTINUOUS
 10
2.9519858909
 20
9.2904351581
 11
2.9672453924
 21
9.3051710875
  0
LINE
  5
28A
100
AcDbEntity
  8
0
100
AcDbLine
 62
6
  6
CONTINUOUS
 10
1.6814516618
 20
8.106149036
 11
1.6972161442
 21
8.1203434397
  0
LINE
  5
28B
100
AcDbEntity
  8
0
100
AcDbLine
 62
6
  6
CONTINUOUS
 10
2.9950639352
 20
9.2889308397
 11
3.0108284176
 21
9.3031252433
  0
LINE
  5
28C
100
AcDbEntity
  8
0
100
AcDbLine
 62
6
  6
CONTINUOUS
 10
3.0108284176
 20
6.8083012449
 11
2.9950639352
 21
6.8224956486
  0
LINE
  5
28D
100
AcDbEntity
  8
0
100
AcDbLine
 62
6
  6
CONTINUOUS
 10
1.6972161442
 20
7.9910830486
 11
1.6814516618
 21
8.0052774523
  0
LINE
  5
28E
100
AcDbEntity
  8
0
100
AcDbLine
 62
6
  6
CONTINUOUS
 10
2.9672453924
 20
6.8062554008
 11
2.9519858909
 21
6.8209913301
  0
LINE
  5
28F
100
AcDbEntity
  8
0
100
AcDbLine
 62
6
  6
CONTINUOUS
 10
1.6957118257
 20
8.034161093
 11
1.6804523242
 21
8.0488970223
  0
LINE
  5
290
100
AcDbEntity
  8
0
100
AcDbLine
 62
6
  6
CONTINUOUS
 10
2.9236175178
 20
6.8057318286
 11
2.9088815885
 21
6.8209913301
  0
LINE
  5
291
100
AcDbEntity
  8
0
100
AcDbLine
 62
6
  6
CONTINUOUS
 10
1.6957118257
 20
8.0772653953
 11
1.6809758964
 21
8.0925248968
  0
LINE
  5
292
100
AcDbEntity
  8
0
100
AcDbLine
 62
7
  6
CONTINUOUS
 10
3.2394453641
 20
9.2669158762
 11
3.2500519658
 21
9.2485447031
  0
LINE
  5
293
100
AcDbEntity
  8
0
100
AcDbLine
 62
6
  6
CONTINUOUS
 10
3.2815274849
 20
9.2553936941
 11
3.2914864806
 21
9.2366635472
  0
LINE
  5
294
100
AcDbEntity
  8
0
100
AcDbLine
 62
6
  6
CONTINUOUS
 10
3.3231818519
 20
9.2424098862
 11
3.3324811083
 21
9.2233435853
  0
LINE
  5
295
100
AcDbEntity
  8
0
100
AcDbLine
 62
7
  6
CONTINUOUS
 10
3.364357716
 20
9.2279802712
 11
3.3729859031
 21
9.2086010456
  0
LINE
  5
296
100
AcDbEntity
  8
0
100
AcDbLine
 62
6
  6
CONTINUOUS
 10
3.4050049104
 20
9.2121224295
 11
3.4129515163
 21
9.1924538897
  0
LINE
  5
297
100
AcDbEntity
  8
0
100
AcDbLine
 62
6
  6
CONTINUOUS
 10
3.2082280455
 20
6.8524539106
 11
3.1969867603
 21
6.8344640938
  0
LINE
  5
298
100
AcDbEntity
  8
0
100
AcDbLine
 62
7
  6
CONTINUOUS
 10
3.1660656756
 20
6.8434920222
 11
3.1542034027
 21
6.8259054795
  0
LINE
  5
299
100
AcDbEntity
  8
0
100
AcDbLine
 62
6
  6
CONTINUOUS
 10
3.1236162244
 20
6.8360070387
 11
3.1111474163
 21
6.8188451966
  0
LINE
  5
29A
100
AcDbEntity
  8
0
100
AcDbLine
 62
6
  6
CONTINUOUS
 10
3.0809314102
 20
6.8300080792
 11
3.067871258
 21
6.8132918468
  0
LINE
  5
29B
100
AcDbEntity
  8
0
100
AcDbLine
 62
6
  6
CONTINUOUS
 10
1.6839726917
 20
8.1497071578
 11
1.7002229483
 21
8.1633427421
  0
LINE
  5
29C
100
AcDbEntity
  8
0
100
AcDbLine
 62
6
  6
CONTINUOUS
 10
3.0380632377
 20
9.2859240355
 11
3.0543134943
 21
9.2995596199
  0
LINE
  5
29D
100
AcDbEntity
  8
0
100
AcDbLine
 62
6
  6
CONTINUOUS
 10
1.6880123424
 20
8.1931507625
 11
1.7047285748
 21
8.2062109146
  0
LINE
  5
29E
100
AcDbEntity
  8
0
100
AcDbLine
 62
6
  6
CONTINUOUS
 10
3.0809314102
 20
9.281418409
 11
3.0976476426
 21
9.2944785612
  0
LINE
  5
29F
100
AcDbEntity
  8
0
100
AcDbLine
 62
6
  6
CONTINUOUS
 10
1.6935656921
 20
8.2364269207
 11
1.7107275342
 21
8.2488957289
  0
LINE
  5
2A0
100
AcDbEntity
  8
0
100
AcDbLine
 62
6
  6
CONTINUOUS
 10
3.1236162244
 20
9.2754194496
 11
3.1407780665
 21
9.2878882578
  0
LINE
  5
2A1
100
AcDbEntity
  8
0
100
AcDbLine
 62
6
  6
CONTINUOUS
 10
3.1407780665
 20
6.8235382305
 11
3.1236162244
 21
6.8360070387
  0
LINE
  5
2A2
100
AcDbEntity
  8
0
100
AcDbLine
 62
6
  6
CONTINUOUS
 10
1.7107275342
 20
7.8625307594
 11
1.6935656921
 21
7.8749995676
  0
LINE
  5
2A3
100
AcDbEntity
  8
0
100
AcDbLine
 62
6
  6
CONTINUOUS
 10
3.0976476426
 20
6.8169479271
 11
3.0809314102
 21
6.8300080792
  0
LINE
  5
2A4
100
AcDbEntity
  8
0
100
AcDbLine
 62
6
  6
CONTINUOUS
 10
1.7047285748
 20
7.9052155737
 11
1.6880123424
 21
7.9182757258
  0
LINE
  5
2A5
100
AcDbEntity
  8
0
100
AcDbLine
 62
6
  6
CONTINUOUS
 10
3.0543134943
 20
6.8118668684
 11
3.0380632377
 21
6.8255024527
  0
LINE
  5
2A6
100
AcDbEntity
  8
0
100
AcDbLine
 62
6
  6
CONTINUOUS
 10
1.7002229483
 20
7.9480837461
 11
1.6839726917
 21
7.9617193305
  0
LINE
  5
2A7
100
AcDbEntity
  8
0
100
AcDbLine
 62
6
  6
CONTINUOUS
 10
3.067871258
 20
9.2981346415
 11
3.0809314102
 21
9.281418409
  0
LINE
  5
2A8
100
AcDbEntity
  8
0
100
AcDbLine
 62
6
  6
CONTINUOUS
 10
3.1111474163
 20
9.2925812917
 11
3.1236162244
 21
9.2754194496
  0
LINE
  5
2A9
100
AcDbEntity
  8
0
100
AcDbLine
 62
7
  6
CONTINUOUS
 10
3.1542034027
 20
9.2855210087
 11
3.1660656756
 21
9.2679344661
  0
LINE
  5
2AA
100
AcDbEntity
  8
0
100
AcDbLine
 62
6
  6
CONTINUOUS
 10
3.1969867603
 20
9.2769623945
 11
3.2082280455
 21
9.2589725777
  0
LINE
  5
2AB
100
AcDbEntity
  8
0
100
AcDbLine
 62
7
  6
CONTINUOUS
 10
3.0380632377
 20
6.8255024527
 11
3.0244276534
 21
6.8092521961
  0
LINE
  5
2AC
100
AcDbEntity
  8
0
100
AcDbLine
 62
6
  6
CONTINUOUS
 10
2.9950639352
 20
6.8224956486
 11
2.9808695316
 21
6.8067311662
  0
LINE
  5
2AD
100
AcDbEntity
  8
0
100
AcDbLine
 62
6
  6
CONTINUOUS
 10
2.9519858909
 20
6.8209913301
 11
2.9372499615
 21
6.8057318286
  0
LINE
  5
2AE
100
AcDbEntity
  8
0
100
AcDbLine
 62
7
  6
CONTINUOUS
 10
1.7006259751
 20
8.2794829072
 11
1.7182125178
 21
8.29134518
  0
LINE
  5
2AF
100
AcDbEntity
  8
0
100
AcDbLine
 62
6
  6
CONTINUOUS
 10
3.1660656756
 20
9.2679344661
 11
3.1836522182
 21
9.2797967389
  0
LINE
  5
2B0
100
AcDbEntity
  8
0
100
AcDbLine
 62
7
  6
CONTINUOUS
 10
1.7091845894
 20
8.3222662648
 11
1.7271744061
 21
8.3335075499
  0
LINE
  5
2B1
100
AcDbEntity
  8
0
100
AcDbLine
 62
6
  6
CONTINUOUS
 10
3.2082280455
 20
9.2589725777
 11
3.2262178623
 21
9.2702138628
  0
LINE
  5
2B2
100
AcDbEntity
  8
0
100
AcDbLine
 62
6
  6
CONTINUOUS
 10
3.2262178623
 20
6.8412126254
 11
3.2082280455
 21
6.8524539106
  0
LINE
  5
2B3
100
AcDbEntity
  8
0
100
AcDbLine
 62
7
  6
CONTINUOUS
 10
1.7271744061
 20
7.7779189383
 11
1.7091845894
 21
7.7891602235
  0
LINE
  5
2B4
100
AcDbEntity
  8
0
100
AcDbLine
 62
6
  6
CONTINUOUS
 10
3.1836522182
 20
6.8316297494
 11
3.1660656756
 21
6.8434920222
  0
LINE
  5
2B5
100
AcDbEntity
  8
0
100
AcDbLine
 62
7
  6
CONTINUOUS
 10
1.7182125178
 20
7.8200813083
 11
1.7006259751
 21
7.8319435811
  0
LINE
  5
2B6
100
AcDbEntity
  8
0
100
AcDbLine
 62
6
  6
CONTINUOUS
 10
2.9372499615
 20
9.3056946596
 11
2.9519858909
 21
9.2904351581
  0
LINE
  5
2B7
100
AcDbEntity
  8
0
100
AcDbLine
 62
6
  6
CONTINUOUS
 10
2.9808695316
 20
9.304695322
 11
2.9950639352
 21
9.2889308397
  0
LINE
  5
2B8
100
AcDbEntity
  8
0
100
AcDbLine
 62
7
  6
CONTINUOUS
 10
3.0244276534
 20
9.3021742921
 11
3.0380632377
 21
9.2859240355
  0
LINE
  5
2B9
100
AcDbEntity
  8
0
100
AcDbLine
 62
6
  6
CONTINUOUS
 10
2.9088815885
 20
6.8209913301
 11
2.893622087
 21
6.8062554008
  0
LINE
  5
2BA
100
AcDbEntity
  8
0
100
AcDbLine
 62
6
  6
CONTINUOUS
 10
2.8658035441
 20
6.8224956486
 11
2.8500390618
 21
6.8083012449
  0
LINE
  5
2BB
100
AcDbEntity
  8
0
100
AcDbLine
 62
6
  6
CONTINUOUS
 10
2.8228042417
 20
6.8255024527
 11
2.8065539851
 21
6.8118668684
  0
LINE
  5
2BC
100
AcDbEntity
  8
0
100
AcDbLine
 62
6
  6
CONTINUOUS
 10
1.7192311076
 20
8.3647248686
 11
1.7376022807
 21
8.3753314703
  0
LINE
  5
2BD
100
AcDbEntity
  8
0
100
AcDbLine
 62
6
  6
CONTINUOUS
 10
3.2500519658
 20
9.2485447031
 11
3.2684231389
 21
9.2591513049
  0
LINE
  5
2BE
100
AcDbEntity
  8
0
100
AcDbLine
 62
6
  6
CONTINUOUS
 10
1.7307532897
 20
8.4068069893
 11
1.7494834366
 21
8.4167659851
  0
LINE
  5
2BF
100
AcDbEntity
  8
0
100
AcDbLine
 62
6
  6
CONTINUOUS
 10
3.2914864806
 20
9.2366635472
 11
3.3102166275
 21
9.246622543
  0
LINE
  5
2C0
100
AcDbEntity
  8
0
100
AcDbLine
 62
7
  6
CONTINUOUS
 10
1.7437370976
 20
8.4484613564
 11
1.7628033986
 21
8.4577606127
  0
LINE
  5
2C1
100
AcDbEntity
  8
0
100
AcDbLine
 62
7
  6
CONTINUOUS
 10
3.3324811083
 20
9.2233435853
 11
3.3515474092
 21
9.2326428416
  0
LINE
  5
2C2
100
AcDbEntity
  8
0
100
AcDbLine
 62
7
  6
CONTINUOUS
 10
3.3515474092
 20
6.8787836467
 11
3.3324811083
 21
6.888082903
  0
LINE
  5
2C3
100
AcDbEntity
  8
0
100
AcDbLine
 62
7
  6
CONTINUOUS
 10
1.7628033986
 20
7.6536658756
 11
1.7437370976
 21
7.6629651319
  0
LINE
  5
2C4
100
AcDbEntity
  8
0
100
AcDbLine
 62
6
  6
CONTINUOUS
 10
3.3102166275
 20
6.8648039453
 11
3.2914864806
 21
6.874762941
  0
LINE
  5
2C5
100
AcDbEntity
  8
0
100
AcDbLine
 62
6
  6
CONTINUOUS
 10
1.7494834366
 20
7.6946605032
 11
1.7307532897
 21
7.704619499
  0
LINE
  5
2C6
100
AcDbEntity
  8
0
100
AcDbLine
 62
6
  6
CONTINUOUS
 10
3.2684231389
 20
6.8522751834
 11
3.2500519658
 21
6.8628817851
  0
LINE
  5
2C7
100
AcDbEntity
  8
0
100
AcDbLine
 62
6
  6
CONTINUOUS
 10
1.7376022807
 20
7.736095018
 11
1.7192311076
 21
7.7467016197
  0
LINE
  5
2C8
100
AcDbEntity
  8
0
100
AcDbLine
 62
6
  6
CONTINUOUS
 10
2.8065539851
 20
9.2995596199
 11
2.8228042417
 21
9.2859240355
  0
LINE
  5
2C9
100
AcDbEntity
  8
0
100
AcDbLine
 62
6
  6
CONTINUOUS
 10
2.8500390618
 20
9.3031252433
 11
2.8658035441
 21
9.2889308397
  0
LINE
  5
2CA
100
AcDbEntity
  8
0
100
AcDbLine
 62
6
  6
CONTINUOUS
 10
2.893622087
 20
9.3051710875
 11
2.9088815885
 21
9.2904351581
  0
LINE
  5
2CB
100
AcDbEntity
  8
0
100
AcDbLine
 62
6
  6
CONTINUOUS
 10
2.7799360692
 20
6.8300080792
 11
2.7632198368
 21
6.8169479271
  0
LINE
  5
2CC
100
AcDbEntity
  8
0
100
AcDbLine
 62
6
  6
CONTINUOUS
 10
2.737251255
 20
6.8360070387
 11
2.7200894129
 21
6.8235382305
  0
LINE
  5
2CD
100
AcDbEntity
  8
0
100
AcDbLine
 62
6
  6
CONTINUOUS
 10
2.6948018038
 20
6.8434920222
 11
2.6772152612
 21
6.8316297494
  0
LINE
  5
2CE
100
AcDbEntity
  8
0
100
AcDbLine
 62
7
  6
CONTINUOUS
 10
1.7581667126
 20
8.4896372204
 11
1.7775459382
 21
8.4982654075
  0
LINE
  5
2CF
100
AcDbEntity
  8
0
100
AcDbLine
 62
6
  6
CONTINUOUS
 10
3.3729859031
 20
9.2086010456
 11
3.3923651287
 21
9.2172292327
  0
LINE
  5
2D0
100
AcDbEntity
  8
0
100
AcDbLine
 62
6
  6
CONTINUOUS
 10
1.7740245544
 20
8.5302844149
 11
1.7936930941
 21
8.5382310208
  0
LINE
  5
2D1
100
AcDbEntity
  8
0
100
AcDbLine
 62
6
  6
CONTINUOUS
 10
3.4129515163
 20
9.1924538897
 11
3.432620056
 21
9.2004004956
  0
LINE
  5
2D2
100
AcDbEntity
  8
0
100
AcDbLine
 62
6
  6
CONTINUOUS
 10
3.432620056
 20
6.9110259927
 11
3.4129515163
 21
6.9189725985
  0
LINE
  5
2D3
100
AcDbEntity
  8
0
100
AcDbLine
 62
6
  6
CONTINUOUS
 10
1.7936930941
 20
7.5731954675
 11
1.7740245544
 21
7.5811420734
  0
LINE
  5
2D4
100
AcDbEntity
  8
0
100
AcDbLine
 62
6
  6
CONTINUOUS
 10
3.3923651287
 20
6.8941972555
 11
3.3729859031
 21
6.9028254427
  0
LINE
  5
2D5
100
AcDbEntity
  8
0
100
AcDbLine
 62
7
  6
CONTINUOUS
 10
1.7775459382
 20
7.6131610807
 11
1.7581667126
 21
7.6217892679
  0
LINE
  5
2D6
100
AcDbEntity
  8
0
100
AcDbLine
 62
6
  6
CONTINUOUS
 10
2.6772152612
 20
9.2797967389
 11
2.6948018038
 21
9.2679344661
  0
LINE
  5
2D7
100
AcDbEntity
  8
0
100
AcDbLine
 62
6
  6
CONTINUOUS
 10
2.7200894129
 20
9.2878882578
 11
2.737251255
 21
9.2754194496
  0
LINE
  5
2D8
100
AcDbEntity
  8
0
100
AcDbLine
 62
6
  6
CONTINUOUS
 10
2.7632198368
 20
9.2944785612
 11
2.7799360692
 21
9.281418409
  0
LINE
  5
2D9
100
AcDbEntity
  8
0
100
AcDbLine
 62
6
  6
CONTINUOUS
 10
2.6526394339
 20
6.8524539106
 11
2.6346496171
 21
6.8412126254
  0
LINE
  5
2DA
100
AcDbEntity
  8
0
100
AcDbLine
 62
6
  6
CONTINUOUS
 10
2.6108155135
 20
6.8628817851
 11
2.5924443405
 21
6.8522751834
  0
LINE
  5
2DB
100
AcDbEntity
  8
0
100
AcDbLine
 62
7
  6
CONTINUOUS
 10
1.7912913026
 20
8.5703534175
 11
1.8112251933
 21
8.5776087604
  0
LINE
  5
2DC
100
AcDbEntity
  8
0
100
AcDbLine
 62
7
  6
CONTINUOUS
 10
3.4523292559
 20
9.1749217905
 11
3.4722631467
 21
9.1821771334
  0
LINE
  5
2DD
100
AcDbEntity
  8
0
100
AcDbLine
 62
6
  6
CONTINUOUS
 10
1.8099459204
 20
8.6097954103
 11
1.8301208758
 21
8.6163506507
  0
LINE
  5
2DE
100
AcDbEntity
  8
0
100
AcDbLine
 62
6
  6
CONTINUOUS
 10
3.4910711463
 20
9.156026108
 11
3.5112461016
 21
9.1625813484
  0
LINE
  5
2DF
100
AcDbEntity
  8
0
100
AcDbLine
 62
6
  6
CONTINUOUS
 10
1.8299656801
 20
8.6485623394
 11
1.85035712
 21
8.6544094907
  0
LINE
  5
2E0
100
AcDbEntity
  8
0
100
AcDbLine
 62
6
  6
CONTINUOUS
 10
3.5291299863
 20
9.1357898638
 11
3.5495214262
 21
9.1416370151
  0
LINE
  5
2E1
100
AcDbEntity
  8
0
100
AcDbLine
 62
6
  6
CONTINUOUS
 10
3.5495214262
 20
6.9697894731
 11
3.5291299863
 21
6.9756366244
  0
LINE
  5
2E2
100
AcDbEntity
  8
0
100
AcDbLine
 62
6
  6
CONTINUOUS
 10
1.85035712
 20
7.4570169976
 11
1.8299656801
 21
7.4628641489
  0
LINE
  5
2E3
100
AcDbEntity
  8
0
100
AcDbLine
 62
6
  6
CONTINUOUS
 10
3.5112461016
 20
6.9488451399
 11
3.4910711463
 21
6.9554003802
  0
LINE
  5
2E4
100
AcDbEntity
  8
0
100
AcDbLine
 62
6
  6
CONTINUOUS
 10
1.8301208758
 20
7.4950758376
 11
1.8099459204
 21
7.5016310779
  0
LINE
  5
2E5
100
AcDbEntity
  8
0
100
AcDbLine
 62
7
  6
CONTINUOUS
 10
3.4722631467
 20
6.9292493549
 11
3.4523292559
 21
6.9365046978
  0
LINE
  5
2E6
100
AcDbEntity
  8
0
100
AcDbLine
 62
7
  6
CONTINUOUS
 10
1.8112251933
 20
7.5338177279
 11
1.7912913026
 21
7.5410730708
  0
LINE
  5
2E7
100
AcDbEntity
  8
0
100
AcDbLine
 62
6
  6
CONTINUOUS
 10
2.5924443405
 20
9.2591513049
 11
2.6108155135
 21
9.2485447031
  0
LINE
  5
2E8
100
AcDbEntity
  8
0
100
AcDbLine
 62
6
  6
CONTINUOUS
 10
2.6346496171
 20
9.2702138628
 11
2.6526394339
 21
9.2589725777
  0
LINE
  5
2E9
100
AcDbEntity
  8
0
100
AcDbLine
 62
6
  6
CONTINUOUS
 10
2.5693809988
 20
6.874762941
 11
2.5506508519
 21
6.8648039453
  0
LINE
  5
2EA
100
AcDbEntity
  8
0
100
AcDbLine
 62
6
  6
CONTINUOUS
 10
2.5283863711
 20
6.888082903
 11
2.5093200702
 21
6.8787836467
  0
LINE
  5
2EB
100
AcDbEntity
  8
0
100
AcDbLine
 62
6
  6
CONTINUOUS
 10
2.4878815763
 20
6.9028254427
 11
2.4685023506
 21
6.8941972555
  0
LINE
  5
2EC
100
AcDbEntity
  8
0
100
AcDbLine
 62
7
  6
CONTINUOUS
 10
3.6237635727
 20
7.0156201028
 11
3.6030139287
 21
7.0200305758
  0
LINE
  5
2ED
100
AcDbEntity
  8
0
100
AcDbLine
 62
6
  6
CONTINUOUS
 10
1.8947510714
 20
7.3831330552
 11
1.8740014273
 21
7.3875435282
  0
LINE
  5
2EE
100
AcDbEntity
  8
0
100
AcDbLine
 62
6
  6
CONTINUOUS
 10
3.5870424877
 20
6.9920568372
 11
3.5664594071
 21
6.9971887756
  0
LINE
  5
2EF
100
AcDbEntity
  8
0
100
AcDbLine
 62
7
  6
CONTINUOUS
 10
1.8719092712
 20
7.4196875767
 11
1.8513261905
 21
7.4248195151
  0
LINE
  5
2F0
100
AcDbEntity
  8
0
100
AcDbLine
 62
6
  6
CONTINUOUS
 10
2.4685023506
 20
9.2172292327
 11
2.4878815763
 21
9.2086010456
  0
LINE
  5
2F1
100
AcDbEntity
  8
0
100
AcDbLine
 62
6
  6
CONTINUOUS
 10
2.5093200702
 20
9.2326428416
 11
2.5283863711
 21
9.2233435853
  0
LINE
  5
2F2
100
AcDbEntity
  8
0
100
AcDbLine
 62
6
  6
CONTINUOUS
 10
2.5506508519
 20
9.246622543
 11
2.5693809988
 21
9.2366635472
  0
LINE
  5
2F3
100
AcDbEntity
  8
0
100
AcDbLine
 62
6
  6
CONTINUOUS
 10
2.4479159631
 20
6.9189725985
 11
2.4282474233
 21
6.9110259927
  0
LINE
  5
2F4
100
AcDbEntity
  8
0
100
AcDbLine
 62
7
  6
CONTINUOUS
 10
2.4085382235
 20
6.9365046978
 11
2.3886043327
 21
6.9292493549
  0
LINE
  5
2F5
100
AcDbEntity
  8
0
100
AcDbLine
 62
6
  6
CONTINUOUS
 10
3.694627886
 20
7.0665179617
 11
3.673621128
 21
7.069470269
  0
LINE
  5
2F6
100
AcDbEntity
  8
0
100
AcDbLine
 62
6
  6
CONTINUOUS
 10
1.9441907646
 20
7.3125258558
 11
1.9231840066
 21
7.3154781631
  0
LINE
  5
2F7
100
AcDbEntity
  8
0
100
AcDbLine
 62
6
  6
CONTINUOUS
 10
3.6596399421
 20
7.0404505617
 11
3.6387490149
 21
7.0441341958
  0
LINE
  5
2F8
100
AcDbEntity
  8
0
100
AcDbLine
 62
6
  6
CONTINUOUS
 10
1.9188546913
 20
7.347397969
 11
1.8979637641
 21
7.3510816031
  0
LINE
  5
2F9
100
AcDbEntity
  8
0
100
AcDbLine
 62
7
  6
CONTINUOUS
 10
2.3886043327
 20
9.1821771334
 11
2.4085382235
 21
9.1749217905
  0
LINE
  5
2FA
100
AcDbEntity
  8
0
100
AcDbLine
 62
6
  6
CONTINUOUS
 10
2.4282474233
 20
9.2004004956
 11
2.4479159631
 21
9.1924538897
  0
LINE
  5
2FB
100
AcDbEntity
  8
0
100
AcDbLine
 62
6
  6
CONTINUOUS
 10
2.3697963331
 20
6.9554003802
 11
2.3496213778
 21
6.9488451399
  0
LINE
  5
2FC
100
AcDbEntity
  8
0
100
AcDbLine
 62
7
  6
CONTINUOUS
 10
2.3317374931
 20
6.9756366244
 11
2.3113460532
 21
6.9697894731
  0
LINE
  5
2FD
100
AcDbEntity
  8
0
100
AcDbLine
 62
7
  6
CONTINUOUS
 10
3.7617691222
 20
7.1222350806
 11
3.7406075931
 21
7.1237148389
  0
LINE
  5
2FE
100
AcDbEntity
  8
0
100
AcDbLine
 62
7
  6
CONTINUOUS
 10
1.9984353344
 20
7.2455393908
 11
1.9772738053
 21
7.247019149
  0
LINE
  5
2FF
100
AcDbEntity
  8
0
100
AcDbLine
 62
6
  6
CONTINUOUS
 10
3.7286847771
 20
7.0937905438
 11
3.7075877818
 21
7.0960079274
  0
LINE
  5
300
100
AcDbEntity
  8
0
100
AcDbLine
 62
6
  6
CONTINUOUS
 10
1.970728423
 20
7.2785592021
 11
1.9496314277
 21
7.2807765856
  0
LINE
  5
301
100
AcDbEntity
  8
0
100
AcDbLine
 62
6
  6
CONTINUOUS
 10
2.2738249916
 20
9.1193696511
 11
2.2944080723
 21
9.1142377127
  0
LINE
  5
302
100
AcDbEntity
  8
0
100
AcDbLine
 62
7
  6
CONTINUOUS
 10
3.9889582082
 20
8.6917389116
 11
4.0095412889
 21
8.6866069732
  0
LINE
  5
303
100
AcDbEntity
  8
0
100
AcDbLine
 62
7
  6
CONTINUOUS
 10
2.3113460532
 20
9.1416370151
 11
2.3317374931
 21
9.1357898638
  0
LINE
  5
304
100
AcDbEntity
  8
0
100
AcDbLine
 62
6
  6
CONTINUOUS
 10
2.3496213778
 20
9.1625813484
 11
2.3697963331
 21
9.156026108
  0
LINE
  5
305
100
AcDbEntity
  8
0
100
AcDbLine
 62
6
  6
CONTINUOUS
 10
3.824860176
 20
7.1825000113
 11
3.8036469726
 21
7.1825000113
  0
LINE
  5
306
100
AcDbEntity
  8
0
100
AcDbLine
 62
6
  6
CONTINUOUS
 10
2.0572205068
 20
7.1825000113
 11
2.0360073034
 21
7.1825000113
  0
LINE
  5
307
100
AcDbEntity
  8
0
100
AcDbLine
 62
6
  6
CONTINUOUS
 10
2.9304337397
 20
7.4307132441
 11
20.9304337397
 21
7.4307132441
  0
LINE
  5
308
100
AcDbEntity
  8
0
100
AcDbLine
 62
7
  6
CONTINUOUS
 10
3.7938406132
 20
7.1518169167
 11
3.7726403323
 21
7.1525572468
  0
LINE
  5
309
100
AcDbEntity
  8
0
100
AcDbLine
 62
6
  6
CONTINUOUS
 10
2.0272777424
 20
7.2135066515
 11
2.0060774615
 21
7.2142469816
  0
LINE
  5
30A
100
AcDbEntity
  8
0
100
AcDbLine
 62
6
  6
CONTINUOUS
 10
2.2012275373
 20
9.0709759266
 11
2.2221184645
 21
9.0672922925
  0
LINE
  5
30B
100
AcDbEntity
  8
0
100
AcDbLine
 62
6
  6
CONTINUOUS
 10
3.9420127881
 20
8.7640285193
 11
3.9629037153
 21
8.7603448852
  0
LINE
  5
30C
100
AcDbEntity
  8
0
100
AcDbLine
 62
6
  6
CONTINUOUS
 10
2.2371039067
 20
9.0958063855
 11
2.2578535507
 21
9.0913959125
  0
LINE
  5
30D
100
AcDbEntity
  8
0
100
AcDbLine
 62
7
  6
CONTINUOUS
 10
3.966116408
 20
8.7282934331
 11
3.9868660521
 21
8.7238829601
  0
LINE
  5
30E
100
AcDbEntity
  8
0
100
AcDbLine
 62
6
  6
CONTINUOUS
 10
3.9112360517
 20
7.2807765856
 11
3.8901390564
 21
7.2785592021
  0
LINE
  5
30F
100
AcDbEntity
  8
0
100
AcDbLine
 62
6
  6
CONTINUOUS
 10
2.1532796976
 20
7.0960079274
 11
2.1321827023
 21
7.0937905438
  0
LINE
  5
310
100
AcDbEntity
  8
0
100
AcDbLine
 62
7
  6
CONTINUOUS
 10
3.8835936741
 20
7.247019149
 11
3.862432145
 21
7.2455393908
  0
LINE
  5
311
100
AcDbEntity
  8
0
100
AcDbLine
 62
6
  6
CONTINUOUS
 10
2.1202598863
 20
7.1237148389
 11
2.0990983572
 21
7.1222350806
  0
LINE
  5
312
100
AcDbEntity
  8
0
100
AcDbLine
 62
7
  6
CONTINUOUS
 10
3.8547900179
 20
7.2142469816
 11
3.833589737
 21
7.2135066515
  0
LINE
  5
313
100
AcDbEntity
  8
0
100
AcDbLine
 62
7
  6
CONTINUOUS
 10
2.0882271471
 20
7.1525572468
 11
2.0670268662
 21
7.1518169167
  0
LINE
  5
314
100
AcDbEntity
  8
0
100
AcDbLine
 62
6
  6
CONTINUOUS
 10
2.1321827023
 20
9.0176359444
 11
2.1532796976
 21
9.0154185609
  0
LINE
  5
315
100
AcDbEntity
  8
0
100
AcDbLine
 62
6
  6
CONTINUOUS
 10
3.8901390564
 20
8.8328672862
 11
3.9112360517
 21
8.8306499027
  0
LINE
  5
316
100
AcDbEntity
  8
0
100
AcDbLine
 62
7
  6
CONTINUOUS
 10
2.1662395934
 20
9.0449085266
 11
2.1872463514
 21
9.0419562193
  0
LINE
  5
317
100
AcDbEntity
  8
0
100
AcDbLine
 62
7
  6
CONTINUOUS
 10
3.9166767148
 20
8.7989006324
 11
3.9376834728
 21
8.7959483251
  0
LINE
  5
318
100
AcDbEntity
  8
0
100
AcDbLine
 62
6
  6
CONTINUOUS
 10
3.9629037153
 20
7.3510816031
 11
3.9420127881
 21
7.347397969
  0
LINE
  5
319
100
AcDbEntity
  8
0
100
AcDbLine
 62
6
  6
CONTINUOUS
 10
2.2221184645
 20
7.0441341958
 11
2.2012275373
 21
7.0404505617
  0
LINE
  5
31A
100
AcDbEntity
  8
0
100
AcDbLine
 62
7
  6
CONTINUOUS
 10
3.9376834728
 20
7.3154781631
 11
3.9166767148
 21
7.3125258558
  0
LINE
  5
31B
100
AcDbEntity
  8
0
100
AcDbLine
 62
7
  6
CONTINUOUS
 10
2.1872463514
 20
7.069470269
 11
2.1662395934
 21
7.0665179617
  0
LINE
  5
31C
100
AcDbEntity
  8
0
100
AcDbLine
 62
6
  6
CONTINUOUS
 10
2.9304337397
 20
8.6807132441
 11
20.9304337397
 21
8.6807132441
  0
LINE
  5
31D
100
AcDbEntity
  8
0
100
AcDbLine
 62
7
  6
CONTINUOUS
 10
2.0670268662
 20
8.9596095716
 11
2.0882271471
 21
8.9588692414
  0
LINE
  5
31E
100
AcDbEntity
  8
0
100
AcDbLine
 62
7
  6
CONTINUOUS
 10
3.833589737
 20
8.8979198367
 11
3.8547900179
 21
8.8971795066
  0
LINE
  5
31F
100
AcDbEntity
  8
0
100
AcDbLine
 62
6
  6
CONTINUOUS
 10
2.0990983572
 20
8.9891914077
 11
2.1202598863
 21
8.9877116494
  0
LINE
  5
320
100
AcDbEntity
  8
0
100
AcDbLine
 62
7
  6
CONTINUOUS
 10
3.862432145
 20
8.8658870975
 11
3.8835936741
 21
8.8644073392
  0
LINE
  5
321
100
AcDbEntity
  8
0
100
AcDbLine
 62
7
  6
CONTINUOUS
 10
4.0095412889
 20
7.4248195151
 11
3.9889582082
 21
7.4196875767
  0
LINE
  5
322
100
AcDbEntity
  8
0
100
AcDbLine
 62
6
  6
CONTINUOUS
 10
2.2944080723
 20
6.9971887756
 11
2.2738249916
 21
6.9920568372
  0
LINE
  5
323
100
AcDbEntity
  8
0
100
AcDbLine
 62
7
  6
CONTINUOUS
 10
3.9868660521
 20
7.3875435282
 11
3.966116408
 21
7.3831330552
  0
LINE
  5
324
100
AcDbEntity
  8
0
100
AcDbLine
 62
6
  6
CONTINUOUS
 10
2.2578535507
 20
7.0200305758
 11
2.2371039067
 21
7.0156201028
  0
LINE
  5
325
100
AcDbEntity
  8
0
100
AcDbLine
 62
6
  6
CONTINUOUS
 10
2.0060774615
 20
8.8971795066
 11
2.0272777424
 21
8.8979198367
  0
LINE
  5
326
100
AcDbEntity
  8
0
100
AcDbLine
 62
7
  6
CONTINUOUS
 10
3.7726403323
 20
8.9588692414
 11
3.7938406132
 21
8.9596095716
  0
LINE
  5
327
100
AcDbEntity
  8
0
100
AcDbLine
 62
6
  6
CONTINUOUS
 10
2.0360073034
 20
8.928926477
 11
2.0572205068
 21
8.928926477
  0
LINE
  5
328
100
AcDbEntity
  8
0
100
AcDbLine
 62
6
  6
CONTINUOUS
 10
3.8036469726
 20
8.928926477
 11
3.824860176
 21
8.928926477
  0
LINE
  5
329
100
AcDbEntity
  8
0
100
AcDbLine
 62
6
  6
CONTINUOUS
 10
1.9231840066
 20
8.7959483251
 11
1.9441907646
 21
8.7989006324
  0
LINE
  5
32A
100
AcDbEntity
  8
0
100
AcDbLine
 62
6
  6
CONTINUOUS
 10
3.673621128
 20
9.0419562193
 11
3.694627886
 21
9.0449085266
  0
LINE
  5
32B
100
AcDbEntity
  8
0
100
AcDbLine
 62
6
  6
CONTINUOUS
 10
1.9496314277
 20
8.8306499027
 11
1.970728423
 21
8.8328672862
  0
LINE
  5
32C
100
AcDbEntity
  8
0
100
AcDbLine
 62
6
  6
CONTINUOUS
 10
3.7075877818
 20
9.0154185609
 11
3.7286847771
 21
9.0176359444
  0
LINE
  5
32D
100
AcDbEntity
  8
0
100
AcDbLine
 62
7
  6
CONTINUOUS
 10
1.9772738053
 20
8.8644073392
 11
1.9984353344
 21
8.8658870975
  0
LINE
  5
32E
100
AcDbEntity
  8
0
100
AcDbLine
 62
7
  6
CONTINUOUS
 10
3.7406075931
 20
8.9877116494
 11
3.7617691222
 21
8.9891914077
  0
LINE
  5
32F
100
AcDbEntity
  8
0
100
AcDbLine
 62
6
  6
CONTINUOUS
 10
1.8740014273
 20
8.7238829601
 11
1.8947510714
 21
8.7282934331
  0
LINE
  5
330
100
AcDbEntity
  8
0
100
AcDbLine
 62
7
  6
CONTINUOUS
 10
3.6030139287
 20
9.0913959125
 11
3.6237635727
 21
9.0958063855
  0
LINE
  5
331
100
AcDbEntity
  8
0
100
AcDbLine
 62
6
  6
CONTINUOUS
 10
1.8979637641
 20
8.7603448852
 11
1.9188546913
 21
8.7640285193
  0
LINE
  5
332
100
AcDbEntity
  8
0
100
AcDbLine
 62
6
  6
CONTINUOUS
 10
3.6387490149
 20
9.0672922925
 11
3.6596399421
 21
9.0709759266
  0
LINE
  5
333
100
AcDbEntity
  8
0
100
AcDbLine
 62
7
  6
CONTINUOUS
 10
1.8513261905
 20
8.6866069732
 11
1.8719092712
 21
8.6917389116
  0
LINE
  5
334
100
AcDbEntity
  8
0
100
AcDbLine
 62
6
  6
CONTINUOUS
 10
3.5664594071
 20
9.1142377127
 11
3.5870424877
 21
9.1193696511
  0
LINE
  5
335
100
AcDbEntity
  8
0
100
AcDbLine
 62
6
  6
CONTINUOUS
 10
19.1804337397
 20
8.6807132441
 11
19.1804337397
 21
7.4307132441
  0
ARC
  5
336
100
AcDbEntity
  8
0
100
AcDbCircle
 62
6
  6
CONTINUOUS
 10
2.9304337397
 20
8.0557132441
 40
1.25
100
AcDbArc
 50
59.6875658564
 51
60.3124341436
  0
ARC
  5
337
100
AcDbEntity
  8
0
100
AcDbCircle
 62
6
  6
CONTINUOUS
 10
2.9304337397
 20
8.0557132441
 40
1.25
100
AcDbArc
 50
60.3271295853
 51
65.6779118966
  0
ARC
  5
338
100
AcDbEntity
  8
0
100
AcDbCircle
 62
6
  6
CONTINUOUS
 10
2.9304337397
 20
8.0557132441
 40
1.25
100
AcDbArc
 50
54.3220881034
 51
59.6728704147
  0
ARC
  5
339
100
AcDbEntity
  8
0
100
AcDbCircle
 62
6
  6
CONTINUOUS
 10
2.9304337397
 20
8.0557132441
 40
1.25
100
AcDbArc
 50
65.6875658564
 51
87.6708920778
  0
ARC
  5
33A
100
AcDbEntity
  8
0
100
AcDbCircle
 62
6
  6
CONTINUOUS
 10
2.9304337397
 20
8.0557132441
 40
1.25
100
AcDbArc
 50
87.6875658564
 51
92.3124341436
  0
ARC
  5
33B
100
AcDbEntity
  8
0
100
AcDbCircle
 62
6
  6
CONTINUOUS
 10
2.9304337397
 20
8.0557132441
 40
1.25
100
AcDbArc
 50
92.3291079222
 51
114.3124341436
  0
ARC
  5
33C
100
AcDbEntity
  8
0
100
AcDbCircle
 62
6
  6
CONTINUOUS
 10
2.9304337397
 20
8.0557132441
 40
1.25
100
AcDbArc
 50
114.3220881034
 51
119.6728704147
  0
ARC
  5
33D
100
AcDbEntity
  8
0
100
AcDbCircle
 62
6
  6
CONTINUOUS
 10
2.9304337397
 20
8.0557132441
 40
1.25
100
AcDbArc
 50
119.6875658564
 51
120.3124341436
  0
ARC
  5
33E
100
AcDbEntity
  8
0
100
AcDbCircle
 62
6
  6
CONTINUOUS
 10
2.9304337397
 20
8.0557132441
 40
1.25
100
AcDbArc
 50
120.3271295853
 51
125.6779118966
  0
ARC
  5
33F
100
AcDbEntity
  8
0
100
AcDbCircle
 62
6
  6
CONTINUOUS
 10
2.9304337397
 20
8.0557132441
 40
1.25
100
AcDbArc
 50
125.6875658564
 51
147.6708920778
  0
ARC
  5
340
100
AcDbEntity
  8
0
100
AcDbCircle
 62
6
  6
CONTINUOUS
 10
2.9304337397
 20
8.0557132441
 40
1.25
100
AcDbArc
 50
147.6875658564
 51
152.3124341436
  0
ARC
  5
341
100
AcDbEntity
  8
0
100
AcDbCircle
 62
6
  6
CONTINUOUS
 10
2.9304337397
 20
8.0557132441
 40
1.25
100
AcDbArc
 50
152.3291079222
 51
174.3124341436
  0
ARC
  5
342
100
AcDbEntity
  8
0
100
AcDbCircle
 62
6
  6
CONTINUOUS
 10
2.9304337397
 20
8.0557132441
 40
1.25
100
AcDbArc
 50
174.3220881034
 51
179.6728704147
  0
ARC
  5
343
100
AcDbEntity
  8
0
100
AcDbCircle
 62
6
  6
CONTINUOUS
 10
2.9304337397
 20
8.0557132441
 40
1.25
100
AcDbArc
 50
179.6875658564
 51
180.3124341436
  0
ARC
  5
344
100
AcDbEntity
  8
0
100
AcDbCircle
 62
6
  6
CONTINUOUS
 10
2.9304337397
 20
8.0557132441
 40
1.25
100
AcDbArc
 50
180.3271295853
 51
185.6779118966
  0
ARC
  5
345
100
AcDbEntity
  8
0
100
AcDbCircle
 62
6
  6
CONTINUOUS
 10
2.9304337397
 20
8.0557132441
 40
1.25
100
AcDbArc
 50
185.6875658564
 51
207.6708920778
  0
ARC
  5
346
100
AcDbEntity
  8
0
100
AcDbCircle
 62
6
  6
CONTINUOUS
 10
2.9304337397
 20
8.0557132441
 40
1.25
100
AcDbArc
 50
207.6875658564
 51
212.3124341436
  0
ARC
  5
347
100
AcDbEntity
  8
0
100
AcDbCircle
 62
6
  6
CONTINUOUS
 10
2.9304337397
 20
8.0557132441
 40
1.25
100
AcDbArc
 50
32.3291079222
 51
54.3124341436
  0
ARC
  5
348
100
AcDbEntity
  8
0
100
AcDbCircle
 62
6
  6
CONTINUOUS
 10
2.9304337397
 20
8.0557132441
 40
1.25
100
AcDbArc
 50
212.3291079222
 51
234.3124341436
  0
ARC
  5
349
100
AcDbEntity
  8
0
100
AcDbCircle
 62
6
  6
CONTINUOUS
 10
2.9304337397
 20
8.0557132441
 40
1.25
100
AcDbArc
 50
30.0000000357
 51
32.3124341436
  0
ARC
  5
34A
100
AcDbEntity
  8
0
100
AcDbCircle
 62
6
  6
CONTINUOUS
 10
2.9304337397
 20
8.0557132441
 40
1.25
100
AcDbArc
 50
234.3220881034
 51
239.6728704147
  0
ARC
  5
34B
100
AcDbEntity
  8
0
100
AcDbCircle
 62
6
  6
CONTINUOUS
 10
2.9304337397
 20
8.0557132441
 40
1.25
100
AcDbArc
 50
239.6875658564
 51
240.3124341436
  0
ARC
  5
34C
100
AcDbEntity
  8
0
100
AcDbCircle
 62
6
  6
CONTINUOUS
 10
2.9304337397
 20
8.0557132441
 40
1.25
100
AcDbArc
 50
240.3271295853
 51
245.6779118966
  0
ARC
  5
34D
100
AcDbEntity
  8
0
100
AcDbCircle
 62
6
  6
CONTINUOUS
 10
2.9304337397
 20
8.0557132441
 40
1.25
100
AcDbArc
 50
245.6875658564
 51
267.6708920778
  0
ARC
  5
34E
100
AcDbEntity
  8
0
100
AcDbCircle
 62
6
  6
CONTINUOUS
 10
2.9304337397
 20
8.0557132441
 40
1.25
100
AcDbArc
 50
267.6875658564
 51
272.3124341436
  0
ARC
  5
34F
100
AcDbEntity
  8
0
100
AcDbCircle
 62
6
  6
CONTINUOUS
 10
2.9304337397
 20
8.0557132441
 40
1.25
100
AcDbArc
 50
327.6875658564
 51
329.9999999638
  0
ARC
  5
350
100
AcDbEntity
  8
0
100
AcDbCircle
 62
6
  6
CONTINUOUS
 10
2.9304337397
 20
8.0557132441
 40
1.25
100
AcDbArc
 50
305.6875658564
 51
327.6708920778
  0
ARC
  5
351
100
AcDbEntity
  8
0
100
AcDbCircle
 62
6
  6
CONTINUOUS
 10
2.9304337397
 20
8.0557132441
 40
1.25
100
AcDbArc
 50
272.3291079222
 51
294.3124341436
  0
ARC
  5
352
100
AcDbEntity
  8
0
100
AcDbCircle
 62
6
  6
CONTINUOUS
 10
2.9304337397
 20
8.0557132441
 40
1.25
100
AcDbArc
 50
300.3271295853
 51
305.6779118966
  0
ARC
  5
353
100
AcDbEntity
  8
0
100
AcDbCircle
 62
6
  6
CONTINUOUS
 10
2.9304337397
 20
8.0557132441
 40
1.25
100
AcDbArc
 50
299.6875658564
 51
300.3124341436
  0
ARC
  5
354
100
AcDbEntity
  8
0
100
AcDbCircle
 62
6
  6
CONTINUOUS
 10
2.9304337397
 20
8.0557132441
 40
1.25
100
AcDbArc
 50
294.3220881034
 51
299.6728704147
  0
ARC
  5
355
100
AcDbEntity
  8
0
100
AcDbCircle
 62
7
  6
CONTINUOUS
 10
2.9304337397
 20
8.0557132441
 40
1.175
100
AcDbArc
 50
32.1692021223
 51
327.8307978777
  0
ARC
  5
356
100
AcDbEntity
  8
0
100
AcDbCircle
 62
6
  6
CONTINUOUS
 10
2.9304337397
 20
8.0557132441
 40
1.075
100
AcDbArc
 50
35.5719665682
 51
324.4280334318
  0
ARC
  5
357
100
AcDbEntity
  8
0
100
AcDbCircle
 62
6
  6
CONTINUOUS
 10
20.9304337397
 20
8.0557132441
 40
1.0625
100
AcDbArc
 50
216.0591569763
 51
143.9408430237
  0
ARC
  5
358
100
AcDbEntity
  8
0
100
AcDbCircle
 62
7
  6
CONTINUOUS
 10
2.9304337397
 20
8.0557132441
 40
1.025
100
AcDbArc
 50
37.6205605486
 51
322.3794394514
  0
ARC
  5
359
100
AcDbEntity
  8
0
100
AcDbCircle
 62
6
  6
CONTINUOUS
 10
2.9304337397
 20
8.0557132441
 40
0.925
100
AcDbArc
 50
42.5205651061
 51
317.4794348939
  0
ARC
  5
35A
100
AcDbEntity
  8
0
100
AcDbCircle
 62
6
  6
CONTINUOUS
 10
20.9304337397
 20
8.0557132441
 40
0.625
100
AcDbArc
 50
270.0
 51
90.0
  0
ENDSEC
  0
SECTION
  2
OBJECTS
  0
DICTIONARY
  5
C
100
AcDbDictionary
280
0
281
1
  3
ACAD_GROUP
350
D
  3
ACAD_MLINESTYLE
350
17
  3
ACAD_LAYOUT
350
1A
  3
ACAD_PLOTSETTINGS
350
19
  3
ACAD_PLOTSTYLENAME
350
E
  0
DICTIONARY
  5
D
102
{ACAD_REACTORS
330
C
102
}
100
AcDbDictionary
280
0
281
1
  0
ACDBDICTIONARYWDFLT
  5
E
102
{ACAD_REACTORS
330
C
102
}
100
AcDbDictionary
281
1
  3
Normal
350
F
100
AcDbDictionaryWithDefault
340
F
  0
DICTIONARY
  5
17
102
{ACAD_REACTORS
330
C
102
}
100
AcDbDictionary
280
0
281
1
  3
Standard
350
18
  0
DICTIONARY
  5
19
102
{ACAD_REACTORS
330
C
102
}
100
AcDbDictionary
281
1
  0
DICTIONARY
  5
1A
102
{ACAD_REACTORS
330
C
102
}
100
AcDbDictionary
281
1
  3
Model
350
35B
  3
Layout1
350
35C
  0
ACDBPLACEHOLDER
  5
F
102
{ACAD_REACTORS
330
E
102
}
  0
MLINESTYLE
  5
18
102
{ACAD_REACTORS
330
17
102
}
100
AcDbMlineStyle
  2
STANDARD
 70
0
  3

 62
256
 51
90.0
 52
90.0
 71
2
 49
0.5
 62
256
  6
BYLAYER
 49
-0.5
 62
256
  6
BYLAYER
  0
LAYOUT
  5
35B
102
{ACAD_REACTORS
330
1A
102
}
100
AcDbPlotSettings
  1

  2
none_device
  4
ISO_A2_(594.00_x_420.00_MM)
  6

 40
0.0
 41
0.0
 42
0.0
 43
0.0
 44
594.0
 45
420.0
 46
0.0
 47
0.0
 48
0.0
 49
0.0
140
0.0
141
0.0
142
1.0
143
1.0
 70
1024
 72
0
 73
0
 74
0
  7

 75
0
147
1.0
148
0.0
149
0.0
100
AcDbLayout
  1
Model
 70
0
 71
0
 10
0.0
 20
0.0
 11
23.3858267717
 21
16.5354330709
 12
0.0
 22
0.0
 32
0.0
 14
0.0
 24
0.0
 34
0.0
 15
0.0
 25
0.0
 35
0.0
146
0.0
 13
0.0
 23
0.0
 33
0.0
 16
1.0
 26
0.0
 36
0.0
 17
0.0
 27
1.0
 37
0.0
 76
0
330
203
345
0
346
0
  0
LAYOUT
  5
35C
102
{ACAD_REACTORS
330
1A
102
}
100
AcDbPlotSettings
  1

  2
none_device
  4
ISO_A2_(594.00_x_420.00_MM)
  6

 40
0.0
 41
0.0
 42
0.0
 43
0.0
 44
594.0
 45
420.0
 46
0.0
 47
0.0
 48
0.0
 49
0.0
140
0.0
141
0.0
142
1.0
143
1.0
 70
0
 72
0
 73
0
 74
0
  7

 75
0
147
1.0
148
0.0
149
0.0
100
AcDbLayout
  1
Layout1
 70
0
 71
1
 10
0.0
 20
0.0
 11
23.3858267717
 21
16.5354330709
 12
0.0
 22
0.0
 32
0.0
 14
0.0
 24
0.0
 34
0.0
 15
0.0
 25
0.0
 35
0.0
146
0.0
 13
0.0
 23
0.0
 33
0.0
 16
1.0
 26
0.0
 36
0.0
 17
0.0
 27
1.0
 37
0.0
 76
0
330
204
345
0
346
0
  0
ENDSEC
  0
EOF
