  0
SECTION
  2
HEADER
  9
$ACADVER
  1
AC1021
  9
$DWGCODEPAGE
  3
ANSI_1252
  9
$EXTMAX
 10
23.3858267717
 20
16.5354330709
 30
0.0
  9
$EXTMIN
 10
0.0
 20
0.0
 30
0.0
  9
$LIMMIN
 10
0.0
 20
0.0
  9
$LIMMAX
 10
23.3858267717
 20
16.5354330709
  9
$VIEWCTR
 10
11.6929133858
 20
8.2677165354
  9
$VIEWSIZE
 40
16.5354330709
  9
$CLAYER
  8
0
  9
$LTSCALE
 40
1.2862204724
  9
$CELTYPE
  6
BYLAYER
  9
$DIMSCALE
 40
1.0
  9
$DIMASZ
 40
0.1
  9
$DIMEXO
 40
0.1461614173
  9
$DIMDLI
 40
0.8886614173
  9
$DIMEXE
 40
0.4209448819
  9
$DIMCEN
 40
0.2104724409
  9
$DIMLFAC
 40
1.0
  9
$DIMBLK
  1
_FILLED
  9
$DIMTXT
 40
0.08
  9
$DIMTOL
 70
1
  9
$DIMLIM
 70
0
  9
$DIMTFAC
 40
1.0
  9
$DIMTP
 40
0.001
  9
$DIMTM
 40
0.001
  9
$PDMODE
 70
3
  9
$PDSIZE
 40
0.06
  9
$HANDSEED
  5
34F
  9
$TILEMODE
 70
1
  9
$MEASUREMENT
 70
0
  9
$INSUNITS
 70
1
  0
ENDSEC
  0
SECTION
  2
CLASSES
  0
CLASS
  1
ACDBDICTIONARYWDFLT
  2
AcDbDictionaryWithDefault
  3
AutoCAD 2000
 90
0
 91
1
280
0
281
0
  0
CLASS
  1
ACDBPLACEHOLDER
  2
AcDbPlaceHolder
  3
AutoCAD 2000
 90
0
 91
1
280
0
281
0
  0
CLASS
  1
LAYOUT
  2
AcDbLayout
  3
AutoCAD 2000
 90
0
 91
0
280
0
281
0
  0
ENDSEC
  0
SECTION
  2
TABLES
  0
TABLE
  2
VPORT
  5
8
100
AcDbSymbolTable
 70
2
  0
VPORT
  5
1F4
100
AcDbSymbolTableRecord
100
AcDbViewportTableRecord
  2
*ACTIVE
 70
0
 10
0.0
 20
0.0
 11
1.0
 21
1.0
 12
11.6929133858
 22
8.2677165354
 13
0.0
 23
0.0
 14
1.0
 24
1.0
 15
0.0
 25
0.0
 16
0.0
 26
0.0
 36
1.0
 17
0.0
 27
0.0
 37
0.0
 40
16.5354330709
 41
1.4142857143
 42
50.0
 43
0.0
 44
0.0
 50
0.0
 51
0.0
 71
0
 72
100
 73
1
 74
1
 75
0
 76
0
 77
0
 78
0
  0
ENDTAB
  0
TABLE
  2
LTYPE
  5
5
100
AcDbSymbolTable
 70
6
  0
LTYPE
  5
14
100
AcDbSymbolTableRecord
100
AcDbLinetypeTableRecord
  2
BYBLOCK
 70
0
  3

 72
65
 73
0
 40
0.0
  0
LTYPE
  5
15
100
AcDbSymbolTableRecord
100
AcDbLinetypeTableRecord
  2
BYLAYER
 70
0
  3

 72
65
 73
0
 40
0.0
  0
LTYPE
  5
16
100
AcDbSymbolTableRecord
100
AcDbLinetypeTableRecord
  2
CONTINUOUS
 70
64
  3
Solid line
 72
65
 73
0
 40
0.0
  0
LTYPE
  5
1F5
100
AcDbSymbolTableRecord
100
AcDbLinetypeTableRecord
  2
CENTER
 70
64
  3
____ _ ____ _ ____ _ ____ _ ____ _ ____ _ ____
 72
65
 73
4
 40
0.6
 49
0.375
 74
0
 49
-0.075
 74
0
 49
0.075
 74
0
 49
-0.075
 74
0
  0
LTYPE
  5
1F6
100
AcDbSymbolTableRecord
100
AcDbLinetypeTableRecord
  2
HIDDEN
 70
64
  3
- - - - - - - - - - - - - - - - - - - -
 72
65
 73
2
 40
0.2
 49
0.1
 74
0
 49
-0.1
 74
0
  0
LTYPE
  5
1F7
100
AcDbSymbolTableRecord
100
AcDbLinetypeTableRecord
  2
PHANTOM
 70
64
  3
_____ _ _ _____ _ _ _____ _ _ _____
 72
65
 73
6
 40
0.8
 49
0.45
 74
0
 49
-0.05
 74
0
 49
0.1
 74
0
 49
-0.05
 74
0
 49
0.1
 74
0
 49
-0.05
 74
0
  0
LTYPE
  5
1F8
100
AcDbSymbolTableRecord
100
AcDbLinetypeTableRecord
  2
DOT
 70
64
  3
. . . . . . . . . . . . . . . . . . . .
 72
65
 73
2
 40
0.2
 49
0.1
 74
0
 49
-0.1
 74
0
  0
LTYPE
  5
1F9
100
AcDbSymbolTableRecord
100
AcDbLinetypeTableRecord
  2
DASHED
 70
64
  3
- - - - - - - - - - - - - - - - - - - -
 72
65
 73
2
 40
0.2
 49
0.1
 74
0
 49
-0.1
 74
0
  0
ENDTAB
  0
TABLE
  2
LAYER
  5
2
100
AcDbSymbolTable
 70
36
  0
LAYER
  5
10
100
AcDbSymbolTableRecord
100
AcDbLayerTableRecord
  2
0
 70
0
 62
7
  6
CONTINUOUS
370
-3
390
F
  0
LAYER
  5
1FA
100
AcDbSymbolTableRecord
100
AcDbLayerTableRecord
  2
DEFAULT_1
 70
0
 62
7
  6
CENTER
370
-3
390
F
  0
LAYER
  5
1FB
100
AcDbSymbolTableRecord
100
AcDbLayerTableRecord
  2
DEFAULT_2
 70
0
 62
8
  6
HIDDEN
370
-3
390
F
  0
LAYER
  5
1FC
100
AcDbSymbolTableRecord
100
AcDbLayerTableRecord
  2
DEFAULT_3
 70
0
 62
7
  6
PHANTOM
370
-3
390
F
  0
LAYER
  5
1FD
100
AcDbSymbolTableRecord
100
AcDbLayerTableRecord
  2
DEFAULT_COORDINATE_SYSTEM
 70
0
 62
7
  6
CONTINUOUS
370
-3
390
F
  0
LAYER
  5
1FE
100
AcDbSymbolTableRecord
100
AcDbLayerTableRecord
  2
DEFAULT_DATUM_AXES
 70
0
 62
7
  6
CONTINUOUS
370
-3
390
F
  0
LAYER
  5
1FF
100
AcDbSymbolTableRecord
100
AcDbLayerTableRecord
  2
DEFAULT_DATUM_CURVES
 70
0
 62
7
  6
CONTINUOUS
370
-3
390
F
  0
LAYER
  5
200
100
AcDbSymbolTableRecord
100
AcDbLayerTableRecord
  2
DEFAULT_DATUM_PLANES
 70
0
 62
7
  6
CONTINUOUS
370
-3
390
F
  0
ENDTAB
  0
TABLE
  2
STYLE
  5
3
100
AcDbSymbolTable
 70
1
  0
STYLE
  5
11
100
AcDbSymbolTableRecord
100
AcDbTextStyleTableRecord
  2
STANDARD
 70
0
 40
0.0
 41
0.8
 50
0.0
 71
0
 42
0.2
  3
txt
  4

  0
STYLE
  5
201
100
AcDbSymbolTableRecord
100
AcDbTextStyleTableRecord
  2
TEXTSTYLE_1
 70
0
 40
0.0
 41
0.8
 50
0.0
 71
0
 42
0.2
  3
gdt
  4

  0
ENDTAB
  0
TABLE
  2
VIEW
  5
6
100
AcDbSymbolTable
 70
0
  0
ENDTAB
  0
TABLE
  2
UCS
  5
7
100
AcDbSymbolTable
 70
0
  0
ENDTAB
  0
TABLE
  2
APPID
  5
9
100
AcDbSymbolTable
 70
1
  0
APPID
  5
202
100
AcDbSymbolTableRecord
100
AcDbRegAppTableRecord
  2
ACAD
 70
0
  0
ENDTAB
  0
TABLE
  2
BLOCK_RECORD
  5
1
100
AcDbSymbolTable
 70
0
  0
BLOCK_RECORD
  5
203
100
AcDbSymbolTableRecord
100
AcDbBlockTableRecord
  2
*Model_Space
  0
BLOCK_RECORD
  5
204
100
AcDbSymbolTableRecord
100
AcDbBlockTableRecord
  2
*Paper_Space
  0
ENDTAB
  0
TABLE
  2
DIMSTYLE
  5
A
100
AcDbSymbolTable
 70
1
100
AcDbDimStyleTable
 71
0
  0
DIMSTYLE
105
205
100
AcDbSymbolTableRecord
100
AcDbDimStyleTableRecord
  2
STANDARD
 70
0
  3

  4

 40
1.0
 41
0.1
 42
0.0625
 43
0.38
 44
0.18
 45
0.0
 46
0.0
 47
0.001
 48
0.001
140
0.08
141
0.09
142
0.0
143
25.4
144
1.0
145
0.0
146
1.0
147
0.09
 71
1.0
 72
0.0
 73
1
 74
1
 75
0
 76
0
 77
0
 78
4
170
0
171
2
172
0
173
0
174
0
175
0
176
0
177
0
178
0
270
2
271
3
272
3
273
2
274
2
275
0
280
0
281
0
282
0
283
1
284
4
285
0
286
0
287
3
288
0
340
11
  0
ENDTAB
  0
ENDSEC
  0
SECTION
  2
BLOCKS
  0
BLOCK
  5
20
100
AcDbEntity
  8
0
100
AcDbBlockBegin
  2
*Model_Space
 70
0
 10
0.0
 20
0.0
 30
0.0
  3
*Model_Space
  1

  0
ENDBLK
  5
21
100
AcDbEntity
  8
0
100
AcDbBlockEnd
  0
BLOCK
  5
1C
100
AcDbEntity
  8
0
100
AcDbBlockBegin
  2
*Paper_Space
 70
0
 10
0.0
 20
0.0
 30
0.0
  3
*Paper_Space
  1

  0
ENDBLK
  5
1D
100
AcDbEntity
  8
0
100
AcDbBlockEnd
  0
ENDSEC
  0
SECTION
  2
ENTITIES
  0
LINE
  5
206
100
AcDbEntity
  8
0
100
AcDbLine
 62
6
  6
CONTINUOUS
 10
12.3668368123
 20
7.5408893939
 11
12.2168368123
 21
7.5408893939
  0
LINE
  5
207
100
AcDbEntity
  8
0
100
AcDbLine
 62
6
  6
CONTINUOUS
 10
11.9668368123
 20
7.5409079783
 11
11.8918368123
 21
7.5409079783
  0
LINE
  5
208
100
AcDbEntity
  8
0
100
AcDbLine
 62
6
  6
CONTINUOUS
 10
11.9668368123
 20
7.5414315505
 11
11.8918368123
 21
7.5414315505
  0
LINE
  5
209
100
AcDbEntity
  8
0
100
AcDbLine
 62
6
  6
CONTINUOUS
 10
11.9668368123
 20
7.541907316
 11
11.8918368123
 21
7.541907316
  0
LINE
  5
20A
100
AcDbEntity
  8
0
100
AcDbLine
 62
6
  6
CONTINUOUS
 10
11.9668368123
 20
7.5434773947
 11
11.8918368123
 21
7.5434773947
  0
LINE
  5
20B
100
AcDbEntity
  8
0
100
AcDbLine
 62
7
  6
CONTINUOUS
 10
11.9668368123
 20
7.5444283459
 11
11.8918368123
 21
7.5444283459
  0
LINE
  5
20C
100
AcDbEntity
  8
0
100
AcDbLine
 62
6
  6
CONTINUOUS
 10
11.9668368123
 20
7.5470430181
 11
11.8918368123
 21
7.5470430181
  0
LINE
  5
20D
100
AcDbEntity
  8
0
100
AcDbLine
 62
6
  6
CONTINUOUS
 10
11.9668368123
 20
7.5484679965
 11
11.8918368123
 21
7.5484679965
  0
LINE
  5
20E
100
AcDbEntity
  8
0
100
AcDbLine
 62
6
  6
CONTINUOUS
 10
11.9668368123
 20
7.5521240768
 11
11.8918368123
 21
7.5521240768
  0
LINE
  5
20F
100
AcDbEntity
  8
0
100
AcDbLine
 62
6
  6
CONTINUOUS
 10
11.9668368123
 20
7.5540213463
 11
11.8918368123
 21
7.5540213463
  0
LINE
  5
210
100
AcDbEntity
  8
0
100
AcDbLine
 62
6
  6
CONTINUOUS
 10
11.9668368123
 20
7.5587143802
 11
11.8918368123
 21
7.5587143802
  0
LINE
  5
211
100
AcDbEntity
  8
0
100
AcDbLine
 62
7
  6
CONTINUOUS
 10
11.9668368123
 20
7.5610816292
 11
11.8918368123
 21
7.5610816292
  0
LINE
  5
212
100
AcDbEntity
  8
0
100
AcDbLine
 62
6
  6
CONTINUOUS
 10
11.9668368123
 20
7.5668058991
 11
11.8918368123
 21
7.5668058991
  0
LINE
  5
213
100
AcDbEntity
  8
0
100
AcDbLine
 62
6
  6
CONTINUOUS
 10
11.9668368123
 20
7.5696402435
 11
11.8918368123
 21
7.5696402435
  0
LINE
  5
214
100
AcDbEntity
  8
0
100
AcDbLine
 62
6
  6
CONTINUOUS
 10
11.9668368123
 20
7.5763887752
 11
11.8918368123
 21
7.5763887752
  0
LINE
  5
215
100
AcDbEntity
  8
0
100
AcDbLine
 62
7
  6
CONTINUOUS
 10
11.9668368123
 20
7.5796867618
 11
11.8918368123
 21
7.5796867618
  0
LINE
  5
216
100
AcDbEntity
  8
0
100
AcDbLine
 62
6
  6
CONTINUOUS
 10
11.9668368123
 20
7.5874513331
 11
11.8918368123
 21
7.5874513331
  0
LINE
  5
217
100
AcDbEntity
  8
0
100
AcDbLine
 62
6
  6
CONTINUOUS
 10
12.1668368123
 20
7.5908893939
 11
11.9668368123
 21
7.5908893939
  0
LINE
  5
218
100
AcDbEntity
  8
0
100
AcDbLine
 62
6
  6
CONTINUOUS
 10
11.9668368123
 20
7.5912089439
 11
11.8918368123
 21
7.5912089439
  0
LINE
  5
219
100
AcDbEntity
  8
0
100
AcDbLine
 62
6
  6
CONTINUOUS
 10
11.9668368123
 20
7.599980095
 11
11.8918368123
 21
7.599980095
  0
LINE
  5
21A
100
AcDbEntity
  8
0
100
AcDbLine
 62
6
  6
CONTINUOUS
 10
11.9668368123
 20
7.6041927518
 11
11.8918368123
 21
7.6041927518
  0
LINE
  5
21B
100
AcDbEntity
  8
0
100
AcDbLine
 62
7
  6
CONTINUOUS
 10
11.9668368123
 20
7.6139597964
 11
11.8918368123
 21
7.6139597964
  0
LINE
  5
21C
100
AcDbEntity
  8
0
100
AcDbLine
 62
7
  6
CONTINUOUS
 10
11.9668368123
 20
7.6186223668
 11
11.8918368123
 21
7.6186223668
  0
LINE
  5
21D
100
AcDbEntity
  8
0
100
AcDbLine
 62
7
  6
CONTINUOUS
 10
11.8918368123
 20
7.6232590527
 11
11.9668368123
 21
7.6232590527
  0
LINE
  5
21E
100
AcDbEntity
  8
0
100
AcDbLine
 62
6
  6
CONTINUOUS
 10
11.9668368123
 20
7.6293734052
 11
11.8918368123
 21
7.6293734052
  0
LINE
  5
21F
100
AcDbEntity
  8
0
100
AcDbLine
 62
6
  6
CONTINUOUS
 10
11.9668368123
 20
7.6344802085
 11
11.8918368123
 21
7.6344802085
  0
LINE
  5
220
100
AcDbEntity
  8
0
100
AcDbLine
 62
6
  6
CONTINUOUS
 10
11.9668368123
 20
7.6462021424
 11
11.8918368123
 21
7.6462021424
  0
LINE
  5
221
100
AcDbEntity
  8
0
100
AcDbLine
 62
7
  6
CONTINUOUS
 10
11.9668368123
 20
7.6517469568
 11
11.8918368123
 21
7.6517469568
  0
LINE
  5
222
100
AcDbEntity
  8
0
100
AcDbLine
 62
6
  6
CONTINUOUS
 10
11.8918368123
 20
7.6541487483
 11
11.9668368123
 21
7.6541487483
  0
LINE
  5
223
100
AcDbEntity
  8
0
100
AcDbLine
 62
7
  6
CONTINUOUS
 10
11.9668368123
 20
7.6644255046
 11
11.8918368123
 21
7.6644255046
  0
LINE
  5
224
100
AcDbEntity
  8
0
100
AcDbLine
 62
6
  6
CONTINUOUS
 10
11.9668368123
 20
7.6704015746
 11
11.8918368123
 21
7.6704015746
  0
LINE
  5
225
100
AcDbEntity
  8
0
100
AcDbLine
 62
6
  6
CONTINUOUS
 10
11.9668368123
 20
7.6840212896
 11
11.8918368123
 21
7.6840212896
  0
LINE
  5
226
100
AcDbEntity
  8
0
100
AcDbLine
 62
6
  6
CONTINUOUS
 10
11.9668368123
 20
7.6904213342
 11
11.8918368123
 21
7.6904213342
  0
LINE
  5
227
100
AcDbEntity
  8
0
100
AcDbLine
 62
6
  6
CONTINUOUS
 10
11.9668368123
 20
7.7049656228
 11
11.8918368123
 21
7.7049656228
  0
LINE
  5
228
100
AcDbEntity
  8
0
100
AcDbLine
 62
7
  6
CONTINUOUS
 10
11.9668368123
 20
7.7117818447
 11
11.8918368123
 21
7.7117818447
  0
LINE
  5
229
100
AcDbEntity
  8
0
100
AcDbLine
 62
6
  6
CONTINUOUS
 10
11.9668368123
 20
7.7272329869
 11
11.8918368123
 21
7.7272329869
  0
LINE
  5
22A
100
AcDbEntity
  8
0
100
AcDbLine
 62
6
  6
CONTINUOUS
 10
11.9778368123
 20
7.7283893939
 11
12.0278368123
 21
7.7283893939
  0
LINE
  5
22B
100
AcDbEntity
  8
0
100
AcDbLine
 62
6
  6
CONTINUOUS
 10
12.1378368123
 20
7.7283893939
 11
12.3668368123
 21
7.7283893939
  0
LINE
  5
22C
100
AcDbEntity
  8
0
100
AcDbLine
 62
7
  6
CONTINUOUS
 10
11.9668368123
 20
7.7344570815
 11
11.8918368123
 21
7.7344570815
  0
LINE
  5
22D
100
AcDbEntity
  8
0
100
AcDbLine
 62
7
  6
CONTINUOUS
 10
11.9668368123
 20
7.7507962525
 11
11.8918368123
 21
7.7507962525
  0
LINE
  5
22E
100
AcDbEntity
  8
0
100
AcDbLine
 62
6
  6
CONTINUOUS
 10
11.9668368123
 20
7.7584194183
 11
11.8918368123
 21
7.7584194183
  0
LINE
  5
22F
100
AcDbEntity
  8
0
100
AcDbLine
 62
6
  6
CONTINUOUS
 10
11.9668368123
 20
7.7756267114
 11
11.8918368123
 21
7.7756267114
  0
LINE
  5
230
100
AcDbEntity
  8
0
100
AcDbLine
 62
7
  6
CONTINUOUS
 10
11.9668368123
 20
7.7836396607
 11
11.8918368123
 21
7.7836396607
  0
LINE
  5
231
100
AcDbEntity
  8
0
100
AcDbLine
 62
6
  6
CONTINUOUS
 10
12.0278368123
 20
7.7973893939
 11
12.1378368123
 21
7.7973893939
  0
LINE
  5
232
100
AcDbEntity
  8
0
100
AcDbLine
 62
6
  6
CONTINUOUS
 10
11.9668368123
 20
7.8016941114
 11
11.8918368123
 21
7.8016941114
  0
LINE
  5
233
100
AcDbEntity
  8
0
100
AcDbLine
 62
7
  6
CONTINUOUS
 10
11.9668368123
 20
7.8100870818
 11
11.8918368123
 21
7.8100870818
  0
LINE
  5
234
100
AcDbEntity
  8
0
100
AcDbLine
 62
6
  6
CONTINUOUS
 10
11.9668368123
 20
7.8289666936
 11
11.8918368123
 21
7.8289666936
  0
LINE
  5
235
100
AcDbEntity
  8
0
100
AcDbLine
 62
7
  6
CONTINUOUS
 10
11.9668368123
 20
7.8377294595
 11
11.8918368123
 21
7.8377294595
  0
LINE
  5
236
100
AcDbEntity
  8
0
100
AcDbLine
 62
7
  6
CONTINUOUS
 10
11.9668368123
 20
7.8574112303
 11
11.8918368123
 21
7.8574112303
  0
LINE
  5
237
100
AcDbEntity
  8
0
100
AcDbLine
 62
6
  6
CONTINUOUS
 10
11.9668368123
 20
7.8665331156
 11
11.8918368123
 21
7.8665331156
  0
LINE
  5
238
100
AcDbEntity
  8
0
100
AcDbLine
 62
7
  6
CONTINUOUS
 10
11.9668368123
 20
7.8869930664
 11
11.8918368123
 21
7.8869930664
  0
LINE
  5
239
100
AcDbEntity
  8
0
100
AcDbLine
 62
7
  6
CONTINUOUS
 10
11.9668368123
 20
7.8964629576
 11
11.8918368123
 21
7.8964629576
  0
LINE
  5
23A
100
AcDbEntity
  8
0
100
AcDbLine
 62
6
  6
CONTINUOUS
 10
11.9668368123
 20
7.917676161
 11
11.8918368123
 21
7.917676161
  0
LINE
  5
23B
100
AcDbEntity
  8
0
100
AcDbLine
 62
7
  6
CONTINUOUS
 10
11.9668368123
 20
7.9274825203
 11
11.8918368123
 21
7.9274825203
  0
LINE
  5
23C
100
AcDbEntity
  8
0
100
AcDbLine
 62
7
  6
CONTINUOUS
 10
11.8918368123
 20
7.9486828012
 11
11.9668368123
 21
7.9486828012
  0
LINE
  5
23D
100
AcDbEntity
  8
0
100
AcDbLine
 62
7
  6
CONTINUOUS
 10
11.9668368123
 20
7.9494231314
 11
11.8918368123
 21
7.9494231314
  0
LINE
  5
23E
100
AcDbEntity
  8
0
100
AcDbLine
 62
6
  6
CONTINUOUS
 10
11.9668368123
 20
7.9595540114
 11
11.8918368123
 21
7.9595540114
  0
LINE
  5
23F
100
AcDbEntity
  8
0
100
AcDbLine
 62
7
  6
CONTINUOUS
 10
11.8918368123
 20
7.9807155405
 11
11.9668368123
 21
7.9807155405
  0
LINE
  5
240
100
AcDbEntity
  8
0
100
AcDbLine
 62
7
  6
CONTINUOUS
 10
11.9668368123
 20
7.9821952988
 11
11.8918368123
 21
7.9821952988
  0
LINE
  5
241
100
AcDbEntity
  8
0
100
AcDbLine
 62
7
  6
CONTINUOUS
 10
11.9668368123
 20
7.9926383565
 11
11.8918368123
 21
7.9926383565
  0
LINE
  5
242
100
AcDbEntity
  8
0
100
AcDbLine
 62
7
  6
CONTINUOUS
 10
11.8918368123
 20
8.0137353518
 11
11.9668368123
 21
8.0137353518
  0
LINE
  5
243
100
AcDbEntity
  8
0
100
AcDbLine
 62
6
  6
CONTINUOUS
 10
11.9668368123
 20
8.0159527353
 11
11.8918368123
 21
8.0159527353
  0
LINE
  5
244
100
AcDbEntity
  8
0
100
AcDbLine
 62
6
  6
CONTINUOUS
 10
11.9668368123
 20
8.0266952476
 11
11.8918368123
 21
8.0266952476
  0
LINE
  5
245
100
AcDbEntity
  8
0
100
AcDbLine
 62
7
  6
CONTINUOUS
 10
11.8918368123
 20
8.0477020056
 11
11.9668368123
 21
8.0477020056
  0
LINE
  5
246
100
AcDbEntity
  8
0
100
AcDbLine
 62
7
  6
CONTINUOUS
 10
11.9668368123
 20
8.0506543129
 11
11.8918368123
 21
8.0506543129
  0
LINE
  5
247
100
AcDbEntity
  8
0
100
AcDbLine
 62
7
  6
CONTINUOUS
 10
11.9668368123
 20
8.0616831915
 11
11.8918368123
 21
8.0616831915
  0
LINE
  5
248
100
AcDbEntity
  8
0
100
AcDbLine
 62
7
  6
CONTINUOUS
 10
11.8918368123
 20
8.0825741187
 11
11.9668368123
 21
8.0825741187
  0
LINE
  5
249
100
AcDbEntity
  8
0
100
AcDbLine
 62
6
  6
CONTINUOUS
 10
11.9668368123
 20
8.0862577528
 11
11.8918368123
 21
8.0862577528
  0
LINE
  5
24A
100
AcDbEntity
  8
0
100
AcDbLine
 62
6
  6
CONTINUOUS
 10
11.9668368123
 20
8.0975595608
 11
11.8918368123
 21
8.0975595608
  0
LINE
  5
24B
100
AcDbEntity
  8
0
100
AcDbLine
 62
7
  6
CONTINUOUS
 10
11.8918368123
 20
8.1183092049
 11
11.9668368123
 21
8.1183092049
  0
LINE
  5
24C
100
AcDbEntity
  8
0
100
AcDbLine
 62
7
  6
CONTINUOUS
 10
11.9668368123
 20
8.1227196779
 11
11.8918368123
 21
8.1227196779
  0
LINE
  5
24D
100
AcDbEntity
  8
0
100
AcDbLine
 62
6
  6
CONTINUOUS
 10
11.9668368123
 20
8.1342806458
 11
11.8918368123
 21
8.1342806458
  0
LINE
  5
24E
100
AcDbEntity
  8
0
100
AcDbLine
 62
7
  6
CONTINUOUS
 10
11.8918368123
 20
8.1548637264
 11
11.9668368123
 21
8.1548637264
  0
LINE
  5
24F
100
AcDbEntity
  8
0
100
AcDbLine
 62
7
  6
CONTINUOUS
 10
11.9668368123
 20
8.1599956648
 11
11.8918368123
 21
8.1599956648
  0
LINE
  5
250
100
AcDbEntity
  8
0
100
AcDbLine
 62
6
  6
CONTINUOUS
 10
9.9698368123
 20
8.1658893939
 11
11.9078368123
 21
8.1658893939
  0
LINE
  5
251
100
AcDbEntity
  8
0
100
AcDbLine
 62
6
  6
CONTINUOUS
 10
12.0352452046
 20
8.1708893939
 11
12.0278368123
 21
8.1708893939
  0
LINE
  5
252
100
AcDbEntity
  8
0
100
AcDbLine
 62
6
  6
CONTINUOUS
 10
11.9778368123
 20
8.1708893939
 11
11.9078368123
 21
8.1708893939
  0
LINE
  5
253
100
AcDbEntity
  8
0
100
AcDbLine
 62
6
  6
CONTINUOUS
 10
12.2168368123
 20
10.0408893939
 11
12.1668368123
 21
9.9908893939
  0
LINE
  5
254
100
AcDbEntity
  8
0
100
AcDbLine
 62
6
  6
CONTINUOUS
 10
12.2168368123
 20
7.5408893939
 11
12.1668368123
 21
7.5908893939
  0
LINE
  5
255
100
AcDbEntity
  8
0
100
AcDbLine
 62
6
  6
CONTINUOUS
 10
12.0352456639
 20
9.4108893939
 11
12.0278368123
 21
9.4108893939
  0
LINE
  5
256
100
AcDbEntity
  8
0
100
AcDbLine
 62
6
  6
CONTINUOUS
 10
11.9778368123
 20
9.4108893939
 11
11.9078368123
 21
9.4108893939
  0
LINE
  5
257
100
AcDbEntity
  8
0
100
AcDbLine
 62
6
  6
CONTINUOUS
 10
9.9698368123
 20
9.4158893939
 11
11.9078368123
 21
9.4158893939
  0
LINE
  5
258
100
AcDbEntity
  8
0
100
AcDbLine
 62
7
  6
CONTINUOUS
 10
11.9668368123
 20
9.4217831229
 11
11.8918368123
 21
9.4217831229
  0
LINE
  5
259
100
AcDbEntity
  8
0
100
AcDbLine
 62
7
  6
CONTINUOUS
 10
11.8918368123
 20
9.4269150613
 11
11.9668368123
 21
9.4269150613
  0
LINE
  5
25A
100
AcDbEntity
  8
0
100
AcDbLine
 62
6
  6
CONTINUOUS
 10
11.9668368123
 20
9.4474981419
 11
11.8918368123
 21
9.4474981419
  0
LINE
  5
25B
100
AcDbEntity
  8
0
100
AcDbLine
 62
7
  6
CONTINUOUS
 10
11.9668368123
 20
9.4590591098
 11
11.8918368123
 21
9.4590591098
  0
LINE
  5
25C
100
AcDbEntity
  8
0
100
AcDbLine
 62
7
  6
CONTINUOUS
 10
11.8918368123
 20
9.4634695828
 11
11.9668368123
 21
9.4634695828
  0
LINE
  5
25D
100
AcDbEntity
  8
0
100
AcDbLine
 62
6
  6
CONTINUOUS
 10
11.9668368123
 20
9.4842192269
 11
11.8918368123
 21
9.4842192269
  0
LINE
  5
25E
100
AcDbEntity
  8
0
100
AcDbLine
 62
6
  6
CONTINUOUS
 10
11.9668368123
 20
9.4955210349
 11
11.8918368123
 21
9.4955210349
  0
LINE
  5
25F
100
AcDbEntity
  8
0
100
AcDbLine
 62
7
  6
CONTINUOUS
 10
11.8918368123
 20
9.499204669
 11
11.9668368123
 21
9.499204669
  0
LINE
  5
260
100
AcDbEntity
  8
0
100
AcDbLine
 62
7
  6
CONTINUOUS
 10
11.9668368123
 20
9.5200955962
 11
11.8918368123
 21
9.5200955962
  0
LINE
  5
261
100
AcDbEntity
  8
0
100
AcDbLine
 62
7
  6
CONTINUOUS
 10
11.9668368123
 20
9.5311244748
 11
11.8918368123
 21
9.5311244748
  0
LINE
  5
262
100
AcDbEntity
  8
0
100
AcDbLine
 62
7
  6
CONTINUOUS
 10
11.8918368123
 20
9.5340767822
 11
11.9668368123
 21
9.5340767822
  0
LINE
  5
263
100
AcDbEntity
  8
0
100
AcDbLine
 62
6
  6
CONTINUOUS
 10
11.9668368123
 20
9.5550835401
 11
11.8918368123
 21
9.5550835401
  0
LINE
  5
264
100
AcDbEntity
  8
0
100
AcDbLine
 62
6
  6
CONTINUOUS
 10
11.9668368123
 20
9.5658260524
 11
11.8918368123
 21
9.5658260524
  0
LINE
  5
265
100
AcDbEntity
  8
0
100
AcDbLine
 62
7
  6
CONTINUOUS
 10
11.8918368123
 20
9.5680434359
 11
11.9668368123
 21
9.5680434359
  0
LINE
  5
266
100
AcDbEntity
  8
0
100
AcDbLine
 62
7
  6
CONTINUOUS
 10
11.9668368123
 20
9.5891404312
 11
11.8918368123
 21
9.5891404312
  0
LINE
  5
267
100
AcDbEntity
  8
0
100
AcDbLine
 62
6
  6
CONTINUOUS
 10
11.6918368123
 20
9.715886411
 11
11.6918368123
 21
9.4158893939
  0
LINE
  5
268
100
AcDbEntity
  8
0
100
AcDbLine
 62
6
  6
CONTINUOUS
 10
11.6918368123
 20
7.8658923767
 11
11.6918368123
 21
8.1658893939
  0
LINE
  5
269
100
AcDbEntity
  8
0
100
AcDbLine
 62
6
  6
CONTINUOUS
 10
11.7198368123
 20
9.4158893939
 11
11.7198368123
 21
8.1658893939
  0
LINE
  5
26A
100
AcDbEntity
  8
0
100
AcDbLine
 62
7
  6
CONTINUOUS
 10
11.9668368123
 20
9.599583489
 11
11.8918368123
 21
9.599583489
  0
LINE
  5
26B
100
AcDbEntity
  8
0
100
AcDbLine
 62
7
  6
CONTINUOUS
 10
11.8918368123
 20
9.6010632472
 11
11.9668368123
 21
9.6010632472
  0
LINE
  5
26C
100
AcDbEntity
  8
0
100
AcDbLine
 62
6
  6
CONTINUOUS
 10
11.9668368123
 20
9.6222247764
 11
11.8918368123
 21
9.6222247764
  0
LINE
  5
26D
100
AcDbEntity
  8
0
100
AcDbLine
 62
7
  6
CONTINUOUS
 10
11.9668368123
 20
9.6323556564
 11
11.8918368123
 21
9.6323556564
  0
LINE
  5
26E
100
AcDbEntity
  8
0
100
AcDbLine
 62
7
  6
CONTINUOUS
 10
11.8918368123
 20
9.6330959865
 11
11.9668368123
 21
9.6330959865
  0
LINE
  5
26F
100
AcDbEntity
  8
0
100
AcDbLine
 62
7
  6
CONTINUOUS
 10
11.9668368123
 20
9.6542962674
 11
11.8918368123
 21
9.6542962674
  0
LINE
  5
270
100
AcDbEntity
  8
0
100
AcDbLine
 62
6
  6
CONTINUOUS
 10
11.9668368123
 20
9.6641026267
 11
11.8918368123
 21
9.6641026267
  0
LINE
  5
271
100
AcDbEntity
  8
0
100
AcDbLine
 62
7
  6
CONTINUOUS
 10
11.9668368123
 20
9.6853158302
 11
11.8918368123
 21
9.6853158302
  0
LINE
  5
272
100
AcDbEntity
  8
0
100
AcDbLine
 62
7
  6
CONTINUOUS
 10
11.9668368123
 20
9.6947857213
 11
11.8918368123
 21
9.6947857213
  0
LINE
  5
273
100
AcDbEntity
  8
0
100
AcDbLine
 62
6
  6
CONTINUOUS
 10
11.9668368123
 20
9.7152456721
 11
11.8918368123
 21
9.7152456721
  0
LINE
  5
274
100
AcDbEntity
  8
0
100
AcDbLine
 62
6
  6
CONTINUOUS
 10
11.7918368123
 20
9.8658867386
 11
11.7918368123
 21
9.4158893939
  0
LINE
  5
275
100
AcDbEntity
  8
0
100
AcDbLine
 62
6
  6
CONTINUOUS
 10
11.7918368123
 20
7.7158920491
 11
11.7918368123
 21
8.1658893939
  0
LINE
  5
276
100
AcDbEntity
  8
0
100
AcDbLine
 62
7
  6
CONTINUOUS
 10
11.8918368123
 20
10.0373504419
 11
11.8918368123
 21
10.0347357696
  0
LINE
  5
277
100
AcDbEntity
  8
0
100
AcDbLine
 62
7
  6
CONTINUOUS
 10
11.8918368123
 20
10.0206971585
 11
11.8918368123
 21
10.0149728886
  0
LINE
  5
278
100
AcDbEntity
  8
0
100
AcDbLine
 62
7
  6
CONTINUOUS
 10
11.8918368123
 20
10.0020920259
 11
11.8918368123
 21
9.9943274546
  0
LINE
  5
279
100
AcDbEntity
  8
0
100
AcDbLine
 62
7
  6
CONTINUOUS
 10
11.8918368123
 20
9.963156421
 11
11.8918368123
 21
9.9524053825
  0
LINE
  5
27A
100
AcDbEntity
  8
0
100
AcDbLine
 62
7
  6
CONTINUOUS
 10
11.8918368123
 20
9.9300318309
 11
11.8918368123
 21
9.9173532831
  0
LINE
  5
27B
100
AcDbEntity
  8
0
100
AcDbLine
 62
7
  6
CONTINUOUS
 10
11.8918368123
 20
9.869996943
 11
11.8918368123
 21
9.8545458008
  0
LINE
  5
27C
100
AcDbEntity
  8
0
100
AcDbLine
 62
7
  6
CONTINUOUS
 10
11.8918368123
 20
9.8473217062
 11
11.8918368123
 21
9.8309825352
  0
LINE
  5
27D
100
AcDbEntity
  8
0
100
AcDbLine
 62
7
  6
CONTINUOUS
 10
11.8918368123
 20
9.798139127
 11
11.8918368123
 21
9.7800846763
  0
LINE
  5
27E
100
AcDbEntity
  8
0
100
AcDbLine
 62
7
  6
CONTINUOUS
 10
11.8918368123
 20
9.7716917059
 11
11.8918368123
 21
9.7528120942
  0
LINE
  5
27F
100
AcDbEntity
  8
0
100
AcDbLine
 62
7
  6
CONTINUOUS
 10
11.8918368123
 20
9.7440493283
 11
11.8918368123
 21
9.7228877991
  0
LINE
  5
280
100
AcDbEntity
  8
0
100
AcDbLine
 62
7
  6
CONTINUOUS
 10
11.8918368123
 20
9.6853158302
 11
11.8918368123
 21
9.6641026267
  0
LINE
  5
281
100
AcDbEntity
  8
0
100
AcDbLine
 62
7
  6
CONTINUOUS
 10
11.8918368123
 20
9.6542962674
 11
11.8918368123
 21
9.6323556564
  0
LINE
  5
282
100
AcDbEntity
  8
0
100
AcDbLine
 62
7
  6
CONTINUOUS
 10
11.8918368123
 20
9.6010632472
 11
11.8918368123
 21
9.599583489
  0
LINE
  5
283
100
AcDbEntity
  8
0
100
AcDbLine
 62
7
  6
CONTINUOUS
 10
11.8918368123
 20
9.5891404312
 11
11.8918368123
 21
9.5658260524
  0
LINE
  5
284
100
AcDbEntity
  8
0
100
AcDbLine
 62
7
  6
CONTINUOUS
 10
11.8918368123
 20
9.5340767822
 11
11.8918368123
 21
9.5311244748
  0
LINE
  5
285
100
AcDbEntity
  8
0
100
AcDbLine
 62
7
  6
CONTINUOUS
 10
11.8918368123
 20
9.5200955962
 11
11.8918368123
 21
9.499204669
  0
LINE
  5
286
100
AcDbEntity
  8
0
100
AcDbLine
 62
7
  6
CONTINUOUS
 10
11.8918368123
 20
9.4634695828
 11
11.8918368123
 21
9.4590591098
  0
LINE
  5
287
100
AcDbEntity
  8
0
100
AcDbLine
 62
7
  6
CONTINUOUS
 10
11.8918368123
 20
9.4269150613
 11
11.8918368123
 21
9.4217831229
  0
LINE
  5
288
100
AcDbEntity
  8
0
100
AcDbLine
 62
7
  6
CONTINUOUS
 10
11.8918368123
 20
8.1599956648
 11
11.8918368123
 21
8.1548637264
  0
LINE
  5
289
100
AcDbEntity
  8
0
100
AcDbLine
 62
7
  6
CONTINUOUS
 10
11.8918368123
 20
8.1227196779
 11
11.8918368123
 21
8.1183092049
  0
LINE
  5
28A
100
AcDbEntity
  8
0
100
AcDbLine
 62
7
  6
CONTINUOUS
 10
11.8918368123
 20
8.0825741187
 11
11.8918368123
 21
8.0616831915
  0
LINE
  5
28B
100
AcDbEntity
  8
0
100
AcDbLine
 62
7
  6
CONTINUOUS
 10
11.8918368123
 20
8.0506543129
 11
11.8918368123
 21
8.0477020056
  0
LINE
  5
28C
100
AcDbEntity
  8
0
100
AcDbLine
 62
7
  6
CONTINUOUS
 10
11.8918368123
 20
7.9821952988
 11
11.8918368123
 21
7.9807155405
  0
LINE
  5
28D
100
AcDbEntity
  8
0
100
AcDbLine
 62
7
  6
CONTINUOUS
 10
11.8918368123
 20
7.9494231314
 11
11.8918368123
 21
7.9274825203
  0
LINE
  5
28E
100
AcDbEntity
  8
0
100
AcDbLine
 62
7
  6
CONTINUOUS
 10
11.8918368123
 20
7.917676161
 11
11.8918368123
 21
7.8964629576
  0
LINE
  5
28F
100
AcDbEntity
  8
0
100
AcDbLine
 62
7
  6
CONTINUOUS
 10
11.8918368123
 20
7.8289666936
 11
11.8918368123
 21
7.8100870818
  0
LINE
  5
290
100
AcDbEntity
  8
0
100
AcDbLine
 62
7
  6
CONTINUOUS
 10
11.8918368123
 20
7.8016941114
 11
11.8918368123
 21
7.7836396607
  0
LINE
  5
291
100
AcDbEntity
  8
0
100
AcDbLine
 62
7
  6
CONTINUOUS
 10
11.8918368123
 20
7.7507962525
 11
11.8918368123
 21
7.7344570815
  0
LINE
  5
292
100
AcDbEntity
  8
0
100
AcDbLine
 62
7
  6
CONTINUOUS
 10
11.8918368123
 20
7.7272329869
 11
11.8918368123
 21
7.7117818447
  0
LINE
  5
293
100
AcDbEntity
  8
0
100
AcDbLine
 62
7
  6
CONTINUOUS
 10
11.8918368123
 20
7.6644255046
 11
11.8918368123
 21
7.6517469568
  0
LINE
  5
294
100
AcDbEntity
  8
0
100
AcDbLine
 62
7
  6
CONTINUOUS
 10
11.8918368123
 20
7.6293734052
 11
11.8918368123
 21
7.6186223668
  0
LINE
  5
295
100
AcDbEntity
  8
0
100
AcDbLine
 62
7
  6
CONTINUOUS
 10
11.8918368123
 20
7.5874513331
 11
11.8918368123
 21
7.5796867618
  0
LINE
  5
296
100
AcDbEntity
  8
0
100
AcDbLine
 62
7
  6
CONTINUOUS
 10
11.8918368123
 20
7.5668058991
 11
11.8918368123
 21
7.5610816292
  0
LINE
  5
297
100
AcDbEntity
  8
0
100
AcDbLine
 62
7
  6
CONTINUOUS
 10
11.8918368123
 20
7.5470430181
 11
11.8918368123
 21
7.5444283459
  0
LINE
  5
298
100
AcDbEntity
  8
0
100
AcDbLine
 62
6
  6
CONTINUOUS
 10
11.8918368123
 20
7.5409079783
 11
11.8918368123
 21
7.5444283459
  0
LINE
  5
299
100
AcDbEntity
  8
0
100
AcDbLine
 62
6
  6
CONTINUOUS
 10
11.8918368123
 20
7.5470430181
 11
11.8918368123
 21
7.5610816292
  0
LINE
  5
29A
100
AcDbEntity
  8
0
100
AcDbLine
 62
6
  6
CONTINUOUS
 10
11.8918368123
 20
7.5668058991
 11
11.8918368123
 21
7.5796867618
  0
LINE
  5
29B
100
AcDbEntity
  8
0
100
AcDbLine
 62
6
  6
CONTINUOUS
 10
11.8918368123
 20
7.5874513331
 11
11.8918368123
 21
7.6186223668
  0
LINE
  5
29C
100
AcDbEntity
  8
0
100
AcDbLine
 62
6
  6
CONTINUOUS
 10
11.8918368123
 20
7.6293734052
 11
11.8918368123
 21
7.6517469568
  0
LINE
  5
29D
100
AcDbEntity
  8
0
100
AcDbLine
 62
6
  6
CONTINUOUS
 10
11.8918368123
 20
7.6644255046
 11
11.8918368123
 21
7.7117818447
  0
LINE
  5
29E
100
AcDbEntity
  8
0
100
AcDbLine
 62
6
  6
CONTINUOUS
 10
11.8918368123
 20
7.7272329869
 11
11.8918368123
 21
7.7344570815
  0
LINE
  5
29F
100
AcDbEntity
  8
0
100
AcDbLine
 62
6
  6
CONTINUOUS
 10
11.8918368123
 20
7.7507962525
 11
11.8918368123
 21
7.7836396607
  0
LINE
  5
2A0
100
AcDbEntity
  8
0
100
AcDbLine
 62
6
  6
CONTINUOUS
 10
11.8918368123
 20
7.8016941114
 11
11.8918368123
 21
7.8100870818
  0
LINE
  5
2A1
100
AcDbEntity
  8
0
100
AcDbLine
 62
7
  6
CONTINUOUS
 10
11.8918368123
 20
7.8377294595
 11
11.8918368123
 21
7.8588909886
  0
LINE
  5
2A2
100
AcDbEntity
  8
0
100
AcDbLine
 62
6
  6
CONTINUOUS
 10
11.8918368123
 20
7.8289666936
 11
11.8918368123
 21
7.8377294595
  0
LINE
  5
2A3
100
AcDbEntity
  8
0
100
AcDbLine
 62
6
  6
CONTINUOUS
 10
11.8918368123
 20
7.8588909886
 11
11.8918368123
 21
7.8964629576
  0
LINE
  5
2A4
100
AcDbEntity
  8
0
100
AcDbLine
 62
6
  6
CONTINUOUS
 10
11.8918368123
 20
7.917676161
 11
11.8918368123
 21
7.9274825203
  0
LINE
  5
2A5
100
AcDbEntity
  8
0
100
AcDbLine
 62
6
  6
CONTINUOUS
 10
11.8918368123
 20
7.9494231314
 11
11.8918368123
 21
7.9807155405
  0
LINE
  5
2A6
100
AcDbEntity
  8
0
100
AcDbLine
 62
7
  6
CONTINUOUS
 10
11.8918368123
 20
7.9926383565
 11
11.8918368123
 21
8.0159527353
  0
LINE
  5
2A7
100
AcDbEntity
  8
0
100
AcDbLine
 62
6
  6
CONTINUOUS
 10
11.8918368123
 20
7.9821952988
 11
11.8918368123
 21
7.9926383565
  0
LINE
  5
2A8
100
AcDbEntity
  8
0
100
AcDbLine
 62
6
  6
CONTINUOUS
 10
11.8918368123
 20
8.0159527353
 11
11.8918368123
 21
8.0477020056
  0
LINE
  5
2A9
100
AcDbEntity
  8
0
100
AcDbLine
 62
6
  6
CONTINUOUS
 10
11.8918368123
 20
8.0506543129
 11
11.8918368123
 21
8.0616831915
  0
LINE
  5
2AA
100
AcDbEntity
  8
0
100
AcDbLine
 62
6
  6
CONTINUOUS
 10
11.8918368123
 20
8.0825741187
 11
11.8918368123
 21
8.1183092049
  0
LINE
  5
2AB
100
AcDbEntity
  8
0
100
AcDbLine
 62
6
  6
CONTINUOUS
 10
11.8918368123
 20
8.1227196779
 11
11.8918368123
 21
8.1548637264
  0
LINE
  5
2AC
100
AcDbEntity
  8
0
100
AcDbLine
 62
6
  6
CONTINUOUS
 10
11.8918368123
 20
8.1599956648
 11
11.8918368123
 21
8.1658893939
  0
LINE
  5
2AD
100
AcDbEntity
  8
0
100
AcDbLine
 62
6
  6
CONTINUOUS
 10
11.8918368123
 20
9.4158893939
 11
11.8918368123
 21
9.4217831229
  0
LINE
  5
2AE
100
AcDbEntity
  8
0
100
AcDbLine
 62
6
  6
CONTINUOUS
 10
11.8918368123
 20
9.4269150613
 11
11.8918368123
 21
9.4590591098
  0
LINE
  5
2AF
100
AcDbEntity
  8
0
100
AcDbLine
 62
6
  6
CONTINUOUS
 10
11.8918368123
 20
9.4634695828
 11
11.8918368123
 21
9.499204669
  0
LINE
  5
2B0
100
AcDbEntity
  8
0
100
AcDbLine
 62
6
  6
CONTINUOUS
 10
11.8918368123
 20
9.5200955962
 11
11.8918368123
 21
9.5311244748
  0
LINE
  5
2B1
100
AcDbEntity
  8
0
100
AcDbLine
 62
6
  6
CONTINUOUS
 10
11.8918368123
 20
9.5340767822
 11
11.8918368123
 21
9.5658260524
  0
LINE
  5
2B2
100
AcDbEntity
  8
0
100
AcDbLine
 62
6
  6
CONTINUOUS
 10
11.8918368123
 20
9.5891404312
 11
11.8918368123
 21
9.599583489
  0
LINE
  5
2B3
100
AcDbEntity
  8
0
100
AcDbLine
 62
6
  6
CONTINUOUS
 10
11.8918368123
 20
9.6010632472
 11
11.8918368123
 21
9.6323556564
  0
LINE
  5
2B4
100
AcDbEntity
  8
0
100
AcDbLine
 62
6
  6
CONTINUOUS
 10
11.8918368123
 20
9.6542962674
 11
11.8918368123
 21
9.6641026267
  0
LINE
  5
2B5
100
AcDbEntity
  8
0
100
AcDbLine
 62
6
  6
CONTINUOUS
 10
11.8918368123
 20
9.6853158302
 11
11.8918368123
 21
9.7228877991
  0
LINE
  5
2B6
100
AcDbEntity
  8
0
100
AcDbLine
 62
6
  6
CONTINUOUS
 10
11.8918368123
 20
9.7440493283
 11
11.8918368123
 21
9.7528120942
  0
LINE
  5
2B7
100
AcDbEntity
  8
0
100
AcDbLine
 62
6
  6
CONTINUOUS
 10
11.8918368123
 20
9.7716917059
 11
11.8918368123
 21
9.7800846763
  0
LINE
  5
2B8
100
AcDbEntity
  8
0
100
AcDbLine
 62
6
  6
CONTINUOUS
 10
11.8918368123
 20
9.798139127
 11
11.8918368123
 21
9.8309825352
  0
LINE
  5
2B9
100
AcDbEntity
  8
0
100
AcDbLine
 62
6
  6
CONTINUOUS
 10
11.8918368123
 20
9.8473217062
 11
11.8918368123
 21
9.8545458008
  0
LINE
  5
2BA
100
AcDbEntity
  8
0
100
AcDbLine
 62
6
  6
CONTINUOUS
 10
11.8918368123
 20
9.869996943
 11
11.8918368123
 21
9.9173532831
  0
LINE
  5
2BB
100
AcDbEntity
  8
0
100
AcDbLine
 62
6
  6
CONTINUOUS
 10
11.8918368123
 20
9.9300318309
 11
11.8918368123
 21
9.9524053825
  0
LINE
  5
2BC
100
AcDbEntity
  8
0
100
AcDbLine
 62
6
  6
CONTINUOUS
 10
11.8918368123
 20
9.963156421
 11
11.8918368123
 21
9.9943274546
  0
LINE
  5
2BD
100
AcDbEntity
  8
0
100
AcDbLine
 62
6
  6
CONTINUOUS
 10
11.8918368123
 20
10.0020920259
 11
11.8918368123
 21
10.0149728886
  0
LINE
  5
2BE
100
AcDbEntity
  8
0
100
AcDbLine
 62
6
  6
CONTINUOUS
 10
11.8918368123
 20
10.0206971585
 11
11.8918368123
 21
10.0347357696
  0
LINE
  5
2BF
100
AcDbEntity
  8
0
100
AcDbLine
 62
6
  6
CONTINUOUS
 10
11.8918368123
 20
10.0373504419
 11
11.8918368123
 21
10.0408708094
  0
LINE
  5
2C0
100
AcDbEntity
  8
0
100
AcDbLine
 62
7
  6
CONTINUOUS
 10
11.9078368123
 20
9.4158893939
 11
11.9078368123
 21
8.1658893939
  0
LINE
  5
2C1
100
AcDbEntity
  8
0
100
AcDbLine
 62
7
  6
CONTINUOUS
 10
11.9668368123
 20
9.7243675574
 11
11.8918368123
 21
9.7243675574
  0
LINE
  5
2C2
100
AcDbEntity
  8
0
100
AcDbLine
 62
7
  6
CONTINUOUS
 10
11.9668368123
 20
9.7440493283
 11
11.8918368123
 21
9.7440493283
  0
LINE
  5
2C3
100
AcDbEntity
  8
0
100
AcDbLine
 62
6
  6
CONTINUOUS
 10
11.9668368123
 20
9.7528120942
 11
11.8918368123
 21
9.7528120942
  0
LINE
  5
2C4
100
AcDbEntity
  8
0
100
AcDbLine
 62
7
  6
CONTINUOUS
 10
11.9668368123
 20
9.7716917059
 11
11.8918368123
 21
9.7716917059
  0
LINE
  5
2C5
100
AcDbEntity
  8
0
100
AcDbLine
 62
6
  6
CONTINUOUS
 10
11.9668368123
 20
9.7800846763
 11
11.8918368123
 21
9.7800846763
  0
LINE
  5
2C6
100
AcDbEntity
  8
0
100
AcDbLine
 62
6
  6
CONTINUOUS
 10
12.0278368123
 20
9.7843893939
 11
12.1378368123
 21
9.7843893939
  0
LINE
  5
2C7
100
AcDbEntity
  8
0
100
AcDbLine
 62
7
  6
CONTINUOUS
 10
11.9668368123
 20
9.798139127
 11
11.8918368123
 21
9.798139127
  0
LINE
  5
2C8
100
AcDbEntity
  8
0
100
AcDbLine
 62
6
  6
CONTINUOUS
 10
11.9668368123
 20
9.8061520763
 11
11.8918368123
 21
9.8061520763
  0
LINE
  5
2C9
100
AcDbEntity
  8
0
100
AcDbLine
 62
6
  6
CONTINUOUS
 10
11.9668368123
 20
9.8233593694
 11
11.8918368123
 21
9.8233593694
  0
LINE
  5
2CA
100
AcDbEntity
  8
0
100
AcDbLine
 62
7
  6
CONTINUOUS
 10
11.9668368123
 20
9.8309825352
 11
11.8918368123
 21
9.8309825352
  0
LINE
  5
2CB
100
AcDbEntity
  8
0
100
AcDbLine
 62
7
  6
CONTINUOUS
 10
11.9668368123
 20
9.8473217062
 11
11.8918368123
 21
9.8473217062
  0
LINE
  5
2CC
100
AcDbEntity
  8
0
100
AcDbLine
 62
6
  6
CONTINUOUS
 10
11.9778368123
 20
9.8533893939
 11
12.0278368123
 21
9.8533893939
  0
LINE
  5
2CD
100
AcDbEntity
  8
0
100
AcDbLine
 62
6
  6
CONTINUOUS
 10
12.1378368123
 20
9.8533893939
 11
12.3668368123
 21
9.8533893939
  0
LINE
  5
2CE
100
AcDbEntity
  8
0
100
AcDbLine
 62
7
  6
CONTINUOUS
 10
11.9668368123
 20
10.0373504419
 11
11.9668368123
 21
10.0347357696
  0
LINE
  5
2CF
100
AcDbEntity
  8
0
100
AcDbLine
 62
6
  6
CONTINUOUS
 10
11.9668368123
 20
10.0408708094
 11
11.9668368123
 21
10.0373504419
  0
LINE
  5
2D0
100
AcDbEntity
  8
0
100
AcDbLine
 62
6
  6
CONTINUOUS
 10
11.9668368123
 20
10.0347357696
 11
11.9668368123
 21
10.0206971585
  0
LINE
  5
2D1
100
AcDbEntity
  8
0
100
AcDbLine
 62
7
  6
CONTINUOUS
 10
11.9668368123
 20
10.0020920259
 11
11.9668368123
 21
9.9943274546
  0
LINE
  5
2D2
100
AcDbEntity
  8
0
100
AcDbLine
 62
6
  6
CONTINUOUS
 10
11.9668368123
 20
10.0149728886
 11
11.9668368123
 21
10.0020920259
  0
LINE
  5
2D3
100
AcDbEntity
  8
0
100
AcDbLine
 62
7
  6
CONTINUOUS
 10
11.9668368123
 20
10.0206971585
 11
11.9668368123
 21
10.0149728886
  0
LINE
  5
2D4
100
AcDbEntity
  8
0
100
AcDbLine
 62
7
  6
CONTINUOUS
 10
11.9668368123
 20
9.963156421
 11
11.9668368123
 21
9.9524053825
  0
LINE
  5
2D5
100
AcDbEntity
  8
0
100
AcDbLine
 62
6
  6
CONTINUOUS
 10
11.9668368123
 20
9.9943274546
 11
11.9668368123
 21
9.963156421
  0
LINE
  5
2D6
100
AcDbEntity
  8
0
100
AcDbLine
 62
6
  6
CONTINUOUS
 10
11.9668368123
 20
9.9524053825
 11
11.9668368123
 21
9.9300318309
  0
LINE
  5
2D7
100
AcDbEntity
  8
0
100
AcDbLine
 62
7
  6
CONTINUOUS
 10
11.9668368123
 20
9.9300318309
 11
11.9668368123
 21
9.9173532831
  0
LINE
  5
2D8
100
AcDbEntity
  8
0
100
AcDbLine
 62
7
  6
CONTINUOUS
 10
11.9668368123
 20
9.869996943
 11
11.9668368123
 21
9.8545458008
  0
LINE
  5
2D9
100
AcDbEntity
  8
0
100
AcDbLine
 62
6
  6
CONTINUOUS
 10
11.9668368123
 20
9.9173532831
 11
11.9668368123
 21
9.869996943
  0
LINE
  5
2DA
100
AcDbEntity
  8
0
100
AcDbLine
 62
7
  6
CONTINUOUS
 10
11.9668368123
 20
9.8473217062
 11
11.9668368123
 21
9.8309825352
  0
LINE
  5
2DB
100
AcDbEntity
  8
0
100
AcDbLine
 62
6
  6
CONTINUOUS
 10
11.9668368123
 20
9.8545458008
 11
11.9668368123
 21
9.8473217062
  0
LINE
  5
2DC
100
AcDbEntity
  8
0
100
AcDbLine
 62
7
  6
CONTINUOUS
 10
11.9668368123
 20
9.798139127
 11
11.9668368123
 21
9.7800846763
  0
LINE
  5
2DD
100
AcDbEntity
  8
0
100
AcDbLine
 62
6
  6
CONTINUOUS
 10
11.9668368123
 20
9.8309825352
 11
11.9668368123
 21
9.798139127
  0
LINE
  5
2DE
100
AcDbEntity
  8
0
100
AcDbLine
 62
6
  6
CONTINUOUS
 10
11.9668368123
 20
9.7800846763
 11
11.9668368123
 21
9.7716917059
  0
LINE
  5
2DF
100
AcDbEntity
  8
0
100
AcDbLine
 62
7
  6
CONTINUOUS
 10
11.9668368123
 20
9.7716917059
 11
11.9668368123
 21
9.7505947106
  0
LINE
  5
2E0
100
AcDbEntity
  8
0
100
AcDbLine
 62
7
  6
CONTINUOUS
 10
11.9668368123
 20
9.7440493283
 11
11.9668368123
 21
9.7243675574
  0
LINE
  5
2E1
100
AcDbEntity
  8
0
100
AcDbLine
 62
6
  6
CONTINUOUS
 10
11.9668368123
 20
9.7505947106
 11
11.9668368123
 21
9.7440493283
  0
LINE
  5
2E2
100
AcDbEntity
  8
0
100
AcDbLine
 62
7
  6
CONTINUOUS
 10
11.9668368123
 20
9.6853158302
 11
11.9668368123
 21
9.6641026267
  0
LINE
  5
2E3
100
AcDbEntity
  8
0
100
AcDbLine
 62
6
  6
CONTINUOUS
 10
11.9668368123
 20
9.7243675574
 11
11.9668368123
 21
9.6853158302
  0
LINE
  5
2E4
100
AcDbEntity
  8
0
100
AcDbLine
 62
6
  6
CONTINUOUS
 10
11.9668368123
 20
9.6641026267
 11
11.9668368123
 21
9.6542962674
  0
LINE
  5
2E5
100
AcDbEntity
  8
0
100
AcDbLine
 62
7
  6
CONTINUOUS
 10
11.9668368123
 20
9.6542962674
 11
11.9668368123
 21
9.6323556564
  0
LINE
  5
2E6
100
AcDbEntity
  8
0
100
AcDbLine
 62
6
  6
CONTINUOUS
 10
11.9668368123
 20
9.6323556564
 11
11.9668368123
 21
9.6010632472
  0
LINE
  5
2E7
100
AcDbEntity
  8
0
100
AcDbLine
 62
7
  6
CONTINUOUS
 10
11.9668368123
 20
9.5891404312
 11
11.9668368123
 21
9.5680434359
  0
LINE
  5
2E8
100
AcDbEntity
  8
0
100
AcDbLine
 62
6
  6
CONTINUOUS
 10
11.9668368123
 20
9.599583489
 11
11.9668368123
 21
9.5891404312
  0
LINE
  5
2E9
100
AcDbEntity
  8
0
100
AcDbLine
 62
7
  6
CONTINUOUS
 10
11.9668368123
 20
9.6010632472
 11
11.9668368123
 21
9.599583489
  0
LINE
  5
2EA
100
AcDbEntity
  8
0
100
AcDbLine
 62
7
  6
CONTINUOUS
 10
11.9668368123
 20
9.5340767822
 11
11.9668368123
 21
9.5311244748
  0
LINE
  5
2EB
100
AcDbEntity
  8
0
100
AcDbLine
 62
6
  6
CONTINUOUS
 10
11.9668368123
 20
9.5680434359
 11
11.9668368123
 21
9.5340767822
  0
LINE
  5
2EC
100
AcDbEntity
  8
0
100
AcDbLine
 62
7
  6
CONTINUOUS
 10
11.9668368123
 20
9.5200955962
 11
11.9668368123
 21
9.499204669
  0
LINE
  5
2ED
100
AcDbEntity
  8
0
100
AcDbLine
 62
6
  6
CONTINUOUS
 10
11.9668368123
 20
9.5311244748
 11
11.9668368123
 21
9.5200955962
  0
LINE
  5
2EE
100
AcDbEntity
  8
0
100
AcDbLine
 62
7
  6
CONTINUOUS
 10
11.9668368123
 20
9.4634695828
 11
11.9668368123
 21
9.4590591098
  0
LINE
  5
2EF
100
AcDbEntity
  8
0
100
AcDbLine
 62
6
  6
CONTINUOUS
 10
11.9668368123
 20
9.499204669
 11
11.9668368123
 21
9.4634695828
  0
LINE
  5
2F0
100
AcDbEntity
  8
0
100
AcDbLine
 62
6
  6
CONTINUOUS
 10
11.9668368123
 20
9.4590591098
 11
11.9668368123
 21
9.4269150613
  0
LINE
  5
2F1
100
AcDbEntity
  8
0
100
AcDbLine
 62
7
  6
CONTINUOUS
 10
11.9668368123
 20
9.4269150613
 11
11.9668368123
 21
9.4217831229
  0
LINE
  5
2F2
100
AcDbEntity
  8
0
100
AcDbLine
 62
6
  6
CONTINUOUS
 10
11.9668368123
 20
9.4217831229
 11
11.9668368123
 21
9.4108893939
  0
LINE
  5
2F3
100
AcDbEntity
  8
0
100
AcDbLine
 62
6
  6
CONTINUOUS
 10
11.9668368123
 20
8.1708893939
 11
11.9668368123
 21
8.1599956648
  0
LINE
  5
2F4
100
AcDbEntity
  8
0
100
AcDbLine
 62
7
  6
CONTINUOUS
 10
11.9668368123
 20
8.1599956648
 11
11.9668368123
 21
8.1548637264
  0
LINE
  5
2F5
100
AcDbEntity
  8
0
100
AcDbLine
 62
6
  6
CONTINUOUS
 10
11.9668368123
 20
8.1548637264
 11
11.9668368123
 21
8.1227196779
  0
LINE
  5
2F6
100
AcDbEntity
  8
0
100
AcDbLine
 62
7
  6
CONTINUOUS
 10
11.9668368123
 20
8.1227196779
 11
11.9668368123
 21
8.1183092049
  0
LINE
  5
2F7
100
AcDbEntity
  8
0
100
AcDbLine
 62
6
  6
CONTINUOUS
 10
11.9668368123
 20
8.1183092049
 11
11.9668368123
 21
8.0825741187
  0
LINE
  5
2F8
100
AcDbEntity
  8
0
100
AcDbLine
 62
6
  6
CONTINUOUS
 10
11.9668368123
 20
8.0616831915
 11
11.9668368123
 21
8.0506543129
  0
LINE
  5
2F9
100
AcDbEntity
  8
0
100
AcDbLine
 62
7
  6
CONTINUOUS
 10
11.9668368123
 20
8.0825741187
 11
11.9668368123
 21
8.0616831915
  0
LINE
  5
2FA
100
AcDbEntity
  8
0
100
AcDbLine
 62
7
  6
CONTINUOUS
 10
11.9668368123
 20
8.0506543129
 11
11.9668368123
 21
8.0477020056
  0
LINE
  5
2FB
100
AcDbEntity
  8
0
100
AcDbLine
 62
7
  6
CONTINUOUS
 10
11.9668368123
 20
8.0137353518
 11
11.9668368123
 21
7.9926383565
  0
LINE
  5
2FC
100
AcDbEntity
  8
0
100
AcDbLine
 62
6
  6
CONTINUOUS
 10
11.9668368123
 20
8.0477020056
 11
11.9668368123
 21
8.0137353518
  0
LINE
  5
2FD
100
AcDbEntity
  8
0
100
AcDbLine
 62
6
  6
CONTINUOUS
 10
11.9668368123
 20
7.9926383565
 11
11.9668368123
 21
7.9821952988
  0
LINE
  5
2FE
100
AcDbEntity
  8
0
100
AcDbLine
 62
7
  6
CONTINUOUS
 10
11.9668368123
 20
7.9821952988
 11
11.9668368123
 21
7.9807155405
  0
LINE
  5
2FF
100
AcDbEntity
  8
0
100
AcDbLine
 62
6
  6
CONTINUOUS
 10
11.9668368123
 20
7.9807155405
 11
11.9668368123
 21
7.9494231314
  0
LINE
  5
300
100
AcDbEntity
  8
0
100
AcDbLine
 62
7
  6
CONTINUOUS
 10
11.9668368123
 20
7.9494231314
 11
11.9668368123
 21
7.9274825203
  0
LINE
  5
301
100
AcDbEntity
  8
0
100
AcDbLine
 62
6
  6
CONTINUOUS
 10
11.9668368123
 20
7.9274825203
 11
11.9668368123
 21
7.917676161
  0
LINE
  5
302
100
AcDbEntity
  8
0
100
AcDbLine
 62
7
  6
CONTINUOUS
 10
11.9668368123
 20
7.917676161
 11
11.9668368123
 21
7.8964629576
  0
LINE
  5
303
100
AcDbEntity
  8
0
100
AcDbLine
 62
6
  6
CONTINUOUS
 10
11.9668368123
 20
7.8964629576
 11
11.9668368123
 21
7.8574112303
  0
LINE
  5
304
100
AcDbEntity
  8
0
100
AcDbLine
 62
7
  6
CONTINUOUS
 10
11.9668368123
 20
7.8574112303
 11
11.9668368123
 21
7.8377294595
  0
LINE
  5
305
100
AcDbEntity
  8
0
100
AcDbLine
 62
6
  6
CONTINUOUS
 10
11.9668368123
 20
7.8377294595
 11
11.9668368123
 21
7.8311840771
  0
LINE
  5
306
100
AcDbEntity
  8
0
100
AcDbLine
 62
6
  6
CONTINUOUS
 10
11.9668368123
 20
7.8100870818
 11
11.9668368123
 21
7.8016941114
  0
LINE
  5
307
100
AcDbEntity
  8
0
100
AcDbLine
 62
7
  6
CONTINUOUS
 10
11.9668368123
 20
7.8016941114
 11
11.9668368123
 21
7.7836396607
  0
LINE
  5
308
100
AcDbEntity
  8
0
100
AcDbLine
 62
6
  6
CONTINUOUS
 10
11.9668368123
 20
7.7836396607
 11
11.9668368123
 21
7.7507962525
  0
LINE
  5
309
100
AcDbEntity
  8
0
100
AcDbLine
 62
6
  6
CONTINUOUS
 10
11.9668368123
 20
7.7344570815
 11
11.9668368123
 21
7.7272329869
  0
LINE
  5
30A
100
AcDbEntity
  8
0
100
AcDbLine
 62
7
  6
CONTINUOUS
 10
11.9668368123
 20
7.7507962525
 11
11.9668368123
 21
7.7344570815
  0
LINE
  5
30B
100
AcDbEntity
  8
0
100
AcDbLine
 62
7
  6
CONTINUOUS
 10
11.9668368123
 20
7.7272329869
 11
11.9668368123
 21
7.7117818447
  0
LINE
  5
30C
100
AcDbEntity
  8
0
100
AcDbLine
 62
7
  6
CONTINUOUS
 10
11.9668368123
 20
7.6644255046
 11
11.9668368123
 21
7.6517469568
  0
LINE
  5
30D
100
AcDbEntity
  8
0
100
AcDbLine
 62
6
  6
CONTINUOUS
 10
11.9668368123
 20
7.7117818447
 11
11.9668368123
 21
7.6644255046
  0
LINE
  5
30E
100
AcDbEntity
  8
0
100
AcDbLine
 62
6
  6
CONTINUOUS
 10
11.9668368123
 20
7.6517469568
 11
11.9668368123
 21
7.6293734052
  0
LINE
  5
30F
100
AcDbEntity
  8
0
100
AcDbLine
 62
7
  6
CONTINUOUS
 10
11.9668368123
 20
7.6293734052
 11
11.9668368123
 21
7.6186223668
  0
LINE
  5
310
100
AcDbEntity
  8
0
100
AcDbLine
 62
6
  6
CONTINUOUS
 10
11.9668368123
 20
7.6186223668
 11
11.9668368123
 21
7.5874513331
  0
LINE
  5
311
100
AcDbEntity
  8
0
100
AcDbLine
 62
6
  6
CONTINUOUS
 10
11.9668368123
 20
7.5796867618
 11
11.9668368123
 21
7.5668058991
  0
LINE
  5
312
100
AcDbEntity
  8
0
100
AcDbLine
 62
7
  6
CONTINUOUS
 10
11.9668368123
 20
7.5874513331
 11
11.9668368123
 21
7.5796867618
  0
LINE
  5
313
100
AcDbEntity
  8
0
100
AcDbLine
 62
7
  6
CONTINUOUS
 10
11.9668368123
 20
7.5470430181
 11
11.9668368123
 21
7.5444283459
  0
LINE
  5
314
100
AcDbEntity
  8
0
100
AcDbLine
 62
6
  6
CONTINUOUS
 10
11.9668368123
 20
7.5610816292
 11
11.9668368123
 21
7.5470430181
  0
LINE
  5
315
100
AcDbEntity
  8
0
100
AcDbLine
 62
7
  6
CONTINUOUS
 10
11.9668368123
 20
7.5668058991
 11
11.9668368123
 21
7.5610816292
  0
LINE
  5
316
100
AcDbEntity
  8
0
100
AcDbLine
 62
6
  6
CONTINUOUS
 10
11.9668368123
 20
7.5444283459
 11
11.9668368123
 21
7.5409079783
  0
LINE
  5
317
100
AcDbEntity
  8
0
100
AcDbLine
 62
7
  6
CONTINUOUS
 10
11.9668368123
 20
7.8100870818
 11
11.9668368123
 21
7.8311840771
  0
LINE
  5
318
100
AcDbEntity
  8
0
100
AcDbLine
 62
6
  6
CONTINUOUS
 10
11.9778368123
 20
7.7283893939
 11
11.9778368123
 21
9.8533893939
  0
LINE
  5
319
100
AcDbEntity
  8
0
100
AcDbLine
 62
6
  6
CONTINUOUS
 10
12.0278368123
 20
7.7283893939
 11
12.0278368123
 21
9.8533893939
  0
LINE
  5
31A
100
AcDbEntity
  8
0
100
AcDbLine
 62
6
  6
CONTINUOUS
 10
11.9668368123
 20
9.8545458008
 11
11.8918368123
 21
9.8545458008
  0
LINE
  5
31B
100
AcDbEntity
  8
0
100
AcDbLine
 62
7
  6
CONTINUOUS
 10
11.9668368123
 20
9.869996943
 11
11.8918368123
 21
9.869996943
  0
LINE
  5
31C
100
AcDbEntity
  8
0
100
AcDbLine
 62
6
  6
CONTINUOUS
 10
11.9668368123
 20
9.8768131649
 11
11.8918368123
 21
9.8768131649
  0
LINE
  5
31D
100
AcDbEntity
  8
0
100
AcDbLine
 62
6
  6
CONTINUOUS
 10
11.9668368123
 20
9.8913574535
 11
11.8918368123
 21
9.8913574535
  0
LINE
  5
31E
100
AcDbEntity
  8
0
100
AcDbLine
 62
6
  6
CONTINUOUS
 10
11.9668368123
 20
9.8977574981
 11
11.8918368123
 21
9.8977574981
  0
LINE
  5
31F
100
AcDbEntity
  8
0
100
AcDbLine
 62
6
  6
CONTINUOUS
 10
11.9668368123
 20
9.9113772131
 11
11.8918368123
 21
9.9113772131
  0
LINE
  5
320
100
AcDbEntity
  8
0
100
AcDbLine
 62
7
  6
CONTINUOUS
 10
11.9668368123
 20
9.9173532831
 11
11.8918368123
 21
9.9173532831
  0
LINE
  5
321
100
AcDbEntity
  8
0
100
AcDbLine
 62
6
  6
CONTINUOUS
 10
11.8918368123
 20
9.9276300395
 11
11.9668368123
 21
9.9276300395
  0
LINE
  5
322
100
AcDbEntity
  8
0
100
AcDbLine
 62
7
  6
CONTINUOUS
 10
11.9668368123
 20
9.9300318309
 11
11.8918368123
 21
9.9300318309
  0
LINE
  5
323
100
AcDbEntity
  8
0
100
AcDbLine
 62
6
  6
CONTINUOUS
 10
11.9668368123
 20
9.9355766453
 11
11.8918368123
 21
9.9355766453
  0
LINE
  5
324
100
AcDbEntity
  8
0
100
AcDbLine
 62
6
  6
CONTINUOUS
 10
11.9668368123
 20
9.9472985792
 11
11.8918368123
 21
9.9472985792
  0
LINE
  5
325
100
AcDbEntity
  8
0
100
AcDbLine
 62
6
  6
CONTINUOUS
 10
11.9668368123
 20
9.9524053825
 11
11.8918368123
 21
9.9524053825
  0
LINE
  5
326
100
AcDbEntity
  8
0
100
AcDbLine
 62
7
  6
CONTINUOUS
 10
11.8918368123
 20
9.958519735
 11
11.9668368123
 21
9.958519735
  0
LINE
  5
327
100
AcDbEntity
  8
0
100
AcDbLine
 62
7
  6
CONTINUOUS
 10
11.9668368123
 20
9.963156421
 11
11.8918368123
 21
9.963156421
  0
LINE
  5
328
100
AcDbEntity
  8
0
100
AcDbLine
 62
7
  6
CONTINUOUS
 10
11.9668368123
 20
9.9678189913
 11
11.8918368123
 21
9.9678189913
  0
LINE
  5
329
100
AcDbEntity
  8
0
100
AcDbLine
 62
6
  6
CONTINUOUS
 10
11.9668368123
 20
9.9775860359
 11
11.8918368123
 21
9.9775860359
  0
LINE
  5
32A
100
AcDbEntity
  8
0
100
AcDbLine
 62
6
  6
CONTINUOUS
 10
11.9668368123
 20
9.9817986927
 11
11.8918368123
 21
9.9817986927
  0
LINE
  5
32B
100
AcDbEntity
  8
0
100
AcDbLine
 62
6
  6
CONTINUOUS
 10
12.1378368123
 20
7.7283893939
 11
12.1378368123
 21
9.8533893939
  0
LINE
  5
32C
100
AcDbEntity
  8
0
100
AcDbLine
 62
6
  6
CONTINUOUS
 10
12.1668368123
 20
9.9908893939
 11
12.1668368123
 21
9.8533893939
  0
LINE
  5
32D
100
AcDbEntity
  8
0
100
AcDbLine
 62
6
  6
CONTINUOUS
 10
12.1668368123
 20
7.5908893939
 11
12.1668368123
 21
7.7283893939
  0
LINE
  5
32E
100
AcDbEntity
  8
0
100
AcDbLine
 62
6
  6
CONTINUOUS
 10
11.9668368123
 20
9.9905698439
 11
11.8918368123
 21
9.9905698439
  0
LINE
  5
32F
100
AcDbEntity
  8
0
100
AcDbLine
 62
6
  6
CONTINUOUS
 10
12.1668368123
 20
9.9908893939
 11
11.9668368123
 21
9.9908893939
  0
LINE
  5
330
100
AcDbEntity
  8
0
100
AcDbLine
 62
6
  6
CONTINUOUS
 10
11.9668368123
 20
9.9943274546
 11
11.8918368123
 21
9.9943274546
  0
LINE
  5
331
100
AcDbEntity
  8
0
100
AcDbLine
 62
7
  6
CONTINUOUS
 10
11.9668368123
 20
10.0020920259
 11
11.8918368123
 21
10.0020920259
  0
LINE
  5
332
100
AcDbEntity
  8
0
100
AcDbLine
 62
6
  6
CONTINUOUS
 10
11.9668368123
 20
10.0053900126
 11
11.8918368123
 21
10.0053900126
  0
LINE
  5
333
100
AcDbEntity
  8
0
100
AcDbLine
 62
6
  6
CONTINUOUS
 10
11.9668368123
 20
10.0121385442
 11
11.8918368123
 21
10.0121385442
  0
LINE
  5
334
100
AcDbEntity
  8
0
100
AcDbLine
 62
6
  6
CONTINUOUS
 10
11.9668368123
 20
10.0149728886
 11
11.8918368123
 21
10.0149728886
  0
LINE
  5
335
100
AcDbEntity
  8
0
100
AcDbLine
 62
7
  6
CONTINUOUS
 10
11.9668368123
 20
10.0206971585
 11
11.8918368123
 21
10.0206971585
  0
LINE
  5
336
100
AcDbEntity
  8
0
100
AcDbLine
 62
6
  6
CONTINUOUS
 10
11.9668368123
 20
10.0230644075
 11
11.8918368123
 21
10.0230644075
  0
LINE
  5
337
100
AcDbEntity
  8
0
100
AcDbLine
 62
6
  6
CONTINUOUS
 10
11.9668368123
 20
10.0277574414
 11
11.8918368123
 21
10.0277574414
  0
LINE
  5
338
100
AcDbEntity
  8
0
100
AcDbLine
 62
6
  6
CONTINUOUS
 10
11.9668368123
 20
10.0296547109
 11
11.8918368123
 21
10.0296547109
  0
LINE
  5
339
100
AcDbEntity
  8
0
100
AcDbLine
 62
6
  6
CONTINUOUS
 10
11.9668368123
 20
10.0333107912
 11
11.8918368123
 21
10.0333107912
  0
LINE
  5
33A
100
AcDbEntity
  8
0
100
AcDbLine
 62
6
  6
CONTINUOUS
 10
11.9668368123
 20
10.0347357696
 11
11.8918368123
 21
10.0347357696
  0
LINE
  5
33B
100
AcDbEntity
  8
0
100
AcDbLine
 62
7
  6
CONTINUOUS
 10
11.9668368123
 20
10.0373504419
 11
11.8918368123
 21
10.0373504419
  0
LINE
  5
33C
100
AcDbEntity
  8
0
100
AcDbLine
 62
6
  6
CONTINUOUS
 10
11.9668368123
 20
10.0383013931
 11
11.8918368123
 21
10.0383013931
  0
LINE
  5
33D
100
AcDbEntity
  8
0
100
AcDbLine
 62
6
  6
CONTINUOUS
 10
11.9668368123
 20
10.0398714718
 11
11.8918368123
 21
10.0398714718
  0
LINE
  5
33E
100
AcDbEntity
  8
0
100
AcDbLine
 62
6
  6
CONTINUOUS
 10
11.9668368123
 20
10.0403472372
 11
11.8918368123
 21
10.0403472372
  0
LINE
  5
33F
100
AcDbEntity
  8
0
100
AcDbLine
 62
6
  6
CONTINUOUS
 10
11.9668368123
 20
10.0408708094
 11
11.8918368123
 21
10.0408708094
  0
LINE
  5
340
100
AcDbEntity
  8
0
100
AcDbLine
 62
6
  6
CONTINUOUS
 10
12.3668368123
 20
10.0408893939
 11
12.2168368123
 21
10.0408893939
  0
LINE
  5
341
100
AcDbEntity
  8
0
100
AcDbLine
 62
6
  6
CONTINUOUS
 10
12.2168368123
 20
10.0408893939
 11
12.2168368123
 21
9.8533893939
  0
LINE
  5
342
100
AcDbEntity
  8
0
100
AcDbLine
 62
6
  6
CONTINUOUS
 10
12.2168368123
 20
7.5408893939
 11
12.2168368123
 21
7.7283893939
  0
LINE
  5
343
100
AcDbEntity
  8
0
100
AcDbLine
 62
6
  6
CONTINUOUS
 10
12.3668368123
 20
7.5408917984
 11
12.3668368123
 21
10.0408869893
  0
ARC
  5
344
100
AcDbEntity
  8
0
100
AcDbCircle
 62
6
  6
CONTINUOUS
 10
9.9698368123
 20
8.7908893939
 40
0.625
100
AcDbArc
 50
90.0
 51
270.0
  0
ARC
  5
345
100
AcDbEntity
  8
0
100
AcDbCircle
 62
6
  6
CONTINUOUS
 10
11.7918368123
 20
7.6158893939
 40
0.1
100
AcDbArc
 50
4.2180728865
 51
90.0
  0
ARC
  5
346
100
AcDbEntity
  8
0
100
AcDbCircle
 62
6
  6
CONTINUOUS
 10
11.6918368123
 20
7.7658893939
 40
0.1
100
AcDbArc
 50
0.0
 51
90.0
  0
ARC
  5
347
100
AcDbEntity
  8
0
100
AcDbCircle
 62
6
  6
CONTINUOUS
 10
11.7918368123
 20
9.9658893939
 40
0.1
100
AcDbArc
 50
270.0
 51
355.7819271135
  0
ARC
  5
348
100
AcDbEntity
  8
0
100
AcDbCircle
 62
6
  6
CONTINUOUS
 10
11.6918368123
 20
9.8158893939
 40
0.1
100
AcDbArc
 50
270.0
 51
360.0
  0
SPLINE
  5
349
100
AcDbEntity
  8
0
100
AcDbSpline
 62
7
  6
CONTINUOUS
 70
0
 71
3
 72
11
 73
7
 74
5
 42
0.0000001
 43
0.0000001
 44
0.0000000001
 12
0.0
 22
-0.0444361753
 32
0.0
 13
-0.0175425135
 23
-0.0408268771
 33
0.0
 40
0.0
 40
0.0
 40
0.0
 40
0.0
 40
0.2517211543
 40
0.5015564434
 40
0.7506738731
 40
1.0
 40
1.0
 40
1.0
 40
1.0
 10
12.0370807853
 20
8.1522799036
 30
0.0
 10
12.0370807853
 20
8.1485513952
 30
0.0
 10
12.0366764308
 20
8.1411157025
 30
0.0
 10
12.0348617527
 20
8.1301249258
 30
0.0
 10
12.0319233065
 20
8.1194191101
 30
0.0
 10
12.029294748
 20
8.112507488
 30
0.0
 10
12.0278368123
 20
8.1091144189
 30
0.0
 11
12.0370807853
 21
8.1522799036
 31
0.0
 11
12.0364713614
 21
8.1411109923
 31
0.0
 11
12.0346711777
 21
8.1301561929
 31
0.0
 11
12.0317564664
 21
8.1194769841
 31
0.0
 11
12.0278368123
 21
8.1091144189
 31
0.0
  0
SPLINE
  5
34A
100
AcDbEntity
  8
0
100
AcDbSpline
 62
7
  6
CONTINUOUS
 70
0
 71
3
 72
11
 73
7
 74
5
 42
0.0000001
 43
0.0000001
 44
0.0000000001
 12
0.0168868273
 22
-0.043339085
 32
0.0
 13
0.0
 23
-0.0465128071
 33
0.0
 40
0.0
 40
0.0
 40
0.0
 40
0.0
 40
0.2569583004
 40
0.5090572698
 40
0.7565269391
 40
1.0
 40
1.0
 40
1.0
 40
1.0
 10
12.0278368123
 20
8.1976056147
 30
0.0
 10
12.0292832158
 20
8.1938935021
 30
0.0
 10
12.0318912814
 20
8.1864348339
 30
0.0
 10
12.0348356816
 20
8.1750652715
 30
0.0
 10
12.0366615482
 20
8.1636722076
 30
0.0
 10
12.0370807853
 20
8.1560547755
 30
0.0
 10
12.0370807853
 20
8.1522799036
 30
0.0
 11
12.0278368123
 21
8.1976056147
 31
0.0
 11
12.0317564672
 21
8.1863147746
 31
0.0
 11
12.0346711786
 21
8.1749569771
 31
0.0
 11
12.0364713645
 21
8.1635881096
 31
0.0
 11
12.0370807853
 21
8.1522799036
 31
0.0
  0
SPLINE
  5
34B
100
AcDbEntity
  8
0
100
AcDbSpline
 62
7
  6
CONTINUOUS
 70
0
 71
3
 72
11
 73
7
 74
5
 42
0.0000001
 43
0.0000001
 44
0.0000000001
 12
0.0
 22
-0.046512807
 32
0.0
 13
-0.0168868272
 23
-0.0433390849
 33
0.0
 40
0.0
 40
0.0
 40
0.0
 40
0.0
 40
0.2434732236
 40
0.4909429636
 40
0.7430417674
 40
1.0
 40
1.0
 40
1.0
 40
1.0
 10
12.0370807853
 20
9.4294988841
 30
0.0
 10
12.0370807853
 20
9.4257240097
 30
0.0
 10
12.0366615429
 20
9.4181065745
 30
0.0
 10
12.0348356834
 20
9.4067135085
 30
0.0
 10
12.031891279
 20
9.3953439495
 30
0.0
 10
12.0292832154
 20
9.3878852846
 30
0.0
 10
12.0278368123
 20
9.3841731731
 30
0.0
 11
12.0370807853
 21
9.4294988841
 31
0.0
 11
12.0364713614
 21
9.4181906707
 31
0.0
 11
12.0346711777
 21
9.4068217996
 31
0.0
 11
12.0317564664
 21
9.39546401
 31
0.0
 11
12.0278368123
 21
9.3841731731
 31
0.0
  0
SPLINE
  5
34C
100
AcDbEntity
  8
0
100
AcDbSpline
 62
7
  6
CONTINUOUS
 70
0
 71
3
 72
11
 73
7
 74
5
 42
0.0000001
 43
0.0000001
 44
0.0000000001
 12
0.0175425135
 22
-0.0408268772
 32
0.0
 13
-0.0
 23
-0.0444361754
 33
0.0
 40
0.0
 40
0.0
 40
0.0
 40
0.0
 40
0.2493261937
 40
0.4984437932
 40
0.748279004
 40
1.0
 40
1.0
 40
1.0
 40
1.0
 10
12.0278368123
 20
9.4726643688
 30
0.0
 10
12.0292947484
 20
9.4692712988
 30
0.0
 10
12.0319233088
 20
9.4623596735
 30
0.0
 10
12.0348617508
 20
9.4516538544
 30
0.0
 10
12.0366764362
 20
9.4406630798
 30
0.0
 10
12.0370807853
 20
9.4332273902
 30
0.0
 10
12.0370807853
 20
9.4294988841
 30
0.0
 11
12.0278368123
 21
9.4726643688
 31
0.0
 11
12.0317564672
 21
9.4623018007
 31
0.0
 11
12.0346711786
 21
9.4516225841
 31
0.0
 11
12.0364713645
 21
9.4406677885
 31
0.0
 11
12.0370807853
 21
9.4294988841
 31
0.0
  0
ENDSEC
  0
SECTION
  2
OBJECTS
  0
DICTIONARY
  5
C
100
AcDbDictionary
280
0
281
1
  3
ACAD_GROUP
350
D
  3
ACAD_MLINESTYLE
350
17
  3
ACAD_LAYOUT
350
1A
  3
ACAD_PLOTSETTINGS
350
19
  3
ACAD_PLOTSTYLENAME
350
E
  0
DICTIONARY
  5
D
102
{ACAD_REACTORS
330
C
102
}
100
AcDbDictionary
280
0
281
1
  0
ACDBDICTIONARYWDFLT
  5
E
102
{ACAD_REACTORS
330
C
102
}
100
AcDbDictionary
281
1
  3
Normal
350
F
100
AcDbDictionaryWithDefault
340
F
  0
DICTIONARY
  5
17
102
{ACAD_REACTORS
330
C
102
}
100
AcDbDictionary
280
0
281
1
  3
Standard
350
18
  0
DICTIONARY
  5
19
102
{ACAD_REACTORS
330
C
102
}
100
AcDbDictionary
281
1
  0
DICTIONARY
  5
1A
102
{ACAD_REACTORS
330
C
102
}
100
AcDbDictionary
281
1
  3
Model
350
34D
  3
Layout1
350
34E
  0
ACDBPLACEHOLDER
  5
F
102
{ACAD_REACTORS
330
E
102
}
  0
MLINESTYLE
  5
18
102
{ACAD_REACTORS
330
17
102
}
100
AcDbMlineStyle
  2
STANDARD
 70
0
  3

 62
256
 51
90.0
 52
90.0
 71
2
 49
0.5
 62
256
  6
BYLAYER
 49
-0.5
 62
256
  6
BYLAYER
  0
LAYOUT
  5
34D
102
{ACAD_REACTORS
330
1A
102
}
100
AcDbPlotSettings
  1

  2
none_device
  4
ISO_A2_(594.00_x_420.00_MM)
  6

 40
0.0
 41
0.0
 42
0.0
 43
0.0
 44
594.0
 45
420.0
 46
0.0
 47
0.0
 48
0.0
 49
0.0
140
0.0
141
0.0
142
1.0
143
1.0
 70
1024
 72
0
 73
0
 74
0
  7

 75
0
147
1.0
148
0.0
149
0.0
100
AcDbLayout
  1
Model
 70
0
 71
0
 10
0.0
 20
0.0
 11
23.3858267717
 21
16.5354330709
 12
0.0
 22
0.0
 32
0.0
 14
0.0
 24
0.0
 34
0.0
 15
0.0
 25
0.0
 35
0.0
146
0.0
 13
0.0
 23
0.0
 33
0.0
 16
1.0
 26
0.0
 36
0.0
 17
0.0
 27
1.0
 37
0.0
 76
0
330
203
345
0
346
0
  0
LAYOUT
  5
34E
102
{ACAD_REACTORS
330
1A
102
}
100
AcDbPlotSettings
  1

  2
none_device
  4
ISO_A2_(594.00_x_420.00_MM)
  6

 40
0.0
 41
0.0
 42
0.0
 43
0.0
 44
594.0
 45
420.0
 46
0.0
 47
0.0
 48
0.0
 49
0.0
140
0.0
141
0.0
142
1.0
143
1.0
 70
0
 72
0
 73
0
 74
0
  7

 75
0
147
1.0
148
0.0
149
0.0
100
AcDbLayout
  1
Layout1
 70
0
 71
1
 10
0.0
 20
0.0
 11
23.3858267717
 21
16.5354330709
 12
0.0
 22
0.0
 32
0.0
 14
0.0
 24
0.0
 34
0.0
 15
0.0
 25
0.0
 35
0.0
146
0.0
 13
0.0
 23
0.0
 33
0.0
 16
1.0
 26
0.0
 36
0.0
 17
0.0
 27
1.0
 37
0.0
 76
0
330
204
345
0
346
0
  0
ENDSEC
  0
EOF
