  0
SECTION
  2
HEADER
  9
$ACADVER
  1
AC1021
  9
$DWGCODEPAGE
  3
ANSI_1252
  9
$EXTMAX
 10
33.1102362205
 20
23.3858267717
 30
0.0
  9
$EXTMIN
 10
0.0
 20
0.0
 30
0.0
  9
$LIMMIN
 10
0.0
 20
0.0
  9
$LIMMAX
 10
33.1102362205
 20
23.3858267717
  9
$VIEWCTR
 10
16.5551181102
 20
11.6929133858
  9
$VIEWSIZE
 40
23.3858267717
  9
$CLAYER
  8
0
  9
$LTSCALE
 40
1.8210629921
  9
$CELTYPE
  6
BYLAYER
  9
$DIMSCALE
 40
1.0
  9
$DIMASZ
 40
0.1875
  9
$DIMEXO
 40
0.2069389764
  9
$DIMDLI
 40
1.2581889764
  9
$DIMEXE
 40
0.595984252
  9
$DIMCEN
 40
0.297992126
  9
$DIMLFAC
 40
1.0
  9
$DIMBLK
  1
_CLOSED
  9
$DIMTXT
 40
0.15625
  9
$DIMTOL
 70
0
  9
$DIMLIM
 70
0
  9
$DIMTFAC
 40
1.0
  9
$PDMODE
 70
3
  9
$PDSIZE
 40
0.3125
  9
$HANDSEED
  5
4E6
  9
$TILEMODE
 70
1
  9
$MEASUREMENT
 70
0
  9
$INSUNITS
 70
1
  0
ENDSEC
  0
SECTION
  2
CLASSES
  0
CLASS
  1
ACDBDICTIONARYWDFLT
  2
AcDbDictionaryWithDefault
  3
AutoCAD 2000
 90
0
 91
1
280
0
281
0
  0
CLASS
  1
ACDBPLACEHOLDER
  2
AcDbPlaceHolder
  3
AutoCAD 2000
 90
0
 91
1
280
0
281
0
  0
CLASS
  1
LAYOUT
  2
AcDbLayout
  3
AutoCAD 2000
 90
0
 91
0
280
0
281
0
  0
ENDSEC
  0
SECTION
  2
TABLES
  0
TABLE
  2
VPORT
  5
8
100
AcDbSymbolTable
 70
2
  0
VPORT
  5
1F4
100
AcDbSymbolTableRecord
100
AcDbViewportTableRecord
  2
*ACTIVE
 70
0
 10
0.0
 20
0.0
 11
1.0
 21
1.0
 12
16.5551181102
 22
11.6929133858
 13
0.0
 23
0.0
 14
1.0
 24
1.0
 15
0.0
 25
0.0
 16
0.0
 26
0.0
 36
1.0
 17
0.0
 27
0.0
 37
0.0
 40
23.3858267717
 41
1.4158249158
 42
50.0
 43
0.0
 44
0.0
 50
0.0
 51
0.0
 71
0
 72
100
 73
1
 74
1
 75
0
 76
0
 77
0
 78
0
  0
ENDTAB
  0
TABLE
  2
LTYPE
  5
5
100
AcDbSymbolTable
 70
6
  0
LTYPE
  5
14
100
AcDbSymbolTableRecord
100
AcDbLinetypeTableRecord
  2
BYBLOCK
 70
0
  3

 72
65
 73
0
 40
0.0
  0
LTYPE
  5
15
100
AcDbSymbolTableRecord
100
AcDbLinetypeTableRecord
  2
BYLAYER
 70
0
  3

 72
65
 73
0
 40
0.0
  0
LTYPE
  5
16
100
AcDbSymbolTableRecord
100
AcDbLinetypeTableRecord
  2
CONTINUOUS
 70
64
  3
Solid line
 72
65
 73
0
 40
0.0
  0
LTYPE
  5
1F5
100
AcDbSymbolTableRecord
100
AcDbLinetypeTableRecord
  2
CENTER
 70
64
  3
____ _ ____ _ ____ _ ____ _ ____ _ ____ _ ____
 72
65
 73
4
 40
0.6
 49
0.375
 74
0
 49
-0.075
 74
0
 49
0.075
 74
0
 49
-0.075
 74
0
  0
LTYPE
  5
1F6
100
AcDbSymbolTableRecord
100
AcDbLinetypeTableRecord
  2
HIDDEN
 70
64
  3
- - - - - - - - - - - - - - - - - - - -
 72
65
 73
2
 40
0.2
 49
0.1
 74
0
 49
-0.1
 74
0
  0
LTYPE
  5
1F7
100
AcDbSymbolTableRecord
100
AcDbLinetypeTableRecord
  2
PHANTOM
 70
64
  3
_____ _ _ _____ _ _ _____ _ _ _____
 72
65
 73
6
 40
0.8
 49
0.45
 74
0
 49
-0.05
 74
0
 49
0.1
 74
0
 49
-0.05
 74
0
 49
0.1
 74
0
 49
-0.05
 74
0
  0
LTYPE
  5
1F8
100
AcDbSymbolTableRecord
100
AcDbLinetypeTableRecord
  2
DOT
 70
64
  3
. . . . . . . . . . . . . . . . . . . .
 72
65
 73
2
 40
0.2
 49
0.1
 74
0
 49
-0.1
 74
0
  0
LTYPE
  5
1F9
100
AcDbSymbolTableRecord
100
AcDbLinetypeTableRecord
  2
DASHED
 70
64
  3
- - - - - - - - - - - - - - - - - - - -
 72
65
 73
2
 40
0.2
 49
0.1
 74
0
 49
-0.1
 74
0
  0
ENDTAB
  0
TABLE
  2
LAYER
  5
2
100
AcDbSymbolTable
 70
36
  0
LAYER
  5
10
100
AcDbSymbolTableRecord
100
AcDbLayerTableRecord
  2
0
 70
0
 62
7
  6
CONTINUOUS
370
-3
390
F
  0
LAYER
  5
1FA
100
AcDbSymbolTableRecord
100
AcDbLayerTableRecord
  2
DEFAULT_1
 70
0
 62
7
  6
CENTER
370
-3
390
F
  0
LAYER
  5
1FB
100
AcDbSymbolTableRecord
100
AcDbLayerTableRecord
  2
DEFAULT_2
 70
0
 62
8
  6
HIDDEN
370
-3
390
F
  0
LAYER
  5
1FC
100
AcDbSymbolTableRecord
100
AcDbLayerTableRecord
  2
DEFAULT_3
 70
0
 62
7
  6
PHANTOM
370
-3
390
F
  0
LAYER
  5
1FD
100
AcDbSymbolTableRecord
100
AcDbLayerTableRecord
  2
DEFAULT_COORDINATE_SYSTEM
 70
0
 62
7
  6
CONTINUOUS
370
-3
390
F
  0
LAYER
  5
1FE
100
AcDbSymbolTableRecord
100
AcDbLayerTableRecord
  2
DEFAULT_DATUM_AXES
 70
0
 62
7
  6
CONTINUOUS
370
-3
390
F
  0
LAYER
  5
1FF
100
AcDbSymbolTableRecord
100
AcDbLayerTableRecord
  2
DEFAULT_DATUM_CURVES
 70
0
 62
7
  6
CONTINUOUS
370
-3
390
F
  0
LAYER
  5
200
100
AcDbSymbolTableRecord
100
AcDbLayerTableRecord
  2
DEFAULT_DATUM_PLANES
 70
0
 62
7
  6
CONTINUOUS
370
-3
390
F
  0
ENDTAB
  0
TABLE
  2
STYLE
  5
3
100
AcDbSymbolTable
 70
1
  0
STYLE
  5
11
100
AcDbSymbolTableRecord
100
AcDbTextStyleTableRecord
  2
STANDARD
 70
0
 40
0.0
 41
0.8
 50
0.0
 71
0
 42
0.2
  3
txt
  4

  0
STYLE
  5
201
100
AcDbSymbolTableRecord
100
AcDbTextStyleTableRecord
  2
TEXTSTYLE_1
 70
0
 40
0.0
 41
0.8
 50
0.0
 71
0
 42
0.2
  3
gdt
  4

  0
ENDTAB
  0
TABLE
  2
VIEW
  5
6
100
AcDbSymbolTable
 70
0
  0
ENDTAB
  0
TABLE
  2
UCS
  5
7
100
AcDbSymbolTable
 70
0
  0
ENDTAB
  0
TABLE
  2
APPID
  5
9
100
AcDbSymbolTable
 70
1
  0
APPID
  5
202
100
AcDbSymbolTableRecord
100
AcDbRegAppTableRecord
  2
ACAD
 70
0
  0
ENDTAB
  0
TABLE
  2
BLOCK_RECORD
  5
1
100
AcDbSymbolTable
 70
0
  0
BLOCK_RECORD
  5
203
100
AcDbSymbolTableRecord
100
AcDbBlockTableRecord
  2
*Model_Space
  0
BLOCK_RECORD
  5
204
100
AcDbSymbolTableRecord
100
AcDbBlockTableRecord
  2
*Paper_Space
  0
ENDTAB
  0
TABLE
  2
DIMSTYLE
  5
A
100
AcDbSymbolTable
 70
1
100
AcDbDimStyleTable
 71
0
  0
DIMSTYLE
105
205
100
AcDbSymbolTableRecord
100
AcDbDimStyleTableRecord
  2
STANDARD
 70
0
  3

  4

 40
1.0
 41
0.1875
 42
0.0625
 43
0.38
 44
0.18
 45
0.0
 46
0.0
 47
0.001
 48
0.001
140
0.15625
141
0.09
142
0.0
143
25.4
144
1.0
145
0.0
146
1.0
147
0.09
 71
0.0
 72
0.0
 73
1
 74
1
 75
0
 76
0
 77
0
 78
4
170
0
171
2
172
0
173
0
174
0
175
0
176
0
177
0
178
0
270
2
271
3
272
3
273
2
274
2
275
0
280
0
281
0
282
0
283
1
284
4
285
0
286
0
287
3
288
0
340
11
  0
ENDTAB
  0
ENDSEC
  0
SECTION
  2
BLOCKS
  0
BLOCK
  5
20
100
AcDbEntity
  8
0
100
AcDbBlockBegin
  2
*Model_Space
 70
0
 10
0.0
 20
0.0
 30
0.0
  3
*Model_Space
  1

  0
ENDBLK
  5
21
100
AcDbEntity
  8
0
100
AcDbBlockEnd
  0
BLOCK
  5
1C
100
AcDbEntity
  8
0
100
AcDbBlockBegin
  2
*Paper_Space
 70
0
 10
0.0
 20
0.0
 30
0.0
  3
*Paper_Space
  1

  0
ENDBLK
  5
1D
100
AcDbEntity
  8
0
100
AcDbBlockEnd
  0
ENDSEC
  0
SECTION
  2
ENTITIES
  0
LINE
  5
206
100
AcDbEntity
  8
0
100
AcDbLine
 62
7
  6
CONTINUOUS
 10
4.3024210568
 20
10.0476004648
 11
4.3002036733
 21
10.06869746
  0
LINE
  5
207
100
AcDbEntity
  8
0
100
AcDbLine
 62
7
  6
CONTINUOUS
 10
4.1176523986
 20
11.8055568189
 11
4.1154350151
 21
11.8266538142
  0
LINE
  5
208
100
AcDbEntity
  8
0
100
AcDbLine
 62
6
  6
CONTINUOUS
 10
4.2686636203
 20
10.0752428424
 11
4.267183862
 21
10.0964043715
  0
LINE
  5
209
100
AcDbEntity
  8
0
100
AcDbLine
 62
6
  6
CONTINUOUS
 10
4.1453593101
 20
11.8385766302
 11
4.1438795518
 21
11.8597381593
  0
LINE
  5
20A
100
AcDbEntity
  8
0
100
AcDbLine
 62
7
  6
CONTINUOUS
 10
4.2358914529
 20
10.1040464986
 11
4.2351511227
 21
10.1252467795
  0
LINE
  5
20B
100
AcDbEntity
  8
0
100
AcDbLine
 62
7
  6
CONTINUOUS
 10
4.1742017181
 20
11.8706093694
 11
4.1734613879
 21
11.8918096503
  0
LINE
  5
20C
100
AcDbEntity
  8
0
100
AcDbLine
 62
6
  6
CONTINUOUS
 10
4.2041444825
 20
10.1339763405
 11
4.2041444825
 21
10.1551895439
  0
LINE
  5
20D
100
AcDbEntity
  8
0
100
AcDbLine
 62
6
  6
CONTINUOUS
 10
4.2041444825
 20
11.9016160097
 11
4.2041444825
 21
11.9228292131
  0
LINE
  5
20E
100
AcDbEntity
  8
0
100
AcDbLine
 62
7
  6
CONTINUOUS
 10
4.1734613879
 20
10.1649959033
 11
4.1742017181
 21
10.1861961842
  0
LINE
  5
20F
100
AcDbEntity
  8
0
100
AcDbLine
 62
7
  6
CONTINUOUS
 10
4.2351511227
 20
11.9315587741
 11
4.2358914529
 21
11.952759055
  0
LINE
  5
210
100
AcDbEntity
  8
0
100
AcDbLine
 62
6
  6
CONTINUOUS
 10
4.1438795518
 20
10.1970673943
 11
4.1453593101
 21
10.2182289234
  0
LINE
  5
211
100
AcDbEntity
  8
0
100
AcDbLine
 62
6
  6
CONTINUOUS
 10
4.267183862
 20
11.9604011821
 11
4.2686636203
 21
11.9815627112
  0
LINE
  5
212
100
AcDbEntity
  8
0
100
AcDbLine
 62
7
  6
CONTINUOUS
 10
4.1154350151
 20
10.2301517394
 11
4.1176523986
 21
10.2512487347
  0
LINE
  5
213
100
AcDbEntity
  8
0
100
AcDbLine
 62
7
  6
CONTINUOUS
 10
4.3002036733
 20
11.9881080935
 11
4.3024210568
 21
12.0092050888
  0
LINE
  5
214
100
AcDbEntity
  8
0
100
AcDbLine
 62
6
  6
CONTINUOUS
 10
4.0881624329
 20
10.2642086305
 11
4.0911147402
 21
10.2852153885
  0
LINE
  5
215
100
AcDbEntity
  8
0
100
AcDbLine
 62
6
  6
CONTINUOUS
 10
4.3341703271
 20
12.0146457519
 11
4.3371226344
 21
12.0356525099
  0
LINE
  5
216
100
AcDbEntity
  8
0
100
AcDbLine
 62
7
  6
CONTINUOUS
 10
4.0620950329
 20
10.2991965744
 11
4.065778667
 21
10.3200875016
  0
LINE
  5
217
100
AcDbEntity
  8
0
100
AcDbLine
 62
7
  6
CONTINUOUS
 10
4.3690424402
 20
12.0399818251
 11
4.3727260743
 21
12.0608727524
  0
LINE
  5
218
100
AcDbEntity
  8
0
100
AcDbLine
 62
6
  6
CONTINUOUS
 10
4.037264574
 20
10.3350729438
 11
4.041675047
 21
10.3558225878
  0
LINE
  5
219
100
AcDbEntity
  8
0
100
AcDbLine
 62
6
  6
CONTINUOUS
 10
4.4047775264
 20
12.0640854451
 11
4.4091879994
 21
12.0848350892
  0
LINE
  5
21A
100
AcDbEntity
  8
0
100
AcDbLine
 62
6
  6
CONTINUOUS
 10
4.0137013084
 20
10.3717940287
 11
4.0188332468
 21
10.3923771094
  0
LINE
  5
21B
100
AcDbEntity
  8
0
100
AcDbLine
 62
6
  6
CONTINUOUS
 10
4.4413320479
 20
12.0869272453
 11
4.4464639863
 21
12.107510326
  0
LINE
  5
21C
100
AcDbEntity
  8
0
100
AcDbLine
 62
7
  6
CONTINUOUS
 10
3.9914339443
 20
10.4093150903
 11
3.9972810956
 21
10.4297065302
  0
LINE
  5
21D
100
AcDbEntity
  8
0
100
AcDbLine
 62
7
  6
CONTINUOUS
 10
4.4786614688
 20
12.1084793965
 11
4.4845086201
 21
12.1288708364
  0
LINE
  5
21E
100
AcDbEntity
  8
0
100
AcDbLine
 62
7
  6
CONTINUOUS
 10
4.4845086201
 20
9.9279347172
 11
4.4786614688
 21
9.9483261571
  0
LINE
  5
21F
100
AcDbEntity
  8
0
100
AcDbLine
 62
7
  6
CONTINUOUS
 10
3.9972810956
 20
11.6270990234
 11
3.9914339443
 21
11.6474904633
  0
LINE
  5
220
100
AcDbEntity
  8
0
100
AcDbLine
 62
6
  6
CONTINUOUS
 10
4.4464639863
 20
9.9492952276
 11
4.4413320479
 21
9.9698783083
  0
LINE
  5
221
100
AcDbEntity
  8
0
100
AcDbLine
 62
6
  6
CONTINUOUS
 10
4.0188332468
 20
11.6644284442
 11
4.0137013084
 21
11.6850115248
  0
LINE
  5
222
100
AcDbEntity
  8
0
100
AcDbLine
 62
6
  6
CONTINUOUS
 10
4.4091879994
 20
9.9719704644
 11
4.4047775264
 21
9.9927201084
  0
LINE
  5
223
100
AcDbEntity
  8
0
100
AcDbLine
 62
6
  6
CONTINUOUS
 10
4.041675047
 20
11.7009829658
 11
4.037264574
 21
11.7217326098
  0
LINE
  5
224
100
AcDbEntity
  8
0
100
AcDbLine
 62
7
  6
CONTINUOUS
 10
4.3727260743
 20
9.9959328012
 11
4.3690424402
 21
10.0168237284
  0
LINE
  5
225
100
AcDbEntity
  8
0
100
AcDbLine
 62
7
  6
CONTINUOUS
 10
4.065778667
 20
11.7367180519
 11
4.0620950329
 21
11.7576089792
  0
LINE
  5
226
100
AcDbEntity
  8
0
100
AcDbLine
 62
6
  6
CONTINUOUS
 10
4.3371226344
 20
10.0211530437
 11
4.3341703271
 21
10.0421598017
  0
LINE
  5
227
100
AcDbEntity
  8
0
100
AcDbLine
 62
6
  6
CONTINUOUS
 10
4.0911147402
 20
11.7715901651
 11
4.0881624329
 21
11.7925969231
  0
LINE
  5
228
100
AcDbEntity
  8
0
100
AcDbLine
 62
6
  6
CONTINUOUS
 10
3.9704896111
 20
10.4475904149
 11
3.9770448515
 21
10.4677653702
  0
LINE
  5
229
100
AcDbEntity
  8
0
100
AcDbLine
 62
7
  6
CONTINUOUS
 10
4.5167203088
 20
12.1287156407
 11
4.5232755492
 21
12.148890596
  0
LINE
  5
22A
100
AcDbEntity
  8
0
100
AcDbLine
 62
6
  6
CONTINUOUS
 10
3.9508938261
 20
10.4865733698
 11
3.958149169
 21
10.5065072606
  0
LINE
  5
22B
100
AcDbEntity
  8
0
100
AcDbLine
 62
7
  6
CONTINUOUS
 10
4.5554621991
 20
12.1476113231
 11
4.562717542
 21
12.1675452139
  0
LINE
  5
22C
100
AcDbEntity
  8
0
100
AcDbLine
 62
7
  6
CONTINUOUS
 10
3.9326704639
 20
10.5262164604
 11
3.9406170698
 21
10.5458850002
  0
LINE
  5
22D
100
AcDbEntity
  8
0
100
AcDbLine
 62
7
  6
CONTINUOUS
 10
4.5948399387
 20
12.1651434224
 11
4.6027865446
 21
12.1848119621
  0
LINE
  5
22E
100
AcDbEntity
  8
0
100
AcDbLine
 62
6
  6
CONTINUOUS
 10
3.9158417267
 20
10.5664713877
 11
3.9244699139
 21
10.5858506134
  0
LINE
  5
22F
100
AcDbEntity
  8
0
100
AcDbLine
 62
7
  6
CONTINUOUS
 10
4.6348055519
 20
12.1812905783
 11
4.6434337391
 21
12.2006698039
  0
LINE
  5
230
100
AcDbEntity
  8
0
100
AcDbLine
 62
6
  6
CONTINUOUS
 10
3.9004281179
 20
10.6072891073
 11
3.9097273742
 21
10.6263554082
  0
LINE
  5
231
100
AcDbEntity
  8
0
100
AcDbLine
 62
7
  6
CONTINUOUS
 10
4.6753103468
 20
12.1960331179
 11
4.6846096031
 21
12.2150994189
  0
LINE
  5
232
100
AcDbEntity
  8
0
100
AcDbLine
 62
6
  6
CONTINUOUS
 10
3.8864484165
 20
10.6486198889
 11
3.8964074123
 21
10.6673500359
  0
LINE
  5
233
100
AcDbEntity
  8
0
100
AcDbLine
 62
6
  6
CONTINUOUS
 10
4.7163049744
 20
12.2093530799
 11
4.7262639702
 21
12.2280832268
  0
LINE
  5
234
100
AcDbEntity
  8
0
100
AcDbLine
 62
6
  6
CONTINUOUS
 10
4.7262639702
 20
9.8287223268
 11
4.7163049744
 21
9.8474524737
  0
LINE
  5
235
100
AcDbEntity
  8
0
100
AcDbLine
 62
6
  6
CONTINUOUS
 10
3.8964074123
 20
11.3894555177
 11
3.8864484165
 21
11.4081856646
  0
LINE
  5
236
100
AcDbEntity
  8
0
100
AcDbLine
 62
7
  6
CONTINUOUS
 10
4.6846096031
 20
9.8417061347
 11
4.6753103468
 21
9.8607724357
  0
LINE
  5
237
100
AcDbEntity
  8
0
100
AcDbLine
 62
6
  6
CONTINUOUS
 10
3.9097273742
 20
11.4304501454
 11
3.9004281179
 21
11.4495164463
  0
LINE
  5
238
100
AcDbEntity
  8
0
100
AcDbLine
 62
7
  6
CONTINUOUS
 10
4.6434337391
 20
9.8561357497
 11
4.6348055519
 21
9.8755149753
  0
LINE
  5
239
100
AcDbEntity
  8
0
100
AcDbLine
 62
6
  6
CONTINUOUS
 10
3.9244699139
 20
11.4709549402
 11
3.9158417267
 21
11.4903341658
  0
LINE
  5
23A
100
AcDbEntity
  8
0
100
AcDbLine
 62
7
  6
CONTINUOUS
 10
4.6027865446
 20
9.8719935915
 11
4.5948399387
 21
9.8916621312
  0
LINE
  5
23B
100
AcDbEntity
  8
0
100
AcDbLine
 62
7
  6
CONTINUOUS
 10
3.9406170698
 20
11.5109205534
 11
3.9326704639
 21
11.5305890931
  0
LINE
  5
23C
100
AcDbEntity
  8
0
100
AcDbLine
 62
7
  6
CONTINUOUS
 10
4.562717542
 20
9.8892603397
 11
4.5554621991
 21
9.9091942304
  0
LINE
  5
23D
100
AcDbEntity
  8
0
100
AcDbLine
 62
6
  6
CONTINUOUS
 10
3.958149169
 20
11.550298293
 11
3.9508938261
 21
11.5702321838
  0
LINE
  5
23E
100
AcDbEntity
  8
0
100
AcDbLine
 62
7
  6
CONTINUOUS
 10
4.5232755492
 20
9.9079149575
 11
4.5167203088
 21
9.9280899129
  0
LINE
  5
23F
100
AcDbEntity
  8
0
100
AcDbLine
 62
6
  6
CONTINUOUS
 10
3.9770448515
 20
11.5890401834
 11
3.9704896111
 21
11.6092151387
  0
LINE
  5
240
100
AcDbEntity
  8
0
100
AcDbLine
 62
7
  6
CONTINUOUS
 10
5.8522943739
 20
12.0092050888
 11
5.8545117574
 21
11.9881080935
  0
LINE
  5
241
100
AcDbEntity
  8
0
100
AcDbLine
 62
7
  6
CONTINUOUS
 10
6.0370630321
 20
10.2512487347
 11
6.0392804157
 21
10.2301517394
  0
LINE
  5
242
100
AcDbEntity
  8
0
100
AcDbLine
 62
7
  6
CONTINUOUS
 10
5.8860518105
 20
11.9815627112
 11
5.8875315687
 21
11.9604011821
  0
LINE
  5
243
100
AcDbEntity
  8
0
100
AcDbLine
 62
6
  6
CONTINUOUS
 10
6.0093561206
 20
10.2182289234
 11
6.0108358789
 21
10.1970673943
  0
LINE
  5
244
100
AcDbEntity
  8
0
100
AcDbLine
 62
7
  6
CONTINUOUS
 10
5.9188239778
 20
11.952759055
 11
5.919564308
 21
11.9315587741
  0
LINE
  5
245
100
AcDbEntity
  8
0
100
AcDbLine
 62
7
  6
CONTINUOUS
 10
5.9805137127
 20
10.1861961842
 11
5.9812540428
 21
10.1649959033
  0
LINE
  5
246
100
AcDbEntity
  8
0
100
AcDbLine
 62
6
  6
CONTINUOUS
 10
5.9505709482
 20
11.9228292131
 11
5.9505709482
 21
11.9016160097
  0
LINE
  5
247
100
AcDbEntity
  8
0
100
AcDbLine
 62
6
  6
CONTINUOUS
 10
5.9505709482
 20
10.1551895439
 11
5.9505709482
 21
10.1339763405
  0
LINE
  5
248
100
AcDbEntity
  8
0
100
AcDbLine
 62
7
  6
CONTINUOUS
 10
5.9812540428
 20
11.8918096503
 11
5.9805137127
 21
11.8706093694
  0
LINE
  5
249
100
AcDbEntity
  8
0
100
AcDbLine
 62
7
  6
CONTINUOUS
 10
5.919564308
 20
10.1252467795
 11
5.9188239778
 21
10.1040464986
  0
LINE
  5
24A
100
AcDbEntity
  8
0
100
AcDbLine
 62
6
  6
CONTINUOUS
 10
6.0108358789
 20
11.8597381593
 11
6.0093561206
 21
11.8385766302
  0
LINE
  5
24B
100
AcDbEntity
  8
0
100
AcDbLine
 62
7
  6
CONTINUOUS
 10
5.8875315687
 20
10.0964043715
 11
5.8860518105
 21
10.0752428424
  0
LINE
  5
24C
100
AcDbEntity
  8
0
100
AcDbLine
 62
7
  6
CONTINUOUS
 10
6.0392804157
 20
11.8266538142
 11
6.0370630321
 21
11.8055568189
  0
LINE
  5
24D
100
AcDbEntity
  8
0
100
AcDbLine
 62
7
  6
CONTINUOUS
 10
5.8545117574
 20
10.06869746
 11
5.8522943739
 21
10.0476004648
  0
LINE
  5
24E
100
AcDbEntity
  8
0
100
AcDbLine
 62
7
  6
CONTINUOUS
 10
6.0665529978
 20
11.7925969231
 11
6.0636006905
 21
11.7715901651
  0
LINE
  5
24F
100
AcDbEntity
  8
0
100
AcDbLine
 62
7
  6
CONTINUOUS
 10
5.8205451036
 20
10.0421598017
 11
5.8175927963
 21
10.0211530437
  0
LINE
  5
250
100
AcDbEntity
  8
0
100
AcDbLine
 62
6
  6
CONTINUOUS
 10
6.0926203978
 20
11.7576089792
 11
6.0889367637
 21
11.7367180519
  0
LINE
  5
251
100
AcDbEntity
  8
0
100
AcDbLine
 62
7
  6
CONTINUOUS
 10
5.7856729905
 20
10.0168237284
 11
5.7819893564
 21
9.9959328012
  0
LINE
  5
252
100
AcDbEntity
  8
0
100
AcDbLine
 62
6
  6
CONTINUOUS
 10
6.1174508567
 20
11.7217326098
 11
6.1130403837
 21
11.7009829658
  0
LINE
  5
253
100
AcDbEntity
  8
0
100
AcDbLine
 62
7
  6
CONTINUOUS
 10
5.7499379043
 20
9.9927201084
 11
5.7455274313
 21
9.9719704644
  0
LINE
  5
254
100
AcDbEntity
  8
0
100
AcDbLine
 62
6
  6
CONTINUOUS
 10
6.1410141223
 20
11.6850115248
 11
6.1358821839
 21
11.6644284442
  0
LINE
  5
255
100
AcDbEntity
  8
0
100
AcDbLine
 62
7
  6
CONTINUOUS
 10
5.7133833828
 20
9.9698783083
 11
5.7082514444
 21
9.9492952276
  0
LINE
  5
256
100
AcDbEntity
  8
0
100
AcDbLine
 62
7
  6
CONTINUOUS
 10
5.6760539619
 20
9.9483261571
 11
5.6702068106
 21
9.9279347172
  0
LINE
  5
257
100
AcDbEntity
  8
0
100
AcDbLine
 62
7
  6
CONTINUOUS
 10
5.6379951219
 20
9.9280899129
 11
5.6314398816
 21
9.9079149575
  0
LINE
  5
258
100
AcDbEntity
  8
0
100
AcDbLine
 62
6
  6
CONTINUOUS
 10
3.8739196546
 20
10.6904133776
 11
3.8845262563
 21
10.7087845506
  0
LINE
  5
259
100
AcDbEntity
  8
0
100
AcDbLine
 62
7
  6
CONTINUOUS
 10
4.7577394892
 20
12.2212342358
 11
4.7683460909
 21
12.2396054089
  0
LINE
  5
25A
100
AcDbEntity
  8
0
100
AcDbLine
 62
7
  6
CONTINUOUS
 10
3.8628570967
 20
10.7326186542
 11
3.8740983818
 21
10.750608471
  0
LINE
  5
25B
100
AcDbEntity
  8
0
100
AcDbLine
 62
6
  6
CONTINUOUS
 10
4.7995634096
 20
12.2316621103
 11
4.8108046947
 21
12.2496519271
  0
LINE
  5
25C
100
AcDbEntity
  8
0
100
AcDbLine
 62
6
  6
CONTINUOUS
 10
3.8532742206
 20
10.7751842982
 11
3.8651364934
 21
10.7927708409
  0
LINE
  5
25D
100
AcDbEntity
  8
0
100
AcDbLine
 62
6
  6
CONTINUOUS
 10
4.8417257795
 20
12.2406239987
 11
4.8535880523
 21
12.2582105414
  0
LINE
  5
25E
100
AcDbEntity
  8
0
100
AcDbLine
 62
6
  6
CONTINUOUS
 10
3.8451827017
 20
10.81805845
 11
3.8576515099
 21
10.8352202921
  0
LINE
  5
25F
100
AcDbEntity
  8
0
100
AcDbLine
 62
7
  6
CONTINUOUS
 10
4.8841752306
 20
12.2481089823
 11
4.8966440388
 21
12.2652708244
  0
LINE
  5
260
100
AcDbEntity
  8
0
100
AcDbLine
 62
7
  6
CONTINUOUS
 10
4.8966440388
 20
9.7915347292
 11
4.8841752306
 21
9.8086965713
  0
LINE
  5
261
100
AcDbEntity
  8
0
100
AcDbLine
 62
6
  6
CONTINUOUS
 10
3.8576515099
 20
11.2215852615
 11
3.8451827017
 21
11.2387471036
  0
LINE
  5
262
100
AcDbEntity
  8
0
100
AcDbLine
 62
6
  6
CONTINUOUS
 10
4.8535880523
 20
9.7985950122
 11
4.8417257795
 21
9.8161815549
  0
LINE
  5
263
100
AcDbEntity
  8
0
100
AcDbLine
 62
6
  6
CONTINUOUS
 10
3.8651364934
 20
11.2640347127
 11
3.8532742206
 21
11.2816212553
  0
LINE
  5
264
100
AcDbEntity
  8
0
100
AcDbLine
 62
6
  6
CONTINUOUS
 10
4.8108046947
 20
9.8071536265
 11
4.7995634096
 21
9.8251434432
  0
LINE
  5
265
100
AcDbEntity
  8
0
100
AcDbLine
 62
7
  6
CONTINUOUS
 10
3.8740983818
 20
11.3061970826
 11
3.8628570967
 21
11.3241868994
  0
LINE
  5
266
100
AcDbEntity
  8
0
100
AcDbLine
 62
7
  6
CONTINUOUS
 10
4.7683460909
 20
9.8172001447
 11
4.7577394892
 21
9.8355713178
  0
LINE
  5
267
100
AcDbEntity
  8
0
100
AcDbLine
 62
6
  6
CONTINUOUS
 10
3.8845262563
 20
11.3480210029
 11
3.8739196546
 21
11.366392176
  0
LINE
  5
268
100
AcDbEntity
  8
0
100
AcDbLine
 62
7
  6
CONTINUOUS
 10
5.6314398816
 20
12.148890596
 11
5.6379951219
 21
12.1287156407
  0
LINE
  5
269
100
AcDbEntity
  8
0
100
AcDbLine
 62
7
  6
CONTINUOUS
 10
5.6702068106
 20
12.1288708364
 11
5.6760539619
 21
12.1084793965
  0
LINE
  5
26A
100
AcDbEntity
  8
0
100
AcDbLine
 62
7
  6
CONTINUOUS
 10
5.7082514444
 20
12.107510326
 11
5.7133833828
 21
12.0869272453
  0
LINE
  5
26B
100
AcDbEntity
  8
0
100
AcDbLine
 62
6
  6
CONTINUOUS
 10
6.1358821839
 20
10.3923771094
 11
6.1410141223
 21
10.3717940287
  0
LINE
  5
26C
100
AcDbEntity
  8
0
100
AcDbLine
 62
7
  6
CONTINUOUS
 10
5.7455274313
 20
12.0848350892
 11
5.7499379043
 21
12.0640854451
  0
LINE
  5
26D
100
AcDbEntity
  8
0
100
AcDbLine
 62
6
  6
CONTINUOUS
 10
6.1130403837
 20
10.3558225878
 11
6.1174508567
 21
10.3350729438
  0
LINE
  5
26E
100
AcDbEntity
  8
0
100
AcDbLine
 62
7
  6
CONTINUOUS
 10
5.7819893564
 20
12.0608727524
 11
5.7856729905
 21
12.0399818251
  0
LINE
  5
26F
100
AcDbEntity
  8
0
100
AcDbLine
 62
6
  6
CONTINUOUS
 10
6.0889367637
 20
10.3200875016
 11
6.0926203978
 21
10.2991965744
  0
LINE
  5
270
100
AcDbEntity
  8
0
100
AcDbLine
 62
7
  6
CONTINUOUS
 10
5.8175927963
 20
12.0356525099
 11
5.8205451036
 21
12.0146457519
  0
LINE
  5
271
100
AcDbEntity
  8
0
100
AcDbLine
 62
7
  6
CONTINUOUS
 10
6.0636006905
 20
10.2852153885
 11
6.0665529978
 21
10.2642086305
  0
LINE
  5
272
100
AcDbEntity
  8
0
100
AcDbLine
 62
9
  6
CONTINUOUS
 10
6.8273577154
 20
11.6534027768
 11
6.8273577154
 21
10.4034027768
  0
LINE
  5
273
100
AcDbEntity
  8
0
100
AcDbLine
 62
7
  6
CONTINUOUS
 10
5.5992532316
 20
9.9091942304
 11
5.5919978887
 21
9.8892603397
  0
LINE
  5
274
100
AcDbEntity
  8
0
100
AcDbLine
 62
7
  6
CONTINUOUS
 10
5.559875492
 20
9.8916621312
 11
5.5519288861
 21
9.8719935915
  0
LINE
  5
275
100
AcDbEntity
  8
0
100
AcDbLine
 62
7
  6
CONTINUOUS
 10
5.5199098788
 20
9.8755149753
 11
5.5112816916
 21
9.8561357497
  0
LINE
  5
276
100
AcDbEntity
  8
0
100
AcDbLine
 62
7
  6
CONTINUOUS
 10
5.4794050839
 20
9.8607724357
 11
5.4701058276
 21
9.8417061347
  0
LINE
  5
277
100
AcDbEntity
  8
0
100
AcDbLine
 62
7
  6
CONTINUOUS
 10
5.4384104563
 20
9.8474524737
 11
5.4284514605
 21
9.8287223268
  0
LINE
  5
278
100
AcDbEntity
  8
0
100
AcDbLine
 62
6
  6
CONTINUOUS
 10
3.8385923983
 20
10.8611888739
 11
3.8516525504
 21
10.8779051063
  0
LINE
  5
279
100
AcDbEntity
  8
0
100
AcDbLine
 62
7
  6
CONTINUOUS
 10
4.9268600449
 20
12.2541079417
 11
4.939920197
 21
12.2708241741
  0
LINE
  5
27A
100
AcDbEntity
  8
0
100
AcDbLine
 62
6
  6
CONTINUOUS
 10
3.8335113396
 20
10.9045230222
 11
3.847146924
 21
10.9207732788
  0
LINE
  5
27B
100
AcDbEntity
  8
0
100
AcDbLine
 62
7
  6
CONTINUOUS
 10
4.9697282174
 20
12.2586135682
 11
4.9833638017
 21
12.2748638248
  0
LINE
  5
27C
100
AcDbEntity
  8
0
100
AcDbLine
 62
6
  6
CONTINUOUS
 10
3.8299457162
 20
10.9480080989
 11
3.8441401198
 21
10.9637725812
  0
LINE
  5
27D
100
AcDbEntity
  8
0
100
AcDbLine
 62
6
  6
CONTINUOUS
 10
5.0127275198
 20
12.2616203723
 11
5.0269219235
 21
12.2773848547
  0
LINE
  5
27E
100
AcDbEntity
  8
0
100
AcDbLine
 62
6
  6
CONTINUOUS
 10
5.0269219235
 20
9.7794206989
 11
5.0127275198
 21
9.7951851813
  0
LINE
  5
27F
100
AcDbEntity
  8
0
100
AcDbLine
 62
6
  6
CONTINUOUS
 10
3.8441401198
 20
11.0930329723
 11
3.8299457162
 21
11.1087974547
  0
LINE
  5
280
100
AcDbEntity
  8
0
100
AcDbLine
 62
7
  6
CONTINUOUS
 10
4.9833638017
 20
9.7819417288
 11
4.9697282174
 21
9.7981919854
  0
LINE
  5
281
100
AcDbEntity
  8
0
100
AcDbLine
 62
6
  6
CONTINUOUS
 10
3.847146924
 20
11.1360322748
 11
3.8335113396
 21
11.1522825314
  0
LINE
  5
282
100
AcDbEntity
  8
0
100
AcDbLine
 62
7
  6
CONTINUOUS
 10
4.939920197
 20
9.7859813795
 11
4.9268600449
 21
9.8026976119
  0
LINE
  5
283
100
AcDbEntity
  8
0
100
AcDbLine
 62
6
  6
CONTINUOUS
 10
3.8516525504
 20
11.1789004473
 11
3.8385923983
 21
11.1956166797
  0
LINE
  5
284
100
AcDbEntity
  8
0
100
AcDbLine
 62
7
  6
CONTINUOUS
 10
5.4284514605
 20
12.2280832268
 11
5.4384104563
 21
12.2093530799
  0
LINE
  5
285
100
AcDbEntity
  8
0
100
AcDbLine
 62
7
  6
CONTINUOUS
 10
5.4701058276
 20
12.2150994189
 11
5.4794050839
 21
12.1960331179
  0
LINE
  5
286
100
AcDbEntity
  8
0
100
AcDbLine
 62
7
  6
CONTINUOUS
 10
5.5112816916
 20
12.2006698039
 11
5.5199098788
 21
12.1812905783
  0
LINE
  5
287
100
AcDbEntity
  8
0
100
AcDbLine
 62
7
  6
CONTINUOUS
 10
5.5519288861
 20
12.1848119621
 11
5.559875492
 21
12.1651434224
  0
LINE
  5
288
100
AcDbEntity
  8
0
100
AcDbLine
 62
7
  6
CONTINUOUS
 10
5.5919978887
 20
12.1675452139
 11
5.5992532316
 21
12.1476113231
  0
LINE
  5
289
100
AcDbEntity
  8
0
100
AcDbLine
 62
7
  6
CONTINUOUS
 10
5.3969759415
 20
9.8355713178
 11
5.3863693398
 21
9.8172001447
  0
LINE
  5
28A
100
AcDbEntity
  8
0
100
AcDbLine
 62
7
  6
CONTINUOUS
 10
5.3551520211
 20
9.8251434432
 11
5.343910736
 21
9.8071536265
  0
LINE
  5
28B
100
AcDbEntity
  8
0
100
AcDbLine
 62
6
  6
CONTINUOUS
 10
5.3129896512
 20
9.8161815549
 11
5.3011273784
 21
9.7985950122
  0
LINE
  5
28C
100
AcDbEntity
  8
0
100
AcDbLine
 62
6
  6
CONTINUOUS
 10
5.2705402001
 20
9.8086965713
 11
5.2580713919
 21
9.7915347292
  0
LINE
  5
28D
100
AcDbEntity
  8
0
100
AcDbLine
 62
7
  6
CONTINUOUS
 10
3.827899872
 20
10.9915911241
 11
3.8426358014
 21
11.0068506256
  0
LINE
  5
28E
100
AcDbEntity
  8
0
100
AcDbLine
 62
6
  6
CONTINUOUS
 10
5.0558055642
 20
12.2631246908
 11
5.0705414935
 21
12.2783841923
  0
LINE
  5
28F
100
AcDbEntity
  8
0
100
AcDbLine
 62
6
  6
CONTINUOUS
 10
3.8273762998
 20
11.0352189986
 11
3.8426358014
 21
11.049954928
  0
LINE
  5
290
100
AcDbEntity
  8
0
100
AcDbLine
 62
6
  6
CONTINUOUS
 10
5.0989098665
 20
12.2631246908
 11
5.1141693681
 21
12.2778606201
  0
LINE
  5
291
100
AcDbEntity
  8
0
100
AcDbLine
 62
6
  6
CONTINUOUS
 10
3.8283756375
 20
11.0788385687
 11
3.8441401198
 21
11.0930329723
  0
LINE
  5
292
100
AcDbEntity
  8
0
100
AcDbLine
 62
6
  6
CONTINUOUS
 10
5.1419879109
 20
12.2616203723
 11
5.1577523933
 21
12.275814776
  0
LINE
  5
293
100
AcDbEntity
  8
0
100
AcDbLine
 62
6
  6
CONTINUOUS
 10
5.1577523933
 20
9.7809907776
 11
5.1419879109
 21
9.7951851813
  0
LINE
  5
294
100
AcDbEntity
  8
0
100
AcDbLine
 62
6
  6
CONTINUOUS
 10
3.8441401198
 20
10.9637725812
 11
3.8283756375
 21
10.9779669849
  0
LINE
  5
295
100
AcDbEntity
  8
0
100
AcDbLine
 62
6
  6
CONTINUOUS
 10
5.1141693681
 20
9.7789449335
 11
5.0989098665
 21
9.7936808628
  0
LINE
  5
296
100
AcDbEntity
  8
0
100
AcDbLine
 62
6
  6
CONTINUOUS
 10
3.8426358014
 20
11.0068506256
 11
3.8273762998
 21
11.0215865549
  0
LINE
  5
297
100
AcDbEntity
  8
0
100
AcDbLine
 62
6
  6
CONTINUOUS
 10
5.0705414935
 20
9.7784213613
 11
5.0558055642
 21
9.7936808628
  0
LINE
  5
298
100
AcDbEntity
  8
0
100
AcDbLine
 62
7
  6
CONTINUOUS
 10
3.8426358014
 20
11.049954928
 11
3.827899872
 21
11.0652144295
  0
LINE
  5
299
100
AcDbEntity
  8
0
100
AcDbLine
 62
6
  6
CONTINUOUS
 10
5.2580713919
 20
12.2652708244
 11
5.2705402001
 21
12.2481089823
  0
LINE
  5
29A
100
AcDbEntity
  8
0
100
AcDbLine
 62
6
  6
CONTINUOUS
 10
5.3011273784
 20
12.2582105414
 11
5.3129896512
 21
12.2406239987
  0
LINE
  5
29B
100
AcDbEntity
  8
0
100
AcDbLine
 62
7
  6
CONTINUOUS
 10
5.343910736
 20
12.2496519271
 11
5.3551520211
 21
12.2316621103
  0
LINE
  5
29C
100
AcDbEntity
  8
0
100
AcDbLine
 62
7
  6
CONTINUOUS
 10
5.3863693398
 20
12.2396054089
 11
5.3969759415
 21
12.2212342358
  0
LINE
  5
29D
100
AcDbEntity
  8
0
100
AcDbLine
 62
6
  6
CONTINUOUS
 10
5.2278553858
 20
9.8026976119
 11
5.2147952337
 21
9.7859813795
  0
LINE
  5
29E
100
AcDbEntity
  8
0
100
AcDbLine
 62
6
  6
CONTINUOUS
 10
5.1849872134
 20
9.7981919854
 11
5.171351629
 21
9.7819417288
  0
LINE
  5
29F
100
AcDbEntity
  8
0
100
AcDbLine
 62
7
  6
CONTINUOUS
 10
5.1419879109
 20
9.7951851813
 11
5.1277935072
 21
9.7794206989
  0
LINE
  5
2A0
100
AcDbEntity
  8
0
100
AcDbLine
 62
6
  6
CONTINUOUS
 10
3.8308966674
 20
11.1223966905
 11
3.847146924
 21
11.1360322748
  0
LINE
  5
2A1
100
AcDbEntity
  8
0
100
AcDbLine
 62
7
  6
CONTINUOUS
 10
5.1849872134
 20
12.2586135682
 11
5.20123747
 21
12.2722491525
  0
LINE
  5
2A2
100
AcDbEntity
  8
0
100
AcDbLine
 62
6
  6
CONTINUOUS
 10
3.834936318
 20
11.1658402951
 11
3.8516525504
 21
11.1789004473
  0
LINE
  5
2A3
100
AcDbEntity
  8
0
100
AcDbLine
 62
6
  6
CONTINUOUS
 10
5.2278553858
 20
12.2541079417
 11
5.2445716183
 21
12.2671680938
  0
LINE
  5
2A4
100
AcDbEntity
  8
0
100
AcDbLine
 62
7
  6
CONTINUOUS
 10
3.8404896678
 20
11.2091164534
 11
3.8576515099
 21
11.2215852615
  0
LINE
  5
2A5
100
AcDbEntity
  8
0
100
AcDbLine
 62
6
  6
CONTINUOUS
 10
5.2705402001
 20
12.2481089823
 11
5.2877020422
 21
12.2605777904
  0
LINE
  5
2A6
100
AcDbEntity
  8
0
100
AcDbLine
 62
6
  6
CONTINUOUS
 10
5.2877020422
 20
9.7962277632
 11
5.2705402001
 21
9.8086965713
  0
LINE
  5
2A7
100
AcDbEntity
  8
0
100
AcDbLine
 62
7
  6
CONTINUOUS
 10
3.8576515099
 20
10.8352202921
 11
3.8404896678
 21
10.8476891002
  0
LINE
  5
2A8
100
AcDbEntity
  8
0
100
AcDbLine
 62
6
  6
CONTINUOUS
 10
5.2445716183
 20
9.7896374598
 11
5.2278553858
 21
9.8026976119
  0
LINE
  5
2A9
100
AcDbEntity
  8
0
100
AcDbLine
 62
6
  6
CONTINUOUS
 10
3.8516525504
 20
10.8779051063
 11
3.834936318
 21
10.8909652584
  0
LINE
  5
2AA
100
AcDbEntity
  8
0
100
AcDbLine
 62
7
  6
CONTINUOUS
 10
5.20123747
 20
9.7845564011
 11
5.1849872134
 21
9.7981919854
  0
LINE
  5
2AB
100
AcDbEntity
  8
0
100
AcDbLine
 62
6
  6
CONTINUOUS
 10
3.847146924
 20
10.9207732788
 11
3.8308966674
 21
10.9344088631
  0
LINE
  5
2AC
100
AcDbEntity
  8
0
100
AcDbLine
 62
7
  6
CONTINUOUS
 10
5.1277935072
 20
12.2773848547
 11
5.1419879109
 21
12.2616203723
  0
LINE
  5
2AD
100
AcDbEntity
  8
0
100
AcDbLine
 62
6
  6
CONTINUOUS
 10
5.171351629
 20
12.2748638248
 11
5.1849872134
 21
12.2586135682
  0
LINE
  5
2AE
100
AcDbEntity
  8
0
100
AcDbLine
 62
6
  6
CONTINUOUS
 10
5.2147952337
 20
12.2708241741
 11
5.2278553858
 21
12.2541079417
  0
LINE
  5
2AF
100
AcDbEntity
  8
0
100
AcDbLine
 62
7
  6
CONTINUOUS
 10
5.0989098665
 20
9.7936808628
 11
5.0841739372
 21
9.7784213613
  0
LINE
  5
2B0
100
AcDbEntity
  8
0
100
AcDbLine
 62
6
  6
CONTINUOUS
 10
5.0558055642
 20
9.7936808628
 11
5.0405460627
 21
9.7789449335
  0
LINE
  5
2B1
100
AcDbEntity
  8
0
100
AcDbLine
 62
6
  6
CONTINUOUS
 10
5.0127275198
 20
9.7951851813
 11
4.9969630374
 21
9.7809907776
  0
LINE
  5
2B2
100
AcDbEntity
  8
0
100
AcDbLine
 62
7
  6
CONTINUOUS
 10
3.8475499507
 20
11.2521724398
 11
3.8651364934
 21
11.2640347127
  0
LINE
  5
2B3
100
AcDbEntity
  8
0
100
AcDbLine
 62
6
  6
CONTINUOUS
 10
5.3129896512
 20
12.2406239987
 11
5.3305761939
 21
12.2524862715
  0
LINE
  5
2B4
100
AcDbEntity
  8
0
100
AcDbLine
 62
6
  6
CONTINUOUS
 10
3.856108565
 20
11.2949557974
 11
3.8740983818
 21
11.3061970826
  0
LINE
  5
2B5
100
AcDbEntity
  8
0
100
AcDbLine
 62
6
  6
CONTINUOUS
 10
5.3551520211
 20
12.2316621103
 11
5.3731418379
 21
12.2429033955
  0
LINE
  5
2B6
100
AcDbEntity
  8
0
100
AcDbLine
 62
6
  6
CONTINUOUS
 10
5.3731418379
 20
9.8139021581
 11
5.3551520211
 21
9.8251434432
  0
LINE
  5
2B7
100
AcDbEntity
  8
0
100
AcDbLine
 62
6
  6
CONTINUOUS
 10
3.8740983818
 20
10.750608471
 11
3.856108565
 21
10.7618497562
  0
LINE
  5
2B8
100
AcDbEntity
  8
0
100
AcDbLine
 62
6
  6
CONTINUOUS
 10
5.3305761939
 20
9.804319282
 11
5.3129896512
 21
9.8161815549
  0
LINE
  5
2B9
100
AcDbEntity
  8
0
100
AcDbLine
 62
7
  6
CONTINUOUS
 10
3.8651364934
 20
10.7927708409
 11
3.8475499507
 21
10.8046331137
  0
LINE
  5
2BA
100
AcDbEntity
  8
0
100
AcDbLine
 62
6
  6
CONTINUOUS
 10
4.9969630374
 20
12.275814776
 11
5.0127275198
 21
12.2616203723
  0
LINE
  5
2BB
100
AcDbEntity
  8
0
100
AcDbLine
 62
6
  6
CONTINUOUS
 10
5.0405460627
 20
12.2778606201
 11
5.0558055642
 21
12.2631246908
  0
LINE
  5
2BC
100
AcDbEntity
  8
0
100
AcDbLine
 62
7
  6
CONTINUOUS
 10
5.0841739372
 20
12.2783841923
 11
5.0989098665
 21
12.2631246908
  0
LINE
  5
2BD
100
AcDbEntity
  8
0
100
AcDbLine
 62
6
  6
CONTINUOUS
 10
4.9697282174
 20
9.7981919854
 11
4.9534779607
 21
9.7845564011
  0
LINE
  5
2BE
100
AcDbEntity
  8
0
100
AcDbLine
 62
6
  6
CONTINUOUS
 10
4.9268600449
 20
9.8026976119
 11
4.9101438125
 21
9.7896374598
  0
LINE
  5
2BF
100
AcDbEntity
  8
0
100
AcDbLine
 62
7
  6
CONTINUOUS
 10
4.8841752306
 20
9.8086965713
 11
4.8670133886
 21
9.7962277632
  0
LINE
  5
2C0
100
AcDbEntity
  8
0
100
AcDbLine
 62
7
  6
CONTINUOUS
 10
3.8661550833
 20
11.3374144012
 11
3.8845262563
 21
11.3480210029
  0
LINE
  5
2C1
100
AcDbEntity
  8
0
100
AcDbLine
 62
6
  6
CONTINUOUS
 10
5.3969759415
 20
12.2212342358
 11
5.4153471146
 21
12.2318408375
  0
LINE
  5
2C2
100
AcDbEntity
  8
0
100
AcDbLine
 62
6
  6
CONTINUOUS
 10
3.8776772654
 20
11.379496522
 11
3.8964074123
 21
11.3894555177
  0
LINE
  5
2C3
100
AcDbEntity
  8
0
100
AcDbLine
 62
6
  6
CONTINUOUS
 10
5.4384104563
 20
12.2093530799
 11
5.4571406032
 21
12.2193120756
  0
LINE
  5
2C4
100
AcDbEntity
  8
0
100
AcDbLine
 62
6
  6
CONTINUOUS
 10
3.8906610733
 20
11.421150889
 11
3.9097273742
 21
11.4304501454
  0
LINE
  5
2C5
100
AcDbEntity
  8
0
100
AcDbLine
 62
6
  6
CONTINUOUS
 10
5.4794050839
 20
12.1960331179
 11
5.4984713849
 21
12.2053323742
  0
LINE
  5
2C6
100
AcDbEntity
  8
0
100
AcDbLine
 62
6
  6
CONTINUOUS
 10
5.4984713849
 20
9.8514731793
 11
5.4794050839
 21
9.8607724357
  0
LINE
  5
2C7
100
AcDbEntity
  8
0
100
AcDbLine
 62
6
  6
CONTINUOUS
 10
3.9097273742
 20
10.6263554082
 11
3.8906610733
 21
10.6356546645
  0
LINE
  5
2C8
100
AcDbEntity
  8
0
100
AcDbLine
 62
6
  6
CONTINUOUS
 10
5.4571406032
 20
9.8374934779
 11
5.4384104563
 21
9.8474524737
  0
LINE
  5
2C9
100
AcDbEntity
  8
0
100
AcDbLine
 62
6
  6
CONTINUOUS
 10
3.8964074123
 20
10.6673500359
 11
3.8776772654
 21
10.6773090316
  0
LINE
  5
2CA
100
AcDbEntity
  8
0
100
AcDbLine
 62
6
  6
CONTINUOUS
 10
5.4153471146
 20
9.8249647161
 11
5.3969759415
 21
9.8355713178
  0
LINE
  5
2CB
100
AcDbEntity
  8
0
100
AcDbLine
 62
7
  6
CONTINUOUS
 10
3.8845262563
 20
10.7087845506
 11
3.8661550833
 21
10.7193911524
  0
LINE
  5
2CC
100
AcDbEntity
  8
0
100
AcDbLine
 62
7
  6
CONTINUOUS
 10
4.8670133886
 20
12.2605777904
 11
4.8841752306
 21
12.2481089823
  0
LINE
  5
2CD
100
AcDbEntity
  8
0
100
AcDbLine
 62
6
  6
CONTINUOUS
 10
4.9101438125
 20
12.2671680938
 11
4.9268600449
 21
12.2541079417
  0
LINE
  5
2CE
100
AcDbEntity
  8
0
100
AcDbLine
 62
6
  6
CONTINUOUS
 10
4.9534779607
 20
12.2722491525
 11
4.9697282174
 21
12.2586135682
  0
LINE
  5
2CF
100
AcDbEntity
  8
0
100
AcDbLine
 62
6
  6
CONTINUOUS
 10
4.8417257795
 20
9.8161815549
 11
4.8241392368
 21
9.804319282
  0
LINE
  5
2D0
100
AcDbEntity
  8
0
100
AcDbLine
 62
7
  6
CONTINUOUS
 10
4.7995634096
 20
9.8251434432
 11
4.7815735928
 21
9.8139021581
  0
LINE
  5
2D1
100
AcDbEntity
  8
0
100
AcDbLine
 62
6
  6
CONTINUOUS
 10
3.9050906883
 20
11.462326753
 11
3.9244699139
 21
11.4709549402
  0
LINE
  5
2D2
100
AcDbEntity
  8
0
100
AcDbLine
 62
7
  6
CONTINUOUS
 10
5.5199098788
 20
12.1812905783
 11
5.5392891044
 21
12.1899187654
  0
LINE
  5
2D3
100
AcDbEntity
  8
0
100
AcDbLine
 62
7
  6
CONTINUOUS
 10
3.92094853
 20
11.5029739475
 11
3.9406170698
 21
11.5109205534
  0
LINE
  5
2D4
100
AcDbEntity
  8
0
100
AcDbLine
 62
7
  6
CONTINUOUS
 10
5.559875492
 20
12.1651434224
 11
5.5795440317
 21
12.1730900283
  0
LINE
  5
2D5
100
AcDbEntity
  8
0
100
AcDbLine
 62
7
  6
CONTINUOUS
 10
5.5795440317
 20
9.8837155253
 11
5.559875492
 21
9.8916621312
  0
LINE
  5
2D6
100
AcDbEntity
  8
0
100
AcDbLine
 62
7
  6
CONTINUOUS
 10
3.9406170698
 20
10.5458850002
 11
3.92094853
 21
10.553831606
  0
LINE
  5
2D7
100
AcDbEntity
  8
0
100
AcDbLine
 62
7
  6
CONTINUOUS
 10
5.5392891044
 20
9.8668867882
 11
5.5199098788
 21
9.8755149753
  0
LINE
  5
2D8
100
AcDbEntity
  8
0
100
AcDbLine
 62
6
  6
CONTINUOUS
 10
3.9244699139
 20
10.5858506134
 11
3.9050906883
 21
10.5944788005
  0
LINE
  5
2D9
100
AcDbEntity
  8
0
100
AcDbLine
 62
7
  6
CONTINUOUS
 10
4.7815735928
 20
12.2429033955
 11
4.7995634096
 21
12.2316621103
  0
LINE
  5
2DA
100
AcDbEntity
  8
0
100
AcDbLine
 62
6
  6
CONTINUOUS
 10
4.8241392368
 20
12.2524862715
 11
4.8417257795
 21
12.2406239987
  0
LINE
  5
2DB
100
AcDbEntity
  8
0
100
AcDbLine
 62
6
  6
CONTINUOUS
 10
4.7577394892
 20
9.8355713178
 11
4.7393683161
 21
9.8249647161
  0
LINE
  5
2DC
100
AcDbEntity
  8
0
100
AcDbLine
 62
6
  6
CONTINUOUS
 10
4.7163049744
 20
9.8474524737
 11
4.6975748275
 21
9.8374934779
  0
LINE
  5
2DD
100
AcDbEntity
  8
0
100
AcDbLine
 62
6
  6
CONTINUOUS
 10
4.6753103468
 20
9.8607724357
 11
4.6562440458
 21
9.8514731793
  0
LINE
  5
2DE
100
AcDbEntity
  8
0
100
AcDbLine
 62
7
  6
CONTINUOUS
 10
3.9382152783
 20
11.5430429501
 11
3.958149169
 21
11.550298293
  0
LINE
  5
2DF
100
AcDbEntity
  8
0
100
AcDbLine
 62
6
  6
CONTINUOUS
 10
5.5992532316
 20
12.1476113231
 11
5.6191871223
 21
12.154866666
  0
LINE
  5
2E0
100
AcDbEntity
  8
0
100
AcDbLine
 62
7
  6
CONTINUOUS
 10
3.9568698961
 20
11.582484943
 11
3.9770448515
 21
11.5890401834
  0
LINE
  5
2E1
100
AcDbEntity
  8
0
100
AcDbLine
 62
6
  6
CONTINUOUS
 10
5.6379951219
 20
12.1287156407
 11
5.6581700773
 21
12.1352708811
  0
LINE
  5
2E2
100
AcDbEntity
  8
0
100
AcDbLine
 62
6
  6
CONTINUOUS
 10
5.6581700773
 20
9.9215346725
 11
5.6379951219
 21
9.9280899129
  0
LINE
  5
2E3
100
AcDbEntity
  8
0
100
AcDbLine
 62
7
  6
CONTINUOUS
 10
3.9770448515
 20
10.4677653702
 11
3.9568698961
 21
10.4743206106
  0
LINE
  5
2E4
100
AcDbEntity
  8
0
100
AcDbLine
 62
6
  6
CONTINUOUS
 10
5.6191871223
 20
9.9019388876
 11
5.5992532316
 21
9.9091942304
  0
LINE
  5
2E5
100
AcDbEntity
  8
0
100
AcDbLine
 62
7
  6
CONTINUOUS
 10
3.958149169
 20
10.5065072606
 11
3.9382152783
 21
10.5137626034
  0
LINE
  5
2E6
100
AcDbEntity
  8
0
100
AcDbLine
 62
6
  6
CONTINUOUS
 10
4.6562440458
 20
12.2053323742
 11
4.6753103468
 21
12.1960331179
  0
LINE
  5
2E7
100
AcDbEntity
  8
0
100
AcDbLine
 62
6
  6
CONTINUOUS
 10
4.6975748275
 20
12.2193120756
 11
4.7163049744
 21
12.2093530799
  0
LINE
  5
2E8
100
AcDbEntity
  8
0
100
AcDbLine
 62
6
  6
CONTINUOUS
 10
4.7393683161
 20
12.2318408375
 11
4.7577394892
 21
12.2212342358
  0
LINE
  5
2E9
100
AcDbEntity
  8
0
100
AcDbLine
 62
6
  6
CONTINUOUS
 10
4.6348055519
 20
9.8755149753
 11
4.6154263263
 21
9.8668867882
  0
LINE
  5
2EA
100
AcDbEntity
  8
0
100
AcDbLine
 62
7
  6
CONTINUOUS
 10
4.5948399387
 20
9.8916621312
 11
4.575171399
 21
9.8837155253
  0
LINE
  5
2EB
100
AcDbEntity
  8
0
100
AcDbLine
 62
6
  6
CONTINUOUS
 10
3.9768896557
 20
11.6212518721
 11
3.9972810956
 21
11.6270990234
  0
LINE
  5
2EC
100
AcDbEntity
  8
0
100
AcDbLine
 62
7
  6
CONTINUOUS
 10
5.6760539619
 20
12.1084793965
 11
5.6964454018
 21
12.1143265478
  0
LINE
  5
2ED
100
AcDbEntity
  8
0
100
AcDbLine
 62
6
  6
CONTINUOUS
 10
30.1564652645
 20
10.3975090478
 11
30.1358821839
 21
10.3923771094
  0
LINE
  5
2EE
100
AcDbEntity
  8
0
100
AcDbLine
 62
6
  6
CONTINUOUS
 10
28.4413320479
 20
9.9698783083
 11
28.4207489673
 21
9.9647463699
  0
LINE
  5
2EF
100
AcDbEntity
  8
0
100
AcDbLine
 62
6
  6
CONTINUOUS
 10
5.7339664634
 20
9.9647463699
 11
5.7133833828
 21
9.9698783083
  0
LINE
  5
2F0
100
AcDbEntity
  8
0
100
AcDbLine
 62
6
  6
CONTINUOUS
 10
4.0188332468
 20
10.3923771094
 11
3.9982501662
 21
10.3975090478
  0
LINE
  5
2F1
100
AcDbEntity
  8
0
100
AcDbLine
 62
7
  6
CONTINUOUS
 10
5.6964454018
 20
9.9424790058
 11
5.6760539619
 21
9.9483261571
  0
LINE
  5
2F2
100
AcDbEntity
  8
0
100
AcDbLine
 62
6
  6
CONTINUOUS
 10
3.9972810956
 20
10.4297065302
 11
3.9768896557
 21
10.4355536815
  0
LINE
  5
2F3
100
AcDbEntity
  8
0
100
AcDbLine
 62
7
  6
CONTINUOUS
 10
4.575171399
 20
12.1730900283
 11
4.5948399387
 21
12.1651434224
  0
LINE
  5
2F4
100
AcDbEntity
  8
0
100
AcDbLine
 62
6
  6
CONTINUOUS
 10
4.6154263263
 20
12.1899187654
 11
4.6348055519
 21
12.1812905783
  0
LINE
  5
2F5
100
AcDbEntity
  8
0
100
AcDbLine
 62
6
  6
CONTINUOUS
 10
4.5554621991
 20
9.9091942304
 11
4.5355283084
 21
9.9019388876
  0
LINE
  5
2F6
100
AcDbEntity
  8
0
100
AcDbLine
 62
6
  6
CONTINUOUS
 10
4.5167203088
 20
9.9280899129
 11
4.4965453534
 21
9.9215346725
  0
LINE
  5
2F7
100
AcDbEntity
  8
0
100
AcDbLine
 62
7
  6
CONTINUOUS
 10
30.1337900277
 20
10.3602330608
 11
30.1130403837
 21
10.3558225878
  0
LINE
  5
2F8
100
AcDbEntity
  8
0
100
AcDbLine
 62
6
  6
CONTINUOUS
 10
28.4047775264
 20
9.9927201084
 11
28.3840278823
 21
9.9883096355
  0
LINE
  5
2F9
100
AcDbEntity
  8
0
100
AcDbLine
 62
7
  6
CONTINUOUS
 10
30.1098276909
 20
10.3237711358
 11
30.0889367637
 21
10.3200875016
  0
LINE
  5
2FA
100
AcDbEntity
  8
0
100
AcDbLine
 62
7
  6
CONTINUOUS
 10
28.3690424402
 20
10.0168237284
 11
28.348151513
 21
10.0131400943
  0
LINE
  5
2FB
100
AcDbEntity
  8
0
100
AcDbLine
 62
7
  6
CONTINUOUS
 10
30.0846074485
 20
10.2881676958
 11
30.0636006905
 21
10.2852153885
  0
LINE
  5
2FC
100
AcDbEntity
  8
0
100
AcDbLine
 62
6
  6
CONTINUOUS
 10
28.3341703271
 20
10.0421598017
 11
28.3131635691
 21
10.0392074944
  0
LINE
  5
2FD
100
AcDbEntity
  8
0
100
AcDbLine
 62
6
  6
CONTINUOUS
 10
5.8415518616
 20
10.0392074944
 11
5.8205451036
 21
10.0421598017
  0
LINE
  5
2FE
100
AcDbEntity
  8
0
100
AcDbLine
 62
7
  6
CONTINUOUS
 10
4.0911147402
 20
10.2852153885
 11
4.0701079822
 21
10.2881676958
  0
LINE
  5
2FF
100
AcDbEntity
  8
0
100
AcDbLine
 62
7
  6
CONTINUOUS
 10
5.8065639177
 20
10.0131400943
 11
5.7856729905
 21
10.0168237284
  0
LINE
  5
300
100
AcDbEntity
  8
0
100
AcDbLine
 62
7
  6
CONTINUOUS
 10
4.065778667
 20
10.3200875016
 11
4.0448877398
 21
10.3237711358
  0
LINE
  5
301
100
AcDbEntity
  8
0
100
AcDbLine
 62
6
  6
CONTINUOUS
 10
5.7706875484
 20
9.9883096355
 11
5.7499379043
 21
9.9927201084
  0
LINE
  5
302
100
AcDbEntity
  8
0
100
AcDbLine
 62
7
  6
CONTINUOUS
 10
4.041675047
 20
10.3558225878
 11
4.020925403
 21
10.3602330608
  0
LINE
  5
303
100
AcDbEntity
  8
0
100
AcDbLine
 62
6
  6
CONTINUOUS
 10
4.4965453534
 20
12.1352708811
 11
4.5167203088
 21
12.1287156407
  0
LINE
  5
304
100
AcDbEntity
  8
0
100
AcDbLine
 62
6
  6
CONTINUOUS
 10
4.5355283084
 20
12.154866666
 11
4.5554621991
 21
12.1476113231
  0
LINE
  5
305
100
AcDbEntity
  8
0
100
AcDbLine
 62
7
  6
CONTINUOUS
 10
4.4786614688
 20
9.9483261571
 11
4.4582700289
 21
9.9424790058
  0
LINE
  5
306
100
AcDbEntity
  8
0
100
AcDbLine
 62
6
  6
CONTINUOUS
 10
27.9982501662
 20
11.6592965058
 11
28.0188332468
 21
11.6644284442
  0
LINE
  5
307
100
AcDbEntity
  8
0
100
AcDbLine
 62
6
  6
CONTINUOUS
 10
29.7133833828
 20
12.0869272453
 11
29.7339664634
 21
12.0920591837
  0
LINE
  5
308
100
AcDbEntity
  8
0
100
AcDbLine
 62
7
  6
CONTINUOUS
 10
30.0581600274
 20
10.2534661183
 11
30.0370630321
 21
10.2512487347
  0
LINE
  5
309
100
AcDbEntity
  8
0
100
AcDbLine
 62
7
  6
CONTINUOUS
 10
28.3002036733
 20
10.06869746
 11
28.279106678
 21
10.0664800765
  0
LINE
  5
30A
100
AcDbEntity
  8
0
100
AcDbLine
 62
6
  6
CONTINUOUS
 10
30.0305176498
 20
10.2197086817
 11
30.0093561206
 21
10.2182289234
  0
LINE
  5
30B
100
AcDbEntity
  8
0
100
AcDbLine
 62
6
  6
CONTINUOUS
 10
28.267183862
 20
10.0964043715
 11
28.2460223329
 21
10.0949246133
  0
LINE
  5
30C
100
AcDbEntity
  8
0
100
AcDbLine
 62
6
  6
CONTINUOUS
 10
5.9086930979
 20
10.0949246133
 11
5.8875315687
 21
10.0964043715
  0
LINE
  5
30D
100
AcDbEntity
  8
0
100
AcDbLine
 62
6
  6
CONTINUOUS
 10
4.1453593101
 20
10.2182289234
 11
4.124197781
 21
10.2197086817
  0
LINE
  5
30E
100
AcDbEntity
  8
0
100
AcDbLine
 62
7
  6
CONTINUOUS
 10
5.8756087527
 20
10.0664800765
 11
5.8545117574
 21
10.06869746
  0
LINE
  5
30F
100
AcDbEntity
  8
0
100
AcDbLine
 62
7
  6
CONTINUOUS
 10
4.1176523986
 20
10.2512487347
 11
4.0965554033
 21
10.2534661183
  0
LINE
  5
310
100
AcDbEntity
  8
0
100
AcDbLine
 62
6
  6
CONTINUOUS
 10
4.4207489673
 20
12.0920591837
 11
4.4413320479
 21
12.0869272453
  0
LINE
  5
311
100
AcDbEntity
  8
0
100
AcDbLine
 62
6
  6
CONTINUOUS
 10
6.1358821839
 20
11.6644284442
 11
6.1564652645
 21
11.6592965058
  0
LINE
  5
312
100
AcDbEntity
  8
0
100
AcDbLine
 62
7
  6
CONTINUOUS
 10
4.4582700289
 20
12.1143265478
 11
4.4786614688
 21
12.1084793965
  0
LINE
  5
313
100
AcDbEntity
  8
0
100
AcDbLine
 62
7
  6
CONTINUOUS
 10
28.020925403
 20
11.6965724928
 11
28.041675047
 21
11.7009829658
  0
LINE
  5
314
100
AcDbEntity
  8
0
100
AcDbLine
 62
6
  6
CONTINUOUS
 10
29.7499379043
 20
12.0640854451
 11
29.7706875484
 21
12.0684959181
  0
LINE
  5
315
100
AcDbEntity
  8
0
100
AcDbLine
 62
7
  6
CONTINUOUS
 10
28.0448877398
 20
11.7330344178
 11
28.065778667
 21
11.7367180519
  0
LINE
  5
316
100
AcDbEntity
  8
0
100
AcDbLine
 62
7
  6
CONTINUOUS
 10
29.7856729905
 20
12.0399818251
 11
29.8065639177
 21
12.0436654593
  0
LINE
  5
317
100
AcDbEntity
  8
0
100
AcDbLine
 62
6
  6
CONTINUOUS
 10
28.0701079822
 20
11.7686378578
 11
28.0911147402
 21
11.7715901651
  0
LINE
  5
318
100
AcDbEntity
  8
0
100
AcDbLine
 62
6
  6
CONTINUOUS
 10
29.8205451036
 20
12.0146457519
 11
29.8415518616
 21
12.0175980592
  0
LINE
  5
319
100
AcDbEntity
  8
0
100
AcDbLine
 62
7
  6
CONTINUOUS
 10
30.0017139936
 20
10.1869365143
 11
29.9805137127
 21
10.1861961842
  0
LINE
  5
31A
100
AcDbEntity
  8
0
100
AcDbLine
 62
7
  6
CONTINUOUS
 10
28.2351511227
 20
10.1252467795
 11
28.2139508418
 21
10.1245064494
  0
LINE
  5
31B
100
AcDbEntity
  8
0
100
AcDbLine
 62
6
  6
CONTINUOUS
 10
29.9717841517
 20
10.1551895439
 11
29.9505709482
 21
10.1551895439
  0
LINE
  5
31C
100
AcDbEntity
  8
0
100
AcDbLine
 62
6
  6
CONTINUOUS
 10
28.2041444825
 20
10.1551895439
 11
28.1829312791
 21
10.1551895439
  0
LINE
  5
31D
100
AcDbEntity
  8
0
100
AcDbLine
 62
6
  6
CONTINUOUS
 10
5.9717841517
 20
10.1551895439
 11
5.9505709482
 21
10.1551895439
  0
LINE
  5
31E
100
AcDbEntity
  8
0
100
AcDbLine
 62
6
  6
CONTINUOUS
 10
4.2041444825
 20
10.1551895439
 11
4.1829312791
 21
10.1551895439
  0
LINE
  5
31F
100
AcDbEntity
  8
0
100
AcDbLine
 62
7
  6
CONTINUOUS
 10
5.9407645889
 20
10.1245064494
 11
5.919564308
 21
10.1252467795
  0
LINE
  5
320
100
AcDbEntity
  8
0
100
AcDbLine
 62
7
  6
CONTINUOUS
 10
4.1742017181
 20
10.1861961842
 11
4.1530014371
 21
10.1869365143
  0
LINE
  5
321
100
AcDbEntity
  8
0
100
AcDbLine
 62
6
  6
CONTINUOUS
 10
4.3131635691
 20
12.0175980592
 11
4.3341703271
 21
12.0146457519
  0
LINE
  5
322
100
AcDbEntity
  8
0
100
AcDbLine
 62
6
  6
CONTINUOUS
 10
6.0636006905
 20
11.7715901651
 11
6.0846074485
 21
11.7686378578
  0
LINE
  5
323
100
AcDbEntity
  8
0
100
AcDbLine
 62
7
  6
CONTINUOUS
 10
4.348151513
 20
12.0436654593
 11
4.3690424402
 21
12.0399818251
  0
LINE
  5
324
100
AcDbEntity
  8
0
100
AcDbLine
 62
7
  6
CONTINUOUS
 10
6.0889367637
 20
11.7367180519
 11
6.1098276909
 21
11.7330344178
  0
LINE
  5
325
100
AcDbEntity
  8
0
100
AcDbLine
 62
6
  6
CONTINUOUS
 10
4.3840278823
 20
12.0684959181
 11
4.4047775264
 21
12.0640854451
  0
LINE
  5
326
100
AcDbEntity
  8
0
100
AcDbLine
 62
7
  6
CONTINUOUS
 10
6.1130403837
 20
11.7009829658
 11
6.1337900277
 21
11.6965724928
  0
LINE
  5
327
100
AcDbEntity
  8
0
100
AcDbLine
 62
7
  6
CONTINUOUS
 10
28.0965554033
 20
11.8033394353
 11
28.1176523986
 21
11.8055568189
  0
LINE
  5
328
100
AcDbEntity
  8
0
100
AcDbLine
 62
7
  6
CONTINUOUS
 10
29.8545117574
 20
11.9881080935
 11
29.8756087527
 21
11.9903254771
  0
LINE
  5
329
100
AcDbEntity
  8
0
100
AcDbLine
 62
6
  6
CONTINUOUS
 10
6.0305176498
 20
10.2197086817
 11
6.0093561206
 21
10.2182289234
  0
LINE
  5
32A
100
AcDbEntity
  8
0
100
AcDbLine
 62
6
  6
CONTINUOUS
 10
4.267183862
 20
10.0964043715
 11
4.2460223329
 21
10.0949246133
  0
LINE
  5
32B
100
AcDbEntity
  8
0
100
AcDbLine
 62
6
  6
CONTINUOUS
 10
28.124197781
 20
11.8370968719
 11
28.1453593101
 21
11.8385766302
  0
LINE
  5
32C
100
AcDbEntity
  8
0
100
AcDbLine
 62
6
  6
CONTINUOUS
 10
29.8875315687
 20
11.9604011821
 11
29.9086930979
 21
11.9618809403
  0
LINE
  5
32D
100
AcDbEntity
  8
0
100
AcDbLine
 62
7
  6
CONTINUOUS
 10
6.0017139936
 20
10.1869365143
 11
5.9805137127
 21
10.1861961842
  0
LINE
  5
32E
100
AcDbEntity
  8
0
100
AcDbLine
 62
7
  6
CONTINUOUS
 10
4.2351511227
 20
10.1252467795
 11
4.2139508418
 21
10.1245064494
  0
LINE
  5
32F
100
AcDbEntity
  8
0
100
AcDbLine
 62
6
  6
CONTINUOUS
 10
5.0773577154
 20
10.4034027768
 11
29.0773577154
 21
10.4034027768
  0
LINE
  5
330
100
AcDbEntity
  8
0
100
AcDbLine
 62
7
  6
CONTINUOUS
 10
29.9407645889
 20
10.1245064494
 11
29.919564308
 21
10.1252467795
  0
LINE
  5
331
100
AcDbEntity
  8
0
100
AcDbLine
 62
7
  6
CONTINUOUS
 10
28.1742017181
 20
10.1861961842
 11
28.1530014371
 21
10.1869365143
  0
LINE
  5
332
100
AcDbEntity
  8
0
100
AcDbLine
 62
6
  6
CONTINUOUS
 10
29.9086930979
 20
10.0949246133
 11
29.8875315687
 21
10.0964043715
  0
LINE
  5
333
100
AcDbEntity
  8
0
100
AcDbLine
 62
6
  6
CONTINUOUS
 10
28.1453593101
 20
10.2182289234
 11
28.124197781
 21
10.2197086817
  0
LINE
  5
334
100
AcDbEntity
  8
0
100
AcDbLine
 62
6
  6
CONTINUOUS
 10
4.2460223329
 20
11.9618809403
 11
4.267183862
 21
11.9604011821
  0
LINE
  5
335
100
AcDbEntity
  8
0
100
AcDbLine
 62
6
  6
CONTINUOUS
 10
6.0093561206
 20
11.8385766302
 11
6.0305176498
 21
11.8370968719
  0
LINE
  5
336
100
AcDbEntity
  8
0
100
AcDbLine
 62
7
  6
CONTINUOUS
 10
4.279106678
 20
11.9903254771
 11
4.3002036733
 21
11.9881080935
  0
LINE
  5
337
100
AcDbEntity
  8
0
100
AcDbLine
 62
7
  6
CONTINUOUS
 10
6.0370630321
 20
11.8055568189
 11
6.0581600274
 21
11.8033394353
  0
LINE
  5
338
100
AcDbEntity
  8
0
100
AcDbLine
 62
6
  6
CONTINUOUS
 10
6.0846074485
 20
10.2881676958
 11
6.0636006905
 21
10.2852153885
  0
LINE
  5
339
100
AcDbEntity
  8
0
100
AcDbLine
 62
6
  6
CONTINUOUS
 10
4.3341703271
 20
10.0421598017
 11
4.3131635691
 21
10.0392074944
  0
LINE
  5
33A
100
AcDbEntity
  8
0
100
AcDbLine
 62
7
  6
CONTINUOUS
 10
6.0581600274
 20
10.2534661183
 11
6.0370630321
 21
10.2512487347
  0
LINE
  5
33B
100
AcDbEntity
  8
0
100
AcDbLine
 62
7
  6
CONTINUOUS
 10
4.3002036733
 20
10.06869746
 11
4.279106678
 21
10.0664800765
  0
LINE
  5
33C
100
AcDbEntity
  8
0
100
AcDbLine
 62
7
  6
CONTINUOUS
 10
28.1530014371
 20
11.8698690393
 11
28.1742017181
 21
11.8706093694
  0
LINE
  5
33D
100
AcDbEntity
  8
0
100
AcDbLine
 62
7
  6
CONTINUOUS
 10
29.919564308
 20
11.9315587741
 11
29.9407645889
 21
11.9322991042
  0
LINE
  5
33E
100
AcDbEntity
  8
0
100
AcDbLine
 62
6
  6
CONTINUOUS
 10
5.0773577154
 20
11.6534027768
 11
29.0773577154
 21
11.6534027768
  0
LINE
  5
33F
100
AcDbEntity
  8
0
100
AcDbLine
 62
6
  6
CONTINUOUS
 10
4.1829312791
 20
11.9016160097
 11
4.2041444825
 21
11.9016160097
  0
LINE
  5
340
100
AcDbEntity
  8
0
100
AcDbLine
 62
6
  6
CONTINUOUS
 10
5.9505709482
 20
11.9016160097
 11
5.9717841517
 21
11.9016160097
  0
LINE
  5
341
100
AcDbEntity
  8
0
100
AcDbLine
 62
6
  6
CONTINUOUS
 10
28.1829312791
 20
11.9016160097
 11
28.2041444825
 21
11.9016160097
  0
LINE
  5
342
100
AcDbEntity
  8
0
100
AcDbLine
 62
6
  6
CONTINUOUS
 10
29.9505709482
 20
11.9016160097
 11
29.9717841517
 21
11.9016160097
  0
LINE
  5
343
100
AcDbEntity
  8
0
100
AcDbLine
 62
7
  6
CONTINUOUS
 10
4.2139508418
 20
11.9322991042
 11
4.2351511227
 21
11.9315587741
  0
LINE
  5
344
100
AcDbEntity
  8
0
100
AcDbLine
 62
7
  6
CONTINUOUS
 10
5.9805137127
 20
11.8706093694
 11
6.0017139936
 21
11.8698690393
  0
LINE
  5
345
100
AcDbEntity
  8
0
100
AcDbLine
 62
7
  6
CONTINUOUS
 10
29.8756087527
 20
10.0664800765
 11
29.8545117574
 21
10.06869746
  0
LINE
  5
346
100
AcDbEntity
  8
0
100
AcDbLine
 62
7
  6
CONTINUOUS
 10
28.1176523986
 20
10.2512487347
 11
28.0965554033
 21
10.2534661183
  0
LINE
  5
347
100
AcDbEntity
  8
0
100
AcDbLine
 62
6
  6
CONTINUOUS
 10
29.8415518616
 20
10.0392074944
 11
29.8205451036
 21
10.0421598017
  0
LINE
  5
348
100
AcDbEntity
  8
0
100
AcDbLine
 62
6
  6
CONTINUOUS
 10
28.0911147402
 20
10.2852153885
 11
28.0701079822
 21
10.2881676958
  0
LINE
  5
349
100
AcDbEntity
  8
0
100
AcDbLine
 62
7
  6
CONTINUOUS
 10
6.1337900277
 20
10.3602330608
 11
6.1130403837
 21
10.3558225878
  0
LINE
  5
34A
100
AcDbEntity
  8
0
100
AcDbLine
 62
6
  6
CONTINUOUS
 10
4.4047775264
 20
9.9927201084
 11
4.3840278823
 21
9.9883096355
  0
LINE
  5
34B
100
AcDbEntity
  8
0
100
AcDbLine
 62
7
  6
CONTINUOUS
 10
6.1098276909
 20
10.3237711358
 11
6.0889367637
 21
10.3200875016
  0
LINE
  5
34C
100
AcDbEntity
  8
0
100
AcDbLine
 62
7
  6
CONTINUOUS
 10
4.3690424402
 20
10.0168237284
 11
4.348151513
 21
10.0131400943
  0
LINE
  5
34D
100
AcDbEntity
  8
0
100
AcDbLine
 62
6
  6
CONTINUOUS
 10
4.124197781
 20
11.8370968719
 11
4.1453593101
 21
11.8385766302
  0
LINE
  5
34E
100
AcDbEntity
  8
0
100
AcDbLine
 62
6
  6
CONTINUOUS
 10
5.8875315687
 20
11.9604011821
 11
5.9086930979
 21
11.9618809403
  0
LINE
  5
34F
100
AcDbEntity
  8
0
100
AcDbLine
 62
7
  6
CONTINUOUS
 10
4.1530014371
 20
11.8698690393
 11
4.1742017181
 21
11.8706093694
  0
LINE
  5
350
100
AcDbEntity
  8
0
100
AcDbLine
 62
7
  6
CONTINUOUS
 10
5.919564308
 20
11.9315587741
 11
5.9407645889
 21
11.9322991042
  0
LINE
  5
351
100
AcDbEntity
  8
0
100
AcDbLine
 62
7
  6
CONTINUOUS
 10
28.2139508418
 20
11.9322991042
 11
28.2351511227
 21
11.9315587741
  0
LINE
  5
352
100
AcDbEntity
  8
0
100
AcDbLine
 62
7
  6
CONTINUOUS
 10
29.9805137127
 20
11.8706093694
 11
30.0017139936
 21
11.8698690393
  0
LINE
  5
353
100
AcDbEntity
  8
0
100
AcDbLine
 62
6
  6
CONTINUOUS
 10
28.2460223329
 20
11.9618809403
 11
28.267183862
 21
11.9604011821
  0
LINE
  5
354
100
AcDbEntity
  8
0
100
AcDbLine
 62
6
  6
CONTINUOUS
 10
30.0093561206
 20
11.8385766302
 11
30.0305176498
 21
11.8370968719
  0
LINE
  5
355
100
AcDbEntity
  8
0
100
AcDbLine
 62
7
  6
CONTINUOUS
 10
29.8065639177
 20
10.0131400943
 11
29.7856729905
 21
10.0168237284
  0
LINE
  5
356
100
AcDbEntity
  8
0
100
AcDbLine
 62
7
  6
CONTINUOUS
 10
28.065778667
 20
10.3200875016
 11
28.0448877398
 21
10.3237711358
  0
LINE
  5
357
100
AcDbEntity
  8
0
100
AcDbLine
 62
6
  6
CONTINUOUS
 10
29.7706875484
 20
9.9883096355
 11
29.7499379043
 21
9.9927201084
  0
LINE
  5
358
100
AcDbEntity
  8
0
100
AcDbLine
 62
7
  6
CONTINUOUS
 10
28.041675047
 20
10.3558225878
 11
28.020925403
 21
10.3602330608
  0
LINE
  5
359
100
AcDbEntity
  8
0
100
AcDbLine
 62
7
  6
CONTINUOUS
 10
29.6760539619
 20
12.1084793965
 11
29.6964454018
 21
12.1143265478
  0
LINE
  5
35A
100
AcDbEntity
  8
0
100
AcDbLine
 62
6
  6
CONTINUOUS
 10
6.1564652645
 20
10.3975090478
 11
6.1358821839
 21
10.3923771094
  0
LINE
  5
35B
100
AcDbEntity
  8
0
100
AcDbLine
 62
6
  6
CONTINUOUS
 10
4.4413320479
 20
9.9698783083
 11
4.4207489673
 21
9.9647463699
  0
LINE
  5
35C
100
AcDbEntity
  8
0
100
AcDbLine
 62
7
  6
CONTINUOUS
 10
4.0701079822
 20
11.7686378578
 11
4.0911147402
 21
11.7715901651
  0
LINE
  5
35D
100
AcDbEntity
  8
0
100
AcDbLine
 62
6
  6
CONTINUOUS
 10
5.8205451036
 20
12.0146457519
 11
5.8415518616
 21
12.0175980592
  0
LINE
  5
35E
100
AcDbEntity
  8
0
100
AcDbLine
 62
7
  6
CONTINUOUS
 10
4.0965554033
 20
11.8033394353
 11
4.1176523986
 21
11.8055568189
  0
LINE
  5
35F
100
AcDbEntity
  8
0
100
AcDbLine
 62
7
  6
CONTINUOUS
 10
5.8545117574
 20
11.9881080935
 11
5.8756087527
 21
11.9903254771
  0
LINE
  5
360
100
AcDbEntity
  8
0
100
AcDbLine
 62
7
  6
CONTINUOUS
 10
28.279106678
 20
11.9903254771
 11
28.3002036733
 21
11.9881080935
  0
LINE
  5
361
100
AcDbEntity
  8
0
100
AcDbLine
 62
7
  6
CONTINUOUS
 10
30.0370630321
 20
11.8055568189
 11
30.0581600274
 21
11.8033394353
  0
LINE
  5
362
100
AcDbEntity
  8
0
100
AcDbLine
 62
6
  6
CONTINUOUS
 10
28.3131635691
 20
12.0175980592
 11
28.3341703271
 21
12.0146457519
  0
LINE
  5
363
100
AcDbEntity
  8
0
100
AcDbLine
 62
7
  6
CONTINUOUS
 10
30.0636006905
 20
11.7715901651
 11
30.0846074485
 21
11.7686378578
  0
LINE
  5
364
100
AcDbEntity
  8
0
100
AcDbLine
 62
6
  6
CONTINUOUS
 10
29.7339664634
 20
9.9647463699
 11
29.7133833828
 21
9.9698783083
  0
LINE
  5
365
100
AcDbEntity
  8
0
100
AcDbLine
 62
6
  6
CONTINUOUS
 10
28.0188332468
 20
10.3923771094
 11
27.9982501662
 21
10.3975090478
  0
LINE
  5
366
100
AcDbEntity
  8
0
100
AcDbLine
 62
7
  6
CONTINUOUS
 10
29.6964454018
 20
9.9424790058
 11
29.6760539619
 21
9.9483261571
  0
LINE
  5
367
100
AcDbEntity
  8
0
100
AcDbLine
 62
7
  6
CONTINUOUS
 10
29.559875492
 20
12.1651434224
 11
29.5795440317
 21
12.1730900283
  0
LINE
  5
368
100
AcDbEntity
  8
0
100
AcDbLine
 62
6
  6
CONTINUOUS
 10
29.5992532316
 20
12.1476113231
 11
29.6191871223
 21
12.154866666
  0
LINE
  5
369
100
AcDbEntity
  8
0
100
AcDbLine
 62
6
  6
CONTINUOUS
 10
29.6379951219
 20
12.1287156407
 11
29.6581700773
 21
12.1352708811
  0
LINE
  5
36A
100
AcDbEntity
  8
0
100
AcDbLine
 62
7
  6
CONTINUOUS
 10
4.020925403
 20
11.6965724928
 11
4.041675047
 21
11.7009829658
  0
LINE
  5
36B
100
AcDbEntity
  8
0
100
AcDbLine
 62
6
  6
CONTINUOUS
 10
5.7499379043
 20
12.0640854451
 11
5.7706875484
 21
12.0684959181
  0
LINE
  5
36C
100
AcDbEntity
  8
0
100
AcDbLine
 62
7
  6
CONTINUOUS
 10
4.0448877398
 20
11.7330344178
 11
4.065778667
 21
11.7367180519
  0
LINE
  5
36D
100
AcDbEntity
  8
0
100
AcDbLine
 62
7
  6
CONTINUOUS
 10
5.7856729905
 20
12.0399818251
 11
5.8065639177
 21
12.0436654593
  0
LINE
  5
36E
100
AcDbEntity
  8
0
100
AcDbLine
 62
7
  6
CONTINUOUS
 10
28.348151513
 20
12.0436654593
 11
28.3690424402
 21
12.0399818251
  0
LINE
  5
36F
100
AcDbEntity
  8
0
100
AcDbLine
 62
7
  6
CONTINUOUS
 10
30.0889367637
 20
11.7367180519
 11
30.1098276909
 21
11.7330344178
  0
LINE
  5
370
100
AcDbEntity
  8
0
100
AcDbLine
 62
6
  6
CONTINUOUS
 10
28.3840278823
 20
12.0684959181
 11
28.4047775264
 21
12.0640854451
  0
LINE
  5
371
100
AcDbEntity
  8
0
100
AcDbLine
 62
7
  6
CONTINUOUS
 10
30.1130403837
 20
11.7009829658
 11
30.1337900277
 21
11.6965724928
  0
LINE
  5
372
100
AcDbEntity
  8
0
100
AcDbLine
 62
6
  6
CONTINUOUS
 10
29.6581700773
 20
9.9215346725
 11
29.6379951219
 21
9.9280899129
  0
LINE
  5
373
100
AcDbEntity
  8
0
100
AcDbLine
 62
6
  6
CONTINUOUS
 10
29.6191871223
 20
9.9019388876
 11
29.5992532316
 21
9.9091942304
  0
LINE
  5
374
100
AcDbEntity
  8
0
100
AcDbLine
 62
7
  6
CONTINUOUS
 10
29.5795440317
 20
9.8837155253
 11
29.559875492
 21
9.8916621312
  0
LINE
  5
375
100
AcDbEntity
  8
0
100
AcDbLine
 62
6
  6
CONTINUOUS
 10
29.4794050839
 20
12.1960331179
 11
29.4984713849
 21
12.2053323742
  0
LINE
  5
376
100
AcDbEntity
  8
0
100
AcDbLine
 62
6
  6
CONTINUOUS
 10
29.5199098788
 20
12.1812905783
 11
29.5392891044
 21
12.1899187654
  0
LINE
  5
377
100
AcDbEntity
  8
0
100
AcDbLine
 62
6
  6
CONTINUOUS
 10
30.177825775
 20
10.4355536815
 11
30.1574343351
 21
10.4297065302
  0
LINE
  5
378
100
AcDbEntity
  8
0
100
AcDbLine
 62
7
  6
CONTINUOUS
 10
28.4786614688
 20
9.9483261571
 11
28.4582700289
 21
9.9424790058
  0
LINE
  5
379
100
AcDbEntity
  8
0
100
AcDbLine
 62
6
  6
CONTINUOUS
 10
3.9982501662
 20
11.6592965058
 11
4.0188332468
 21
11.6644284442
  0
LINE
  5
37A
100
AcDbEntity
  8
0
100
AcDbLine
 62
6
  6
CONTINUOUS
 10
5.7133833828
 20
12.0869272453
 11
5.7339664634
 21
12.0920591837
  0
LINE
  5
37B
100
AcDbEntity
  8
0
100
AcDbLine
 62
6
  6
CONTINUOUS
 10
28.4207489673
 20
12.0920591837
 11
28.4413320479
 21
12.0869272453
  0
LINE
  5
37C
100
AcDbEntity
  8
0
100
AcDbLine
 62
6
  6
CONTINUOUS
 10
30.1358821839
 20
11.6644284442
 11
30.1564652645
 21
11.6592965058
  0
LINE
  5
37D
100
AcDbEntity
  8
0
100
AcDbLine
 62
7
  6
CONTINUOUS
 10
28.4582700289
 20
12.1143265478
 11
28.4786614688
 21
12.1084793965
  0
LINE
  5
37E
100
AcDbEntity
  8
0
100
AcDbLine
 62
6
  6
CONTINUOUS
 10
30.1574343351
 20
11.6270990234
 11
30.177825775
 21
11.6212518721
  0
LINE
  5
37F
100
AcDbEntity
  8
0
100
AcDbLine
 62
6
  6
CONTINUOUS
 10
29.5392891044
 20
9.8668867882
 11
29.5199098788
 21
9.8755149753
  0
LINE
  5
380
100
AcDbEntity
  8
0
100
AcDbLine
 62
6
  6
CONTINUOUS
 10
29.4984713849
 20
9.8514731793
 11
29.4794050839
 21
9.8607724357
  0
LINE
  5
381
100
AcDbEntity
  8
0
100
AcDbLine
 62
6
  6
CONTINUOUS
 10
29.3969759415
 20
12.2212342358
 11
29.4153471146
 21
12.2318408375
  0
LINE
  5
382
100
AcDbEntity
  8
0
100
AcDbLine
 62
6
  6
CONTINUOUS
 10
29.4384104563
 20
12.2093530799
 11
29.4571406032
 21
12.2193120756
  0
LINE
  5
383
100
AcDbEntity
  8
0
100
AcDbLine
 62
7
  6
CONTINUOUS
 10
30.2337669007
 20
10.553831606
 11
30.214098361
 21
10.5458850002
  0
LINE
  5
384
100
AcDbEntity
  8
0
100
AcDbLine
 62
7
  6
CONTINUOUS
 10
28.5948399387
 20
9.8916621312
 11
28.575171399
 21
9.8837155253
  0
LINE
  5
385
100
AcDbEntity
  8
0
100
AcDbLine
 62
7
  6
CONTINUOUS
 10
30.2165001524
 20
10.5137626034
 11
30.1965662617
 21
10.5065072606
  0
LINE
  5
386
100
AcDbEntity
  8
0
100
AcDbLine
 62
6
  6
CONTINUOUS
 10
28.5554621991
 20
9.9091942304
 11
28.5355283084
 21
9.9019388876
  0
LINE
  5
387
100
AcDbEntity
  8
0
100
AcDbLine
 62
7
  6
CONTINUOUS
 10
30.1978455346
 20
10.4743206106
 11
30.1776705793
 21
10.4677653702
  0
LINE
  5
388
100
AcDbEntity
  8
0
100
AcDbLine
 62
6
  6
CONTINUOUS
 10
28.5167203088
 20
9.9280899129
 11
28.4965453534
 21
9.9215346725
  0
LINE
  5
389
100
AcDbEntity
  8
0
100
AcDbLine
 62
6
  6
CONTINUOUS
 10
28.4965453534
 20
12.1352708811
 11
28.5167203088
 21
12.1287156407
  0
LINE
  5
38A
100
AcDbEntity
  8
0
100
AcDbLine
 62
7
  6
CONTINUOUS
 10
30.1776705793
 20
11.5890401834
 11
30.1978455346
 21
11.582484943
  0
LINE
  5
38B
100
AcDbEntity
  8
0
100
AcDbLine
 62
6
  6
CONTINUOUS
 10
28.5355283084
 20
12.154866666
 11
28.5554621991
 21
12.1476113231
  0
LINE
  5
38C
100
AcDbEntity
  8
0
100
AcDbLine
 62
7
  6
CONTINUOUS
 10
30.1965662617
 20
11.550298293
 11
30.2165001524
 21
11.5430429501
  0
LINE
  5
38D
100
AcDbEntity
  8
0
100
AcDbLine
 62
7
  6
CONTINUOUS
 10
28.575171399
 20
12.1730900283
 11
28.5948399387
 21
12.1651434224
  0
LINE
  5
38E
100
AcDbEntity
  8
0
100
AcDbLine
 62
7
  6
CONTINUOUS
 10
30.214098361
 20
11.5109205534
 11
30.2337669007
 21
11.5029739475
  0
LINE
  5
38F
100
AcDbEntity
  8
0
100
AcDbLine
 62
6
  6
CONTINUOUS
 10
29.4571406032
 20
9.8374934779
 11
29.4384104563
 21
9.8474524737
  0
LINE
  5
390
100
AcDbEntity
  8
0
100
AcDbLine
 62
6
  6
CONTINUOUS
 10
29.4153471146
 20
9.8249647161
 11
29.3969759415
 21
9.8355713178
  0
LINE
  5
391
100
AcDbEntity
  8
0
100
AcDbLine
 62
7
  6
CONTINUOUS
 10
29.2705402001
 20
12.2481089823
 11
29.2877020422
 21
12.2605777904
  0
LINE
  5
392
100
AcDbEntity
  8
0
100
AcDbLine
 62
6
  6
CONTINUOUS
 10
29.3129896512
 20
12.2406239987
 11
29.3305761939
 21
12.2524862715
  0
LINE
  5
393
100
AcDbEntity
  8
0
100
AcDbLine
 62
7
  6
CONTINUOUS
 10
29.3551520211
 20
12.2316621103
 11
29.3731418379
 21
12.2429033955
  0
LINE
  5
394
100
AcDbEntity
  8
0
100
AcDbLine
 62
6
  6
CONTINUOUS
 10
30.2640543574
 20
10.6356546645
 11
30.2449880565
 21
10.6263554082
  0
LINE
  5
395
100
AcDbEntity
  8
0
100
AcDbLine
 62
6
  6
CONTINUOUS
 10
28.6753103468
 20
9.8607724357
 11
28.6562440458
 21
9.8514731793
  0
LINE
  5
396
100
AcDbEntity
  8
0
100
AcDbLine
 62
6
  6
CONTINUOUS
 10
30.2496247425
 20
10.5944788005
 11
30.2302455168
 21
10.5858506134
  0
LINE
  5
397
100
AcDbEntity
  8
0
100
AcDbLine
 62
7
  6
CONTINUOUS
 10
28.6348055519
 20
9.8755149753
 11
28.6154263263
 21
9.8668867882
  0
LINE
  5
398
100
AcDbEntity
  8
0
100
AcDbLine
 62
7
  6
CONTINUOUS
 10
28.6154263263
 20
12.1899187654
 11
28.6348055519
 21
12.1812905783
  0
LINE
  5
399
100
AcDbEntity
  8
0
100
AcDbLine
 62
6
  6
CONTINUOUS
 10
30.2302455168
 20
11.4709549402
 11
30.2496247425
 21
11.462326753
  0
LINE
  5
39A
100
AcDbEntity
  8
0
100
AcDbLine
 62
6
  6
CONTINUOUS
 10
28.6562440458
 20
12.2053323742
 11
28.6753103468
 21
12.1960331179
  0
LINE
  5
39B
100
AcDbEntity
  8
0
100
AcDbLine
 62
6
  6
CONTINUOUS
 10
30.2449880565
 20
11.4304501454
 11
30.2640543574
 21
11.421150889
  0
LINE
  5
39C
100
AcDbEntity
  8
0
100
AcDbLine
 62
7
  6
CONTINUOUS
 10
29.3731418379
 20
9.8139021581
 11
29.3551520211
 21
9.8251434432
  0
LINE
  5
39D
100
AcDbEntity
  8
0
100
AcDbLine
 62
6
  6
CONTINUOUS
 10
29.3305761939
 20
9.804319282
 11
29.3129896512
 21
9.8161815549
  0
LINE
  5
39E
100
AcDbEntity
  8
0
100
AcDbLine
 62
7
  6
CONTINUOUS
 10
29.2877020422
 20
9.7962277632
 11
29.2705402001
 21
9.8086965713
  0
LINE
  5
39F
100
AcDbEntity
  8
0
100
AcDbLine
 62
6
  6
CONTINUOUS
 10
29.1419879109
 20
12.2616203723
 11
29.1577523933
 21
12.275814776
  0
LINE
  5
3A0
100
AcDbEntity
  8
0
100
AcDbLine
 62
6
  6
CONTINUOUS
 10
29.1849872134
 20
12.2586135682
 11
29.20123747
 21
12.2722491525
  0
LINE
  5
3A1
100
AcDbEntity
  8
0
100
AcDbLine
 62
6
  6
CONTINUOUS
 10
29.2278553858
 20
12.2541079417
 11
29.2445716183
 21
12.2671680938
  0
LINE
  5
3A2
100
AcDbEntity
  8
0
100
AcDbLine
 62
7
  6
CONTINUOUS
 10
30.2885603474
 20
10.7193911524
 11
30.2701891744
 21
10.7087845506
  0
LINE
  5
3A3
100
AcDbEntity
  8
0
100
AcDbLine
 62
6
  6
CONTINUOUS
 10
28.7577394892
 20
9.8355713178
 11
28.7393683161
 21
9.8249647161
  0
LINE
  5
3A4
100
AcDbEntity
  8
0
100
AcDbLine
 62
6
  6
CONTINUOUS
 10
30.2770381654
 20
10.6773090316
 11
30.2583080184
 21
10.6673500359
  0
LINE
  5
3A5
100
AcDbEntity
  8
0
100
AcDbLine
 62
6
  6
CONTINUOUS
 10
28.7163049744
 20
9.8474524737
 11
28.6975748275
 21
9.8374934779
  0
LINE
  5
3A6
100
AcDbEntity
  8
0
100
AcDbLine
 62
6
  6
CONTINUOUS
 10
28.6975748275
 20
12.2193120756
 11
28.7163049744
 21
12.2093530799
  0
LINE
  5
3A7
100
AcDbEntity
  8
0
100
AcDbLine
 62
6
  6
CONTINUOUS
 10
30.2583080184
 20
11.3894555177
 11
30.2770381654
 21
11.379496522
  0
LINE
  5
3A8
100
AcDbEntity
  8
0
100
AcDbLine
 62
6
  6
CONTINUOUS
 10
28.7393683161
 20
12.2318408375
 11
28.7577394892
 21
12.2212342358
  0
LINE
  5
3A9
100
AcDbEntity
  8
0
100
AcDbLine
 62
7
  6
CONTINUOUS
 10
30.2701891744
 20
11.3480210029
 11
30.2885603474
 21
11.3374144012
  0
LINE
  5
3AA
100
AcDbEntity
  8
0
100
AcDbLine
 62
6
  6
CONTINUOUS
 10
29.2445716183
 20
9.7896374598
 11
29.2278553858
 21
9.8026976119
  0
LINE
  5
3AB
100
AcDbEntity
  8
0
100
AcDbLine
 62
6
  6
CONTINUOUS
 10
29.20123747
 20
9.7845564011
 11
29.1849872134
 21
9.7981919854
  0
LINE
  5
3AC
100
AcDbEntity
  8
0
100
AcDbLine
 62
6
  6
CONTINUOUS
 10
29.1577523933
 20
9.7809907776
 11
29.1419879109
 21
9.7951851813
  0
LINE
  5
3AD
100
AcDbEntity
  8
0
100
AcDbLine
 62
7
  6
CONTINUOUS
 10
29.0127275198
 20
12.2616203723
 11
29.0269219235
 21
12.2773848547
  0
LINE
  5
3AE
100
AcDbEntity
  8
0
100
AcDbLine
 62
7
  6
CONTINUOUS
 10
29.0558055642
 20
12.2631246908
 11
29.0705414935
 21
12.2783841923
  0
LINE
  5
3AF
100
AcDbEntity
  8
0
100
AcDbLine
 62
6
  6
CONTINUOUS
 10
29.0989098665
 20
12.2631246908
 11
29.1141693681
 21
12.2778606201
  0
LINE
  5
3B0
100
AcDbEntity
  8
0
100
AcDbLine
 62
7
  6
CONTINUOUS
 10
30.3142257629
 20
10.8476891002
 11
30.2970639208
 21
10.8352202921
  0
LINE
  5
3B1
100
AcDbEntity
  8
0
100
AcDbLine
 62
6
  6
CONTINUOUS
 10
28.8841752306
 20
9.8086965713
 11
28.8670133886
 21
9.7962277632
  0
LINE
  5
3B2
100
AcDbEntity
  8
0
100
AcDbLine
 62
7
  6
CONTINUOUS
 10
30.30716548
 20
10.8046331137
 11
30.2895789373
 21
10.7927708409
  0
LINE
  5
3B3
100
AcDbEntity
  8
0
100
AcDbLine
 62
6
  6
CONTINUOUS
 10
28.8417257795
 20
9.8161815549
 11
28.8241392368
 21
9.804319282
  0
LINE
  5
3B4
100
AcDbEntity
  8
0
100
AcDbLine
 62
6
  6
CONTINUOUS
 10
30.2986068657
 20
10.7618497562
 11
30.2806170489
 21
10.750608471
  0
LINE
  5
3B5
100
AcDbEntity
  8
0
100
AcDbLine
 62
6
  6
CONTINUOUS
 10
28.7995634096
 20
9.8251434432
 11
28.7815735928
 21
9.8139021581
  0
LINE
  5
3B6
100
AcDbEntity
  8
0
100
AcDbLine
 62
6
  6
CONTINUOUS
 10
28.7815735928
 20
12.2429033955
 11
28.7995634096
 21
12.2316621103
  0
LINE
  5
3B7
100
AcDbEntity
  8
0
100
AcDbLine
 62
6
  6
CONTINUOUS
 10
30.2806170489
 20
11.3061970826
 11
30.2986068657
 21
11.2949557974
  0
LINE
  5
3B8
100
AcDbEntity
  8
0
100
AcDbLine
 62
6
  6
CONTINUOUS
 10
28.8241392368
 20
12.2524862715
 11
28.8417257795
 21
12.2406239987
  0
LINE
  5
3B9
100
AcDbEntity
  8
0
100
AcDbLine
 62
7
  6
CONTINUOUS
 10
30.2895789373
 20
11.2640347127
 11
30.30716548
 21
11.2521724398
  0
LINE
  5
3BA
100
AcDbEntity
  8
0
100
AcDbLine
 62
6
  6
CONTINUOUS
 10
28.8670133886
 20
12.2605777904
 11
28.8841752306
 21
12.2481089823
  0
LINE
  5
3BB
100
AcDbEntity
  8
0
100
AcDbLine
 62
7
  6
CONTINUOUS
 10
30.2970639208
 20
11.2215852615
 11
30.3142257629
 21
11.2091164534
  0
LINE
  5
3BC
100
AcDbEntity
  8
0
100
AcDbLine
 62
6
  6
CONTINUOUS
 10
29.1141693681
 20
9.7789449335
 11
29.0989098665
 21
9.7936808628
  0
LINE
  5
3BD
100
AcDbEntity
  8
0
100
AcDbLine
 62
7
  6
CONTINUOUS
 10
29.0705414935
 20
9.7784213613
 11
29.0558055642
 21
9.7936808628
  0
LINE
  5
3BE
100
AcDbEntity
  8
0
100
AcDbLine
 62
7
  6
CONTINUOUS
 10
29.0269219235
 20
9.7794206989
 11
29.0127275198
 21
9.7951851813
  0
LINE
  5
3BF
100
AcDbEntity
  8
0
100
AcDbLine
 62
6
  6
CONTINUOUS
 10
28.8841752306
 20
12.2481089823
 11
28.8966440388
 21
12.2652708244
  0
LINE
  5
3C0
100
AcDbEntity
  8
0
100
AcDbLine
 62
6
  6
CONTINUOUS
 10
28.9268600449
 20
12.2541079417
 11
28.939920197
 21
12.2708241741
  0
LINE
  5
3C1
100
AcDbEntity
  8
0
100
AcDbLine
 62
6
  6
CONTINUOUS
 10
28.9697282174
 20
12.2586135682
 11
28.9833638017
 21
12.2748638248
  0
LINE
  5
3C2
100
AcDbEntity
  8
0
100
AcDbLine
 62
6
  6
CONTINUOUS
 10
30.3263397932
 20
10.9779669849
 11
30.3105753109
 21
10.9637725812
  0
LINE
  5
3C3
100
AcDbEntity
  8
0
100
AcDbLine
 62
6
  6
CONTINUOUS
 10
29.0127275198
 20
9.7951851813
 11
28.9969630374
 21
9.7809907776
  0
LINE
  5
3C4
100
AcDbEntity
  8
0
100
AcDbLine
 62
6
  6
CONTINUOUS
 10
30.3238187634
 20
10.9344088631
 11
30.3075685067
 21
10.9207732788
  0
LINE
  5
3C5
100
AcDbEntity
  8
0
100
AcDbLine
 62
7
  6
CONTINUOUS
 10
28.9697282174
 20
9.7981919854
 11
28.9534779607
 21
9.7845564011
  0
LINE
  5
3C6
100
AcDbEntity
  8
0
100
AcDbLine
 62
6
  6
CONTINUOUS
 10
30.3197791127
 20
10.8909652584
 11
30.3030628803
 21
10.8779051063
  0
LINE
  5
3C7
100
AcDbEntity
  8
0
100
AcDbLine
 62
6
  6
CONTINUOUS
 10
28.9268600449
 20
9.8026976119
 11
28.9101438125
 21
9.7896374598
  0
LINE
  5
3C8
100
AcDbEntity
  8
0
100
AcDbLine
 62
6
  6
CONTINUOUS
 10
28.9101438125
 20
12.2671680938
 11
28.9268600449
 21
12.2541079417
  0
LINE
  5
3C9
100
AcDbEntity
  8
0
100
AcDbLine
 62
6
  6
CONTINUOUS
 10
30.3030628803
 20
11.1789004473
 11
30.3197791127
 21
11.1658402951
  0
LINE
  5
3CA
100
AcDbEntity
  8
0
100
AcDbLine
 62
7
  6
CONTINUOUS
 10
28.9534779607
 20
12.2722491525
 11
28.9697282174
 21
12.2586135682
  0
LINE
  5
3CB
100
AcDbEntity
  8
0
100
AcDbLine
 62
6
  6
CONTINUOUS
 10
30.3075685067
 20
11.1360322748
 11
30.3238187634
 21
11.1223966905
  0
LINE
  5
3CC
100
AcDbEntity
  8
0
100
AcDbLine
 62
6
  6
CONTINUOUS
 10
28.9969630374
 20
12.275814776
 11
29.0127275198
 21
12.2616203723
  0
LINE
  5
3CD
100
AcDbEntity
  8
0
100
AcDbLine
 62
6
  6
CONTINUOUS
 10
30.3105753109
 20
11.0930329723
 11
30.3263397932
 21
11.0788385687
  0
LINE
  5
3CE
100
AcDbEntity
  8
0
100
AcDbLine
 62
6
  6
CONTINUOUS
 10
28.9833638017
 20
9.7819417288
 11
28.9697282174
 21
9.7981919854
  0
LINE
  5
3CF
100
AcDbEntity
  8
0
100
AcDbLine
 62
6
  6
CONTINUOUS
 10
28.939920197
 20
9.7859813795
 11
28.9268600449
 21
9.8026976119
  0
LINE
  5
3D0
100
AcDbEntity
  8
0
100
AcDbLine
 62
6
  6
CONTINUOUS
 10
28.8966440388
 20
9.7915347292
 11
28.8841752306
 21
9.8086965713
  0
LINE
  5
3D1
100
AcDbEntity
  8
0
100
AcDbLine
 62
7
  6
CONTINUOUS
 10
28.7163049744
 20
12.2093530799
 11
28.7262639702
 21
12.2280832268
  0
LINE
  5
3D2
100
AcDbEntity
  8
0
100
AcDbLine
 62
7
  6
CONTINUOUS
 10
28.7577394892
 20
12.2212342358
 11
28.7683460909
 21
12.2396054089
  0
LINE
  5
3D3
100
AcDbEntity
  8
0
100
AcDbLine
 62
7
  6
CONTINUOUS
 10
28.7995634096
 20
12.2316621103
 11
28.8108046947
 21
12.2496519271
  0
LINE
  5
3D4
100
AcDbEntity
  8
0
100
AcDbLine
 62
6
  6
CONTINUOUS
 10
28.8417257795
 20
12.2406239987
 11
28.8535880523
 21
12.2582105414
  0
LINE
  5
3D5
100
AcDbEntity
  8
0
100
AcDbLine
 62
6
  6
CONTINUOUS
 10
30.3247697146
 20
11.1087974547
 11
30.3105753109
 21
11.0930329723
  0
LINE
  5
3D6
100
AcDbEntity
  8
0
100
AcDbLine
 62
6
  6
CONTINUOUS
 10
29.1419879109
 20
9.7951851813
 11
29.1277935072
 21
9.7794206989
  0
LINE
  5
3D7
100
AcDbEntity
  8
0
100
AcDbLine
 62
7
  6
CONTINUOUS
 10
30.3268155587
 20
11.0652144295
 11
30.3120796293
 21
11.049954928
  0
LINE
  5
3D8
100
AcDbEntity
  8
0
100
AcDbLine
 62
6
  6
CONTINUOUS
 10
29.0989098665
 20
9.7936808628
 11
29.0841739372
 21
9.7784213613
  0
LINE
  5
3D9
100
AcDbEntity
  8
0
100
AcDbLine
 62
6
  6
CONTINUOUS
 10
30.3273391309
 20
11.0215865549
 11
30.3120796293
 21
11.0068506256
  0
LINE
  5
3DA
100
AcDbEntity
  8
0
100
AcDbLine
 62
6
  6
CONTINUOUS
 10
29.0558055642
 20
9.7936808628
 11
29.0405460627
 21
9.7789449335
  0
LINE
  5
3DB
100
AcDbEntity
  8
0
100
AcDbLine
 62
6
  6
CONTINUOUS
 10
29.0405460627
 20
12.2778606201
 11
29.0558055642
 21
12.2631246908
  0
LINE
  5
3DC
100
AcDbEntity
  8
0
100
AcDbLine
 62
6
  6
CONTINUOUS
 10
30.3120796293
 20
11.049954928
 11
30.3273391309
 21
11.0352189986
  0
LINE
  5
3DD
100
AcDbEntity
  8
0
100
AcDbLine
 62
6
  6
CONTINUOUS
 10
29.0841739372
 20
12.2783841923
 11
29.0989098665
 21
12.2631246908
  0
LINE
  5
3DE
100
AcDbEntity
  8
0
100
AcDbLine
 62
7
  6
CONTINUOUS
 10
30.3120796293
 20
11.0068506256
 11
30.3268155587
 21
10.9915911241
  0
LINE
  5
3DF
100
AcDbEntity
  8
0
100
AcDbLine
 62
6
  6
CONTINUOUS
 10
29.1277935072
 20
12.2773848547
 11
29.1419879109
 21
12.2616203723
  0
LINE
  5
3E0
100
AcDbEntity
  8
0
100
AcDbLine
 62
6
  6
CONTINUOUS
 10
30.3105753109
 20
10.9637725812
 11
30.3247697146
 21
10.9480080989
  0
LINE
  5
3E1
100
AcDbEntity
  8
0
100
AcDbLine
 62
6
  6
CONTINUOUS
 10
28.8535880523
 20
9.7985950122
 11
28.8417257795
 21
9.8161815549
  0
LINE
  5
3E2
100
AcDbEntity
  8
0
100
AcDbLine
 62
7
  6
CONTINUOUS
 10
28.8108046947
 20
9.8071536265
 11
28.7995634096
 21
9.8251434432
  0
LINE
  5
3E3
100
AcDbEntity
  8
0
100
AcDbLine
 62
7
  6
CONTINUOUS
 10
28.7683460909
 20
9.8172001447
 11
28.7577394892
 21
9.8355713178
  0
LINE
  5
3E4
100
AcDbEntity
  8
0
100
AcDbLine
 62
7
  6
CONTINUOUS
 10
28.7262639702
 20
9.8287223268
 11
28.7163049744
 21
9.8474524737
  0
LINE
  5
3E5
100
AcDbEntity
  8
0
100
AcDbLine
 62
9
  6
CONTINUOUS
 10
27.3273577154
 20
11.6534027768
 11
27.3273577154
 21
10.4034027768
  0
LINE
  5
3E6
100
AcDbEntity
  8
0
100
AcDbLine
 62
7
  6
CONTINUOUS
 10
28.4786614688
 20
12.1084793965
 11
28.4845086201
 21
12.1288708364
  0
LINE
  5
3E7
100
AcDbEntity
  8
0
100
AcDbLine
 62
7
  6
CONTINUOUS
 10
28.5167203088
 20
12.1287156407
 11
28.5232755492
 21
12.148890596
  0
LINE
  5
3E8
100
AcDbEntity
  8
0
100
AcDbLine
 62
7
  6
CONTINUOUS
 10
28.5554621991
 20
12.1476113231
 11
28.562717542
 21
12.1675452139
  0
LINE
  5
3E9
100
AcDbEntity
  8
0
100
AcDbLine
 62
7
  6
CONTINUOUS
 10
28.5948399387
 20
12.1651434224
 11
28.6027865446
 21
12.1848119621
  0
LINE
  5
3EA
100
AcDbEntity
  8
0
100
AcDbLine
 62
7
  6
CONTINUOUS
 10
28.6348055519
 20
12.1812905783
 11
28.6434337391
 21
12.2006698039
  0
LINE
  5
3EB
100
AcDbEntity
  8
0
100
AcDbLine
 62
7
  6
CONTINUOUS
 10
28.6753103468
 20
12.1960331179
 11
28.6846096031
 21
12.2150994189
  0
LINE
  5
3EC
100
AcDbEntity
  8
0
100
AcDbLine
 62
6
  6
CONTINUOUS
 10
30.309532729
 20
11.2387471036
 11
30.2970639208
 21
11.2215852615
  0
LINE
  5
3ED
100
AcDbEntity
  8
0
100
AcDbLine
 62
7
  6
CONTINUOUS
 10
29.2705402001
 20
9.8086965713
 11
29.2580713919
 21
9.7915347292
  0
LINE
  5
3EE
100
AcDbEntity
  8
0
100
AcDbLine
 62
6
  6
CONTINUOUS
 10
30.3161230324
 20
11.1956166797
 11
30.3030628803
 21
11.1789004473
  0
LINE
  5
3EF
100
AcDbEntity
  8
0
100
AcDbLine
 62
7
  6
CONTINUOUS
 10
29.2278553858
 20
9.8026976119
 11
29.2147952337
 21
9.7859813795
  0
LINE
  5
3F0
100
AcDbEntity
  8
0
100
AcDbLine
 62
6
  6
CONTINUOUS
 10
30.3212040911
 20
11.1522825314
 11
30.3075685067
 21
11.1360322748
  0
LINE
  5
3F1
100
AcDbEntity
  8
0
100
AcDbLine
 62
7
  6
CONTINUOUS
 10
29.1849872134
 20
9.7981919854
 11
29.171351629
 21
9.7819417288
  0
LINE
  5
3F2
100
AcDbEntity
  8
0
100
AcDbLine
 62
7
  6
CONTINUOUS
 10
29.171351629
 20
12.2748638248
 11
29.1849872134
 21
12.2586135682
  0
LINE
  5
3F3
100
AcDbEntity
  8
0
100
AcDbLine
 62
6
  6
CONTINUOUS
 10
30.3075685067
 20
10.9207732788
 11
30.3212040911
 21
10.9045230222
  0
LINE
  5
3F4
100
AcDbEntity
  8
0
100
AcDbLine
 62
7
  6
CONTINUOUS
 10
29.2147952337
 20
12.2708241741
 11
29.2278553858
 21
12.2541079417
  0
LINE
  5
3F5
100
AcDbEntity
  8
0
100
AcDbLine
 62
6
  6
CONTINUOUS
 10
30.3030628803
 20
10.8779051063
 11
30.3161230324
 21
10.8611888739
  0
LINE
  5
3F6
100
AcDbEntity
  8
0
100
AcDbLine
 62
7
  6
CONTINUOUS
 10
29.2580713919
 20
12.2652708244
 11
29.2705402001
 21
12.2481089823
  0
LINE
  5
3F7
100
AcDbEntity
  8
0
100
AcDbLine
 62
6
  6
CONTINUOUS
 10
30.2970639208
 20
10.8352202921
 11
30.309532729
 21
10.81805845
  0
LINE
  5
3F8
100
AcDbEntity
  8
0
100
AcDbLine
 62
7
  6
CONTINUOUS
 10
28.6846096031
 20
9.8417061347
 11
28.6753103468
 21
9.8607724357
  0
LINE
  5
3F9
100
AcDbEntity
  8
0
100
AcDbLine
 62
7
  6
CONTINUOUS
 10
28.6434337391
 20
9.8561357497
 11
28.6348055519
 21
9.8755149753
  0
LINE
  5
3FA
100
AcDbEntity
  8
0
100
AcDbLine
 62
7
  6
CONTINUOUS
 10
28.6027865446
 20
9.8719935915
 11
28.5948399387
 21
9.8916621312
  0
LINE
  5
3FB
100
AcDbEntity
  8
0
100
AcDbLine
 62
7
  6
CONTINUOUS
 10
28.562717542
 20
9.8892603397
 11
28.5554621991
 21
9.9091942304
  0
LINE
  5
3FC
100
AcDbEntity
  8
0
100
AcDbLine
 62
7
  6
CONTINUOUS
 10
28.5232755492
 20
9.9079149575
 11
28.5167203088
 21
9.9280899129
  0
LINE
  5
3FD
100
AcDbEntity
  8
0
100
AcDbLine
 62
7
  6
CONTINUOUS
 10
28.4845086201
 20
9.9279347172
 11
28.4786614688
 21
9.9483261571
  0
LINE
  5
3FE
100
AcDbEntity
  8
0
100
AcDbLine
 62
7
  6
CONTINUOUS
 10
28.3024210568
 20
10.0476004648
 11
28.3002036733
 21
10.06869746
  0
LINE
  5
3FF
100
AcDbEntity
  8
0
100
AcDbLine
 62
7
  6
CONTINUOUS
 10
28.1176523986
 20
11.8055568189
 11
28.1154350151
 21
11.8266538142
  0
LINE
  5
400
100
AcDbEntity
  8
0
100
AcDbLine
 62
7
  6
CONTINUOUS
 10
28.2686636203
 20
10.0752428424
 11
28.267183862
 21
10.0964043715
  0
LINE
  5
401
100
AcDbEntity
  8
0
100
AcDbLine
 62
6
  6
CONTINUOUS
 10
28.1453593101
 20
11.8385766302
 11
28.1438795518
 21
11.8597381593
  0
LINE
  5
402
100
AcDbEntity
  8
0
100
AcDbLine
 62
7
  6
CONTINUOUS
 10
28.2358914529
 20
10.1040464986
 11
28.2351511227
 21
10.1252467795
  0
LINE
  5
403
100
AcDbEntity
  8
0
100
AcDbLine
 62
7
  6
CONTINUOUS
 10
28.1742017181
 20
11.8706093694
 11
28.1734613879
 21
11.8918096503
  0
LINE
  5
404
100
AcDbEntity
  8
0
100
AcDbLine
 62
6
  6
CONTINUOUS
 10
28.2041444825
 20
10.1339763405
 11
28.2041444825
 21
10.1551895439
  0
LINE
  5
405
100
AcDbEntity
  8
0
100
AcDbLine
 62
6
  6
CONTINUOUS
 10
28.2041444825
 20
11.9016160097
 11
28.2041444825
 21
11.9228292131
  0
LINE
  5
406
100
AcDbEntity
  8
0
100
AcDbLine
 62
7
  6
CONTINUOUS
 10
28.1734613879
 20
10.1649959033
 11
28.1742017181
 21
10.1861961842
  0
LINE
  5
407
100
AcDbEntity
  8
0
100
AcDbLine
 62
7
  6
CONTINUOUS
 10
28.2351511227
 20
11.9315587741
 11
28.2358914529
 21
11.952759055
  0
LINE
  5
408
100
AcDbEntity
  8
0
100
AcDbLine
 62
6
  6
CONTINUOUS
 10
28.1438795518
 20
10.1970673943
 11
28.1453593101
 21
10.2182289234
  0
LINE
  5
409
100
AcDbEntity
  8
0
100
AcDbLine
 62
7
  6
CONTINUOUS
 10
28.267183862
 20
11.9604011821
 11
28.2686636203
 21
11.9815627112
  0
LINE
  5
40A
100
AcDbEntity
  8
0
100
AcDbLine
 62
7
  6
CONTINUOUS
 10
28.1154350151
 20
10.2301517394
 11
28.1176523986
 21
10.2512487347
  0
LINE
  5
40B
100
AcDbEntity
  8
0
100
AcDbLine
 62
7
  6
CONTINUOUS
 10
28.3002036733
 20
11.9881080935
 11
28.3024210568
 21
12.0092050888
  0
LINE
  5
40C
100
AcDbEntity
  8
0
100
AcDbLine
 62
7
  6
CONTINUOUS
 10
28.0881624329
 20
10.2642086305
 11
28.0911147402
 21
10.2852153885
  0
LINE
  5
40D
100
AcDbEntity
  8
0
100
AcDbLine
 62
7
  6
CONTINUOUS
 10
28.3341703271
 20
12.0146457519
 11
28.3371226344
 21
12.0356525099
  0
LINE
  5
40E
100
AcDbEntity
  8
0
100
AcDbLine
 62
6
  6
CONTINUOUS
 10
28.0620950329
 20
10.2991965744
 11
28.065778667
 21
10.3200875016
  0
LINE
  5
40F
100
AcDbEntity
  8
0
100
AcDbLine
 62
7
  6
CONTINUOUS
 10
28.3690424402
 20
12.0399818251
 11
28.3727260743
 21
12.0608727524
  0
LINE
  5
410
100
AcDbEntity
  8
0
100
AcDbLine
 62
6
  6
CONTINUOUS
 10
28.037264574
 20
10.3350729438
 11
28.041675047
 21
10.3558225878
  0
LINE
  5
411
100
AcDbEntity
  8
0
100
AcDbLine
 62
7
  6
CONTINUOUS
 10
28.4047775264
 20
12.0640854451
 11
28.4091879994
 21
12.0848350892
  0
LINE
  5
412
100
AcDbEntity
  8
0
100
AcDbLine
 62
6
  6
CONTINUOUS
 10
28.0137013084
 20
10.3717940287
 11
28.0188332468
 21
10.3923771094
  0
LINE
  5
413
100
AcDbEntity
  8
0
100
AcDbLine
 62
7
  6
CONTINUOUS
 10
28.4413320479
 20
12.0869272453
 11
28.4464639863
 21
12.107510326
  0
LINE
  5
414
100
AcDbEntity
  8
0
100
AcDbLine
 62
6
  6
CONTINUOUS
 10
30.2682670142
 20
11.4081856646
 11
30.2583080184
 21
11.3894555177
  0
LINE
  5
415
100
AcDbEntity
  8
0
100
AcDbLine
 62
6
  6
CONTINUOUS
 10
29.4384104563
 20
9.8474524737
 11
29.4284514605
 21
9.8287223268
  0
LINE
  5
416
100
AcDbEntity
  8
0
100
AcDbLine
 62
6
  6
CONTINUOUS
 10
30.2807957761
 20
11.366392176
 11
30.2701891744
 21
11.3480210029
  0
LINE
  5
417
100
AcDbEntity
  8
0
100
AcDbLine
 62
7
  6
CONTINUOUS
 10
29.3969759415
 20
9.8355713178
 11
29.3863693398
 21
9.8172001447
  0
LINE
  5
418
100
AcDbEntity
  8
0
100
AcDbLine
 62
7
  6
CONTINUOUS
 10
30.2918583341
 20
11.3241868994
 11
30.2806170489
 21
11.3061970826
  0
LINE
  5
419
100
AcDbEntity
  8
0
100
AcDbLine
 62
6
  6
CONTINUOUS
 10
29.3551520211
 20
9.8251434432
 11
29.343910736
 21
9.8071536265
  0
LINE
  5
41A
100
AcDbEntity
  8
0
100
AcDbLine
 62
6
  6
CONTINUOUS
 10
30.3014412101
 20
11.2816212553
 11
30.2895789373
 21
11.2640347127
  0
LINE
  5
41B
100
AcDbEntity
  8
0
100
AcDbLine
 62
6
  6
CONTINUOUS
 10
29.3129896512
 20
9.8161815549
 11
29.3011273784
 21
9.7985950122
  0
LINE
  5
41C
100
AcDbEntity
  8
0
100
AcDbLine
 62
6
  6
CONTINUOUS
 10
29.3011273784
 20
12.2582105414
 11
29.3129896512
 21
12.2406239987
  0
LINE
  5
41D
100
AcDbEntity
  8
0
100
AcDbLine
 62
6
  6
CONTINUOUS
 10
30.2895789373
 20
10.7927708409
 11
30.3014412101
 21
10.7751842982
  0
LINE
  5
41E
100
AcDbEntity
  8
0
100
AcDbLine
 62
6
  6
CONTINUOUS
 10
29.343910736
 20
12.2496519271
 11
29.3551520211
 21
12.2316621103
  0
LINE
  5
41F
100
AcDbEntity
  8
0
100
AcDbLine
 62
7
  6
CONTINUOUS
 10
30.2806170489
 20
10.750608471
 11
30.2918583341
 21
10.7326186542
  0
LINE
  5
420
100
AcDbEntity
  8
0
100
AcDbLine
 62
7
  6
CONTINUOUS
 10
29.3863693398
 20
12.2396054089
 11
29.3969759415
 21
12.2212342358
  0
LINE
  5
421
100
AcDbEntity
  8
0
100
AcDbLine
 62
6
  6
CONTINUOUS
 10
30.2701891744
 20
10.7087845506
 11
30.2807957761
 21
10.6904133776
  0
LINE
  5
422
100
AcDbEntity
  8
0
100
AcDbLine
 62
6
  6
CONTINUOUS
 10
29.4284514605
 20
12.2280832268
 11
29.4384104563
 21
12.2093530799
  0
LINE
  5
423
100
AcDbEntity
  8
0
100
AcDbLine
 62
6
  6
CONTINUOUS
 10
30.2583080184
 20
10.6673500359
 11
30.2682670142
 21
10.6486198889
  0
LINE
  5
424
100
AcDbEntity
  8
0
100
AcDbLine
 62
7
  6
CONTINUOUS
 10
28.4464639863
 20
9.9492952276
 11
28.4413320479
 21
9.9698783083
  0
LINE
  5
425
100
AcDbEntity
  8
0
100
AcDbLine
 62
6
  6
CONTINUOUS
 10
28.0188332468
 20
11.6644284442
 11
28.0137013084
 21
11.6850115248
  0
LINE
  5
426
100
AcDbEntity
  8
0
100
AcDbLine
 62
7
  6
CONTINUOUS
 10
28.4091879994
 20
9.9719704644
 11
28.4047775264
 21
9.9927201084
  0
LINE
  5
427
100
AcDbEntity
  8
0
100
AcDbLine
 62
6
  6
CONTINUOUS
 10
28.041675047
 20
11.7009829658
 11
28.037264574
 21
11.7217326098
  0
LINE
  5
428
100
AcDbEntity
  8
0
100
AcDbLine
 62
7
  6
CONTINUOUS
 10
28.3727260743
 20
9.9959328012
 11
28.3690424402
 21
10.0168237284
  0
LINE
  5
429
100
AcDbEntity
  8
0
100
AcDbLine
 62
6
  6
CONTINUOUS
 10
28.065778667
 20
11.7367180519
 11
28.0620950329
 21
11.7576089792
  0
LINE
  5
42A
100
AcDbEntity
  8
0
100
AcDbLine
 62
7
  6
CONTINUOUS
 10
28.3371226344
 20
10.0211530437
 11
28.3341703271
 21
10.0421598017
  0
LINE
  5
42B
100
AcDbEntity
  8
0
100
AcDbLine
 62
7
  6
CONTINUOUS
 10
28.0911147402
 20
11.7715901651
 11
28.0881624329
 21
11.7925969231
  0
LINE
  5
42C
100
AcDbEntity
  8
0
100
AcDbLine
 62
7
  6
CONTINUOUS
 10
29.8522943739
 20
12.0092050888
 11
29.8545117574
 21
11.9881080935
  0
LINE
  5
42D
100
AcDbEntity
  8
0
100
AcDbLine
 62
7
  6
CONTINUOUS
 10
30.0370630321
 20
10.2512487347
 11
30.0392804157
 21
10.2301517394
  0
LINE
  5
42E
100
AcDbEntity
  8
0
100
AcDbLine
 62
6
  6
CONTINUOUS
 10
29.8860518105
 20
11.9815627112
 11
29.8875315687
 21
11.9604011821
  0
LINE
  5
42F
100
AcDbEntity
  8
0
100
AcDbLine
 62
6
  6
CONTINUOUS
 10
30.0093561206
 20
10.2182289234
 11
30.0108358789
 21
10.1970673943
  0
LINE
  5
430
100
AcDbEntity
  8
0
100
AcDbLine
 62
7
  6
CONTINUOUS
 10
29.9188239778
 20
11.952759055
 11
29.919564308
 21
11.9315587741
  0
LINE
  5
431
100
AcDbEntity
  8
0
100
AcDbLine
 62
7
  6
CONTINUOUS
 10
29.9805137127
 20
10.1861961842
 11
29.9812540428
 21
10.1649959033
  0
LINE
  5
432
100
AcDbEntity
  8
0
100
AcDbLine
 62
6
  6
CONTINUOUS
 10
29.9505709482
 20
11.9228292131
 11
29.9505709482
 21
11.9016160097
  0
LINE
  5
433
100
AcDbEntity
  8
0
100
AcDbLine
 62
6
  6
CONTINUOUS
 10
29.9505709482
 20
10.1551895439
 11
29.9505709482
 21
10.1339763405
  0
LINE
  5
434
100
AcDbEntity
  8
0
100
AcDbLine
 62
7
  6
CONTINUOUS
 10
29.9812540428
 20
11.8918096503
 11
29.9805137127
 21
11.8706093694
  0
LINE
  5
435
100
AcDbEntity
  8
0
100
AcDbLine
 62
7
  6
CONTINUOUS
 10
29.919564308
 20
10.1252467795
 11
29.9188239778
 21
10.1040464986
  0
LINE
  5
436
100
AcDbEntity
  8
0
100
AcDbLine
 62
6
  6
CONTINUOUS
 10
30.0108358789
 20
11.8597381593
 11
30.0093561206
 21
11.8385766302
  0
LINE
  5
437
100
AcDbEntity
  8
0
100
AcDbLine
 62
6
  6
CONTINUOUS
 10
29.8875315687
 20
10.0964043715
 11
29.8860518105
 21
10.0752428424
  0
LINE
  5
438
100
AcDbEntity
  8
0
100
AcDbLine
 62
7
  6
CONTINUOUS
 10
30.0392804157
 20
11.8266538142
 11
30.0370630321
 21
11.8055568189
  0
LINE
  5
439
100
AcDbEntity
  8
0
100
AcDbLine
 62
7
  6
CONTINUOUS
 10
29.8545117574
 20
10.06869746
 11
29.8522943739
 21
10.0476004648
  0
LINE
  5
43A
100
AcDbEntity
  8
0
100
AcDbLine
 62
6
  6
CONTINUOUS
 10
30.0665529978
 20
11.7925969231
 11
30.0636006905
 21
11.7715901651
  0
LINE
  5
43B
100
AcDbEntity
  8
0
100
AcDbLine
 62
6
  6
CONTINUOUS
 10
29.8205451036
 20
10.0421598017
 11
29.8175927963
 21
10.0211530437
  0
LINE
  5
43C
100
AcDbEntity
  8
0
100
AcDbLine
 62
7
  6
CONTINUOUS
 10
30.0926203978
 20
11.7576089792
 11
30.0889367637
 21
11.7367180519
  0
LINE
  5
43D
100
AcDbEntity
  8
0
100
AcDbLine
 62
7
  6
CONTINUOUS
 10
29.7856729905
 20
10.0168237284
 11
29.7819893564
 21
9.9959328012
  0
LINE
  5
43E
100
AcDbEntity
  8
0
100
AcDbLine
 62
6
  6
CONTINUOUS
 10
30.1174508567
 20
11.7217326098
 11
30.1130403837
 21
11.7009829658
  0
LINE
  5
43F
100
AcDbEntity
  8
0
100
AcDbLine
 62
6
  6
CONTINUOUS
 10
29.7499379043
 20
9.9927201084
 11
29.7455274313
 21
9.9719704644
  0
LINE
  5
440
100
AcDbEntity
  8
0
100
AcDbLine
 62
6
  6
CONTINUOUS
 10
30.1410141223
 20
11.6850115248
 11
30.1358821839
 21
11.6644284442
  0
LINE
  5
441
100
AcDbEntity
  8
0
100
AcDbLine
 62
6
  6
CONTINUOUS
 10
29.7133833828
 20
9.9698783083
 11
29.7082514444
 21
9.9492952276
  0
LINE
  5
442
100
AcDbEntity
  8
0
100
AcDbLine
 62
7
  6
CONTINUOUS
 10
30.1632814864
 20
11.6474904633
 11
30.1574343351
 21
11.6270990234
  0
LINE
  5
443
100
AcDbEntity
  8
0
100
AcDbLine
 62
7
  6
CONTINUOUS
 10
29.6760539619
 20
9.9483261571
 11
29.6702068106
 21
9.9279347172
  0
LINE
  5
444
100
AcDbEntity
  8
0
100
AcDbLine
 62
6
  6
CONTINUOUS
 10
30.1842258196
 20
11.6092151387
 11
30.1776705793
 21
11.5890401834
  0
LINE
  5
445
100
AcDbEntity
  8
0
100
AcDbLine
 62
7
  6
CONTINUOUS
 10
29.6379951219
 20
9.9280899129
 11
29.6314398816
 21
9.9079149575
  0
LINE
  5
446
100
AcDbEntity
  8
0
100
AcDbLine
 62
6
  6
CONTINUOUS
 10
30.2038216046
 20
11.5702321838
 11
30.1965662617
 21
11.550298293
  0
LINE
  5
447
100
AcDbEntity
  8
0
100
AcDbLine
 62
7
  6
CONTINUOUS
 10
29.5992532316
 20
9.9091942304
 11
29.5919978887
 21
9.8892603397
  0
LINE
  5
448
100
AcDbEntity
  8
0
100
AcDbLine
 62
7
  6
CONTINUOUS
 10
30.2220449668
 20
11.5305890931
 11
30.214098361
 21
11.5109205534
  0
LINE
  5
449
100
AcDbEntity
  8
0
100
AcDbLine
 62
7
  6
CONTINUOUS
 10
29.559875492
 20
9.8916621312
 11
29.5519288861
 21
9.8719935915
  0
LINE
  5
44A
100
AcDbEntity
  8
0
100
AcDbLine
 62
6
  6
CONTINUOUS
 10
30.238873704
 20
11.4903341658
 11
30.2302455168
 21
11.4709549402
  0
LINE
  5
44B
100
AcDbEntity
  8
0
100
AcDbLine
 62
7
  6
CONTINUOUS
 10
29.5199098788
 20
9.8755149753
 11
29.5112816916
 21
9.8561357497
  0
LINE
  5
44C
100
AcDbEntity
  8
0
100
AcDbLine
 62
6
  6
CONTINUOUS
 10
30.2542873128
 20
11.4495164463
 11
30.2449880565
 21
11.4304501454
  0
LINE
  5
44D
100
AcDbEntity
  8
0
100
AcDbLine
 62
7
  6
CONTINUOUS
 10
29.4794050839
 20
9.8607724357
 11
29.4701058276
 21
9.8417061347
  0
LINE
  5
44E
100
AcDbEntity
  8
0
100
AcDbLine
 62
7
  6
CONTINUOUS
 10
29.4701058276
 20
12.2150994189
 11
29.4794050839
 21
12.1960331179
  0
LINE
  5
44F
100
AcDbEntity
  8
0
100
AcDbLine
 62
6
  6
CONTINUOUS
 10
30.2449880565
 20
10.6263554082
 11
30.2542873128
 21
10.6072891073
  0
LINE
  5
450
100
AcDbEntity
  8
0
100
AcDbLine
 62
7
  6
CONTINUOUS
 10
29.5112816916
 20
12.2006698039
 11
29.5199098788
 21
12.1812905783
  0
LINE
  5
451
100
AcDbEntity
  8
0
100
AcDbLine
 62
6
  6
CONTINUOUS
 10
30.2302455168
 20
10.5858506134
 11
30.238873704
 21
10.5664713877
  0
LINE
  5
452
100
AcDbEntity
  8
0
100
AcDbLine
 62
7
  6
CONTINUOUS
 10
29.5519288861
 20
12.1848119621
 11
29.559875492
 21
12.1651434224
  0
LINE
  5
453
100
AcDbEntity
  8
0
100
AcDbLine
 62
7
  6
CONTINUOUS
 10
30.214098361
 20
10.5458850002
 11
30.2220449668
 21
10.5262164604
  0
LINE
  5
454
100
AcDbEntity
  8
0
100
AcDbLine
 62
7
  6
CONTINUOUS
 10
29.5919978887
 20
12.1675452139
 11
29.5992532316
 21
12.1476113231
  0
LINE
  5
455
100
AcDbEntity
  8
0
100
AcDbLine
 62
6
  6
CONTINUOUS
 10
30.1965662617
 20
10.5065072606
 11
30.2038216046
 21
10.4865733698
  0
LINE
  5
456
100
AcDbEntity
  8
0
100
AcDbLine
 62
7
  6
CONTINUOUS
 10
29.6314398816
 20
12.148890596
 11
29.6379951219
 21
12.1287156407
  0
LINE
  5
457
100
AcDbEntity
  8
0
100
AcDbLine
 62
6
  6
CONTINUOUS
 10
30.1776705793
 20
10.4677653702
 11
30.1842258196
 21
10.4475904149
  0
LINE
  5
458
100
AcDbEntity
  8
0
100
AcDbLine
 62
7
  6
CONTINUOUS
 10
29.6702068106
 20
12.1288708364
 11
29.6760539619
 21
12.1084793965
  0
LINE
  5
459
100
AcDbEntity
  8
0
100
AcDbLine
 62
7
  6
CONTINUOUS
 10
30.1574343351
 20
10.4297065302
 11
30.1632814864
 21
10.4093150903
  0
LINE
  5
45A
100
AcDbEntity
  8
0
100
AcDbLine
 62
6
  6
CONTINUOUS
 10
29.7082514444
 20
12.107510326
 11
29.7133833828
 21
12.0869272453
  0
LINE
  5
45B
100
AcDbEntity
  8
0
100
AcDbLine
 62
6
  6
CONTINUOUS
 10
30.1358821839
 20
10.3923771094
 11
30.1410141223
 21
10.3717940287
  0
LINE
  5
45C
100
AcDbEntity
  8
0
100
AcDbLine
 62
6
  6
CONTINUOUS
 10
29.7455274313
 20
12.0848350892
 11
29.7499379043
 21
12.0640854451
  0
LINE
  5
45D
100
AcDbEntity
  8
0
100
AcDbLine
 62
6
  6
CONTINUOUS
 10
30.1130403837
 20
10.3558225878
 11
30.1174508567
 21
10.3350729438
  0
LINE
  5
45E
100
AcDbEntity
  8
0
100
AcDbLine
 62
7
  6
CONTINUOUS
 10
29.7819893564
 20
12.0608727524
 11
29.7856729905
 21
12.0399818251
  0
LINE
  5
45F
100
AcDbEntity
  8
0
100
AcDbLine
 62
7
  6
CONTINUOUS
 10
30.0889367637
 20
10.3200875016
 11
30.0926203978
 21
10.2991965744
  0
LINE
  5
460
100
AcDbEntity
  8
0
100
AcDbLine
 62
6
  6
CONTINUOUS
 10
29.8175927963
 20
12.0356525099
 11
29.8205451036
 21
12.0146457519
  0
LINE
  5
461
100
AcDbEntity
  8
0
100
AcDbLine
 62
6
  6
CONTINUOUS
 10
30.0636006905
 20
10.2852153885
 11
30.0665529978
 21
10.2642086305
  0
ARC
  5
462
100
AcDbEntity
  8
0
100
AcDbCircle
 62
6
  6
CONTINUOUS
 10
5.0773577154
 20
11.0284027768
 40
1.25
100
AcDbArc
 50
59.6875658564
 51
60.3124341436
  0
ARC
  5
463
100
AcDbEntity
  8
0
100
AcDbCircle
 62
6
  6
CONTINUOUS
 10
29.0773577154
 20
11.0284027768
 40
1.25
100
AcDbArc
 50
130.3356701045
 51
131.6582328469
  0
ARC
  5
464
100
AcDbEntity
  8
0
100
AcDbCircle
 62
6
  6
CONTINUOUS
 10
29.0773577154
 20
11.0284027768
 40
1.25
100
AcDbArc
 50
108.3417671531
 51
109.6643298955
  0
ARC
  5
465
100
AcDbEntity
  8
0
100
AcDbCircle
 62
6
  6
CONTINUOUS
 10
29.0773577154
 20
11.0284027768
 40
1.25
100
AcDbArc
 50
70.3356701045
 51
71.6582328469
  0
ARC
  5
466
100
AcDbEntity
  8
0
100
AcDbCircle
 62
6
  6
CONTINUOUS
 10
29.0773577154
 20
11.0284027768
 40
1.25
100
AcDbArc
 50
48.3417671531
 51
49.6643298955
  0
ARC
  5
467
100
AcDbEntity
  8
0
100
AcDbCircle
 62
6
  6
CONTINUOUS
 10
29.0773577154
 20
11.0284027768
 40
1.25
100
AcDbArc
 50
10.3356701045
 51
11.6582328469
  0
ARC
  5
468
100
AcDbEntity
  8
0
100
AcDbCircle
 62
6
  6
CONTINUOUS
 10
29.0773577154
 20
11.0284027768
 40
1.25
100
AcDbArc
 50
228.3417671531
 51
229.6643298955
  0
ARC
  5
469
100
AcDbEntity
  8
0
100
AcDbCircle
 62
6
  6
CONTINUOUS
 10
29.0773577154
 20
11.0284027768
 40
1.25
100
AcDbArc
 50
250.3356701045
 51
251.6582328469
  0
ARC
  5
46A
100
AcDbEntity
  8
0
100
AcDbCircle
 62
6
  6
CONTINUOUS
 10
29.0773577154
 20
11.0284027768
 40
1.25
100
AcDbArc
 50
288.3417671531
 51
289.6643298955
  0
ARC
  5
46B
100
AcDbEntity
  8
0
100
AcDbCircle
 62
6
  6
CONTINUOUS
 10
29.0773577154
 20
11.0284027768
 40
1.25
100
AcDbArc
 50
310.3356701045
 51
311.6582328469
  0
ARC
  5
46C
100
AcDbEntity
  8
0
100
AcDbCircle
 62
6
  6
CONTINUOUS
 10
29.0773577154
 20
11.0284027768
 40
1.25
100
AcDbArc
 50
348.3417671531
 51
349.6643298955
  0
ARC
  5
46D
100
AcDbEntity
  8
0
100
AcDbCircle
 62
6
  6
CONTINUOUS
 10
5.0773577154
 20
11.0284027768
 40
1.25
100
AcDbArc
 50
119.6875658564
 51
120.3124341436
  0
ARC
  5
46E
100
AcDbEntity
  8
0
100
AcDbCircle
 62
6
  6
CONTINUOUS
 10
5.0773577154
 20
11.0284027768
 40
1.25
100
AcDbArc
 50
179.6875658564
 51
180.3124341436
  0
ARC
  5
46F
100
AcDbEntity
  8
0
100
AcDbCircle
 62
6
  6
CONTINUOUS
 10
5.0773577154
 20
11.0284027768
 40
1.25
100
AcDbArc
 50
239.6875658564
 51
240.3124341436
  0
ARC
  5
470
100
AcDbEntity
  8
0
100
AcDbCircle
 62
6
  6
CONTINUOUS
 10
29.0773577154
 20
11.0284027768
 40
1.25
100
AcDbArc
 50
37.6875658564
 51
44.3124341436
  0
ARC
  5
471
100
AcDbEntity
  8
0
100
AcDbCircle
 62
6
  6
CONTINUOUS
 10
29.0773577154
 20
11.0284027768
 40
1.25
100
AcDbArc
 50
32.3291079222
 51
37.6652614273
  0
ARC
  5
472
100
AcDbEntity
  8
0
100
AcDbCircle
 62
6
  6
CONTINUOUS
 10
29.0773577154
 20
11.0284027768
 40
1.25
100
AcDbArc
 50
27.6875658564
 51
32.3124341436
  0
ARC
  5
473
100
AcDbEntity
  8
0
100
AcDbCircle
 62
6
  6
CONTINUOUS
 10
29.0773577154
 20
11.0284027768
 40
1.25
100
AcDbArc
 50
22.3347385727
 51
27.6708920778
  0
ARC
  5
474
100
AcDbEntity
  8
0
100
AcDbCircle
 62
6
  6
CONTINUOUS
 10
29.0773577154
 20
11.0284027768
 40
1.25
100
AcDbArc
 50
15.6875658564
 51
22.3124341436
  0
ARC
  5
475
100
AcDbEntity
  8
0
100
AcDbCircle
 62
6
  6
CONTINUOUS
 10
29.0773577154
 20
11.0284027768
 40
1.25
100
AcDbArc
 50
11.6875658564
 51
15.6583328189
  0
ARC
  5
476
100
AcDbEntity
  8
0
100
AcDbCircle
 62
6
  6
CONTINUOUS
 10
29.0773577154
 20
11.0284027768
 40
1.25
100
AcDbArc
 50
0.3271295853
 51
10.3124341436
  0
ARC
  5
477
100
AcDbEntity
  8
0
100
AcDbCircle
 62
6
  6
CONTINUOUS
 10
29.0773577154
 20
11.0284027768
 40
1.25
100
AcDbArc
 50
359.6875658564
 51
0.3124341436
  0
ARC
  5
478
100
AcDbEntity
  8
0
100
AcDbCircle
 62
6
  6
CONTINUOUS
 10
29.0773577154
 20
11.0284027768
 40
1.25
100
AcDbArc
 50
349.6875658564
 51
359.6728704147
  0
ARC
  5
479
100
AcDbEntity
  8
0
100
AcDbCircle
 62
6
  6
CONTINUOUS
 10
29.0773577154
 20
11.0284027768
 40
1.25
100
AcDbArc
 50
344.3416671811
 51
348.3124341436
  0
ARC
  5
47A
100
AcDbEntity
  8
0
100
AcDbCircle
 62
6
  6
CONTINUOUS
 10
29.0773577154
 20
11.0284027768
 40
1.25
100
AcDbArc
 50
337.6875658564
 51
344.3124341436
  0
ARC
  5
47B
100
AcDbEntity
  8
0
100
AcDbCircle
 62
6
  6
CONTINUOUS
 10
29.0773577154
 20
11.0284027768
 40
1.25
100
AcDbArc
 50
332.3291079222
 51
337.6652614273
  0
ARC
  5
47C
100
AcDbEntity
  8
0
100
AcDbCircle
 62
6
  6
CONTINUOUS
 10
29.0773577154
 20
11.0284027768
 40
1.25
100
AcDbArc
 50
327.6875658564
 51
332.3124341436
  0
ARC
  5
47D
100
AcDbEntity
  8
0
100
AcDbCircle
 62
6
  6
CONTINUOUS
 10
29.0773577154
 20
11.0284027768
 40
1.25
100
AcDbArc
 50
322.3347385727
 51
327.6708920778
  0
ARC
  5
47E
100
AcDbEntity
  8
0
100
AcDbCircle
 62
6
  6
CONTINUOUS
 10
5.0773577154
 20
11.0284027768
 40
1.25
100
AcDbArc
 50
299.6875658564
 51
300.3124341436
  0
ARC
  5
47F
100
AcDbEntity
  8
0
100
AcDbCircle
 62
6
  6
CONTINUOUS
 10
29.0773577154
 20
11.0284027768
 40
1.25
100
AcDbArc
 50
315.6875658564
 51
322.3124341436
  0
ARC
  5
480
100
AcDbEntity
  8
0
100
AcDbCircle
 62
6
  6
CONTINUOUS
 10
29.0773577154
 20
11.0284027768
 40
1.25
100
AcDbArc
 50
311.6875658564
 51
315.6583328189
  0
ARC
  5
481
100
AcDbEntity
  8
0
100
AcDbCircle
 62
6
  6
CONTINUOUS
 10
29.0773577154
 20
11.0284027768
 40
1.25
100
AcDbArc
 50
300.3271295853
 51
310.3124341436
  0
ARC
  5
482
100
AcDbEntity
  8
0
100
AcDbCircle
 62
6
  6
CONTINUOUS
 10
29.0773577154
 20
11.0284027768
 40
1.25
100
AcDbArc
 50
299.6875658564
 51
300.3124341436
  0
ARC
  5
483
100
AcDbEntity
  8
0
100
AcDbCircle
 62
6
  6
CONTINUOUS
 10
29.0773577154
 20
11.0284027768
 40
1.25
100
AcDbArc
 50
289.6875658564
 51
299.6728704147
  0
ARC
  5
484
100
AcDbEntity
  8
0
100
AcDbCircle
 62
6
  6
CONTINUOUS
 10
29.0773577154
 20
11.0284027768
 40
1.25
100
AcDbArc
 50
284.3416671811
 51
288.3124341436
  0
ARC
  5
485
100
AcDbEntity
  8
0
100
AcDbCircle
 62
6
  6
CONTINUOUS
 10
29.0773577154
 20
11.0284027768
 40
1.25
100
AcDbArc
 50
277.6875658564
 51
284.3124341436
  0
ARC
  5
486
100
AcDbEntity
  8
0
100
AcDbCircle
 62
6
  6
CONTINUOUS
 10
29.0773577154
 20
11.0284027768
 40
1.25
100
AcDbArc
 50
272.3291079222
 51
277.6652614273
  0
ARC
  5
487
100
AcDbEntity
  8
0
100
AcDbCircle
 62
6
  6
CONTINUOUS
 10
29.0773577154
 20
11.0284027768
 40
1.25
100
AcDbArc
 50
267.6875658564
 51
272.3124341436
  0
ARC
  5
488
100
AcDbEntity
  8
0
100
AcDbCircle
 62
6
  6
CONTINUOUS
 10
29.0773577154
 20
11.0284027768
 40
1.25
100
AcDbArc
 50
262.3347385727
 51
267.6708920778
  0
ARC
  5
489
100
AcDbEntity
  8
0
100
AcDbCircle
 62
6
  6
CONTINUOUS
 10
29.0773577154
 20
11.0284027768
 40
1.25
100
AcDbArc
 50
255.6875658564
 51
262.3124341436
  0
ARC
  5
48A
100
AcDbEntity
  8
0
100
AcDbCircle
 62
6
  6
CONTINUOUS
 10
29.0773577154
 20
11.0284027768
 40
1.25
100
AcDbArc
 50
251.6875658564
 51
255.6583328189
  0
ARC
  5
48B
100
AcDbEntity
  8
0
100
AcDbCircle
 62
6
  6
CONTINUOUS
 10
29.0773577154
 20
11.0284027768
 40
1.25
100
AcDbArc
 50
240.3271295853
 51
250.3124341436
  0
ARC
  5
48C
100
AcDbEntity
  8
0
100
AcDbCircle
 62
6
  6
CONTINUOUS
 10
29.0773577154
 20
11.0284027768
 40
1.25
100
AcDbArc
 50
239.6875658564
 51
240.3124341436
  0
ARC
  5
48D
100
AcDbEntity
  8
0
100
AcDbCircle
 62
6
  6
CONTINUOUS
 10
29.0773577154
 20
11.0284027768
 40
1.25
100
AcDbArc
 50
229.6875658564
 51
239.6728704147
  0
ARC
  5
48E
100
AcDbEntity
  8
0
100
AcDbCircle
 62
6
  6
CONTINUOUS
 10
29.0773577154
 20
11.0284027768
 40
1.25
100
AcDbArc
 50
224.3416671811
 51
228.3124341436
  0
ARC
  5
48F
100
AcDbEntity
  8
0
100
AcDbCircle
 62
6
  6
CONTINUOUS
 10
29.0773577154
 20
11.0284027768
 40
1.25
100
AcDbArc
 50
217.6875658564
 51
224.3124341436
  0
ARC
  5
490
100
AcDbEntity
  8
0
100
AcDbCircle
 62
6
  6
CONTINUOUS
 10
29.0773577154
 20
11.0284027768
 40
1.25
100
AcDbArc
 50
212.3291079222
 51
217.6652614273
  0
ARC
  5
491
100
AcDbEntity
  8
0
100
AcDbCircle
 62
6
  6
CONTINUOUS
 10
29.0773577154
 20
11.0284027768
 40
1.25
100
AcDbArc
 50
210.0000000862
 51
212.3124341436
  0
ARC
  5
492
100
AcDbEntity
  8
0
100
AcDbCircle
 62
6
  6
CONTINUOUS
 10
29.0773577154
 20
11.0284027768
 40
1.25
100
AcDbArc
 50
147.6875658564
 51
149.9999999151
  0
ARC
  5
493
100
AcDbEntity
  8
0
100
AcDbCircle
 62
6
  6
CONTINUOUS
 10
29.0773577154
 20
11.0284027768
 40
1.25
100
AcDbArc
 50
142.3347385727
 51
147.6708920778
  0
ARC
  5
494
100
AcDbEntity
  8
0
100
AcDbCircle
 62
6
  6
CONTINUOUS
 10
29.0773577154
 20
11.0284027768
 40
1.25
100
AcDbArc
 50
135.6875658564
 51
142.3124341436
  0
ARC
  5
495
100
AcDbEntity
  8
0
100
AcDbCircle
 62
6
  6
CONTINUOUS
 10
29.0773577154
 20
11.0284027768
 40
1.25
100
AcDbArc
 50
131.6875658564
 51
135.6583328189
  0
ARC
  5
496
100
AcDbEntity
  8
0
100
AcDbCircle
 62
6
  6
CONTINUOUS
 10
29.0773577154
 20
11.0284027768
 40
1.25
100
AcDbArc
 50
120.3271295853
 51
130.3124341436
  0
ARC
  5
497
100
AcDbEntity
  8
0
100
AcDbCircle
 62
6
  6
CONTINUOUS
 10
29.0773577154
 20
11.0284027768
 40
1.25
100
AcDbArc
 50
119.6875658564
 51
120.3124341436
  0
ARC
  5
498
100
AcDbEntity
  8
0
100
AcDbCircle
 62
6
  6
CONTINUOUS
 10
29.0773577154
 20
11.0284027768
 40
1.25
100
AcDbArc
 50
109.6875658564
 51
119.6728704147
  0
ARC
  5
499
100
AcDbEntity
  8
0
100
AcDbCircle
 62
6
  6
CONTINUOUS
 10
29.0773577154
 20
11.0284027768
 40
1.25
100
AcDbArc
 50
104.3416671811
 51
108.3124341436
  0
ARC
  5
49A
100
AcDbEntity
  8
0
100
AcDbCircle
 62
6
  6
CONTINUOUS
 10
29.0773577154
 20
11.0284027768
 40
1.25
100
AcDbArc
 50
97.6875658564
 51
104.3124341436
  0
ARC
  5
49B
100
AcDbEntity
  8
0
100
AcDbCircle
 62
6
  6
CONTINUOUS
 10
29.0773577154
 20
11.0284027768
 40
1.25
100
AcDbArc
 50
92.3291079222
 51
97.6652614273
  0
ARC
  5
49C
100
AcDbEntity
  8
0
100
AcDbCircle
 62
6
  6
CONTINUOUS
 10
29.0773577154
 20
11.0284027768
 40
1.25
100
AcDbArc
 50
87.6875658564
 51
92.3124341436
  0
ARC
  5
49D
100
AcDbEntity
  8
0
100
AcDbCircle
 62
6
  6
CONTINUOUS
 10
29.0773577154
 20
11.0284027768
 40
1.25
100
AcDbArc
 50
82.3347385727
 51
87.6708920778
  0
ARC
  5
49E
100
AcDbEntity
  8
0
100
AcDbCircle
 62
6
  6
CONTINUOUS
 10
29.0773577154
 20
11.0284027768
 40
1.25
100
AcDbArc
 50
75.6875658564
 51
82.3124341436
  0
ARC
  5
49F
100
AcDbEntity
  8
0
100
AcDbCircle
 62
6
  6
CONTINUOUS
 10
29.0773577154
 20
11.0284027768
 40
1.25
100
AcDbArc
 50
71.6875658564
 51
75.6583328189
  0
ARC
  5
4A0
100
AcDbEntity
  8
0
100
AcDbCircle
 62
6
  6
CONTINUOUS
 10
29.0773577154
 20
11.0284027768
 40
1.25
100
AcDbArc
 50
60.3271295853
 51
70.3124341436
  0
ARC
  5
4A1
100
AcDbEntity
  8
0
100
AcDbCircle
 62
6
  6
CONTINUOUS
 10
29.0773577154
 20
11.0284027768
 40
1.25
100
AcDbArc
 50
59.6875658564
 51
60.3124341436
  0
ARC
  5
4A2
100
AcDbEntity
  8
0
100
AcDbCircle
 62
6
  6
CONTINUOUS
 10
29.0773577154
 20
11.0284027768
 40
1.25
100
AcDbArc
 50
49.6875658564
 51
59.6728704147
  0
ARC
  5
4A3
100
AcDbEntity
  8
0
100
AcDbCircle
 62
6
  6
CONTINUOUS
 10
29.0773577154
 20
11.0284027768
 40
1.25
100
AcDbArc
 50
44.3416671811
 51
48.3124341436
  0
ARC
  5
4A4
100
AcDbEntity
  8
0
100
AcDbCircle
 62
6
  6
CONTINUOUS
 10
5.0773577154
 20
11.0284027768
 40
1.25
100
AcDbArc
 50
180.3271295853
 51
190.3124341436
  0
ARC
  5
4A5
100
AcDbEntity
  8
0
100
AcDbCircle
 62
6
  6
CONTINUOUS
 10
5.0773577154
 20
11.0284027768
 40
1.25
100
AcDbArc
 50
190.3356701045
 51
191.6582328469
  0
ARC
  5
4A6
100
AcDbEntity
  8
0
100
AcDbCircle
 62
6
  6
CONTINUOUS
 10
5.0773577154
 20
11.0284027768
 40
1.25
100
AcDbArc
 50
191.6875658564
 51
195.6583328189
  0
ARC
  5
4A7
100
AcDbEntity
  8
0
100
AcDbCircle
 62
6
  6
CONTINUOUS
 10
5.0773577154
 20
11.0284027768
 40
1.25
100
AcDbArc
 50
195.6875658564
 51
202.3124341436
  0
ARC
  5
4A8
100
AcDbEntity
  8
0
100
AcDbCircle
 62
6
  6
CONTINUOUS
 10
5.0773577154
 20
11.0284027768
 40
1.25
100
AcDbArc
 50
202.3347385727
 51
207.6708920778
  0
ARC
  5
4A9
100
AcDbEntity
  8
0
100
AcDbCircle
 62
6
  6
CONTINUOUS
 10
5.0773577154
 20
11.0284027768
 40
1.25
100
AcDbArc
 50
207.6875658564
 51
212.3124341436
  0
ARC
  5
4AA
100
AcDbEntity
  8
0
100
AcDbCircle
 62
6
  6
CONTINUOUS
 10
5.0773577154
 20
11.0284027768
 40
1.25
100
AcDbArc
 50
212.3291079222
 51
217.6652614273
  0
ARC
  5
4AB
100
AcDbEntity
  8
0
100
AcDbCircle
 62
6
  6
CONTINUOUS
 10
5.0773577154
 20
11.0284027768
 40
1.25
100
AcDbArc
 50
217.6875658564
 51
224.3124341436
  0
ARC
  5
4AC
100
AcDbEntity
  8
0
100
AcDbCircle
 62
6
  6
CONTINUOUS
 10
5.0773577154
 20
11.0284027768
 40
1.25
100
AcDbArc
 50
224.3416671811
 51
228.3124341436
  0
ARC
  5
4AD
100
AcDbEntity
  8
0
100
AcDbCircle
 62
6
  6
CONTINUOUS
 10
5.0773577154
 20
11.0284027768
 40
1.25
100
AcDbArc
 50
228.3417671531
 51
229.6643298955
  0
ARC
  5
4AE
100
AcDbEntity
  8
0
100
AcDbCircle
 62
6
  6
CONTINUOUS
 10
5.0773577154
 20
11.0284027768
 40
1.25
100
AcDbArc
 50
229.6875658564
 51
239.6728704147
  0
ARC
  5
4AF
100
AcDbEntity
  8
0
100
AcDbCircle
 62
6
  6
CONTINUOUS
 10
5.0773577154
 20
11.0284027768
 40
1.25
100
AcDbArc
 50
240.3271295853
 51
250.3124341436
  0
ARC
  5
4B0
100
AcDbEntity
  8
0
100
AcDbCircle
 62
6
  6
CONTINUOUS
 10
5.0773577154
 20
11.0284027768
 40
1.25
100
AcDbArc
 50
250.3356701045
 51
251.6582328469
  0
ARC
  5
4B1
100
AcDbEntity
  8
0
100
AcDbCircle
 62
6
  6
CONTINUOUS
 10
5.0773577154
 20
11.0284027768
 40
1.25
100
AcDbArc
 50
251.6875658564
 51
255.6583328189
  0
ARC
  5
4B2
100
AcDbEntity
  8
0
100
AcDbCircle
 62
6
  6
CONTINUOUS
 10
5.0773577154
 20
11.0284027768
 40
1.25
100
AcDbArc
 50
255.6875658564
 51
262.3124341436
  0
ARC
  5
4B3
100
AcDbEntity
  8
0
100
AcDbCircle
 62
6
  6
CONTINUOUS
 10
5.0773577154
 20
11.0284027768
 40
1.25
100
AcDbArc
 50
262.3347385727
 51
267.6708920778
  0
ARC
  5
4B4
100
AcDbEntity
  8
0
100
AcDbCircle
 62
6
  6
CONTINUOUS
 10
5.0773577154
 20
11.0284027768
 40
1.25
100
AcDbArc
 50
267.6875658564
 51
272.3124341436
  0
ARC
  5
4B5
100
AcDbEntity
  8
0
100
AcDbCircle
 62
6
  6
CONTINUOUS
 10
5.0773577154
 20
11.0284027768
 40
1.25
100
AcDbArc
 50
272.3291079222
 51
277.6652614273
  0
ARC
  5
4B6
100
AcDbEntity
  8
0
100
AcDbCircle
 62
6
  6
CONTINUOUS
 10
5.0773577154
 20
11.0284027768
 40
1.25
100
AcDbArc
 50
277.6875658564
 51
284.3124341436
  0
ARC
  5
4B7
100
AcDbEntity
  8
0
100
AcDbCircle
 62
6
  6
CONTINUOUS
 10
5.0773577154
 20
11.0284027768
 40
1.25
100
AcDbArc
 50
284.3416671811
 51
288.3124341436
  0
ARC
  5
4B8
100
AcDbEntity
  8
0
100
AcDbCircle
 62
6
  6
CONTINUOUS
 10
5.0773577154
 20
11.0284027768
 40
1.25
100
AcDbArc
 50
288.3417671531
 51
289.6643298955
  0
ARC
  5
4B9
100
AcDbEntity
  8
0
100
AcDbCircle
 62
6
  6
CONTINUOUS
 10
5.0773577154
 20
11.0284027768
 40
1.25
100
AcDbArc
 50
289.6875658564
 51
299.6728704147
  0
ARC
  5
4BA
100
AcDbEntity
  8
0
100
AcDbCircle
 62
6
  6
CONTINUOUS
 10
5.0773577154
 20
11.0284027768
 40
1.25
100
AcDbArc
 50
300.3271295853
 51
310.3124341436
  0
ARC
  5
4BB
100
AcDbEntity
  8
0
100
AcDbCircle
 62
6
  6
CONTINUOUS
 10
5.0773577154
 20
11.0284027768
 40
1.25
100
AcDbArc
 50
310.3356701045
 51
311.6582328469
  0
ARC
  5
4BC
100
AcDbEntity
  8
0
100
AcDbCircle
 62
6
  6
CONTINUOUS
 10
5.0773577154
 20
11.0284027768
 40
1.25
100
AcDbArc
 50
311.6875658564
 51
315.6583328189
  0
ARC
  5
4BD
100
AcDbEntity
  8
0
100
AcDbCircle
 62
6
  6
CONTINUOUS
 10
5.0773577154
 20
11.0284027768
 40
1.25
100
AcDbArc
 50
315.6875658564
 51
322.3124341436
  0
ARC
  5
4BE
100
AcDbEntity
  8
0
100
AcDbCircle
 62
6
  6
CONTINUOUS
 10
5.0773577154
 20
11.0284027768
 40
1.25
100
AcDbArc
 50
322.3347385727
 51
327.6708920778
  0
ARC
  5
4BF
100
AcDbEntity
  8
0
100
AcDbCircle
 62
6
  6
CONTINUOUS
 10
5.0773577154
 20
11.0284027768
 40
1.25
100
AcDbArc
 50
327.6875658564
 51
329.9999999638
  0
ARC
  5
4C0
100
AcDbEntity
  8
0
100
AcDbCircle
 62
6
  6
CONTINUOUS
 10
5.0773577154
 20
11.0284027768
 40
1.25
100
AcDbArc
 50
169.6875658564
 51
179.6728704147
  0
ARC
  5
4C1
100
AcDbEntity
  8
0
100
AcDbCircle
 62
6
  6
CONTINUOUS
 10
5.0773577154
 20
11.0284027768
 40
1.25
100
AcDbArc
 50
168.3417671531
 51
169.6643298955
  0
ARC
  5
4C2
100
AcDbEntity
  8
0
100
AcDbCircle
 62
6
  6
CONTINUOUS
 10
5.0773577154
 20
11.0284027768
 40
1.25
100
AcDbArc
 50
164.3416671811
 51
168.3124341436
  0
ARC
  5
4C3
100
AcDbEntity
  8
0
100
AcDbCircle
 62
6
  6
CONTINUOUS
 10
5.0773577154
 20
11.0284027768
 40
1.25
100
AcDbArc
 50
157.6875658564
 51
164.3124341436
  0
ARC
  5
4C4
100
AcDbEntity
  8
0
100
AcDbCircle
 62
6
  6
CONTINUOUS
 10
5.0773577154
 20
11.0284027768
 40
1.25
100
AcDbArc
 50
152.3291079222
 51
157.6652614273
  0
ARC
  5
4C5
100
AcDbEntity
  8
0
100
AcDbCircle
 62
6
  6
CONTINUOUS
 10
5.0773577154
 20
11.0284027768
 40
1.25
100
AcDbArc
 50
147.6875658564
 51
152.3124341436
  0
ARC
  5
4C6
100
AcDbEntity
  8
0
100
AcDbCircle
 62
6
  6
CONTINUOUS
 10
5.0773577154
 20
11.0284027768
 40
1.25
100
AcDbArc
 50
142.3347385727
 51
147.6708920778
  0
ARC
  5
4C7
100
AcDbEntity
  8
0
100
AcDbCircle
 62
6
  6
CONTINUOUS
 10
5.0773577154
 20
11.0284027768
 40
1.25
100
AcDbArc
 50
135.6875658564
 51
142.3124341436
  0
ARC
  5
4C8
100
AcDbEntity
  8
0
100
AcDbCircle
 62
6
  6
CONTINUOUS
 10
5.0773577154
 20
11.0284027768
 40
1.25
100
AcDbArc
 50
131.6875658564
 51
135.6583328189
  0
ARC
  5
4C9
100
AcDbEntity
  8
0
100
AcDbCircle
 62
6
  6
CONTINUOUS
 10
5.0773577154
 20
11.0284027768
 40
1.25
100
AcDbArc
 50
130.3356701045
 51
131.6582328469
  0
ARC
  5
4CA
100
AcDbEntity
  8
0
100
AcDbCircle
 62
6
  6
CONTINUOUS
 10
5.0773577154
 20
11.0284027768
 40
1.25
100
AcDbArc
 50
120.3271295853
 51
130.3124341436
  0
ARC
  5
4CB
100
AcDbEntity
  8
0
100
AcDbCircle
 62
6
  6
CONTINUOUS
 10
5.0773577154
 20
11.0284027768
 40
1.25
100
AcDbArc
 50
109.6875658564
 51
119.6728704147
  0
ARC
  5
4CC
100
AcDbEntity
  8
0
100
AcDbCircle
 62
6
  6
CONTINUOUS
 10
5.0773577154
 20
11.0284027768
 40
1.25
100
AcDbArc
 50
108.3417671531
 51
109.6643298955
  0
ARC
  5
4CD
100
AcDbEntity
  8
0
100
AcDbCircle
 62
6
  6
CONTINUOUS
 10
5.0773577154
 20
11.0284027768
 40
1.25
100
AcDbArc
 50
104.3416671811
 51
108.3124341436
  0
ARC
  5
4CE
100
AcDbEntity
  8
0
100
AcDbCircle
 62
6
  6
CONTINUOUS
 10
5.0773577154
 20
11.0284027768
 40
1.25
100
AcDbArc
 50
97.6875658564
 51
104.3124341436
  0
ARC
  5
4CF
100
AcDbEntity
  8
0
100
AcDbCircle
 62
6
  6
CONTINUOUS
 10
5.0773577154
 20
11.0284027768
 40
1.25
100
AcDbArc
 50
92.3291079222
 51
97.6652614273
  0
ARC
  5
4D0
100
AcDbEntity
  8
0
100
AcDbCircle
 62
6
  6
CONTINUOUS
 10
5.0773577154
 20
11.0284027768
 40
1.25
100
AcDbArc
 50
87.6875658564
 51
92.3124341436
  0
ARC
  5
4D1
100
AcDbEntity
  8
0
100
AcDbCircle
 62
6
  6
CONTINUOUS
 10
5.0773577154
 20
11.0284027768
 40
1.25
100
AcDbArc
 50
82.3347385727
 51
87.6708920778
  0
ARC
  5
4D2
100
AcDbEntity
  8
0
100
AcDbCircle
 62
6
  6
CONTINUOUS
 10
5.0773577154
 20
11.0284027768
 40
1.25
100
AcDbArc
 50
75.6875658564
 51
82.3124341436
  0
ARC
  5
4D3
100
AcDbEntity
  8
0
100
AcDbCircle
 62
6
  6
CONTINUOUS
 10
5.0773577154
 20
11.0284027768
 40
1.25
100
AcDbArc
 50
71.6875658564
 51
75.6583328189
  0
ARC
  5
4D4
100
AcDbEntity
  8
0
100
AcDbCircle
 62
6
  6
CONTINUOUS
 10
5.0773577154
 20
11.0284027768
 40
1.25
100
AcDbArc
 50
70.3356701045
 51
71.6582328469
  0
ARC
  5
4D5
100
AcDbEntity
  8
0
100
AcDbCircle
 62
6
  6
CONTINUOUS
 10
5.0773577154
 20
11.0284027768
 40
1.25
100
AcDbArc
 50
60.3271295853
 51
70.3124341436
  0
ARC
  5
4D6
100
AcDbEntity
  8
0
100
AcDbCircle
 62
6
  6
CONTINUOUS
 10
5.0773577154
 20
11.0284027768
 40
1.25
100
AcDbArc
 50
49.6875658564
 51
59.6728704147
  0
ARC
  5
4D7
100
AcDbEntity
  8
0
100
AcDbCircle
 62
6
  6
CONTINUOUS
 10
5.0773577154
 20
11.0284027768
 40
1.25
100
AcDbArc
 50
48.3417671531
 51
49.6643298955
  0
ARC
  5
4D8
100
AcDbEntity
  8
0
100
AcDbCircle
 62
6
  6
CONTINUOUS
 10
5.0773577154
 20
11.0284027768
 40
1.25
100
AcDbArc
 50
44.3416671811
 51
48.3124341436
  0
ARC
  5
4D9
100
AcDbEntity
  8
0
100
AcDbCircle
 62
6
  6
CONTINUOUS
 10
5.0773577154
 20
11.0284027768
 40
1.25
100
AcDbArc
 50
37.6875658564
 51
44.3124341436
  0
ARC
  5
4DA
100
AcDbEntity
  8
0
100
AcDbCircle
 62
6
  6
CONTINUOUS
 10
5.0773577154
 20
11.0284027768
 40
1.25
100
AcDbArc
 50
32.3291079222
 51
37.6652614273
  0
ARC
  5
4DB
100
AcDbEntity
  8
0
100
AcDbCircle
 62
6
  6
CONTINUOUS
 10
5.0773577154
 20
11.0284027768
 40
1.25
100
AcDbArc
 50
30.0000000357
 51
32.3124341436
  0
ARC
  5
4DC
100
AcDbEntity
  8
0
100
AcDbCircle
 62
7
  6
CONTINUOUS
 10
29.0773577154
 20
11.0284027768
 40
1.175
100
AcDbArc
 50
212.1692021223
 51
147.8307978777
  0
ARC
  5
4DD
100
AcDbEntity
  8
0
100
AcDbCircle
 62
7
  6
CONTINUOUS
 10
5.0773577154
 20
11.0284027768
 40
1.175
100
AcDbArc
 50
32.1692021223
 51
327.8307978777
  0
ARC
  5
4DE
100
AcDbEntity
  8
0
100
AcDbCircle
 62
6
  6
CONTINUOUS
 10
29.0773577154
 20
11.0284027768
 40
1.075
100
AcDbArc
 50
215.559564643
 51
144.440435357
  0
ARC
  5
4DF
100
AcDbEntity
  8
0
100
AcDbCircle
 62
6
  6
CONTINUOUS
 10
5.0773577154
 20
11.0284027768
 40
1.075
100
AcDbArc
 50
35.559564643
 51
324.440435357
  0
ARC
  5
4E0
100
AcDbEntity
  8
0
100
AcDbCircle
 62
7
  6
CONTINUOUS
 10
29.0773577154
 20
11.0284027768
 40
1.025
100
AcDbArc
 50
217.6205605486
 51
142.3794394514
  0
ARC
  5
4E1
100
AcDbEntity
  8
0
100
AcDbCircle
 62
7
  6
CONTINUOUS
 10
5.0773577154
 20
11.0284027768
 40
1.025
100
AcDbArc
 50
37.6205605486
 51
322.3794394514
  0
ARC
  5
4E2
100
AcDbEntity
  8
0
100
AcDbCircle
 62
6
  6
CONTINUOUS
 10
29.0773577154
 20
11.0284027768
 40
0.925
100
AcDbArc
 50
222.51096672
 51
137.48903328
  0
ARC
  5
4E3
100
AcDbEntity
  8
0
100
AcDbCircle
 62
6
  6
CONTINUOUS
 10
5.0773577154
 20
11.0284027768
 40
0.925
100
AcDbArc
 50
42.51096672
 51
317.48903328
  0
ENDSEC
  0
SECTION
  2
OBJECTS
  0
DICTIONARY
  5
C
100
AcDbDictionary
280
0
281
1
  3
ACAD_GROUP
350
D
  3
ACAD_MLINESTYLE
350
17
  3
ACAD_LAYOUT
350
1A
  3
ACAD_PLOTSETTINGS
350
19
  3
ACAD_PLOTSTYLENAME
350
E
  0
DICTIONARY
  5
D
102
{ACAD_REACTORS
330
C
102
}
100
AcDbDictionary
280
0
281
1
  0
ACDBDICTIONARYWDFLT
  5
E
102
{ACAD_REACTORS
330
C
102
}
100
AcDbDictionary
281
1
  3
Normal
350
F
100
AcDbDictionaryWithDefault
340
F
  0
DICTIONARY
  5
17
102
{ACAD_REACTORS
330
C
102
}
100
AcDbDictionary
280
0
281
1
  3
Standard
350
18
  0
DICTIONARY
  5
19
102
{ACAD_REACTORS
330
C
102
}
100
AcDbDictionary
281
1
  0
DICTIONARY
  5
1A
102
{ACAD_REACTORS
330
C
102
}
100
AcDbDictionary
281
1
  3
Model
350
4E4
  3
Layout1
350
4E5
  0
ACDBPLACEHOLDER
  5
F
102
{ACAD_REACTORS
330
E
102
}
  0
MLINESTYLE
  5
18
102
{ACAD_REACTORS
330
17
102
}
100
AcDbMlineStyle
  2
STANDARD
 70
0
  3

 62
256
 51
90.0
 52
90.0
 71
2
 49
0.5
 62
256
  6
BYLAYER
 49
-0.5
 62
256
  6
BYLAYER
  0
LAYOUT
  5
4E4
102
{ACAD_REACTORS
330
1A
102
}
100
AcDbPlotSettings
  1

  2
none_device
  4
ISO_A1_(594.00_x_841.00_MM)
  6

 40
0.0
 41
0.0
 42
0.0
 43
0.0
 44
841.0
 45
594.0
 46
0.0
 47
0.0
 48
0.0
 49
0.0
140
0.0
141
0.0
142
1.0
143
1.0
 70
1024
 72
0
 73
0
 74
0
  7

 75
0
147
1.0
148
0.0
149
0.0
100
AcDbLayout
  1
Model
 70
0
 71
0
 10
0.0
 20
0.0
 11
33.1102362205
 21
23.3858267717
 12
0.0
 22
0.0
 32
0.0
 14
0.0
 24
0.0
 34
0.0
 15
0.0
 25
0.0
 35
0.0
146
0.0
 13
0.0
 23
0.0
 33
0.0
 16
1.0
 26
0.0
 36
0.0
 17
0.0
 27
1.0
 37
0.0
 76
0
330
203
345
0
346
0
  0
LAYOUT
  5
4E5
102
{ACAD_REACTORS
330
1A
102
}
100
AcDbPlotSettings
  1

  2
none_device
  4
ISO_A1_(594.00_x_841.00_MM)
  6

 40
0.0
 41
0.0
 42
0.0
 43
0.0
 44
841.0
 45
594.0
 46
0.0
 47
0.0
 48
0.0
 49
0.0
140
0.0
141
0.0
142
1.0
143
1.0
 70
0
 72
0
 73
0
 74
0
  7

 75
0
147
1.0
148
0.0
149
0.0
100
AcDbLayout
  1
Layout1
 70
0
 71
1
 10
0.0
 20
0.0
 11
33.1102362205
 21
23.3858267717
 12
0.0
 22
0.0
 32
0.0
 14
0.0
 24
0.0
 34
0.0
 15
0.0
 25
0.0
 35
0.0
146
0.0
 13
0.0
 23
0.0
 33
0.0
 16
1.0
 26
0.0
 36
0.0
 17
0.0
 27
1.0
 37
0.0
 76
0
330
204
345
0
346
0
  0
ENDSEC
  0
EOF
