  0
SECTION
  2
HEADER
  9
$ACADVER
  1
AC1021
  9
$DWGCODEPAGE
  3
ANSI_1252
  9
$EXTMAX
 10
46.811023622
 20
33.1102362205
 30
0.0
  9
$EXTMIN
 10
0.0
 20
0.0
 30
0.0
  9
$LIMMIN
 10
0.0
 20
0.0
  9
$LIMMAX
 10
46.811023622
 20
33.1102362205
  9
$VIEWCTR
 10
23.405511811
 20
16.5551181102
  9
$VIEWSIZE
 40
33.1102362205
  9
$CLAYER
  8
0
  9
$LTSCALE
 40
2.5746062992
  9
$CELTYPE
  6
BYLAYER
  9
$DIMSCALE
 40
1.0
  9
$DIMASZ
 40
0.1875
  9
$DIMEXO
 40
0.2925688976
  9
$DIMDLI
 40
1.7788188976
  9
$DIMEXE
 40
0.8425984252
  9
$DIMCEN
 40
0.4212992126
  9
$DIMLFAC
 40
1.0
  9
$DIMBLK
  1
_CLOSED
  9
$DIMTXT
 40
0.15625
  9
$DIMTOL
 70
0
  9
$DIMLIM
 70
0
  9
$DIMTFAC
 40
1.0
  9
$PDMODE
 70
3
  9
$PDSIZE
 40
0.3125
  9
$HANDSEED
  5
428
  9
$TILEMODE
 70
1
  9
$MEASUREMENT
 70
0
  9
$INSUNITS
 70
1
  0
ENDSEC
  0
SECTION
  2
CLASSES
  0
CLASS
  1
ACDBDICTIONARYWDFLT
  2
AcDbDictionaryWithDefault
  3
AutoCAD 2000
 90
0
 91
1
280
0
281
0
  0
CLASS
  1
ACDBPLACEHOLDER
  2
AcDbPlaceHolder
  3
AutoCAD 2000
 90
0
 91
1
280
0
281
0
  0
CLASS
  1
LAYOUT
  2
AcDbLayout
  3
AutoCAD 2000
 90
0
 91
0
280
0
281
0
  0
ENDSEC
  0
SECTION
  2
TABLES
  0
TABLE
  2
VPORT
  5
8
100
AcDbSymbolTable
 70
2
  0
VPORT
  5
1F4
100
AcDbSymbolTableRecord
100
AcDbViewportTableRecord
  2
*ACTIVE
 70
0
 10
0.0
 20
0.0
 11
1.0
 21
1.0
 12
23.405511811
 22
16.5551181102
 13
0.0
 23
0.0
 14
1.0
 24
1.0
 15
0.0
 25
0.0
 16
0.0
 26
0.0
 36
1.0
 17
0.0
 27
0.0
 37
0.0
 40
33.1102362205
 41
1.4137931034
 42
50.0
 43
0.0
 44
0.0
 50
0.0
 51
0.0
 71
0
 72
100
 73
1
 74
1
 75
0
 76
0
 77
0
 78
0
  0
ENDTAB
  0
TABLE
  2
LTYPE
  5
5
100
AcDbSymbolTable
 70
6
  0
LTYPE
  5
14
100
AcDbSymbolTableRecord
100
AcDbLinetypeTableRecord
  2
BYBLOCK
 70
0
  3

 72
65
 73
0
 40
0.0
  0
LTYPE
  5
15
100
AcDbSymbolTableRecord
100
AcDbLinetypeTableRecord
  2
BYLAYER
 70
0
  3

 72
65
 73
0
 40
0.0
  0
LTYPE
  5
16
100
AcDbSymbolTableRecord
100
AcDbLinetypeTableRecord
  2
CONTINUOUS
 70
64
  3
Solid line
 72
65
 73
0
 40
0.0
  0
LTYPE
  5
1F5
100
AcDbSymbolTableRecord
100
AcDbLinetypeTableRecord
  2
CENTER
 70
64
  3
____ _ ____ _ ____ _ ____ _ ____ _ ____ _ ____
 72
65
 73
4
 40
0.6
 49
0.375
 74
0
 49
-0.075
 74
0
 49
0.075
 74
0
 49
-0.075
 74
0
  0
LTYPE
  5
1F6
100
AcDbSymbolTableRecord
100
AcDbLinetypeTableRecord
  2
HIDDEN
 70
64
  3
- - - - - - - - - - - - - - - - - - - -
 72
65
 73
2
 40
0.2
 49
0.1
 74
0
 49
-0.1
 74
0
  0
LTYPE
  5
1F7
100
AcDbSymbolTableRecord
100
AcDbLinetypeTableRecord
  2
PHANTOM
 70
64
  3
_____ _ _ _____ _ _ _____ _ _ _____
 72
65
 73
6
 40
0.8
 49
0.45
 74
0
 49
-0.05
 74
0
 49
0.1
 74
0
 49
-0.05
 74
0
 49
0.1
 74
0
 49
-0.05
 74
0
  0
LTYPE
  5
1F8
100
AcDbSymbolTableRecord
100
AcDbLinetypeTableRecord
  2
DOT
 70
64
  3
. . . . . . . . . . . . . . . . . . . .
 72
65
 73
2
 40
0.2
 49
0.1
 74
0
 49
-0.1
 74
0
  0
LTYPE
  5
1F9
100
AcDbSymbolTableRecord
100
AcDbLinetypeTableRecord
  2
DASHED
 70
64
  3
- - - - - - - - - - - - - - - - - - - -
 72
65
 73
2
 40
0.2
 49
0.1
 74
0
 49
-0.1
 74
0
  0
ENDTAB
  0
TABLE
  2
LAYER
  5
2
100
AcDbSymbolTable
 70
36
  0
LAYER
  5
10
100
AcDbSymbolTableRecord
100
AcDbLayerTableRecord
  2
0
 70
0
 62
7
  6
CONTINUOUS
370
-3
390
F
  0
LAYER
  5
1FA
100
AcDbSymbolTableRecord
100
AcDbLayerTableRecord
  2
DEFAULT_1
 70
0
 62
7
  6
CENTER
370
-3
390
F
  0
LAYER
  5
1FB
100
AcDbSymbolTableRecord
100
AcDbLayerTableRecord
  2
DEFAULT_2
 70
0
 62
8
  6
HIDDEN
370
-3
390
F
  0
LAYER
  5
1FC
100
AcDbSymbolTableRecord
100
AcDbLayerTableRecord
  2
DEFAULT_3
 70
0
 62
7
  6
PHANTOM
370
-3
390
F
  0
LAYER
  5
1FD
100
AcDbSymbolTableRecord
100
AcDbLayerTableRecord
  2
DEFAULT_COORDINATE_SYSTEM
 70
0
 62
7
  6
CONTINUOUS
370
-3
390
F
  0
LAYER
  5
1FE
100
AcDbSymbolTableRecord
100
AcDbLayerTableRecord
  2
DEFAULT_DATUM_AXES
 70
0
 62
7
  6
CONTINUOUS
370
-3
390
F
  0
LAYER
  5
1FF
100
AcDbSymbolTableRecord
100
AcDbLayerTableRecord
  2
DEFAULT_DATUM_CURVES
 70
0
 62
7
  6
CONTINUOUS
370
-3
390
F
  0
LAYER
  5
200
100
AcDbSymbolTableRecord
100
AcDbLayerTableRecord
  2
DEFAULT_DATUM_PLANES
 70
0
 62
7
  6
CONTINUOUS
370
-3
390
F
  0
ENDTAB
  0
TABLE
  2
STYLE
  5
3
100
AcDbSymbolTable
 70
1
  0
STYLE
  5
11
100
AcDbSymbolTableRecord
100
AcDbTextStyleTableRecord
  2
STANDARD
 70
0
 40
0.0
 41
0.8
 50
0.0
 71
0
 42
0.2
  3
txt
  4

  0
STYLE
  5
201
100
AcDbSymbolTableRecord
100
AcDbTextStyleTableRecord
  2
TEXTSTYLE_1
 70
0
 40
0.0
 41
0.8
 50
0.0
 71
0
 42
0.2
  3
gdt
  4

  0
ENDTAB
  0
TABLE
  2
VIEW
  5
6
100
AcDbSymbolTable
 70
0
  0
ENDTAB
  0
TABLE
  2
UCS
  5
7
100
AcDbSymbolTable
 70
0
  0
ENDTAB
  0
TABLE
  2
APPID
  5
9
100
AcDbSymbolTable
 70
1
  0
APPID
  5
202
100
AcDbSymbolTableRecord
100
AcDbRegAppTableRecord
  2
ACAD
 70
0
  0
ENDTAB
  0
TABLE
  2
BLOCK_RECORD
  5
1
100
AcDbSymbolTable
 70
0
  0
BLOCK_RECORD
  5
203
100
AcDbSymbolTableRecord
100
AcDbBlockTableRecord
  2
*Model_Space
  0
BLOCK_RECORD
  5
204
100
AcDbSymbolTableRecord
100
AcDbBlockTableRecord
  2
*Paper_Space
  0
ENDTAB
  0
TABLE
  2
DIMSTYLE
  5
A
100
AcDbSymbolTable
 70
1
100
AcDbDimStyleTable
 71
0
  0
DIMSTYLE
105
205
100
AcDbSymbolTableRecord
100
AcDbDimStyleTableRecord
  2
STANDARD
 70
0
  3

  4

 40
1.0
 41
0.1875
 42
0.0625
 43
0.38
 44
0.18
 45
0.0
 46
0.0
 47
0.001
 48
0.001
140
0.15625
141
0.09
142
0.0
143
25.4
144
1.0
145
0.0
146
1.0
147
0.09
 71
0.0
 72
0.0
 73
1
 74
1
 75
0
 76
0
 77
0
 78
4
170
0
171
2
172
0
173
0
174
0
175
0
176
0
177
0
178
0
270
2
271
3
272
3
273
2
274
2
275
0
280
0
281
0
282
0
283
1
284
4
285
0
286
0
287
3
288
0
340
11
  0
ENDTAB
  0
ENDSEC
  0
SECTION
  2
BLOCKS
  0
BLOCK
  5
20
100
AcDbEntity
  8
0
100
AcDbBlockBegin
  2
*Model_Space
 70
0
 10
0.0
 20
0.0
 30
0.0
  3
*Model_Space
  1

  0
ENDBLK
  5
21
100
AcDbEntity
  8
0
100
AcDbBlockEnd
  0
BLOCK
  5
1C
100
AcDbEntity
  8
0
100
AcDbBlockBegin
  2
*Paper_Space
 70
0
 10
0.0
 20
0.0
 30
0.0
  3
*Paper_Space
  1

  0
ENDBLK
  5
1D
100
AcDbEntity
  8
0
100
AcDbBlockEnd
  0
ENDSEC
  0
SECTION
  2
ENTITIES
  0
LINE
  5
206
100
AcDbEntity
  8
0
100
AcDbLine
 62
6
  6
CONTINUOUS
 10
23.8344076691
 20
15.9621099107
 11
23.6844076691
 21
15.9621099107
  0
LINE
  5
207
100
AcDbEntity
  8
0
100
AcDbLine
 62
7
  6
CONTINUOUS
 10
23.4344076691
 20
15.9621284952
 11
23.3594076691
 21
15.9621284952
  0
LINE
  5
208
100
AcDbEntity
  8
0
100
AcDbLine
 62
6
  6
CONTINUOUS
 10
23.4344076691
 20
15.9626520674
 11
23.3594076691
 21
15.9626520674
  0
LINE
  5
209
100
AcDbEntity
  8
0
100
AcDbLine
 62
6
  6
CONTINUOUS
 10
23.4344076691
 20
15.9631278328
 11
23.3594076691
 21
15.9631278328
  0
LINE
  5
20A
100
AcDbEntity
  8
0
100
AcDbLine
 62
7
  6
CONTINUOUS
 10
23.4344076691
 20
15.9646979115
 11
23.3594076691
 21
15.9646979115
  0
LINE
  5
20B
100
AcDbEntity
  8
0
100
AcDbLine
 62
7
  6
CONTINUOUS
 10
23.4344076691
 20
15.9656488627
 11
23.3594076691
 21
15.9656488627
  0
LINE
  5
20C
100
AcDbEntity
  8
0
100
AcDbLine
 62
6
  6
CONTINUOUS
 10
23.4344076691
 20
15.968263535
 11
23.3594076691
 21
15.968263535
  0
LINE
  5
20D
100
AcDbEntity
  8
0
100
AcDbLine
 62
6
  6
CONTINUOUS
 10
23.4344076691
 20
15.9696885134
 11
23.3594076691
 21
15.9696885134
  0
LINE
  5
20E
100
AcDbEntity
  8
0
100
AcDbLine
 62
7
  6
CONTINUOUS
 10
23.4344076691
 20
15.9733445937
 11
23.3594076691
 21
15.9733445937
  0
LINE
  5
20F
100
AcDbEntity
  8
0
100
AcDbLine
 62
7
  6
CONTINUOUS
 10
23.4344076691
 20
15.9752418631
 11
23.3594076691
 21
15.9752418631
  0
LINE
  5
210
100
AcDbEntity
  8
0
100
AcDbLine
 62
6
  6
CONTINUOUS
 10
23.4344076691
 20
15.9799348971
 11
23.3594076691
 21
15.9799348971
  0
LINE
  5
211
100
AcDbEntity
  8
0
100
AcDbLine
 62
6
  6
CONTINUOUS
 10
23.4344076691
 20
15.9823021461
 11
23.3594076691
 21
15.9823021461
  0
LINE
  5
212
100
AcDbEntity
  8
0
100
AcDbLine
 62
7
  6
CONTINUOUS
 10
23.4344076691
 20
15.988026416
 11
23.3594076691
 21
15.988026416
  0
LINE
  5
213
100
AcDbEntity
  8
0
100
AcDbLine
 62
7
  6
CONTINUOUS
 10
23.4344076691
 20
15.9908607604
 11
23.3594076691
 21
15.9908607604
  0
LINE
  5
214
100
AcDbEntity
  8
0
100
AcDbLine
 62
6
  6
CONTINUOUS
 10
23.4344076691
 20
15.997609292
 11
23.3594076691
 21
15.997609292
  0
LINE
  5
215
100
AcDbEntity
  8
0
100
AcDbLine
 62
7
  6
CONTINUOUS
 10
23.4344076691
 20
16.0009072786
 11
23.3594076691
 21
16.0009072786
  0
LINE
  5
216
100
AcDbEntity
  8
0
100
AcDbLine
 62
6
  6
CONTINUOUS
 10
23.4344076691
 20
16.00867185
 11
23.3594076691
 21
16.00867185
  0
LINE
  5
217
100
AcDbEntity
  8
0
100
AcDbLine
 62
6
  6
CONTINUOUS
 10
23.6344076691
 20
16.0121099107
 11
23.4344076691
 21
16.0121099107
  0
LINE
  5
218
100
AcDbEntity
  8
0
100
AcDbLine
 62
7
  6
CONTINUOUS
 10
23.4344076691
 20
16.0124294607
 11
23.3594076691
 21
16.0124294607
  0
LINE
  5
219
100
AcDbEntity
  8
0
100
AcDbLine
 62
7
  6
CONTINUOUS
 10
23.3594076691
 20
16.0192784517
 11
23.4344076691
 21
16.0192784517
  0
LINE
  5
21A
100
AcDbEntity
  8
0
100
AcDbLine
 62
7
  6
CONTINUOUS
 10
23.4344076691
 20
16.0212006118
 11
23.3594076691
 21
16.0212006118
  0
LINE
  5
21B
100
AcDbEntity
  8
0
100
AcDbLine
 62
7
  6
CONTINUOUS
 10
23.4344076691
 20
16.0254132686
 11
23.3594076691
 21
16.0254132686
  0
LINE
  5
21C
100
AcDbEntity
  8
0
100
AcDbLine
 62
7
  6
CONTINUOUS
 10
23.3594076691
 20
16.0311596076
 11
23.4344076691
 21
16.0311596076
  0
LINE
  5
21D
100
AcDbEntity
  8
0
100
AcDbLine
 62
7
  6
CONTINUOUS
 10
23.4344076691
 20
16.0351803133
 11
23.3594076691
 21
16.0351803133
  0
LINE
  5
21E
100
AcDbEntity
  8
0
100
AcDbLine
 62
6
  6
CONTINUOUS
 10
23.4344076691
 20
16.0398428836
 11
23.3594076691
 21
16.0398428836
  0
LINE
  5
21F
100
AcDbEntity
  8
0
100
AcDbLine
 62
7
  6
CONTINUOUS
 10
23.4344076691
 20
16.0505939221
 11
23.3594076691
 21
16.0505939221
  0
LINE
  5
220
100
AcDbEntity
  8
0
100
AcDbLine
 62
7
  6
CONTINUOUS
 10
23.4344076691
 20
16.0557007254
 11
23.3594076691
 21
16.0557007254
  0
LINE
  5
221
100
AcDbEntity
  8
0
100
AcDbLine
 62
7
  6
CONTINUOUS
 10
23.3594076691
 20
16.0592221092
 11
23.4344076691
 21
16.0592221092
  0
LINE
  5
222
100
AcDbEntity
  8
0
100
AcDbLine
 62
6
  6
CONTINUOUS
 10
23.4344076691
 20
16.0674226592
 11
23.3594076691
 21
16.0674226592
  0
LINE
  5
223
100
AcDbEntity
  8
0
100
AcDbLine
 62
7
  6
CONTINUOUS
 10
23.4344076691
 20
16.0729674736
 11
23.3594076691
 21
16.0729674736
  0
LINE
  5
224
100
AcDbEntity
  8
0
100
AcDbLine
 62
7
  6
CONTINUOUS
 10
23.3594076691
 20
16.0753692651
 11
23.4344076691
 21
16.0753692651
  0
LINE
  5
225
100
AcDbEntity
  8
0
100
AcDbLine
 62
6
  6
CONTINUOUS
 10
23.4344076691
 20
16.0856460215
 11
23.3594076691
 21
16.0856460215
  0
LINE
  5
226
100
AcDbEntity
  8
0
100
AcDbLine
 62
7
  6
CONTINUOUS
 10
23.4344076691
 20
16.0916220914
 11
23.3594076691
 21
16.0916220914
  0
LINE
  5
227
100
AcDbEntity
  8
0
100
AcDbLine
 62
7
  6
CONTINUOUS
 10
23.3594076691
 20
16.0929013644
 11
23.4344076691
 21
16.0929013644
  0
LINE
  5
228
100
AcDbEntity
  8
0
100
AcDbLine
 62
7
  6
CONTINUOUS
 10
23.4344076691
 20
16.1052418064
 11
23.3594076691
 21
16.1052418064
  0
LINE
  5
229
100
AcDbEntity
  8
0
100
AcDbLine
 62
7
  6
CONTINUOUS
 10
23.4344076691
 20
16.1116418511
 11
23.3594076691
 21
16.1116418511
  0
LINE
  5
22A
100
AcDbEntity
  8
0
100
AcDbLine
 62
7
  6
CONTINUOUS
 10
23.3594076691
 20
16.1117970468
 11
23.4344076691
 21
16.1117970468
  0
LINE
  5
22B
100
AcDbEntity
  8
0
100
AcDbLine
 62
6
  6
CONTINUOUS
 10
23.4344076691
 20
16.1261861397
 11
23.3594076691
 21
16.1261861397
  0
LINE
  5
22C
100
AcDbEntity
  8
0
100
AcDbLine
 62
7
  6
CONTINUOUS
 10
23.4344076691
 20
16.1330023615
 11
23.3594076691
 21
16.1330023615
  0
LINE
  5
22D
100
AcDbEntity
  8
0
100
AcDbLine
 62
6
  6
CONTINUOUS
 10
23.4344076691
 20
16.1484535038
 11
23.3594076691
 21
16.1484535038
  0
LINE
  5
22E
100
AcDbEntity
  8
0
100
AcDbLine
 62
7
  6
CONTINUOUS
 10
23.4344076691
 20
16.1556775983
 11
23.3594076691
 21
16.1556775983
  0
LINE
  5
22F
100
AcDbEntity
  8
0
100
AcDbLine
 62
7
  6
CONTINUOUS
 10
23.4344076691
 20
16.1720167694
 11
23.3594076691
 21
16.1720167694
  0
LINE
  5
230
100
AcDbEntity
  8
0
100
AcDbLine
 62
7
  6
CONTINUOUS
 10
23.4344076691
 20
16.1796399351
 11
23.3594076691
 21
16.1796399351
  0
LINE
  5
231
100
AcDbEntity
  8
0
100
AcDbLine
 62
7
  6
CONTINUOUS
 10
23.4344076691
 20
16.1968472282
 11
23.3594076691
 21
16.1968472282
  0
LINE
  5
232
100
AcDbEntity
  8
0
100
AcDbLine
 62
7
  6
CONTINUOUS
 10
23.4344076691
 20
16.2048601776
 11
23.3594076691
 21
16.2048601776
  0
LINE
  5
233
100
AcDbEntity
  8
0
100
AcDbLine
 62
7
  6
CONTINUOUS
 10
23.4344076691
 20
16.2229146283
 11
23.3594076691
 21
16.2229146283
  0
LINE
  5
234
100
AcDbEntity
  8
0
100
AcDbLine
 62
6
  6
CONTINUOUS
 10
23.4344076691
 20
16.2313075987
 11
23.3594076691
 21
16.2313075987
  0
LINE
  5
235
100
AcDbEntity
  8
0
100
AcDbLine
 62
6
  6
CONTINUOUS
 10
23.4344076691
 20
16.2501872104
 11
23.3594076691
 21
16.2501872104
  0
LINE
  5
236
100
AcDbEntity
  8
0
100
AcDbLine
 62
6
  6
CONTINUOUS
 10
23.4344076691
 20
16.2589499763
 11
23.3594076691
 21
16.2589499763
  0
LINE
  5
237
100
AcDbEntity
  8
0
100
AcDbLine
 62
7
  6
CONTINUOUS
 10
23.4344076691
 20
16.2786317472
 11
23.3594076691
 21
16.2786317472
  0
LINE
  5
238
100
AcDbEntity
  8
0
100
AcDbLine
 62
7
  6
CONTINUOUS
 10
23.4344076691
 20
16.2877536325
 11
23.3594076691
 21
16.2877536325
  0
LINE
  5
239
100
AcDbEntity
  8
0
100
AcDbLine
 62
7
  6
CONTINUOUS
 10
23.4344076691
 20
16.3082135833
 11
23.3594076691
 21
16.3082135833
  0
LINE
  5
23A
100
AcDbEntity
  8
0
100
AcDbLine
 62
6
  6
CONTINUOUS
 10
23.4344076691
 20
16.3176834744
 11
23.3594076691
 21
16.3176834744
  0
LINE
  5
23B
100
AcDbEntity
  8
0
100
AcDbLine
 62
7
  6
CONTINUOUS
 10
23.4344076691
 20
16.3388966778
 11
23.3594076691
 21
16.3388966778
  0
LINE
  5
23C
100
AcDbEntity
  8
0
100
AcDbLine
 62
7
  6
CONTINUOUS
 10
23.4344076691
 20
16.3487030372
 11
23.3594076691
 21
16.3487030372
  0
LINE
  5
23D
100
AcDbEntity
  8
0
100
AcDbLine
 62
7
  6
CONTINUOUS
 10
23.4344076691
 20
16.3706436482
 11
23.3594076691
 21
16.3706436482
  0
LINE
  5
23E
100
AcDbEntity
  8
0
100
AcDbLine
 62
7
  6
CONTINUOUS
 10
23.4344076691
 20
16.3807745282
 11
23.3594076691
 21
16.3807745282
  0
LINE
  5
23F
100
AcDbEntity
  8
0
100
AcDbLine
 62
7
  6
CONTINUOUS
 10
23.4344076691
 20
16.4034158156
 11
23.3594076691
 21
16.4034158156
  0
LINE
  5
240
100
AcDbEntity
  8
0
100
AcDbLine
 62
6
  6
CONTINUOUS
 10
23.4344076691
 20
16.4138588733
 11
23.3594076691
 21
16.4138588733
  0
LINE
  5
241
100
AcDbEntity
  8
0
100
AcDbLine
 62
7
  6
CONTINUOUS
 10
23.3594076691
 20
16.4349558686
 11
23.4344076691
 21
16.4349558686
  0
LINE
  5
242
100
AcDbEntity
  8
0
100
AcDbLine
 62
7
  6
CONTINUOUS
 10
23.4344076691
 20
16.4371732522
 11
23.3594076691
 21
16.4371732522
  0
LINE
  5
243
100
AcDbEntity
  8
0
100
AcDbLine
 62
7
  6
CONTINUOUS
 10
23.4344076691
 20
16.4479157644
 11
23.3594076691
 21
16.4479157644
  0
LINE
  5
244
100
AcDbEntity
  8
0
100
AcDbLine
 62
7
  6
CONTINUOUS
 10
23.3594076691
 20
16.4689225224
 11
23.4344076691
 21
16.4689225224
  0
LINE
  5
245
100
AcDbEntity
  8
0
100
AcDbLine
 62
7
  6
CONTINUOUS
 10
23.4344076691
 20
16.4718748297
 11
23.3594076691
 21
16.4718748297
  0
LINE
  5
246
100
AcDbEntity
  8
0
100
AcDbLine
 62
7
  6
CONTINUOUS
 10
23.4344076691
 20
16.4829037083
 11
23.3594076691
 21
16.4829037083
  0
LINE
  5
247
100
AcDbEntity
  8
0
100
AcDbLine
 62
7
  6
CONTINUOUS
 10
23.3594076691
 20
16.5037946355
 11
23.4344076691
 21
16.5037946355
  0
LINE
  5
248
100
AcDbEntity
  8
0
100
AcDbLine
 62
7
  6
CONTINUOUS
 10
23.4344076691
 20
16.5074782697
 11
23.3594076691
 21
16.5074782697
  0
LINE
  5
249
100
AcDbEntity
  8
0
100
AcDbLine
 62
7
  6
CONTINUOUS
 10
23.4344076691
 20
16.5187800777
 11
23.3594076691
 21
16.5187800777
  0
LINE
  5
24A
100
AcDbEntity
  8
0
100
AcDbLine
 62
7
  6
CONTINUOUS
 10
23.4344076691
 20
16.5439401947
 11
23.3594076691
 21
16.5439401947
  0
LINE
  5
24B
100
AcDbEntity
  8
0
100
AcDbLine
 62
6
  6
CONTINUOUS
 10
23.4344076691
 20
16.5555011627
 11
23.3594076691
 21
16.5555011627
  0
LINE
  5
24C
100
AcDbEntity
  8
0
100
AcDbLine
 62
7
  6
CONTINUOUS
 10
23.3594076691
 20
16.5760842433
 11
23.4344076691
 21
16.5760842433
  0
LINE
  5
24D
100
AcDbEntity
  8
0
100
AcDbLine
 62
7
  6
CONTINUOUS
 10
23.4344076691
 20
16.5812161817
 11
23.3594076691
 21
16.5812161817
  0
LINE
  5
24E
100
AcDbEntity
  8
0
100
AcDbLine
 62
6
  6
CONTINUOUS
 10
21.4374076691
 20
16.5871099107
 11
23.1594076691
 21
16.5871099107
  0
LINE
  5
24F
100
AcDbEntity
  8
0
100
AcDbLine
 62
6
  6
CONTINUOUS
 10
23.4344076691
 20
16.5930222242
 11
23.3594076691
 21
16.5930222242
  0
LINE
  5
250
100
AcDbEntity
  8
0
100
AcDbLine
 62
7
  6
CONTINUOUS
 10
23.3594076691
 20
16.6134136641
 11
23.4344076691
 21
16.6134136641
  0
LINE
  5
251
100
AcDbEntity
  8
0
100
AcDbLine
 62
7
  6
CONTINUOUS
 10
23.4344076691
 20
16.6192608154
 11
23.3594076691
 21
16.6192608154
  0
LINE
  5
252
100
AcDbEntity
  8
0
100
AcDbLine
 62
7
  6
CONTINUOUS
 10
23.4344076691
 20
16.6312975488
 11
23.3594076691
 21
16.6312975488
  0
LINE
  5
253
100
AcDbEntity
  8
0
100
AcDbLine
 62
7
  6
CONTINUOUS
 10
23.4344076691
 20
16.6580277445
 11
23.3594076691
 21
16.6580277445
  0
LINE
  5
254
100
AcDbEntity
  8
0
100
AcDbLine
 62
6
  6
CONTINUOUS
 10
23.4344076691
 20
16.6702805037
 11
23.3594076691
 21
16.6702805037
  0
LINE
  5
255
100
AcDbEntity
  8
0
100
AcDbLine
 62
6
  6
CONTINUOUS
 10
23.3594076691
 20
16.6902143945
 11
23.4344076691
 21
16.6902143945
  0
LINE
  5
256
100
AcDbEntity
  8
0
100
AcDbLine
 62
6
  6
CONTINUOUS
 10
23.4344076691
 20
16.6974697373
 11
23.3594076691
 21
16.6974697373
  0
LINE
  5
257
100
AcDbEntity
  8
0
100
AcDbLine
 62
6
  6
CONTINUOUS
 10
23.4344076691
 20
16.7099235944
 11
23.3594076691
 21
16.7099235944
  0
LINE
  5
258
100
AcDbEntity
  8
0
100
AcDbLine
 62
7
  6
CONTINUOUS
 10
23.3594076691
 20
16.7295921341
 11
23.4344076691
 21
16.7295921341
  0
LINE
  5
259
100
AcDbEntity
  8
0
100
AcDbLine
 62
7
  6
CONTINUOUS
 10
23.4344076691
 20
16.73753874
 11
23.3594076691
 21
16.73753874
  0
LINE
  5
25A
100
AcDbEntity
  8
0
100
AcDbLine
 62
7
  6
CONTINUOUS
 10
23.4344076691
 20
16.7501785217
 11
23.3594076691
 21
16.7501785217
  0
LINE
  5
25B
100
AcDbEntity
  8
0
100
AcDbLine
 62
7
  6
CONTINUOUS
 10
23.3594076691
 20
16.7695577473
 11
23.4344076691
 21
16.7695577473
  0
LINE
  5
25C
100
AcDbEntity
  8
0
100
AcDbLine
 62
6
  6
CONTINUOUS
 10
23.4344076691
 20
16.7781859344
 11
23.3594076691
 21
16.7781859344
  0
LINE
  5
25D
100
AcDbEntity
  8
0
100
AcDbLine
 62
7
  6
CONTINUOUS
 10
23.4344076691
 20
16.7909962412
 11
23.3594076691
 21
16.7909962412
  0
LINE
  5
25E
100
AcDbEntity
  8
0
100
AcDbLine
 62
7
  6
CONTINUOUS
 10
23.3594076691
 20
16.8100625421
 11
23.4344076691
 21
16.8100625421
  0
LINE
  5
25F
100
AcDbEntity
  8
0
100
AcDbLine
 62
7
  6
CONTINUOUS
 10
23.4344076691
 20
16.8193617985
 11
23.3594076691
 21
16.8193617985
  0
LINE
  5
260
100
AcDbEntity
  8
0
100
AcDbLine
 62
7
  6
CONTINUOUS
 10
23.4344076691
 20
16.8323270229
 11
23.3594076691
 21
16.8323270229
  0
LINE
  5
261
100
AcDbEntity
  8
0
100
AcDbLine
 62
7
  6
CONTINUOUS
 10
23.3594076691
 20
16.8510571698
 11
23.4344076691
 21
16.8510571698
  0
LINE
  5
262
100
AcDbEntity
  8
0
100
AcDbLine
 62
7
  6
CONTINUOUS
 10
23.4344076691
 20
16.8610161655
 11
23.3594076691
 21
16.8610161655
  0
LINE
  5
263
100
AcDbEntity
  8
0
100
AcDbLine
 62
6
  6
CONTINUOUS
 10
23.4344076691
 20
16.8741205115
 11
23.3594076691
 21
16.8741205115
  0
LINE
  5
264
100
AcDbEntity
  8
0
100
AcDbLine
 62
7
  6
CONTINUOUS
 10
23.3594076691
 20
16.8924916846
 11
23.4344076691
 21
16.8924916846
  0
LINE
  5
265
100
AcDbEntity
  8
0
100
AcDbLine
 62
7
  6
CONTINUOUS
 10
23.4344076691
 20
16.9030982863
 11
23.3594076691
 21
16.9030982863
  0
LINE
  5
266
100
AcDbEntity
  8
0
100
AcDbLine
 62
7
  6
CONTINUOUS
 10
23.4344076691
 20
16.9163257881
 11
23.3594076691
 21
16.9163257881
  0
LINE
  5
267
100
AcDbEntity
  8
0
100
AcDbLine
 62
7
  6
CONTINUOUS
 10
23.3594076691
 20
16.9343156049
 11
23.4344076691
 21
16.9343156049
  0
LINE
  5
268
100
AcDbEntity
  8
0
100
AcDbLine
 62
6
  6
CONTINUOUS
 10
23.4344076691
 20
16.9455568901
 11
23.3594076691
 21
16.9455568901
  0
LINE
  5
269
100
AcDbEntity
  8
0
100
AcDbLine
 62
6
  6
CONTINUOUS
 10
23.4344076691
 20
16.9588914322
 11
23.3594076691
 21
16.9588914322
  0
LINE
  5
26A
100
AcDbEntity
  8
0
100
AcDbLine
 62
7
  6
CONTINUOUS
 10
23.3594076691
 20
16.9764779748
 11
23.4344076691
 21
16.9764779748
  0
LINE
  5
26B
100
AcDbEntity
  8
0
100
AcDbLine
 62
7
  6
CONTINUOUS
 10
23.4344076691
 20
16.9883402477
 11
23.3594076691
 21
16.9883402477
  0
LINE
  5
26C
100
AcDbEntity
  8
0
100
AcDbLine
 62
7
  6
CONTINUOUS
 10
23.4344076691
 20
17.0017655839
 11
23.3594076691
 21
17.0017655839
  0
LINE
  5
26D
100
AcDbEntity
  8
0
100
AcDbLine
 62
7
  6
CONTINUOUS
 10
23.3594076691
 20
17.018927426
 11
23.4344076691
 21
17.018927426
  0
LINE
  5
26E
100
AcDbEntity
  8
0
100
AcDbLine
 62
6
  6
CONTINUOUS
 10
23.4344076691
 20
17.0313962341
 11
23.3594076691
 21
17.0313962341
  0
LINE
  5
26F
100
AcDbEntity
  8
0
100
AcDbLine
 62
6
  6
CONTINUOUS
 10
23.4344076691
 20
17.0448960078
 11
23.3594076691
 21
17.0448960078
  0
LINE
  5
270
100
AcDbEntity
  8
0
100
AcDbLine
 62
7
  6
CONTINUOUS
 10
23.3594076691
 20
17.0616122402
 11
23.4344076691
 21
17.0616122402
  0
LINE
  5
271
100
AcDbEntity
  8
0
100
AcDbLine
 62
7
  6
CONTINUOUS
 10
23.4344076691
 20
17.0746723924
 11
23.3594076691
 21
17.0746723924
  0
LINE
  5
272
100
AcDbEntity
  8
0
100
AcDbLine
 62
7
  6
CONTINUOUS
 10
23.4344076691
 20
17.0882301561
 11
23.3594076691
 21
17.0882301561
  0
LINE
  5
273
100
AcDbEntity
  8
0
100
AcDbLine
 62
7
  6
CONTINUOUS
 10
23.3594076691
 20
17.1044804127
 11
23.4344076691
 21
17.1044804127
  0
LINE
  5
274
100
AcDbEntity
  8
0
100
AcDbLine
 62
6
  6
CONTINUOUS
 10
23.4344076691
 20
17.118115997
 11
23.3594076691
 21
17.118115997
  0
LINE
  5
275
100
AcDbEntity
  8
0
100
AcDbLine
 62
6
  6
CONTINUOUS
 10
23.4344076691
 20
17.1317152328
 11
23.3594076691
 21
17.1317152328
  0
LINE
  5
276
100
AcDbEntity
  8
0
100
AcDbLine
 62
7
  6
CONTINUOUS
 10
23.3594076691
 20
17.1474797152
 11
23.4344076691
 21
17.1474797152
  0
LINE
  5
277
100
AcDbEntity
  8
0
100
AcDbLine
 62
7
  6
CONTINUOUS
 10
23.4344076691
 20
17.1616741188
 11
23.3594076691
 21
17.1616741188
  0
LINE
  5
278
100
AcDbEntity
  8
0
100
AcDbLine
 62
7
  6
CONTINUOUS
 10
23.4344076691
 20
17.175298258
 11
23.3594076691
 21
17.175298258
  0
LINE
  5
279
100
AcDbEntity
  8
0
100
AcDbLine
 62
7
  6
CONTINUOUS
 10
23.3594076691
 20
17.1905577595
 11
23.4344076691
 21
17.1905577595
  0
LINE
  5
27A
100
AcDbEntity
  8
0
100
AcDbLine
 62
6
  6
CONTINUOUS
 10
23.4344076691
 20
17.2052936889
 11
23.3594076691
 21
17.2052936889
  0
LINE
  5
27B
100
AcDbEntity
  8
0
100
AcDbLine
 62
6
  6
CONTINUOUS
 10
23.4344076691
 20
17.2189261326
 11
23.3594076691
 21
17.2189261326
  0
LINE
  5
27C
100
AcDbEntity
  8
0
100
AcDbLine
 62
6
  6
CONTINUOUS
 10
23.6844076691
 20
18.4621099107
 11
23.6344076691
 21
18.4121099107
  0
LINE
  5
27D
100
AcDbEntity
  8
0
100
AcDbLine
 62
7
  6
CONTINUOUS
 10
23.3594076691
 20
17.2336620619
 11
23.4344076691
 21
17.2336620619
  0
LINE
  5
27E
100
AcDbEntity
  8
0
100
AcDbLine
 62
7
  6
CONTINUOUS
 10
23.4344076691
 20
17.2489215634
 11
23.3594076691
 21
17.2489215634
  0
LINE
  5
27F
100
AcDbEntity
  8
0
100
AcDbLine
 62
7
  6
CONTINUOUS
 10
23.4344076691
 20
17.2625457026
 11
23.3594076691
 21
17.2625457026
  0
LINE
  5
280
100
AcDbEntity
  8
0
100
AcDbLine
 62
7
  6
CONTINUOUS
 10
23.3594076691
 20
17.2767401063
 11
23.4344076691
 21
17.2767401063
  0
LINE
  5
281
100
AcDbEntity
  8
0
100
AcDbLine
 62
6
  6
CONTINUOUS
 10
23.4344076691
 20
17.2925045886
 11
23.3594076691
 21
17.2925045886
  0
LINE
  5
282
100
AcDbEntity
  8
0
100
AcDbLine
 62
6
  6
CONTINUOUS
 10
23.4344076691
 20
17.3061038244
 11
23.3594076691
 21
17.3061038244
  0
LINE
  5
283
100
AcDbEntity
  8
0
100
AcDbLine
 62
7
  6
CONTINUOUS
 10
23.3594076691
 20
17.3197394087
 11
23.4344076691
 21
17.3197394087
  0
LINE
  5
284
100
AcDbEntity
  8
0
100
AcDbLine
 62
7
  6
CONTINUOUS
 10
23.4344076691
 20
17.3359896653
 11
23.3594076691
 21
17.3359896653
  0
LINE
  5
285
100
AcDbEntity
  8
0
100
AcDbLine
 62
7
  6
CONTINUOUS
 10
23.4344076691
 20
17.3495474291
 11
23.3594076691
 21
17.3495474291
  0
LINE
  5
286
100
AcDbEntity
  8
0
100
AcDbLine
 62
6
  6
CONTINUOUS
 10
23.6844076691
 20
15.9621099107
 11
23.6344076691
 21
16.0121099107
  0
LINE
  5
287
100
AcDbEntity
  8
0
100
AcDbLine
 62
7
  6
CONTINUOUS
 10
23.3594076691
 20
17.3626075812
 11
23.4344076691
 21
17.3626075812
  0
LINE
  5
288
100
AcDbEntity
  8
0
100
AcDbLine
 62
6
  6
CONTINUOUS
 10
23.4344076691
 20
17.3793238136
 11
23.3594076691
 21
17.3793238136
  0
LINE
  5
289
100
AcDbEntity
  8
0
100
AcDbLine
 62
6
  6
CONTINUOUS
 10
23.4344076691
 20
17.3928235873
 11
23.3594076691
 21
17.3928235873
  0
LINE
  5
28A
100
AcDbEntity
  8
0
100
AcDbLine
 62
7
  6
CONTINUOUS
 10
23.3594076691
 20
17.4052923954
 11
23.4344076691
 21
17.4052923954
  0
LINE
  5
28B
100
AcDbEntity
  8
0
100
AcDbLine
 62
7
  6
CONTINUOUS
 10
23.4344076691
 20
17.4224542375
 11
23.3594076691
 21
17.4224542375
  0
LINE
  5
28C
100
AcDbEntity
  8
0
100
AcDbLine
 62
7
  6
CONTINUOUS
 10
23.4344076691
 20
17.4358795737
 11
23.3594076691
 21
17.4358795737
  0
LINE
  5
28D
100
AcDbEntity
  8
0
100
AcDbLine
 62
7
  6
CONTINUOUS
 10
23.3594076691
 20
17.4477418466
 11
23.4344076691
 21
17.4477418466
  0
LINE
  5
28E
100
AcDbEntity
  8
0
100
AcDbLine
 62
6
  6
CONTINUOUS
 10
23.4344076691
 20
17.4653283892
 11
23.3594076691
 21
17.4653283892
  0
LINE
  5
28F
100
AcDbEntity
  8
0
100
AcDbLine
 62
6
  6
CONTINUOUS
 10
23.4344076691
 20
17.4786629313
 11
23.3594076691
 21
17.4786629313
  0
LINE
  5
290
100
AcDbEntity
  8
0
100
AcDbLine
 62
7
  6
CONTINUOUS
 10
23.3594076691
 20
17.4899042165
 11
23.4344076691
 21
17.4899042165
  0
LINE
  5
291
100
AcDbEntity
  8
0
100
AcDbLine
 62
7
  6
CONTINUOUS
 10
23.4344076691
 20
17.5078940333
 11
23.3594076691
 21
17.5078940333
  0
LINE
  5
292
100
AcDbEntity
  8
0
100
AcDbLine
 62
7
  6
CONTINUOUS
 10
23.4344076691
 20
17.5211215351
 11
23.3594076691
 21
17.5211215351
  0
LINE
  5
293
100
AcDbEntity
  8
0
100
AcDbLine
 62
7
  6
CONTINUOUS
 10
23.3594076691
 20
17.5317281369
 11
23.4344076691
 21
17.5317281369
  0
LINE
  5
294
100
AcDbEntity
  8
0
100
AcDbLine
 62
6
  6
CONTINUOUS
 10
23.4344076691
 20
17.5500993099
 11
23.3594076691
 21
17.5500993099
  0
LINE
  5
295
100
AcDbEntity
  8
0
100
AcDbLine
 62
7
  6
CONTINUOUS
 10
23.4344076691
 20
17.5632036559
 11
23.3594076691
 21
17.5632036559
  0
LINE
  5
296
100
AcDbEntity
  8
0
100
AcDbLine
 62
7
  6
CONTINUOUS
 10
23.3594076691
 20
17.5731626516
 11
23.4344076691
 21
17.5731626516
  0
LINE
  5
297
100
AcDbEntity
  8
0
100
AcDbLine
 62
7
  6
CONTINUOUS
 10
23.4344076691
 20
17.5918927985
 11
23.3594076691
 21
17.5918927985
  0
LINE
  5
298
100
AcDbEntity
  8
0
100
AcDbLine
 62
7
  6
CONTINUOUS
 10
23.4344076691
 20
17.604858023
 11
23.3594076691
 21
17.604858023
  0
LINE
  5
299
100
AcDbEntity
  8
0
100
AcDbLine
 62
7
  6
CONTINUOUS
 10
23.3594076691
 20
17.6141572793
 11
23.4344076691
 21
17.6141572793
  0
LINE
  5
29A
100
AcDbEntity
  8
0
100
AcDbLine
 62
7
  6
CONTINUOUS
 10
23.4344076691
 20
17.6332235802
 11
23.3594076691
 21
17.6332235802
  0
LINE
  5
29B
100
AcDbEntity
  8
0
100
AcDbLine
 62
6
  6
CONTINUOUS
 10
23.4344076691
 20
17.646033887
 11
23.3594076691
 21
17.646033887
  0
LINE
  5
29C
100
AcDbEntity
  8
0
100
AcDbLine
 62
7
  6
CONTINUOUS
 10
23.3594076691
 20
17.6546620741
 11
23.4344076691
 21
17.6546620741
  0
LINE
  5
29D
100
AcDbEntity
  8
0
100
AcDbLine
 62
7
  6
CONTINUOUS
 10
23.4344076691
 20
17.6740412998
 11
23.3594076691
 21
17.6740412998
  0
LINE
  5
29E
100
AcDbEntity
  8
0
100
AcDbLine
 62
7
  6
CONTINUOUS
 10
23.4344076691
 20
17.6866810814
 11
23.3594076691
 21
17.6866810814
  0
LINE
  5
29F
100
AcDbEntity
  8
0
100
AcDbLine
 62
7
  6
CONTINUOUS
 10
23.3594076691
 20
17.6946276873
 11
23.4344076691
 21
17.6946276873
  0
LINE
  5
2A0
100
AcDbEntity
  8
0
100
AcDbLine
 62
6
  6
CONTINUOUS
 10
23.4344076691
 20
17.7142962271
 11
23.3594076691
 21
17.7142962271
  0
LINE
  5
2A1
100
AcDbEntity
  8
0
100
AcDbLine
 62
6
  6
CONTINUOUS
 10
23.4344076691
 20
17.7267500841
 11
23.3594076691
 21
17.7267500841
  0
LINE
  5
2A2
100
AcDbEntity
  8
0
100
AcDbLine
 62
6
  6
CONTINUOUS
 10
23.3594076691
 20
17.7340054269
 11
23.4344076691
 21
17.7340054269
  0
LINE
  5
2A3
100
AcDbEntity
  8
0
100
AcDbLine
 62
6
  6
CONTINUOUS
 10
23.4344076691
 20
17.7539393177
 11
23.3594076691
 21
17.7539393177
  0
LINE
  5
2A4
100
AcDbEntity
  8
0
100
AcDbLine
 62
7
  6
CONTINUOUS
 10
23.4344076691
 20
17.7661920769
 11
23.3594076691
 21
17.7661920769
  0
LINE
  5
2A5
100
AcDbEntity
  8
0
100
AcDbLine
 62
7
  6
CONTINUOUS
 10
23.4344076691
 20
17.7929222726
 11
23.3594076691
 21
17.7929222726
  0
LINE
  5
2A6
100
AcDbEntity
  8
0
100
AcDbLine
 62
7
  6
CONTINUOUS
 10
23.4344076691
 20
17.804959006
 11
23.3594076691
 21
17.804959006
  0
LINE
  5
2A7
100
AcDbEntity
  8
0
100
AcDbLine
 62
7
  6
CONTINUOUS
 10
23.3594076691
 20
17.8108061573
 11
23.4344076691
 21
17.8108061573
  0
LINE
  5
2A8
100
AcDbEntity
  8
0
100
AcDbLine
 62
6
  6
CONTINUOUS
 10
23.4344076691
 20
17.8311975972
 11
23.3594076691
 21
17.8311975972
  0
LINE
  5
2A9
100
AcDbEntity
  8
0
100
AcDbLine
 62
6
  6
CONTINUOUS
 10
21.4374076691
 20
17.8371099107
 11
23.1594076691
 21
17.8371099107
  0
LINE
  5
2AA
100
AcDbEntity
  8
0
100
AcDbLine
 62
7
  6
CONTINUOUS
 10
23.4344076691
 20
17.8430036397
 11
23.3594076691
 21
17.8430036397
  0
LINE
  5
2AB
100
AcDbEntity
  8
0
100
AcDbLine
 62
7
  6
CONTINUOUS
 10
23.3594076691
 20
17.8481355781
 11
23.4344076691
 21
17.8481355781
  0
LINE
  5
2AC
100
AcDbEntity
  8
0
100
AcDbLine
 62
6
  6
CONTINUOUS
 10
23.4344076691
 20
17.8687186588
 11
23.3594076691
 21
17.8687186588
  0
LINE
  5
2AD
100
AcDbEntity
  8
0
100
AcDbLine
 62
7
  6
CONTINUOUS
 10
23.4344076691
 20
17.8802796267
 11
23.3594076691
 21
17.8802796267
  0
LINE
  5
2AE
100
AcDbEntity
  8
0
100
AcDbLine
 62
7
  6
CONTINUOUS
 10
23.4344076691
 20
17.9054397437
 11
23.3594076691
 21
17.9054397437
  0
LINE
  5
2AF
100
AcDbEntity
  8
0
100
AcDbLine
 62
7
  6
CONTINUOUS
 10
23.4344076691
 20
17.9167415517
 11
23.3594076691
 21
17.9167415517
  0
LINE
  5
2B0
100
AcDbEntity
  8
0
100
AcDbLine
 62
7
  6
CONTINUOUS
 10
23.3594076691
 20
17.9204251859
 11
23.4344076691
 21
17.9204251859
  0
LINE
  5
2B1
100
AcDbEntity
  8
0
100
AcDbLine
 62
7
  6
CONTINUOUS
 10
23.4344076691
 20
17.9413161131
 11
23.3594076691
 21
17.9413161131
  0
LINE
  5
2B2
100
AcDbEntity
  8
0
100
AcDbLine
 62
7
  6
CONTINUOUS
 10
23.4344076691
 20
17.9523449917
 11
23.3594076691
 21
17.9523449917
  0
LINE
  5
2B3
100
AcDbEntity
  8
0
100
AcDbLine
 62
7
  6
CONTINUOUS
 10
23.3594076691
 20
17.955297299
 11
23.4344076691
 21
17.955297299
  0
LINE
  5
2B4
100
AcDbEntity
  8
0
100
AcDbLine
 62
7
  6
CONTINUOUS
 10
23.4344076691
 20
17.976304057
 11
23.3594076691
 21
17.976304057
  0
LINE
  5
2B5
100
AcDbEntity
  8
0
100
AcDbLine
 62
7
  6
CONTINUOUS
 10
23.4344076691
 20
17.9870465692
 11
23.3594076691
 21
17.9870465692
  0
LINE
  5
2B6
100
AcDbEntity
  8
0
100
AcDbLine
 62
7
  6
CONTINUOUS
 10
23.3594076691
 20
17.9892639528
 11
23.4344076691
 21
17.9892639528
  0
LINE
  5
2B7
100
AcDbEntity
  8
0
100
AcDbLine
 62
6
  6
CONTINUOUS
 10
23.4344076691
 20
18.0103609481
 11
23.3594076691
 21
18.0103609481
  0
LINE
  5
2B8
100
AcDbEntity
  8
0
100
AcDbLine
 62
6
  6
CONTINUOUS
 10
23.1594076691
 20
16.2871128936
 11
23.1594076691
 21
18.1371069278
  0
LINE
  5
2B9
100
AcDbEntity
  8
0
100
AcDbLine
 62
7
  6
CONTINUOUS
 10
23.4344076691
 20
18.0208040058
 11
23.3594076691
 21
18.0208040058
  0
LINE
  5
2BA
100
AcDbEntity
  8
0
100
AcDbLine
 62
7
  6
CONTINUOUS
 10
23.4344076691
 20
18.0434452932
 11
23.3594076691
 21
18.0434452932
  0
LINE
  5
2BB
100
AcDbEntity
  8
0
100
AcDbLine
 62
7
  6
CONTINUOUS
 10
23.4344076691
 20
18.0535761732
 11
23.3594076691
 21
18.0535761732
  0
LINE
  5
2BC
100
AcDbEntity
  8
0
100
AcDbLine
 62
7
  6
CONTINUOUS
 10
23.4344076691
 20
18.0755167842
 11
23.3594076691
 21
18.0755167842
  0
LINE
  5
2BD
100
AcDbEntity
  8
0
100
AcDbLine
 62
7
  6
CONTINUOUS
 10
23.4344076691
 20
18.0853231436
 11
23.3594076691
 21
18.0853231436
  0
LINE
  5
2BE
100
AcDbEntity
  8
0
100
AcDbLine
 62
6
  6
CONTINUOUS
 10
23.4344076691
 20
18.106536347
 11
23.3594076691
 21
18.106536347
  0
LINE
  5
2BF
100
AcDbEntity
  8
0
100
AcDbLine
 62
7
  6
CONTINUOUS
 10
23.4344076691
 20
18.1160062381
 11
23.3594076691
 21
18.1160062381
  0
LINE
  5
2C0
100
AcDbEntity
  8
0
100
AcDbLine
 62
7
  6
CONTINUOUS
 10
23.4344076691
 20
18.1364661889
 11
23.3594076691
 21
18.1364661889
  0
LINE
  5
2C1
100
AcDbEntity
  8
0
100
AcDbLine
 62
6
  6
CONTINUOUS
 10
23.2594076691
 20
16.1371125659
 11
23.2594076691
 21
18.2871072555
  0
LINE
  5
2C2
100
AcDbEntity
  8
0
100
AcDbLine
 62
7
  6
CONTINUOUS
 10
23.3594076691
 20
18.4620913262
 11
23.3594076691
 21
18.461567754
  0
LINE
  5
2C3
100
AcDbEntity
  8
0
100
AcDbLine
 62
7
  6
CONTINUOUS
 10
23.3594076691
 20
18.4585709587
 11
23.3594076691
 21
18.4559562864
  0
LINE
  5
2C4
100
AcDbEntity
  8
0
100
AcDbLine
 62
7
  6
CONTINUOUS
 10
23.3594076691
 20
18.4489779583
 11
23.3594076691
 21
18.4442849243
  0
LINE
  5
2C5
100
AcDbEntity
  8
0
100
AcDbLine
 62
7
  6
CONTINUOUS
 10
23.3594076691
 20
18.433359061
 11
23.3594076691
 21
18.4266105294
  0
LINE
  5
2C6
100
AcDbEntity
  8
0
100
AcDbLine
 62
7
  6
CONTINUOUS
 10
23.3594076691
 20
18.4233125428
 11
23.3594076691
 21
18.4155479714
  0
LINE
  5
2C7
100
AcDbEntity
  8
0
100
AcDbLine
 62
7
  6
CONTINUOUS
 10
23.3594076691
 20
18.4117903607
 11
23.3594076691
 21
18.4030192096
  0
LINE
  5
2C8
100
AcDbEntity
  8
0
100
AcDbLine
 62
7
  6
CONTINUOUS
 10
23.3594076691
 20
18.3988065528
 11
23.3594076691
 21
18.3890395082
  0
LINE
  5
2C9
100
AcDbEntity
  8
0
100
AcDbLine
 62
7
  6
CONTINUOUS
 10
23.3594076691
 20
18.368519096
 11
23.3594076691
 21
18.3567971622
  0
LINE
  5
2CA
100
AcDbEntity
  8
0
100
AcDbLine
 62
7
  6
CONTINUOUS
 10
23.3594076691
 20
18.3512523478
 11
23.3594076691
 21
18.3385737999
  0
LINE
  5
2CB
100
AcDbEntity
  8
0
100
AcDbLine
 62
7
  6
CONTINUOUS
 10
23.3594076691
 20
18.33259773
 11
23.3594076691
 21
18.318978015
  0
LINE
  5
2CC
100
AcDbEntity
  8
0
100
AcDbLine
 62
7
  6
CONTINUOUS
 10
23.3594076691
 20
18.3125779703
 11
23.3594076691
 21
18.2980336817
  0
LINE
  5
2CD
100
AcDbEntity
  8
0
100
AcDbLine
 62
7
  6
CONTINUOUS
 10
23.3594076691
 20
18.2912174599
 11
23.3594076691
 21
18.2757663176
  0
LINE
  5
2CE
100
AcDbEntity
  8
0
100
AcDbLine
 62
7
  6
CONTINUOUS
 10
23.3594076691
 20
18.2685422231
 11
23.3594076691
 21
18.252203052
  0
LINE
  5
2CF
100
AcDbEntity
  8
0
100
AcDbLine
 62
7
  6
CONTINUOUS
 10
23.3594076691
 20
18.2445798863
 11
23.3594076691
 21
18.2273725932
  0
LINE
  5
2D0
100
AcDbEntity
  8
0
100
AcDbLine
 62
7
  6
CONTINUOUS
 10
23.3594076691
 20
18.2193596438
 11
23.3594076691
 21
18.2013051931
  0
LINE
  5
2D1
100
AcDbEntity
  8
0
100
AcDbLine
 62
7
  6
CONTINUOUS
 10
23.3594076691
 20
18.1364661889
 11
23.3594076691
 21
18.1160062381
  0
LINE
  5
2D2
100
AcDbEntity
  8
0
100
AcDbLine
 62
7
  6
CONTINUOUS
 10
23.3594076691
 20
18.0755167842
 11
23.3594076691
 21
18.0535761732
  0
LINE
  5
2D3
100
AcDbEntity
  8
0
100
AcDbLine
 62
7
  6
CONTINUOUS
 10
23.3594076691
 20
18.0434452932
 11
23.3594076691
 21
18.0208040058
  0
LINE
  5
2D4
100
AcDbEntity
  8
0
100
AcDbLine
 62
7
  6
CONTINUOUS
 10
23.3594076691
 20
17.9892639528
 11
23.3594076691
 21
17.9870465692
  0
LINE
  5
2D5
100
AcDbEntity
  8
0
100
AcDbLine
 62
7
  6
CONTINUOUS
 10
23.3594076691
 20
17.976304057
 11
23.3594076691
 21
17.9523449917
  0
LINE
  5
2D6
100
AcDbEntity
  8
0
100
AcDbLine
 62
7
  6
CONTINUOUS
 10
23.3594076691
 20
17.9413161131
 11
23.3594076691
 21
17.9167415517
  0
LINE
  5
2D7
100
AcDbEntity
  8
0
100
AcDbLine
 62
7
  6
CONTINUOUS
 10
23.3594076691
 20
17.9054397437
 11
23.3594076691
 21
17.8802796267
  0
LINE
  5
2D8
100
AcDbEntity
  8
0
100
AcDbLine
 62
7
  6
CONTINUOUS
 10
23.3594076691
 20
17.8481355781
 11
23.3594076691
 21
17.8430036397
  0
LINE
  5
2D9
100
AcDbEntity
  8
0
100
AcDbLine
 62
7
  6
CONTINUOUS
 10
23.3594076691
 20
17.8108061573
 11
23.3594076691
 21
17.804959006
  0
LINE
  5
2DA
100
AcDbEntity
  8
0
100
AcDbLine
 62
7
  6
CONTINUOUS
 10
23.3594076691
 20
17.7929222726
 11
23.3594076691
 21
17.7661920769
  0
LINE
  5
2DB
100
AcDbEntity
  8
0
100
AcDbLine
 62
7
  6
CONTINUOUS
 10
23.3594076691
 20
17.6946276873
 11
23.3594076691
 21
17.6866810814
  0
LINE
  5
2DC
100
AcDbEntity
  8
0
100
AcDbLine
 62
7
  6
CONTINUOUS
 10
23.3594076691
 20
17.6740412998
 11
23.3594076691
 21
17.6546620741
  0
LINE
  5
2DD
100
AcDbEntity
  8
0
100
AcDbLine
 62
7
  6
CONTINUOUS
 10
23.3594076691
 20
17.6332235802
 11
23.3594076691
 21
17.604858023
  0
LINE
  5
2DE
100
AcDbEntity
  8
0
100
AcDbLine
 62
7
  6
CONTINUOUS
 10
23.3594076691
 20
17.5918927985
 11
23.3594076691
 21
17.5632036559
  0
LINE
  5
2DF
100
AcDbEntity
  8
0
100
AcDbLine
 62
7
  6
CONTINUOUS
 10
23.3594076691
 20
17.5317281369
 11
23.3594076691
 21
17.5211215351
  0
LINE
  5
2E0
100
AcDbEntity
  8
0
100
AcDbLine
 62
7
  6
CONTINUOUS
 10
23.3594076691
 20
17.5078940333
 11
23.3594076691
 21
17.4899042165
  0
LINE
  5
2E1
100
AcDbEntity
  8
0
100
AcDbLine
 62
7
  6
CONTINUOUS
 10
23.3594076691
 20
17.4477418466
 11
23.3594076691
 21
17.4358795737
  0
LINE
  5
2E2
100
AcDbEntity
  8
0
100
AcDbLine
 62
7
  6
CONTINUOUS
 10
23.3594076691
 20
17.4224542375
 11
23.3594076691
 21
17.4052923954
  0
LINE
  5
2E3
100
AcDbEntity
  8
0
100
AcDbLine
 62
7
  6
CONTINUOUS
 10
23.3594076691
 20
17.3626075812
 11
23.3594076691
 21
17.3495474291
  0
LINE
  5
2E4
100
AcDbEntity
  8
0
100
AcDbLine
 62
7
  6
CONTINUOUS
 10
23.3594076691
 20
17.3359896653
 11
23.3594076691
 21
17.3197394087
  0
LINE
  5
2E5
100
AcDbEntity
  8
0
100
AcDbLine
 62
7
  6
CONTINUOUS
 10
23.3594076691
 20
17.2767401063
 11
23.3594076691
 21
17.2625457026
  0
LINE
  5
2E6
100
AcDbEntity
  8
0
100
AcDbLine
 62
7
  6
CONTINUOUS
 10
23.3594076691
 20
17.2489215634
 11
23.3594076691
 21
17.2336620619
  0
LINE
  5
2E7
100
AcDbEntity
  8
0
100
AcDbLine
 62
7
  6
CONTINUOUS
 10
23.3594076691
 20
17.1905577595
 11
23.3594076691
 21
17.175298258
  0
LINE
  5
2E8
100
AcDbEntity
  8
0
100
AcDbLine
 62
7
  6
CONTINUOUS
 10
23.3594076691
 20
17.1616741188
 11
23.3594076691
 21
17.1474797152
  0
LINE
  5
2E9
100
AcDbEntity
  8
0
100
AcDbLine
 62
7
  6
CONTINUOUS
 10
23.3594076691
 20
17.1044804127
 11
23.3594076691
 21
17.0882301561
  0
LINE
  5
2EA
100
AcDbEntity
  8
0
100
AcDbLine
 62
7
  6
CONTINUOUS
 10
23.3594076691
 20
17.0746723924
 11
23.3594076691
 21
17.0616122402
  0
LINE
  5
2EB
100
AcDbEntity
  8
0
100
AcDbLine
 62
7
  6
CONTINUOUS
 10
23.3594076691
 20
17.018927426
 11
23.3594076691
 21
17.0017655839
  0
LINE
  5
2EC
100
AcDbEntity
  8
0
100
AcDbLine
 62
7
  6
CONTINUOUS
 10
23.3594076691
 20
16.9883402477
 11
23.3594076691
 21
16.9764779748
  0
LINE
  5
2ED
100
AcDbEntity
  8
0
100
AcDbLine
 62
7
  6
CONTINUOUS
 10
23.3594076691
 20
16.9343156049
 11
23.3594076691
 21
16.9163257881
  0
LINE
  5
2EE
100
AcDbEntity
  8
0
100
AcDbLine
 62
7
  6
CONTINUOUS
 10
23.3594076691
 20
16.9030982863
 11
23.3594076691
 21
16.8924916846
  0
LINE
  5
2EF
100
AcDbEntity
  8
0
100
AcDbLine
 62
7
  6
CONTINUOUS
 10
23.3594076691
 20
16.8610161655
 11
23.3594076691
 21
16.8323270229
  0
LINE
  5
2F0
100
AcDbEntity
  8
0
100
AcDbLine
 62
7
  6
CONTINUOUS
 10
23.3594076691
 20
16.8193617985
 11
23.3594076691
 21
16.7909962412
  0
LINE
  5
2F1
100
AcDbEntity
  8
0
100
AcDbLine
 62
7
  6
CONTINUOUS
 10
23.3594076691
 20
16.7695577473
 11
23.3594076691
 21
16.7501785217
  0
LINE
  5
2F2
100
AcDbEntity
  8
0
100
AcDbLine
 62
7
  6
CONTINUOUS
 10
23.3594076691
 20
16.73753874
 11
23.3594076691
 21
16.7295921341
  0
LINE
  5
2F3
100
AcDbEntity
  8
0
100
AcDbLine
 62
7
  6
CONTINUOUS
 10
23.3594076691
 20
16.6580277445
 11
23.3594076691
 21
16.6312975488
  0
LINE
  5
2F4
100
AcDbEntity
  8
0
100
AcDbLine
 62
7
  6
CONTINUOUS
 10
23.3594076691
 20
16.6192608154
 11
23.3594076691
 21
16.6134136641
  0
LINE
  5
2F5
100
AcDbEntity
  8
0
100
AcDbLine
 62
7
  6
CONTINUOUS
 10
23.3594076691
 20
16.5812161817
 11
23.3594076691
 21
16.5760842433
  0
LINE
  5
2F6
100
AcDbEntity
  8
0
100
AcDbLine
 62
7
  6
CONTINUOUS
 10
23.3594076691
 20
16.5439401947
 11
23.3594076691
 21
16.5187800777
  0
LINE
  5
2F7
100
AcDbEntity
  8
0
100
AcDbLine
 62
7
  6
CONTINUOUS
 10
23.3594076691
 20
16.5074782697
 11
23.3594076691
 21
16.4829037083
  0
LINE
  5
2F8
100
AcDbEntity
  8
0
100
AcDbLine
 62
7
  6
CONTINUOUS
 10
23.3594076691
 20
16.4718748297
 11
23.3594076691
 21
16.4479157644
  0
LINE
  5
2F9
100
AcDbEntity
  8
0
100
AcDbLine
 62
7
  6
CONTINUOUS
 10
23.3594076691
 20
16.4371732522
 11
23.3594076691
 21
16.4349558686
  0
LINE
  5
2FA
100
AcDbEntity
  8
0
100
AcDbLine
 62
7
  6
CONTINUOUS
 10
23.3594076691
 20
16.4034158156
 11
23.3594076691
 21
16.3807745282
  0
LINE
  5
2FB
100
AcDbEntity
  8
0
100
AcDbLine
 62
7
  6
CONTINUOUS
 10
23.3594076691
 20
16.3706436482
 11
23.3594076691
 21
16.3487030372
  0
LINE
  5
2FC
100
AcDbEntity
  8
0
100
AcDbLine
 62
7
  6
CONTINUOUS
 10
23.3594076691
 20
16.3082135833
 11
23.3594076691
 21
16.2877536325
  0
LINE
  5
2FD
100
AcDbEntity
  8
0
100
AcDbLine
 62
7
  6
CONTINUOUS
 10
23.3594076691
 20
16.2229146283
 11
23.3594076691
 21
16.2048601776
  0
LINE
  5
2FE
100
AcDbEntity
  8
0
100
AcDbLine
 62
7
  6
CONTINUOUS
 10
23.3594076691
 20
16.1968472282
 11
23.3594076691
 21
16.1796399351
  0
LINE
  5
2FF
100
AcDbEntity
  8
0
100
AcDbLine
 62
7
  6
CONTINUOUS
 10
23.3594076691
 20
16.1720167694
 11
23.3594076691
 21
16.1556775983
  0
LINE
  5
300
100
AcDbEntity
  8
0
100
AcDbLine
 62
7
  6
CONTINUOUS
 10
23.3594076691
 20
16.1484535038
 11
23.3594076691
 21
16.1330023615
  0
LINE
  5
301
100
AcDbEntity
  8
0
100
AcDbLine
 62
7
  6
CONTINUOUS
 10
23.3594076691
 20
16.1261861397
 11
23.3594076691
 21
16.1116418511
  0
LINE
  5
302
100
AcDbEntity
  8
0
100
AcDbLine
 62
7
  6
CONTINUOUS
 10
23.3594076691
 20
16.1052418064
 11
23.3594076691
 21
16.0916220914
  0
LINE
  5
303
100
AcDbEntity
  8
0
100
AcDbLine
 62
7
  6
CONTINUOUS
 10
23.3594076691
 20
16.0856460215
 11
23.3594076691
 21
16.0729674736
  0
LINE
  5
304
100
AcDbEntity
  8
0
100
AcDbLine
 62
7
  6
CONTINUOUS
 10
23.3594076691
 20
16.0674226592
 11
23.3594076691
 21
16.0557007254
  0
LINE
  5
305
100
AcDbEntity
  8
0
100
AcDbLine
 62
7
  6
CONTINUOUS
 10
23.3594076691
 20
16.0351803133
 11
23.3594076691
 21
16.0254132686
  0
LINE
  5
306
100
AcDbEntity
  8
0
100
AcDbLine
 62
7
  6
CONTINUOUS
 10
23.3594076691
 20
16.0212006118
 11
23.3594076691
 21
16.0124294607
  0
LINE
  5
307
100
AcDbEntity
  8
0
100
AcDbLine
 62
7
  6
CONTINUOUS
 10
23.3594076691
 20
16.00867185
 11
23.3594076691
 21
16.0009072786
  0
LINE
  5
308
100
AcDbEntity
  8
0
100
AcDbLine
 62
7
  6
CONTINUOUS
 10
23.3594076691
 20
15.9626520674
 11
23.3594076691
 21
15.9621284952
  0
LINE
  5
309
100
AcDbEntity
  8
0
100
AcDbLine
 62
7
  6
CONTINUOUS
 10
23.3594076691
 20
15.997609292
 11
23.3594076691
 21
15.9908607604
  0
LINE
  5
30A
100
AcDbEntity
  8
0
100
AcDbLine
 62
7
  6
CONTINUOUS
 10
23.3594076691
 20
15.9799348971
 11
23.3594076691
 21
15.9752418631
  0
LINE
  5
30B
100
AcDbEntity
  8
0
100
AcDbLine
 62
7
  6
CONTINUOUS
 10
23.3594076691
 20
15.968263535
 11
23.3594076691
 21
15.9656488627
  0
LINE
  5
30C
100
AcDbEntity
  8
0
100
AcDbLine
 62
6
  6
CONTINUOUS
 10
23.3594076691
 20
15.9621099107
 11
23.3594076691
 21
15.9621284952
  0
LINE
  5
30D
100
AcDbEntity
  8
0
100
AcDbLine
 62
6
  6
CONTINUOUS
 10
23.3594076691
 20
15.9626520674
 11
23.3594076691
 21
15.9656488627
  0
LINE
  5
30E
100
AcDbEntity
  8
0
100
AcDbLine
 62
6
  6
CONTINUOUS
 10
23.3594076691
 20
15.968263535
 11
23.3594076691
 21
15.9752418631
  0
LINE
  5
30F
100
AcDbEntity
  8
0
100
AcDbLine
 62
6
  6
CONTINUOUS
 10
23.3594076691
 20
15.9799348971
 11
23.3594076691
 21
15.9908607604
  0
LINE
  5
310
100
AcDbEntity
  8
0
100
AcDbLine
 62
6
  6
CONTINUOUS
 10
23.3594076691
 20
15.997609292
 11
23.3594076691
 21
16.0009072786
  0
LINE
  5
311
100
AcDbEntity
  8
0
100
AcDbLine
 62
6
  6
CONTINUOUS
 10
23.3594076691
 20
16.00867185
 11
23.3594076691
 21
16.0124294607
  0
LINE
  5
312
100
AcDbEntity
  8
0
100
AcDbLine
 62
6
  6
CONTINUOUS
 10
23.3594076691
 20
16.0212006118
 11
23.3594076691
 21
16.0254132686
  0
LINE
  5
313
100
AcDbEntity
  8
0
100
AcDbLine
 62
6
  6
CONTINUOUS
 10
23.3594076691
 20
16.0351803133
 11
23.3594076691
 21
16.0557007254
  0
LINE
  5
314
100
AcDbEntity
  8
0
100
AcDbLine
 62
6
  6
CONTINUOUS
 10
23.3594076691
 20
16.0674226592
 11
23.3594076691
 21
16.0729674736
  0
LINE
  5
315
100
AcDbEntity
  8
0
100
AcDbLine
 62
6
  6
CONTINUOUS
 10
23.3594076691
 20
16.0856460215
 11
23.3594076691
 21
16.0916220914
  0
LINE
  5
316
100
AcDbEntity
  8
0
100
AcDbLine
 62
6
  6
CONTINUOUS
 10
23.3594076691
 20
16.1052418064
 11
23.3594076691
 21
16.1116418511
  0
LINE
  5
317
100
AcDbEntity
  8
0
100
AcDbLine
 62
6
  6
CONTINUOUS
 10
23.3594076691
 20
16.1261861397
 11
23.3594076691
 21
16.1330023615
  0
LINE
  5
318
100
AcDbEntity
  8
0
100
AcDbLine
 62
6
  6
CONTINUOUS
 10
23.3594076691
 20
16.1484535038
 11
23.3594076691
 21
16.1556775983
  0
LINE
  5
319
100
AcDbEntity
  8
0
100
AcDbLine
 62
6
  6
CONTINUOUS
 10
23.3594076691
 20
16.1720167694
 11
23.3594076691
 21
16.1796399351
  0
LINE
  5
31A
100
AcDbEntity
  8
0
100
AcDbLine
 62
6
  6
CONTINUOUS
 10
23.3594076691
 20
16.1968472282
 11
23.3594076691
 21
16.2048601776
  0
LINE
  5
31B
100
AcDbEntity
  8
0
100
AcDbLine
 62
6
  6
CONTINUOUS
 10
23.3594076691
 20
16.2229146283
 11
23.3594076691
 21
16.2877536325
  0
LINE
  5
31C
100
AcDbEntity
  8
0
100
AcDbLine
 62
6
  6
CONTINUOUS
 10
23.3594076691
 20
16.3082135833
 11
23.3594076691
 21
16.3487030372
  0
LINE
  5
31D
100
AcDbEntity
  8
0
100
AcDbLine
 62
6
  6
CONTINUOUS
 10
23.3594076691
 20
16.3706436482
 11
23.3594076691
 21
16.3807745282
  0
LINE
  5
31E
100
AcDbEntity
  8
0
100
AcDbLine
 62
6
  6
CONTINUOUS
 10
23.3594076691
 20
16.4034158156
 11
23.3594076691
 21
16.4349558686
  0
LINE
  5
31F
100
AcDbEntity
  8
0
100
AcDbLine
 62
6
  6
CONTINUOUS
 10
23.3594076691
 20
16.4371732522
 11
23.3594076691
 21
16.4479157644
  0
LINE
  5
320
100
AcDbEntity
  8
0
100
AcDbLine
 62
6
  6
CONTINUOUS
 10
23.3594076691
 20
16.4718748297
 11
23.3594076691
 21
16.4829037083
  0
LINE
  5
321
100
AcDbEntity
  8
0
100
AcDbLine
 62
6
  6
CONTINUOUS
 10
23.3594076691
 20
16.5074782697
 11
23.3594076691
 21
16.5187800777
  0
LINE
  5
322
100
AcDbEntity
  8
0
100
AcDbLine
 62
6
  6
CONTINUOUS
 10
23.3594076691
 20
16.5439401947
 11
23.3594076691
 21
16.5760842433
  0
LINE
  5
323
100
AcDbEntity
  8
0
100
AcDbLine
 62
6
  6
CONTINUOUS
 10
23.3594076691
 20
16.5812161817
 11
23.3594076691
 21
16.6134136641
  0
LINE
  5
324
100
AcDbEntity
  8
0
100
AcDbLine
 62
6
  6
CONTINUOUS
 10
23.3594076691
 20
16.6192608154
 11
23.3594076691
 21
16.6312975488
  0
LINE
  5
325
100
AcDbEntity
  8
0
100
AcDbLine
 62
6
  6
CONTINUOUS
 10
23.3594076691
 20
16.6580277445
 11
23.3594076691
 21
16.7295921341
  0
LINE
  5
326
100
AcDbEntity
  8
0
100
AcDbLine
 62
6
  6
CONTINUOUS
 10
23.3594076691
 20
16.73753874
 11
23.3594076691
 21
16.7501785217
  0
LINE
  5
327
100
AcDbEntity
  8
0
100
AcDbLine
 62
6
  6
CONTINUOUS
 10
23.3594076691
 20
16.7695577473
 11
23.3594076691
 21
16.7909962412
  0
LINE
  5
328
100
AcDbEntity
  8
0
100
AcDbLine
 62
6
  6
CONTINUOUS
 10
23.3594076691
 20
16.8193617985
 11
23.3594076691
 21
16.8323270229
  0
LINE
  5
329
100
AcDbEntity
  8
0
100
AcDbLine
 62
6
  6
CONTINUOUS
 10
23.3594076691
 20
16.8610161655
 11
23.3594076691
 21
16.8924916846
  0
LINE
  5
32A
100
AcDbEntity
  8
0
100
AcDbLine
 62
6
  6
CONTINUOUS
 10
23.3594076691
 20
16.9030982863
 11
23.3594076691
 21
16.9163257881
  0
LINE
  5
32B
100
AcDbEntity
  8
0
100
AcDbLine
 62
6
  6
CONTINUOUS
 10
23.3594076691
 20
16.9343156049
 11
23.3594076691
 21
16.9764779748
  0
LINE
  5
32C
100
AcDbEntity
  8
0
100
AcDbLine
 62
6
  6
CONTINUOUS
 10
23.3594076691
 20
16.9883402477
 11
23.3594076691
 21
17.0017655839
  0
LINE
  5
32D
100
AcDbEntity
  8
0
100
AcDbLine
 62
6
  6
CONTINUOUS
 10
23.3594076691
 20
17.018927426
 11
23.3594076691
 21
17.0616122402
  0
LINE
  5
32E
100
AcDbEntity
  8
0
100
AcDbLine
 62
6
  6
CONTINUOUS
 10
23.3594076691
 20
17.0746723924
 11
23.3594076691
 21
17.0882301561
  0
LINE
  5
32F
100
AcDbEntity
  8
0
100
AcDbLine
 62
6
  6
CONTINUOUS
 10
23.3594076691
 20
17.1044804127
 11
23.3594076691
 21
17.1474797152
  0
LINE
  5
330
100
AcDbEntity
  8
0
100
AcDbLine
 62
6
  6
CONTINUOUS
 10
23.3594076691
 20
17.1616741188
 11
23.3594076691
 21
17.175298258
  0
LINE
  5
331
100
AcDbEntity
  8
0
100
AcDbLine
 62
6
  6
CONTINUOUS
 10
23.3594076691
 20
17.1905577595
 11
23.3594076691
 21
17.2336620619
  0
LINE
  5
332
100
AcDbEntity
  8
0
100
AcDbLine
 62
6
  6
CONTINUOUS
 10
23.3594076691
 20
17.2489215634
 11
23.3594076691
 21
17.2625457026
  0
LINE
  5
333
100
AcDbEntity
  8
0
100
AcDbLine
 62
6
  6
CONTINUOUS
 10
23.3594076691
 20
17.2767401063
 11
23.3594076691
 21
17.3197394087
  0
LINE
  5
334
100
AcDbEntity
  8
0
100
AcDbLine
 62
6
  6
CONTINUOUS
 10
23.3594076691
 20
17.3359896653
 11
23.3594076691
 21
17.3495474291
  0
LINE
  5
335
100
AcDbEntity
  8
0
100
AcDbLine
 62
6
  6
CONTINUOUS
 10
23.3594076691
 20
17.3626075812
 11
23.3594076691
 21
17.4052923954
  0
LINE
  5
336
100
AcDbEntity
  8
0
100
AcDbLine
 62
6
  6
CONTINUOUS
 10
23.3594076691
 20
17.4224542375
 11
23.3594076691
 21
17.4358795737
  0
LINE
  5
337
100
AcDbEntity
  8
0
100
AcDbLine
 62
6
  6
CONTINUOUS
 10
23.3594076691
 20
17.4477418466
 11
23.3594076691
 21
17.4899042165
  0
LINE
  5
338
100
AcDbEntity
  8
0
100
AcDbLine
 62
6
  6
CONTINUOUS
 10
23.3594076691
 20
17.5078940333
 11
23.3594076691
 21
17.5211215351
  0
LINE
  5
339
100
AcDbEntity
  8
0
100
AcDbLine
 62
6
  6
CONTINUOUS
 10
23.3594076691
 20
17.5317281369
 11
23.3594076691
 21
17.5632036559
  0
LINE
  5
33A
100
AcDbEntity
  8
0
100
AcDbLine
 62
6
  6
CONTINUOUS
 10
23.3594076691
 20
17.5918927985
 11
23.3594076691
 21
17.604858023
  0
LINE
  5
33B
100
AcDbEntity
  8
0
100
AcDbLine
 62
6
  6
CONTINUOUS
 10
23.3594076691
 20
17.6332235802
 11
23.3594076691
 21
17.6546620741
  0
LINE
  5
33C
100
AcDbEntity
  8
0
100
AcDbLine
 62
6
  6
CONTINUOUS
 10
23.3594076691
 20
17.6740412998
 11
23.3594076691
 21
17.6866810814
  0
LINE
  5
33D
100
AcDbEntity
  8
0
100
AcDbLine
 62
6
  6
CONTINUOUS
 10
23.3594076691
 20
17.6946276873
 11
23.3594076691
 21
17.7661920769
  0
LINE
  5
33E
100
AcDbEntity
  8
0
100
AcDbLine
 62
6
  6
CONTINUOUS
 10
23.3594076691
 20
17.7929222726
 11
23.3594076691
 21
17.804959006
  0
LINE
  5
33F
100
AcDbEntity
  8
0
100
AcDbLine
 62
6
  6
CONTINUOUS
 10
23.3594076691
 20
17.8108061573
 11
23.3594076691
 21
17.8430036397
  0
LINE
  5
340
100
AcDbEntity
  8
0
100
AcDbLine
 62
6
  6
CONTINUOUS
 10
23.3594076691
 20
17.8481355781
 11
23.3594076691
 21
17.8802796267
  0
LINE
  5
341
100
AcDbEntity
  8
0
100
AcDbLine
 62
6
  6
CONTINUOUS
 10
23.3594076691
 20
17.9054397437
 11
23.3594076691
 21
17.9167415517
  0
LINE
  5
342
100
AcDbEntity
  8
0
100
AcDbLine
 62
6
  6
CONTINUOUS
 10
23.3594076691
 20
17.9413161131
 11
23.3594076691
 21
17.9523449917
  0
LINE
  5
343
100
AcDbEntity
  8
0
100
AcDbLine
 62
6
  6
CONTINUOUS
 10
23.3594076691
 20
17.976304057
 11
23.3594076691
 21
17.9870465692
  0
LINE
  5
344
100
AcDbEntity
  8
0
100
AcDbLine
 62
6
  6
CONTINUOUS
 10
23.3594076691
 20
17.9892639528
 11
23.3594076691
 21
18.0208040058
  0
LINE
  5
345
100
AcDbEntity
  8
0
100
AcDbLine
 62
6
  6
CONTINUOUS
 10
23.3594076691
 20
18.0434452932
 11
23.3594076691
 21
18.0535761732
  0
LINE
  5
346
100
AcDbEntity
  8
0
100
AcDbLine
 62
6
  6
CONTINUOUS
 10
23.3594076691
 20
18.0755167842
 11
23.3594076691
 21
18.1160062381
  0
LINE
  5
347
100
AcDbEntity
  8
0
100
AcDbLine
 62
6
  6
CONTINUOUS
 10
23.3594076691
 20
18.1364661889
 11
23.3594076691
 21
18.2013051931
  0
LINE
  5
348
100
AcDbEntity
  8
0
100
AcDbLine
 62
6
  6
CONTINUOUS
 10
23.3594076691
 20
18.2193596438
 11
23.3594076691
 21
18.2273725932
  0
LINE
  5
349
100
AcDbEntity
  8
0
100
AcDbLine
 62
6
  6
CONTINUOUS
 10
23.3594076691
 20
18.2445798863
 11
23.3594076691
 21
18.252203052
  0
LINE
  5
34A
100
AcDbEntity
  8
0
100
AcDbLine
 62
6
  6
CONTINUOUS
 10
23.3594076691
 20
18.2685422231
 11
23.3594076691
 21
18.2757663176
  0
LINE
  5
34B
100
AcDbEntity
  8
0
100
AcDbLine
 62
6
  6
CONTINUOUS
 10
23.3594076691
 20
18.2912174599
 11
23.3594076691
 21
18.2980336817
  0
LINE
  5
34C
100
AcDbEntity
  8
0
100
AcDbLine
 62
6
  6
CONTINUOUS
 10
23.3594076691
 20
18.3125779703
 11
23.3594076691
 21
18.318978015
  0
LINE
  5
34D
100
AcDbEntity
  8
0
100
AcDbLine
 62
6
  6
CONTINUOUS
 10
23.3594076691
 20
18.33259773
 11
23.3594076691
 21
18.3385737999
  0
LINE
  5
34E
100
AcDbEntity
  8
0
100
AcDbLine
 62
6
  6
CONTINUOUS
 10
23.3594076691
 20
18.3512523478
 11
23.3594076691
 21
18.3567971622
  0
LINE
  5
34F
100
AcDbEntity
  8
0
100
AcDbLine
 62
6
  6
CONTINUOUS
 10
23.3594076691
 20
18.368519096
 11
23.3594076691
 21
18.3890395082
  0
LINE
  5
350
100
AcDbEntity
  8
0
100
AcDbLine
 62
6
  6
CONTINUOUS
 10
23.3594076691
 20
18.3988065528
 11
23.3594076691
 21
18.4030192096
  0
LINE
  5
351
100
AcDbEntity
  8
0
100
AcDbLine
 62
6
  6
CONTINUOUS
 10
23.3594076691
 20
18.4117903607
 11
23.3594076691
 21
18.4155479714
  0
LINE
  5
352
100
AcDbEntity
  8
0
100
AcDbLine
 62
6
  6
CONTINUOUS
 10
23.3594076691
 20
18.4233125428
 11
23.3594076691
 21
18.4266105294
  0
LINE
  5
353
100
AcDbEntity
  8
0
100
AcDbLine
 62
6
  6
CONTINUOUS
 10
23.3594076691
 20
18.433359061
 11
23.3594076691
 21
18.4442849243
  0
LINE
  5
354
100
AcDbEntity
  8
0
100
AcDbLine
 62
6
  6
CONTINUOUS
 10
23.3594076691
 20
18.4489779583
 11
23.3594076691
 21
18.4559562864
  0
LINE
  5
355
100
AcDbEntity
  8
0
100
AcDbLine
 62
6
  6
CONTINUOUS
 10
23.3594076691
 20
18.4585709587
 11
23.3594076691
 21
18.461567754
  0
LINE
  5
356
100
AcDbEntity
  8
0
100
AcDbLine
 62
6
  6
CONTINUOUS
 10
23.3594076691
 20
18.4620913262
 11
23.3594076691
 21
18.4621099107
  0
LINE
  5
357
100
AcDbEntity
  8
0
100
AcDbLine
 62
7
  6
CONTINUOUS
 10
23.4344076691
 20
18.1455880742
 11
23.3594076691
 21
18.1455880742
  0
LINE
  5
358
100
AcDbEntity
  8
0
100
AcDbLine
 62
6
  6
CONTINUOUS
 10
23.4344076691
 20
18.1652698451
 11
23.3594076691
 21
18.1652698451
  0
LINE
  5
359
100
AcDbEntity
  8
0
100
AcDbLine
 62
6
  6
CONTINUOUS
 10
23.4344076691
 20
18.174032611
 11
23.3594076691
 21
18.174032611
  0
LINE
  5
35A
100
AcDbEntity
  8
0
100
AcDbLine
 62
6
  6
CONTINUOUS
 10
23.4344076691
 20
18.1929122227
 11
23.3594076691
 21
18.1929122227
  0
LINE
  5
35B
100
AcDbEntity
  8
0
100
AcDbLine
 62
7
  6
CONTINUOUS
 10
23.4344076691
 20
18.2013051931
 11
23.3594076691
 21
18.2013051931
  0
LINE
  5
35C
100
AcDbEntity
  8
0
100
AcDbLine
 62
7
  6
CONTINUOUS
 10
23.4344076691
 20
18.2193596438
 11
23.3594076691
 21
18.2193596438
  0
LINE
  5
35D
100
AcDbEntity
  8
0
100
AcDbLine
 62
7
  6
CONTINUOUS
 10
23.4344076691
 20
18.2273725932
 11
23.3594076691
 21
18.2273725932
  0
LINE
  5
35E
100
AcDbEntity
  8
0
100
AcDbLine
 62
7
  6
CONTINUOUS
 10
23.4344076691
 20
18.2445798863
 11
23.3594076691
 21
18.2445798863
  0
LINE
  5
35F
100
AcDbEntity
  8
0
100
AcDbLine
 62
7
  6
CONTINUOUS
 10
23.4344076691
 20
18.252203052
 11
23.3594076691
 21
18.252203052
  0
LINE
  5
360
100
AcDbEntity
  8
0
100
AcDbLine
 62
7
  6
CONTINUOUS
 10
23.4344076691
 20
18.2685422231
 11
23.3594076691
 21
18.2685422231
  0
LINE
  5
361
100
AcDbEntity
  8
0
100
AcDbLine
 62
6
  6
CONTINUOUS
 10
23.4344076691
 20
18.4621099107
 11
23.4344076691
 21
18.4620913262
  0
LINE
  5
362
100
AcDbEntity
  8
0
100
AcDbLine
 62
7
  6
CONTINUOUS
 10
23.4344076691
 20
18.4620913262
 11
23.4344076691
 21
18.461567754
  0
LINE
  5
363
100
AcDbEntity
  8
0
100
AcDbLine
 62
7
  6
CONTINUOUS
 10
23.4344076691
 20
18.4489779583
 11
23.4344076691
 21
18.4442849243
  0
LINE
  5
364
100
AcDbEntity
  8
0
100
AcDbLine
 62
7
  6
CONTINUOUS
 10
23.4344076691
 20
18.4585709587
 11
23.4344076691
 21
18.4559562864
  0
LINE
  5
365
100
AcDbEntity
  8
0
100
AcDbLine
 62
6
  6
CONTINUOUS
 10
23.4344076691
 20
18.461567754
 11
23.4344076691
 21
18.4585709587
  0
LINE
  5
366
100
AcDbEntity
  8
0
100
AcDbLine
 62
6
  6
CONTINUOUS
 10
23.4344076691
 20
18.4559562864
 11
23.4344076691
 21
18.4489779583
  0
LINE
  5
367
100
AcDbEntity
  8
0
100
AcDbLine
 62
7
  6
CONTINUOUS
 10
23.4344076691
 20
18.3988065528
 11
23.4344076691
 21
18.3890522472
  0
LINE
  5
368
100
AcDbEntity
  8
0
100
AcDbLine
 62
6
  6
CONTINUOUS
 10
23.4344076691
 20
18.4030192096
 11
23.4344076691
 21
18.3988065528
  0
LINE
  5
369
100
AcDbEntity
  8
0
100
AcDbLine
 62
6
  6
CONTINUOUS
 10
23.4344076691
 20
18.4155479714
 11
23.4344076691
 21
18.4117903607
  0
LINE
  5
36A
100
AcDbEntity
  8
0
100
AcDbLine
 62
7
  6
CONTINUOUS
 10
23.4344076691
 20
18.4117903607
 11
23.4344076691
 21
18.4030192096
  0
LINE
  5
36B
100
AcDbEntity
  8
0
100
AcDbLine
 62
7
  6
CONTINUOUS
 10
23.4344076691
 20
18.4233125428
 11
23.4344076691
 21
18.4155479714
  0
LINE
  5
36C
100
AcDbEntity
  8
0
100
AcDbLine
 62
7
  6
CONTINUOUS
 10
23.4344076691
 20
18.433359061
 11
23.4344076691
 21
18.4266105294
  0
LINE
  5
36D
100
AcDbEntity
  8
0
100
AcDbLine
 62
6
  6
CONTINUOUS
 10
23.4344076691
 20
18.4442849243
 11
23.4344076691
 21
18.433359061
  0
LINE
  5
36E
100
AcDbEntity
  8
0
100
AcDbLine
 62
6
  6
CONTINUOUS
 10
23.4344076691
 20
18.4266105294
 11
23.4344076691
 21
18.4233125428
  0
LINE
  5
36F
100
AcDbEntity
  8
0
100
AcDbLine
 62
6
  6
CONTINUOUS
 10
23.4344076691
 20
18.3567971622
 11
23.4344076691
 21
18.3512523478
  0
LINE
  5
370
100
AcDbEntity
  8
0
100
AcDbLine
 62
7
  6
CONTINUOUS
 10
23.4344076691
 20
18.3512523478
 11
23.4344076691
 21
18.3385737999
  0
LINE
  5
371
100
AcDbEntity
  8
0
100
AcDbLine
 62
7
  6
CONTINUOUS
 10
23.4344076691
 20
18.368519096
 11
23.4344076691
 21
18.3567971622
  0
LINE
  5
372
100
AcDbEntity
  8
0
100
AcDbLine
 62
6
  6
CONTINUOUS
 10
23.4344076691
 20
18.3890395082
 11
23.4344076691
 21
18.368519096
  0
LINE
  5
373
100
AcDbEntity
  8
0
100
AcDbLine
 62
6
  6
CONTINUOUS
 10
23.4344076691
 20
18.2980336817
 11
23.4344076691
 21
18.2912174599
  0
LINE
  5
374
100
AcDbEntity
  8
0
100
AcDbLine
 62
6
  6
CONTINUOUS
 10
23.4344076691
 20
18.318978015
 11
23.4344076691
 21
18.3125779703
  0
LINE
  5
375
100
AcDbEntity
  8
0
100
AcDbLine
 62
6
  6
CONTINUOUS
 10
23.4344076691
 20
18.3385737999
 11
23.4344076691
 21
18.33259773
  0
LINE
  5
376
100
AcDbEntity
  8
0
100
AcDbLine
 62
7
  6
CONTINUOUS
 10
23.4344076691
 20
18.3125779703
 11
23.4344076691
 21
18.2980336817
  0
LINE
  5
377
100
AcDbEntity
  8
0
100
AcDbLine
 62
7
  6
CONTINUOUS
 10
23.4344076691
 20
18.33259773
 11
23.4344076691
 21
18.318978015
  0
LINE
  5
378
100
AcDbEntity
  8
0
100
AcDbLine
 62
7
  6
CONTINUOUS
 10
23.4344076691
 20
18.2912174599
 11
23.4344076691
 21
18.2757663176
  0
LINE
  5
379
100
AcDbEntity
  8
0
100
AcDbLine
 62
7
  6
CONTINUOUS
 10
23.4344076691
 20
18.2685422231
 11
23.4344076691
 21
18.252203052
  0
LINE
  5
37A
100
AcDbEntity
  8
0
100
AcDbLine
 62
6
  6
CONTINUOUS
 10
23.4344076691
 20
18.252203052
 11
23.4344076691
 21
18.2445798863
  0
LINE
  5
37B
100
AcDbEntity
  8
0
100
AcDbLine
 62
6
  6
CONTINUOUS
 10
23.4344076691
 20
18.2757663176
 11
23.4344076691
 21
18.2685422231
  0
LINE
  5
37C
100
AcDbEntity
  8
0
100
AcDbLine
 62
7
  6
CONTINUOUS
 10
23.4344076691
 20
18.2445798863
 11
23.4344076691
 21
18.2273725932
  0
LINE
  5
37D
100
AcDbEntity
  8
0
100
AcDbLine
 62
7
  6
CONTINUOUS
 10
23.4344076691
 20
18.2193596438
 11
23.4344076691
 21
18.2013051931
  0
LINE
  5
37E
100
AcDbEntity
  8
0
100
AcDbLine
 62
6
  6
CONTINUOUS
 10
23.4344076691
 20
18.2273725932
 11
23.4344076691
 21
18.2193596438
  0
LINE
  5
37F
100
AcDbEntity
  8
0
100
AcDbLine
 62
7
  6
CONTINUOUS
 10
23.4344076691
 20
18.1364661889
 11
23.4344076691
 21
18.115265908
  0
LINE
  5
380
100
AcDbEntity
  8
0
100
AcDbLine
 62
6
  6
CONTINUOUS
 10
23.4344076691
 20
18.2013051931
 11
23.4344076691
 21
18.1364661889
  0
LINE
  5
381
100
AcDbEntity
  8
0
100
AcDbLine
 62
6
  6
CONTINUOUS
 10
23.4344076691
 20
18.115265908
 11
23.4344076691
 21
18.0755167842
  0
LINE
  5
382
100
AcDbEntity
  8
0
100
AcDbLine
 62
7
  6
CONTINUOUS
 10
23.4344076691
 20
18.0755167842
 11
23.4344076691
 21
18.0535761732
  0
LINE
  5
383
100
AcDbEntity
  8
0
100
AcDbLine
 62
7
  6
CONTINUOUS
 10
23.4344076691
 20
18.0434452932
 11
23.4344076691
 21
18.0208040058
  0
LINE
  5
384
100
AcDbEntity
  8
0
100
AcDbLine
 62
6
  6
CONTINUOUS
 10
23.4344076691
 20
18.0535761732
 11
23.4344076691
 21
18.0434452932
  0
LINE
  5
385
100
AcDbEntity
  8
0
100
AcDbLine
 62
7
  6
CONTINUOUS
 10
23.4344076691
 20
17.9892639528
 11
23.4344076691
 21
17.9870465692
  0
LINE
  5
386
100
AcDbEntity
  8
0
100
AcDbLine
 62
6
  6
CONTINUOUS
 10
23.4344076691
 20
18.0208040058
 11
23.4344076691
 21
17.9892639528
  0
LINE
  5
387
100
AcDbEntity
  8
0
100
AcDbLine
 62
6
  6
CONTINUOUS
 10
23.4344076691
 20
17.9870465692
 11
23.4344076691
 21
17.976304057
  0
LINE
  5
388
100
AcDbEntity
  8
0
100
AcDbLine
 62
7
  6
CONTINUOUS
 10
23.4344076691
 20
17.976304057
 11
23.4344076691
 21
17.9523449917
  0
LINE
  5
389
100
AcDbEntity
  8
0
100
AcDbLine
 62
7
  6
CONTINUOUS
 10
23.4344076691
 20
17.9413161131
 11
23.4344076691
 21
17.9167415517
  0
LINE
  5
38A
100
AcDbEntity
  8
0
100
AcDbLine
 62
6
  6
CONTINUOUS
 10
23.4344076691
 20
17.9523449917
 11
23.4344076691
 21
17.9413161131
  0
LINE
  5
38B
100
AcDbEntity
  8
0
100
AcDbLine
 62
7
  6
CONTINUOUS
 10
23.4344076691
 20
17.9054397437
 11
23.4344076691
 21
17.8802796267
  0
LINE
  5
38C
100
AcDbEntity
  8
0
100
AcDbLine
 62
6
  6
CONTINUOUS
 10
23.4344076691
 20
17.9167415517
 11
23.4344076691
 21
17.9054397437
  0
LINE
  5
38D
100
AcDbEntity
  8
0
100
AcDbLine
 62
7
  6
CONTINUOUS
 10
23.4344076691
 20
17.8481355781
 11
23.4344076691
 21
17.8430036397
  0
LINE
  5
38E
100
AcDbEntity
  8
0
100
AcDbLine
 62
6
  6
CONTINUOUS
 10
23.4344076691
 20
17.8802796267
 11
23.4344076691
 21
17.8481355781
  0
LINE
  5
38F
100
AcDbEntity
  8
0
100
AcDbLine
 62
6
  6
CONTINUOUS
 10
23.4344076691
 20
17.8430036397
 11
23.4344076691
 21
17.8108061573
  0
LINE
  5
390
100
AcDbEntity
  8
0
100
AcDbLine
 62
7
  6
CONTINUOUS
 10
23.4344076691
 20
17.8108061573
 11
23.4344076691
 21
17.804959006
  0
LINE
  5
391
100
AcDbEntity
  8
0
100
AcDbLine
 62
6
  6
CONTINUOUS
 10
23.4344076691
 20
17.804959006
 11
23.4344076691
 21
17.7929222726
  0
LINE
  5
392
100
AcDbEntity
  8
0
100
AcDbLine
 62
7
  6
CONTINUOUS
 10
23.4344076691
 20
17.7929222726
 11
23.4344076691
 21
17.7661920769
  0
LINE
  5
393
100
AcDbEntity
  8
0
100
AcDbLine
 62
7
  6
CONTINUOUS
 10
23.4344076691
 20
17.6946276873
 11
23.4344076691
 21
17.6866810814
  0
LINE
  5
394
100
AcDbEntity
  8
0
100
AcDbLine
 62
6
  6
CONTINUOUS
 10
23.4344076691
 20
17.6866810814
 11
23.4344076691
 21
17.6740412998
  0
LINE
  5
395
100
AcDbEntity
  8
0
100
AcDbLine
 62
6
  6
CONTINUOUS
 10
23.4344076691
 20
17.7661920769
 11
23.4344076691
 21
17.6946276873
  0
LINE
  5
396
100
AcDbEntity
  8
0
100
AcDbLine
 62
7
  6
CONTINUOUS
 10
23.4344076691
 20
17.6740412998
 11
23.4344076691
 21
17.6546620741
  0
LINE
  5
397
100
AcDbEntity
  8
0
100
AcDbLine
 62
6
  6
CONTINUOUS
 10
23.4344076691
 20
17.6546620741
 11
23.4344076691
 21
17.6332235802
  0
LINE
  5
398
100
AcDbEntity
  8
0
100
AcDbLine
 62
7
  6
CONTINUOUS
 10
23.4344076691
 20
17.6332235802
 11
23.4344076691
 21
17.604858023
  0
LINE
  5
399
100
AcDbEntity
  8
0
100
AcDbLine
 62
6
  6
CONTINUOUS
 10
23.4344076691
 20
17.604858023
 11
23.4344076691
 21
17.5918927985
  0
LINE
  5
39A
100
AcDbEntity
  8
0
100
AcDbLine
 62
7
  6
CONTINUOUS
 10
23.4344076691
 20
17.5918927985
 11
23.4344076691
 21
17.5632036559
  0
LINE
  5
39B
100
AcDbEntity
  8
0
100
AcDbLine
 62
6
  6
CONTINUOUS
 10
23.4344076691
 20
17.5632036559
 11
23.4344076691
 21
17.5317281369
  0
LINE
  5
39C
100
AcDbEntity
  8
0
100
AcDbLine
 62
7
  6
CONTINUOUS
 10
23.4344076691
 20
17.5317281369
 11
23.4344076691
 21
17.5211215351
  0
LINE
  5
39D
100
AcDbEntity
  8
0
100
AcDbLine
 62
7
  6
CONTINUOUS
 10
23.4344076691
 20
17.5078940333
 11
23.4344076691
 21
17.4899042165
  0
LINE
  5
39E
100
AcDbEntity
  8
0
100
AcDbLine
 62
6
  6
CONTINUOUS
 10
23.4344076691
 20
17.5211215351
 11
23.4344076691
 21
17.5078940333
  0
LINE
  5
39F
100
AcDbEntity
  8
0
100
AcDbLine
 62
6
  6
CONTINUOUS
 10
23.4344076691
 20
17.4899042165
 11
23.4344076691
 21
17.4477418466
  0
LINE
  5
3A0
100
AcDbEntity
  8
0
100
AcDbLine
 62
7
  6
CONTINUOUS
 10
23.4344076691
 20
17.4477418466
 11
23.4344076691
 21
17.4358795737
  0
LINE
  5
3A1
100
AcDbEntity
  8
0
100
AcDbLine
 62
7
  6
CONTINUOUS
 10
23.4344076691
 20
17.4224542375
 11
23.4344076691
 21
17.4052923954
  0
LINE
  5
3A2
100
AcDbEntity
  8
0
100
AcDbLine
 62
6
  6
CONTINUOUS
 10
23.4344076691
 20
17.4358795737
 11
23.4344076691
 21
17.4224542375
  0
LINE
  5
3A3
100
AcDbEntity
  8
0
100
AcDbLine
 62
7
  6
CONTINUOUS
 10
23.4344076691
 20
17.3626075812
 11
23.4344076691
 21
17.3495474291
  0
LINE
  5
3A4
100
AcDbEntity
  8
0
100
AcDbLine
 62
6
  6
CONTINUOUS
 10
23.4344076691
 20
17.4052923954
 11
23.4344076691
 21
17.3626075812
  0
LINE
  5
3A5
100
AcDbEntity
  8
0
100
AcDbLine
 62
7
  6
CONTINUOUS
 10
23.4344076691
 20
17.3359896653
 11
23.4344076691
 21
17.3197394087
  0
LINE
  5
3A6
100
AcDbEntity
  8
0
100
AcDbLine
 62
6
  6
CONTINUOUS
 10
23.4344076691
 20
17.3495474291
 11
23.4344076691
 21
17.3359896653
  0
LINE
  5
3A7
100
AcDbEntity
  8
0
100
AcDbLine
 62
7
  6
CONTINUOUS
 10
23.4344076691
 20
17.2767401063
 11
23.4344076691
 21
17.2625457026
  0
LINE
  5
3A8
100
AcDbEntity
  8
0
100
AcDbLine
 62
6
  6
CONTINUOUS
 10
23.4344076691
 20
17.3197394087
 11
23.4344076691
 21
17.2767401063
  0
LINE
  5
3A9
100
AcDbEntity
  8
0
100
AcDbLine
 62
7
  6
CONTINUOUS
 10
23.4344076691
 20
17.2489215634
 11
23.4344076691
 21
17.2336620619
  0
LINE
  5
3AA
100
AcDbEntity
  8
0
100
AcDbLine
 62
6
  6
CONTINUOUS
 10
23.4344076691
 20
17.2625457026
 11
23.4344076691
 21
17.2489215634
  0
LINE
  5
3AB
100
AcDbEntity
  8
0
100
AcDbLine
 62
6
  6
CONTINUOUS
 10
23.4344076691
 20
17.2336620619
 11
23.4344076691
 21
17.1905577595
  0
LINE
  5
3AC
100
AcDbEntity
  8
0
100
AcDbLine
 62
7
  6
CONTINUOUS
 10
23.4344076691
 20
17.1905577595
 11
23.4344076691
 21
17.175298258
  0
LINE
  5
3AD
100
AcDbEntity
  8
0
100
AcDbLine
 62
6
  6
CONTINUOUS
 10
23.4344076691
 20
17.175298258
 11
23.4344076691
 21
17.1616741188
  0
LINE
  5
3AE
100
AcDbEntity
  8
0
100
AcDbLine
 62
7
  6
CONTINUOUS
 10
23.4344076691
 20
17.1616741188
 11
23.4344076691
 21
17.1474797152
  0
LINE
  5
3AF
100
AcDbEntity
  8
0
100
AcDbLine
 62
6
  6
CONTINUOUS
 10
23.4344076691
 20
17.1474797152
 11
23.4344076691
 21
17.1044804127
  0
LINE
  5
3B0
100
AcDbEntity
  8
0
100
AcDbLine
 62
7
  6
CONTINUOUS
 10
23.4344076691
 20
17.1044804127
 11
23.4344076691
 21
17.0882301561
  0
LINE
  5
3B1
100
AcDbEntity
  8
0
100
AcDbLine
 62
6
  6
CONTINUOUS
 10
23.4344076691
 20
17.0882301561
 11
23.4344076691
 21
17.0746723924
  0
LINE
  5
3B2
100
AcDbEntity
  8
0
100
AcDbLine
 62
7
  6
CONTINUOUS
 10
23.4344076691
 20
17.0746723924
 11
23.4344076691
 21
17.0616122402
  0
LINE
  5
3B3
100
AcDbEntity
  8
0
100
AcDbLine
 62
6
  6
CONTINUOUS
 10
23.4344076691
 20
17.0616122402
 11
23.4344076691
 21
17.018927426
  0
LINE
  5
3B4
100
AcDbEntity
  8
0
100
AcDbLine
 62
7
  6
CONTINUOUS
 10
23.4344076691
 20
17.018927426
 11
23.4344076691
 21
17.0017655839
  0
LINE
  5
3B5
100
AcDbEntity
  8
0
100
AcDbLine
 62
7
  6
CONTINUOUS
 10
23.4344076691
 20
16.9883402477
 11
23.4344076691
 21
16.9764779748
  0
LINE
  5
3B6
100
AcDbEntity
  8
0
100
AcDbLine
 62
6
  6
CONTINUOUS
 10
23.4344076691
 20
17.0017655839
 11
23.4344076691
 21
16.9883402477
  0
LINE
  5
3B7
100
AcDbEntity
  8
0
100
AcDbLine
 62
6
  6
CONTINUOUS
 10
23.4344076691
 20
16.9764779748
 11
23.4344076691
 21
16.9343156049
  0
LINE
  5
3B8
100
AcDbEntity
  8
0
100
AcDbLine
 62
7
  6
CONTINUOUS
 10
23.4344076691
 20
16.9343156049
 11
23.4344076691
 21
16.9163257881
  0
LINE
  5
3B9
100
AcDbEntity
  8
0
100
AcDbLine
 62
7
  6
CONTINUOUS
 10
23.4344076691
 20
16.9030982863
 11
23.4344076691
 21
16.8924916846
  0
LINE
  5
3BA
100
AcDbEntity
  8
0
100
AcDbLine
 62
6
  6
CONTINUOUS
 10
23.4344076691
 20
16.9163257881
 11
23.4344076691
 21
16.9030982863
  0
LINE
  5
3BB
100
AcDbEntity
  8
0
100
AcDbLine
 62
7
  6
CONTINUOUS
 10
23.4344076691
 20
16.8610161655
 11
23.4344076691
 21
16.8323270229
  0
LINE
  5
3BC
100
AcDbEntity
  8
0
100
AcDbLine
 62
6
  6
CONTINUOUS
 10
23.4344076691
 20
16.8924916846
 11
23.4344076691
 21
16.8610161655
  0
LINE
  5
3BD
100
AcDbEntity
  8
0
100
AcDbLine
 62
7
  6
CONTINUOUS
 10
23.4344076691
 20
16.8193617985
 11
23.4344076691
 21
16.7909962412
  0
LINE
  5
3BE
100
AcDbEntity
  8
0
100
AcDbLine
 62
6
  6
CONTINUOUS
 10
23.4344076691
 20
16.8323270229
 11
23.4344076691
 21
16.8193617985
  0
LINE
  5
3BF
100
AcDbEntity
  8
0
100
AcDbLine
 62
7
  6
CONTINUOUS
 10
23.4344076691
 20
16.7695577473
 11
23.4344076691
 21
16.7501785217
  0
LINE
  5
3C0
100
AcDbEntity
  8
0
100
AcDbLine
 62
6
  6
CONTINUOUS
 10
23.4344076691
 20
16.7501785217
 11
23.4344076691
 21
16.73753874
  0
LINE
  5
3C1
100
AcDbEntity
  8
0
100
AcDbLine
 62
6
  6
CONTINUOUS
 10
23.4344076691
 20
16.7909962412
 11
23.4344076691
 21
16.7695577473
  0
LINE
  5
3C2
100
AcDbEntity
  8
0
100
AcDbLine
 62
7
  6
CONTINUOUS
 10
23.4344076691
 20
16.73753874
 11
23.4344076691
 21
16.7295921341
  0
LINE
  5
3C3
100
AcDbEntity
  8
0
100
AcDbLine
 62
6
  6
CONTINUOUS
 10
23.4344076691
 20
16.7295921341
 11
23.4344076691
 21
16.6580277445
  0
LINE
  5
3C4
100
AcDbEntity
  8
0
100
AcDbLine
 62
7
  6
CONTINUOUS
 10
23.4344076691
 20
16.6580277445
 11
23.4344076691
 21
16.6312975488
  0
LINE
  5
3C5
100
AcDbEntity
  8
0
100
AcDbLine
 62
7
  6
CONTINUOUS
 10
23.4344076691
 20
16.6192608154
 11
23.4344076691
 21
16.6134136641
  0
LINE
  5
3C6
100
AcDbEntity
  8
0
100
AcDbLine
 62
6
  6
CONTINUOUS
 10
23.4344076691
 20
16.6312975488
 11
23.4344076691
 21
16.6192608154
  0
LINE
  5
3C7
100
AcDbEntity
  8
0
100
AcDbLine
 62
7
  6
CONTINUOUS
 10
23.4344076691
 20
16.5812161817
 11
23.4344076691
 21
16.5760842433
  0
LINE
  5
3C8
100
AcDbEntity
  8
0
100
AcDbLine
 62
6
  6
CONTINUOUS
 10
23.4344076691
 20
16.6134136641
 11
23.4344076691
 21
16.5812161817
  0
LINE
  5
3C9
100
AcDbEntity
  8
0
100
AcDbLine
 62
7
  6
CONTINUOUS
 10
23.4344076691
 20
16.5439401947
 11
23.4344076691
 21
16.5187800777
  0
LINE
  5
3CA
100
AcDbEntity
  8
0
100
AcDbLine
 62
6
  6
CONTINUOUS
 10
23.4344076691
 20
16.5187800777
 11
23.4344076691
 21
16.5074782697
  0
LINE
  5
3CB
100
AcDbEntity
  8
0
100
AcDbLine
 62
6
  6
CONTINUOUS
 10
23.4344076691
 20
16.5760842433
 11
23.4344076691
 21
16.5439401947
  0
LINE
  5
3CC
100
AcDbEntity
  8
0
100
AcDbLine
 62
7
  6
CONTINUOUS
 10
23.4344076691
 20
16.5074782697
 11
23.4344076691
 21
16.4829037083
  0
LINE
  5
3CD
100
AcDbEntity
  8
0
100
AcDbLine
 62
7
  6
CONTINUOUS
 10
23.4344076691
 20
16.4718748297
 11
23.4344076691
 21
16.4479157644
  0
LINE
  5
3CE
100
AcDbEntity
  8
0
100
AcDbLine
 62
6
  6
CONTINUOUS
 10
23.4344076691
 20
16.4829037083
 11
23.4344076691
 21
16.4718748297
  0
LINE
  5
3CF
100
AcDbEntity
  8
0
100
AcDbLine
 62
7
  6
CONTINUOUS
 10
23.4344076691
 20
16.4371732522
 11
23.4344076691
 21
16.4349558686
  0
LINE
  5
3D0
100
AcDbEntity
  8
0
100
AcDbLine
 62
6
  6
CONTINUOUS
 10
23.4344076691
 20
16.4479157644
 11
23.4344076691
 21
16.4371732522
  0
LINE
  5
3D1
100
AcDbEntity
  8
0
100
AcDbLine
 62
7
  6
CONTINUOUS
 10
23.4344076691
 20
16.4034158156
 11
23.4344076691
 21
16.3807745282
  0
LINE
  5
3D2
100
AcDbEntity
  8
0
100
AcDbLine
 62
6
  6
CONTINUOUS
 10
23.4344076691
 20
16.3807745282
 11
23.4344076691
 21
16.3706436482
  0
LINE
  5
3D3
100
AcDbEntity
  8
0
100
AcDbLine
 62
6
  6
CONTINUOUS
 10
23.4344076691
 20
16.4349558686
 11
23.4344076691
 21
16.4034158156
  0
LINE
  5
3D4
100
AcDbEntity
  8
0
100
AcDbLine
 62
7
  6
CONTINUOUS
 10
23.4344076691
 20
16.3706436482
 11
23.4344076691
 21
16.3487030372
  0
LINE
  5
3D5
100
AcDbEntity
  8
0
100
AcDbLine
 62
6
  6
CONTINUOUS
 10
23.4344076691
 20
16.3487030372
 11
23.4344076691
 21
16.3089539134
  0
LINE
  5
3D6
100
AcDbEntity
  8
0
100
AcDbLine
 62
7
  6
CONTINUOUS
 10
23.4344076691
 20
16.2229146283
 11
23.4344076691
 21
16.2048601776
  0
LINE
  5
3D7
100
AcDbEntity
  8
0
100
AcDbLine
 62
7
  6
CONTINUOUS
 10
23.4344076691
 20
16.1968472282
 11
23.4344076691
 21
16.1796399351
  0
LINE
  5
3D8
100
AcDbEntity
  8
0
100
AcDbLine
 62
6
  6
CONTINUOUS
 10
23.4344076691
 20
16.2048601776
 11
23.4344076691
 21
16.1968472282
  0
LINE
  5
3D9
100
AcDbEntity
  8
0
100
AcDbLine
 62
6
  6
CONTINUOUS
 10
23.4344076691
 20
16.2877536325
 11
23.4344076691
 21
16.2229146283
  0
LINE
  5
3DA
100
AcDbEntity
  8
0
100
AcDbLine
 62
7
  6
CONTINUOUS
 10
23.4344076691
 20
16.1720167694
 11
23.4344076691
 21
16.1556775983
  0
LINE
  5
3DB
100
AcDbEntity
  8
0
100
AcDbLine
 62
7
  6
CONTINUOUS
 10
23.4344076691
 20
16.1484535038
 11
23.4344076691
 21
16.1330023615
  0
LINE
  5
3DC
100
AcDbEntity
  8
0
100
AcDbLine
 62
6
  6
CONTINUOUS
 10
23.4344076691
 20
16.1556775983
 11
23.4344076691
 21
16.1484535038
  0
LINE
  5
3DD
100
AcDbEntity
  8
0
100
AcDbLine
 62
6
  6
CONTINUOUS
 10
23.4344076691
 20
16.1796399351
 11
23.4344076691
 21
16.1720167694
  0
LINE
  5
3DE
100
AcDbEntity
  8
0
100
AcDbLine
 62
7
  6
CONTINUOUS
 10
23.4344076691
 20
16.1261861397
 11
23.4344076691
 21
16.1116418511
  0
LINE
  5
3DF
100
AcDbEntity
  8
0
100
AcDbLine
 62
7
  6
CONTINUOUS
 10
23.4344076691
 20
16.1052418064
 11
23.4344076691
 21
16.0916220914
  0
LINE
  5
3E0
100
AcDbEntity
  8
0
100
AcDbLine
 62
6
  6
CONTINUOUS
 10
23.4344076691
 20
16.1116418511
 11
23.4344076691
 21
16.1052418064
  0
LINE
  5
3E1
100
AcDbEntity
  8
0
100
AcDbLine
 62
6
  6
CONTINUOUS
 10
23.4344076691
 20
16.1330023615
 11
23.4344076691
 21
16.1261861397
  0
LINE
  5
3E2
100
AcDbEntity
  8
0
100
AcDbLine
 62
7
  6
CONTINUOUS
 10
23.4344076691
 20
16.0856460215
 11
23.4344076691
 21
16.0729674736
  0
LINE
  5
3E3
100
AcDbEntity
  8
0
100
AcDbLine
 62
7
  6
CONTINUOUS
 10
23.4344076691
 20
16.0674226592
 11
23.4344076691
 21
16.0557007254
  0
LINE
  5
3E4
100
AcDbEntity
  8
0
100
AcDbLine
 62
6
  6
CONTINUOUS
 10
23.4344076691
 20
16.0729674736
 11
23.4344076691
 21
16.0674226592
  0
LINE
  5
3E5
100
AcDbEntity
  8
0
100
AcDbLine
 62
6
  6
CONTINUOUS
 10
23.4344076691
 20
16.0916220914
 11
23.4344076691
 21
16.0856460215
  0
LINE
  5
3E6
100
AcDbEntity
  8
0
100
AcDbLine
 62
7
  6
CONTINUOUS
 10
23.4344076691
 20
16.0351803133
 11
23.4344076691
 21
16.0254132686
  0
LINE
  5
3E7
100
AcDbEntity
  8
0
100
AcDbLine
 62
7
  6
CONTINUOUS
 10
23.4344076691
 20
16.0212006118
 11
23.4344076691
 21
16.0124294607
  0
LINE
  5
3E8
100
AcDbEntity
  8
0
100
AcDbLine
 62
7
  6
CONTINUOUS
 10
23.4344076691
 20
16.00867185
 11
23.4344076691
 21
16.0009072786
  0
LINE
  5
3E9
100
AcDbEntity
  8
0
100
AcDbLine
 62
6
  6
CONTINUOUS
 10
23.4344076691
 20
16.0124294607
 11
23.4344076691
 21
16.00867185
  0
LINE
  5
3EA
100
AcDbEntity
  8
0
100
AcDbLine
 62
6
  6
CONTINUOUS
 10
23.4344076691
 20
16.0254132686
 11
23.4344076691
 21
16.0212006118
  0
LINE
  5
3EB
100
AcDbEntity
  8
0
100
AcDbLine
 62
6
  6
CONTINUOUS
 10
23.4344076691
 20
16.0557007254
 11
23.4344076691
 21
16.0351803133
  0
LINE
  5
3EC
100
AcDbEntity
  8
0
100
AcDbLine
 62
7
  6
CONTINUOUS
 10
23.4344076691
 20
15.9626520674
 11
23.4344076691
 21
15.9621284952
  0
LINE
  5
3ED
100
AcDbEntity
  8
0
100
AcDbLine
 62
7
  6
CONTINUOUS
 10
23.4344076691
 20
15.997609292
 11
23.4344076691
 21
15.9908607604
  0
LINE
  5
3EE
100
AcDbEntity
  8
0
100
AcDbLine
 62
6
  6
CONTINUOUS
 10
23.4344076691
 20
16.0009072786
 11
23.4344076691
 21
15.997609292
  0
LINE
  5
3EF
100
AcDbEntity
  8
0
100
AcDbLine
 62
7
  6
CONTINUOUS
 10
23.4344076691
 20
15.9799348971
 11
23.4344076691
 21
15.9752418631
  0
LINE
  5
3F0
100
AcDbEntity
  8
0
100
AcDbLine
 62
7
  6
CONTINUOUS
 10
23.4344076691
 20
15.968263535
 11
23.4344076691
 21
15.9656488627
  0
LINE
  5
3F1
100
AcDbEntity
  8
0
100
AcDbLine
 62
6
  6
CONTINUOUS
 10
23.4344076691
 20
15.9621284952
 11
23.4344076691
 21
15.9621099107
  0
LINE
  5
3F2
100
AcDbEntity
  8
0
100
AcDbLine
 62
6
  6
CONTINUOUS
 10
23.4344076691
 20
15.9656488627
 11
23.4344076691
 21
15.9626520674
  0
LINE
  5
3F3
100
AcDbEntity
  8
0
100
AcDbLine
 62
6
  6
CONTINUOUS
 10
23.4344076691
 20
15.9752418631
 11
23.4344076691
 21
15.968263535
  0
LINE
  5
3F4
100
AcDbEntity
  8
0
100
AcDbLine
 62
6
  6
CONTINUOUS
 10
23.4344076691
 20
15.9908607604
 11
23.4344076691
 21
15.9799348971
  0
LINE
  5
3F5
100
AcDbEntity
  8
0
100
AcDbLine
 62
7
  6
CONTINUOUS
 10
23.4344076691
 20
16.2877536325
 11
23.4344076691
 21
16.3089539134
  0
LINE
  5
3F6
100
AcDbEntity
  8
0
100
AcDbLine
 62
6
  6
CONTINUOUS
 10
23.4344076691
 20
18.2757663176
 11
23.3594076691
 21
18.2757663176
  0
LINE
  5
3F7
100
AcDbEntity
  8
0
100
AcDbLine
 62
7
  6
CONTINUOUS
 10
23.4344076691
 20
18.2912174599
 11
23.3594076691
 21
18.2912174599
  0
LINE
  5
3F8
100
AcDbEntity
  8
0
100
AcDbLine
 62
6
  6
CONTINUOUS
 10
23.4344076691
 20
18.2980336817
 11
23.3594076691
 21
18.2980336817
  0
LINE
  5
3F9
100
AcDbEntity
  8
0
100
AcDbLine
 62
7
  6
CONTINUOUS
 10
23.3594076691
 20
18.3124227746
 11
23.4344076691
 21
18.3124227746
  0
LINE
  5
3FA
100
AcDbEntity
  8
0
100
AcDbLine
 62
7
  6
CONTINUOUS
 10
23.4344076691
 20
18.3125779703
 11
23.3594076691
 21
18.3125779703
  0
LINE
  5
3FB
100
AcDbEntity
  8
0
100
AcDbLine
 62
7
  6
CONTINUOUS
 10
23.4344076691
 20
18.318978015
 11
23.3594076691
 21
18.318978015
  0
LINE
  5
3FC
100
AcDbEntity
  8
0
100
AcDbLine
 62
7
  6
CONTINUOUS
 10
23.3594076691
 20
18.3313184571
 11
23.4344076691
 21
18.3313184571
  0
LINE
  5
3FD
100
AcDbEntity
  8
0
100
AcDbLine
 62
7
  6
CONTINUOUS
 10
23.4344076691
 20
18.33259773
 11
23.3594076691
 21
18.33259773
  0
LINE
  5
3FE
100
AcDbEntity
  8
0
100
AcDbLine
 62
6
  6
CONTINUOUS
 10
23.4344076691
 20
18.3385737999
 11
23.3594076691
 21
18.3385737999
  0
LINE
  5
3FF
100
AcDbEntity
  8
0
100
AcDbLine
 62
7
  6
CONTINUOUS
 10
23.3594076691
 20
18.3488505563
 11
23.4344076691
 21
18.3488505563
  0
LINE
  5
400
100
AcDbEntity
  8
0
100
AcDbLine
 62
7
  6
CONTINUOUS
 10
23.4344076691
 20
18.3512523478
 11
23.3594076691
 21
18.3512523478
  0
LINE
  5
401
100
AcDbEntity
  8
0
100
AcDbLine
 62
6
  6
CONTINUOUS
 10
23.4344076691
 20
18.3567971622
 11
23.3594076691
 21
18.3567971622
  0
LINE
  5
402
100
AcDbEntity
  8
0
100
AcDbLine
 62
7
  6
CONTINUOUS
 10
23.3594076691
 20
18.3649977122
 11
23.4344076691
 21
18.3649977122
  0
LINE
  5
403
100
AcDbEntity
  8
0
100
AcDbLine
 62
7
  6
CONTINUOUS
 10
23.4344076691
 20
18.368519096
 11
23.3594076691
 21
18.368519096
  0
LINE
  5
404
100
AcDbEntity
  8
0
100
AcDbLine
 62
7
  6
CONTINUOUS
 10
23.4344076691
 20
18.3736258993
 11
23.3594076691
 21
18.3736258993
  0
LINE
  5
405
100
AcDbEntity
  8
0
100
AcDbLine
 62
6
  6
CONTINUOUS
 10
23.4344076691
 20
18.3843769378
 11
23.3594076691
 21
18.3843769378
  0
LINE
  5
406
100
AcDbEntity
  8
0
100
AcDbLine
 62
7
  6
CONTINUOUS
 10
23.4344076691
 20
18.3890395082
 11
23.3594076691
 21
18.3890395082
  0
LINE
  5
407
100
AcDbEntity
  8
0
100
AcDbLine
 62
7
  6
CONTINUOUS
 10
23.3594076691
 20
18.3930602138
 11
23.4344076691
 21
18.3930602138
  0
LINE
  5
408
100
AcDbEntity
  8
0
100
AcDbLine
 62
7
  6
CONTINUOUS
 10
23.4344076691
 20
18.3988065528
 11
23.3594076691
 21
18.3988065528
  0
LINE
  5
409
100
AcDbEntity
  8
0
100
AcDbLine
 62
7
  6
CONTINUOUS
 10
23.4344076691
 20
18.4030192096
 11
23.3594076691
 21
18.4030192096
  0
LINE
  5
40A
100
AcDbEntity
  8
0
100
AcDbLine
 62
7
  6
CONTINUOUS
 10
23.3594076691
 20
18.4049413697
 11
23.4344076691
 21
18.4049413697
  0
LINE
  5
40B
100
AcDbEntity
  8
0
100
AcDbLine
 62
6
  6
CONTINUOUS
 10
23.6344076691
 20
16.0121099107
 11
23.6344076691
 21
18.4121099107
  0
LINE
  5
40C
100
AcDbEntity
  8
0
100
AcDbLine
 62
7
  6
CONTINUOUS
 10
23.4344076691
 20
18.4117903607
 11
23.3594076691
 21
18.4117903607
  0
LINE
  5
40D
100
AcDbEntity
  8
0
100
AcDbLine
 62
6
  6
CONTINUOUS
 10
23.6344076691
 20
18.4121099107
 11
23.4344076691
 21
18.4121099107
  0
LINE
  5
40E
100
AcDbEntity
  8
0
100
AcDbLine
 62
6
  6
CONTINUOUS
 10
23.4344076691
 20
18.4155479714
 11
23.3594076691
 21
18.4155479714
  0
LINE
  5
40F
100
AcDbEntity
  8
0
100
AcDbLine
 62
7
  6
CONTINUOUS
 10
23.4344076691
 20
18.4233125428
 11
23.3594076691
 21
18.4233125428
  0
LINE
  5
410
100
AcDbEntity
  8
0
100
AcDbLine
 62
6
  6
CONTINUOUS
 10
23.4344076691
 20
18.4266105294
 11
23.3594076691
 21
18.4266105294
  0
LINE
  5
411
100
AcDbEntity
  8
0
100
AcDbLine
 62
7
  6
CONTINUOUS
 10
23.4344076691
 20
18.433359061
 11
23.3594076691
 21
18.433359061
  0
LINE
  5
412
100
AcDbEntity
  8
0
100
AcDbLine
 62
7
  6
CONTINUOUS
 10
23.4344076691
 20
18.4361934055
 11
23.3594076691
 21
18.4361934055
  0
LINE
  5
413
100
AcDbEntity
  8
0
100
AcDbLine
 62
6
  6
CONTINUOUS
 10
23.4344076691
 20
18.4419176753
 11
23.3594076691
 21
18.4419176753
  0
LINE
  5
414
100
AcDbEntity
  8
0
100
AcDbLine
 62
6
  6
CONTINUOUS
 10
23.4344076691
 20
18.4442849243
 11
23.3594076691
 21
18.4442849243
  0
LINE
  5
415
100
AcDbEntity
  8
0
100
AcDbLine
 62
7
  6
CONTINUOUS
 10
23.4344076691
 20
18.4489779583
 11
23.3594076691
 21
18.4489779583
  0
LINE
  5
416
100
AcDbEntity
  8
0
100
AcDbLine
 62
7
  6
CONTINUOUS
 10
23.4344076691
 20
18.4508752277
 11
23.3594076691
 21
18.4508752277
  0
LINE
  5
417
100
AcDbEntity
  8
0
100
AcDbLine
 62
6
  6
CONTINUOUS
 10
23.4344076691
 20
18.454531308
 11
23.3594076691
 21
18.454531308
  0
LINE
  5
418
100
AcDbEntity
  8
0
100
AcDbLine
 62
6
  6
CONTINUOUS
 10
23.4344076691
 20
18.4559562864
 11
23.3594076691
 21
18.4559562864
  0
LINE
  5
419
100
AcDbEntity
  8
0
100
AcDbLine
 62
7
  6
CONTINUOUS
 10
23.4344076691
 20
18.4585709587
 11
23.3594076691
 21
18.4585709587
  0
LINE
  5
41A
100
AcDbEntity
  8
0
100
AcDbLine
 62
7
  6
CONTINUOUS
 10
23.4344076691
 20
18.4595219099
 11
23.3594076691
 21
18.4595219099
  0
LINE
  5
41B
100
AcDbEntity
  8
0
100
AcDbLine
 62
6
  6
CONTINUOUS
 10
23.4344076691
 20
18.4610919886
 11
23.3594076691
 21
18.4610919886
  0
LINE
  5
41C
100
AcDbEntity
  8
0
100
AcDbLine
 62
6
  6
CONTINUOUS
 10
23.4344076691
 20
18.461567754
 11
23.3594076691
 21
18.461567754
  0
LINE
  5
41D
100
AcDbEntity
  8
0
100
AcDbLine
 62
7
  6
CONTINUOUS
 10
23.4344076691
 20
18.4620913262
 11
23.3594076691
 21
18.4620913262
  0
LINE
  5
41E
100
AcDbEntity
  8
0
100
AcDbLine
 62
6
  6
CONTINUOUS
 10
23.8344076691
 20
18.4621099107
 11
23.6844076691
 21
18.4621099107
  0
LINE
  5
41F
100
AcDbEntity
  8
0
100
AcDbLine
 62
6
  6
CONTINUOUS
 10
23.6844076691
 20
15.9621099107
 11
23.6844076691
 21
18.4621099107
  0
LINE
  5
420
100
AcDbEntity
  8
0
100
AcDbLine
 62
6
  6
CONTINUOUS
 10
23.8344076691
 20
15.9621123153
 11
23.8344076691
 21
18.4621075061
  0
ARC
  5
421
100
AcDbEntity
  8
0
100
AcDbCircle
 62
9
  6
CONTINUOUS
 10
21.4374076691
 20
17.2121099107
 40
0.625
100
AcDbArc
 50
90.0
 51
270.0
  0
ARC
  5
422
100
AcDbEntity
  8
0
100
AcDbCircle
 62
6
  6
CONTINUOUS
 10
23.2594076691
 20
16.0371099107
 40
0.1
100
AcDbArc
 50
4.2191114778
 51
90.0
  0
ARC
  5
423
100
AcDbEntity
  8
0
100
AcDbCircle
 62
6
  6
CONTINUOUS
 10
23.1594076691
 20
16.1871099107
 40
0.1
100
AcDbArc
 50
0.0
 51
90.0
  0
ARC
  5
424
100
AcDbEntity
  8
0
100
AcDbCircle
 62
6
  6
CONTINUOUS
 10
23.2594076691
 20
18.3871099107
 40
0.1
100
AcDbArc
 50
270.0
 51
355.7808885222
  0
ARC
  5
425
100
AcDbEntity
  8
0
100
AcDbCircle
 62
6
  6
CONTINUOUS
 10
23.1594076691
 20
18.2371099107
 40
0.1
100
AcDbArc
 50
270.0
 51
360.0
  0
ENDSEC
  0
SECTION
  2
OBJECTS
  0
DICTIONARY
  5
C
100
AcDbDictionary
280
0
281
1
  3
ACAD_GROUP
350
D
  3
ACAD_MLINESTYLE
350
17
  3
ACAD_LAYOUT
350
1A
  3
ACAD_PLOTSETTINGS
350
19
  3
ACAD_PLOTSTYLENAME
350
E
  0
DICTIONARY
  5
D
102
{ACAD_REACTORS
330
C
102
}
100
AcDbDictionary
280
0
281
1
  0
ACDBDICTIONARYWDFLT
  5
E
102
{ACAD_REACTORS
330
C
102
}
100
AcDbDictionary
281
1
  3
Normal
350
F
100
AcDbDictionaryWithDefault
340
F
  0
DICTIONARY
  5
17
102
{ACAD_REACTORS
330
C
102
}
100
AcDbDictionary
280
0
281
1
  3
Standard
350
18
  0
DICTIONARY
  5
19
102
{ACAD_REACTORS
330
C
102
}
100
AcDbDictionary
281
1
  0
DICTIONARY
  5
1A
102
{ACAD_REACTORS
330
C
102
}
100
AcDbDictionary
281
1
  3
Model
350
426
  3
Layout1
350
427
  0
ACDBPLACEHOLDER
  5
F
102
{ACAD_REACTORS
330
E
102
}
  0
MLINESTYLE
  5
18
102
{ACAD_REACTORS
330
17
102
}
100
AcDbMlineStyle
  2
STANDARD
 70
0
  3

 62
256
 51
90.0
 52
90.0
 71
2
 49
0.5
 62
256
  6
BYLAYER
 49
-0.5
 62
256
  6
BYLAYER
  0
LAYOUT
  5
426
102
{ACAD_REACTORS
330
1A
102
}
100
AcDbPlotSettings
  1

  2
none_device
  4
ISO_A0_(1189.00_x_841.00_MM)
  6

 40
0.0
 41
0.0
 42
0.0
 43
0.0
 44
1189.0
 45
841.0
 46
0.0
 47
0.0
 48
0.0
 49
0.0
140
0.0
141
0.0
142
1.0
143
1.0
 70
1024
 72
0
 73
0
 74
0
  7

 75
0
147
1.0
148
0.0
149
0.0
100
AcDbLayout
  1
Model
 70
0
 71
0
 10
0.0
 20
0.0
 11
46.811023622
 21
33.1102362205
 12
0.0
 22
0.0
 32
0.0
 14
0.0
 24
0.0
 34
0.0
 15
0.0
 25
0.0
 35
0.0
146
0.0
 13
0.0
 23
0.0
 33
0.0
 16
1.0
 26
0.0
 36
0.0
 17
0.0
 27
1.0
 37
0.0
 76
0
330
203
345
0
346
0
  0
LAYOUT
  5
427
102
{ACAD_REACTORS
330
1A
102
}
100
AcDbPlotSettings
  1

  2
none_device
  4
ISO_A0_(1189.00_x_841.00_MM)
  6

 40
0.0
 41
0.0
 42
0.0
 43
0.0
 44
1189.0
 45
841.0
 46
0.0
 47
0.0
 48
0.0
 49
0.0
140
0.0
141
0.0
142
1.0
143
1.0
 70
0
 72
0
 73
0
 74
0
  7

 75
0
147
1.0
148
0.0
149
0.0
100
AcDbLayout
  1
Layout1
 70
0
 71
1
 10
0.0
 20
0.0
 11
46.811023622
 21
33.1102362205
 12
0.0
 22
0.0
 32
0.0
 14
0.0
 24
0.0
 34
0.0
 15
0.0
 25
0.0
 35
0.0
146
0.0
 13
0.0
 23
0.0
 33
0.0
 16
1.0
 26
0.0
 36
0.0
 17
0.0
 27
1.0
 37
0.0
 76
0
330
204
345
0
346
0
  0
ENDSEC
  0
EOF
