999
DXF file: E:\BT Custom\CADOUTPUT\_TOP.dxf
999
Pro/ENGINEER 2018400 by Parametric Technology Corporation
  0
SECTION
  2
HEADER
  9
$ACADVER
  1
AC1018
  9
$DWGCODEPAGE
  3
ANSI_1252
  9
$EXTMAX
 10
22.0
 20
17.0
 30
0.0
  9
$EXTMIN
 10
0.0
 20
0.0
 30
0.0
  9
$LIMMIN
 10
0.0
 20
0.0
  9
$LIMMAX
 10
22.0
 20
17.0
  9
$VIEWCTR
 10
11.0
 20
8.5
  9
$VIEWSIZE
 40
17.0
  9
$CLAYER
  8
0
  9
$LTSCALE
 40
1.21
  9
$CELTYPE
  6
BYLAYER
  9
$DIMSCALE
 40
1.0
  9
$DIMASZ
 40
0.1
  9
$DIMEXO
 40
0.0625
  9
$DIMDLI
 40
0.836
  9
$DIMEXE
 40
0.125
  9
$DIMCEN
 40
0.198
  9
$DIMLFAC
 40
1.0
  9
$DIMBLK
  1
_FILLED
  9
$DIMALT
 70
1
  9
$DIMALTD
 70
2
  9
$DIMALTTD
 70
2
  9
$DIMALTF
 40
25.4
  9
$DIMTXT
 40
0.08
  9
$DIMTOL
 70
1
  9
$DIMLIM
 70
0
  9
$DIMTFAC
 40
1.0
  9
$DIMTP
 40
0.001
  9
$DIMTM
 40
0.001
  9
$DIMGAP
 40
0.09
  9
$DIMDSEP
 70
46
  9
$AUNITS
 70
0
  9
$PDMODE
 70
3
  9
$PDSIZE
 40
0.06
  9
$HANDSEED
  5
2AF
  9
$TILEMODE
 70
1
  9
$MEASUREMENT
 70
0
  9
$INSUNITS
 70
1
  0
ENDSEC
  0
SECTION
  2
CLASSES
  0
CLASS
  1
ACDBDICTIONARYWDFLT
  2
AcDbDictionaryWithDefault
  3
AutoCAD 2000
 90
0
 91
1
280
0
281
0
  0
CLASS
  1
ACDBPLACEHOLDER
  2
AcDbPlaceHolder
  3
AutoCAD 2000
 90
0
 91
1
280
0
281
0
  0
CLASS
  1
LAYOUT
  2
AcDbLayout
  3
AutoCAD 2000
 90
0
 91
0
280
0
281
0
  0
ENDSEC
  0
SECTION
  2
TABLES
  0
TABLE
  2
VPORT
  5
8
100
AcDbSymbolTable
 70
2
  0
VPORT
  5
1F4
100
AcDbSymbolTableRecord
100
AcDbViewportTableRecord
  2
*ACTIVE
 70
0
 10
0.0
 20
0.0
 11
1.0
 21
1.0
 12
11.0
 22
8.5
 13
0.0
 23
0.0
 14
1.0
 24
1.0
 15
0.0
 25
0.0
 16
0.0
 26
0.0
 36
1.0
 17
0.0
 27
0.0
 37
0.0
 40
17.0
 41
1.2941176471
 42
50.0
 43
0.0
 44
0.0
 50
0.0
 51
0.0
 71
0
 72
100
 73
1
 74
1
 75
0
 76
0
 77
0
 78
0
  0
ENDTAB
  0
TABLE
  2
LTYPE
  5
5
100
AcDbSymbolTable
 70
6
  0
LTYPE
  5
14
100
AcDbSymbolTableRecord
100
AcDbLinetypeTableRecord
  2
BYBLOCK
 70
0
  3

 72
65
 73
0
 40
0.0
  0
LTYPE
  5
15
100
AcDbSymbolTableRecord
100
AcDbLinetypeTableRecord
  2
BYLAYER
 70
0
  3

 72
65
 73
0
 40
0.0
  0
LTYPE
  5
16
100
AcDbSymbolTableRecord
100
AcDbLinetypeTableRecord
  2
CONTINUOUS
 70
64
  3
Solid line
 72
65
 73
0
 40
0.0
  0
LTYPE
  5
1F5
100
AcDbSymbolTableRecord
100
AcDbLinetypeTableRecord
  2
CENTER
 70
64
  3
____ _ ____ _ ____ _ ____ _ ____ _ ____ _ ____
 72
65
 73
4
 40
0.6
 49
0.375
 74
0
 49
-0.075
 74
0
 49
0.075
 74
0
 49
-0.075
 74
0
  0
LTYPE
  5
1F6
100
AcDbSymbolTableRecord
100
AcDbLinetypeTableRecord
  2
HIDDEN
 70
64
  3
- - - - - - - - - - - - - - - - - - - -
 72
65
 73
2
 40
0.2
 49
0.1
 74
0
 49
-0.1
 74
0
  0
LTYPE
  5
1F7
100
AcDbSymbolTableRecord
100
AcDbLinetypeTableRecord
  2
PHANTOM
 70
64
  3
_____ _ _ _____ _ _ _____ _ _ _____
 72
65
 73
6
 40
0.8
 49
0.45
 74
0
 49
-0.05
 74
0
 49
0.1
 74
0
 49
-0.05
 74
0
 49
0.1
 74
0
 49
-0.05
 74
0
  0
LTYPE
  5
1F8
100
AcDbSymbolTableRecord
100
AcDbLinetypeTableRecord
  2
DOT
 70
64
  3
. . . . . . . . . . . . . . . . . . . .
 72
65
 73
2
 40
0.2
 49
0.1
 74
0
 49
-0.1
 74
0
  0
LTYPE
  5
1F9
100
AcDbSymbolTableRecord
100
AcDbLinetypeTableRecord
  2
DASHED
 70
64
  3
- - - - - - - - - - - - - - - - - - - -
 72
65
 73
2
 40
0.2
 49
0.1
 74
0
 49
-0.1
 74
0
  0
ENDTAB
  0
TABLE
  2
LAYER
  5
2
100
AcDbSymbolTable
 70
36
  0
LAYER
  5
10
100
AcDbSymbolTableRecord
100
AcDbLayerTableRecord
  2
0
 70
0
 62
7
  6
CONTINUOUS
370
-3
390
F
  0
LAYER
  5
1FA
100
AcDbSymbolTableRecord
100
AcDbLayerTableRecord
  2
DEFAULT_1
 70
0
 62
7
  6
CENTER
370
-3
390
F
  0
LAYER
  5
1FB
100
AcDbSymbolTableRecord
100
AcDbLayerTableRecord
  2
DEFAULT_2
 70
0
 62
8
  6
HIDDEN
370
-3
390
F
  0
LAYER
  5
1FC
100
AcDbSymbolTableRecord
100
AcDbLayerTableRecord
  2
DEFAULT_3
 70
0
 62
7
  6
PHANTOM
370
-3
390
F
  0
LAYER
  5
1FD
100
AcDbSymbolTableRecord
100
AcDbLayerTableRecord
  2
ALL_FEATURES
 70
0
 62
7
  6
CONTINUOUS
370
-3
390
F
  0
LAYER
  5
1FE
100
AcDbSymbolTableRecord
100
AcDbLayerTableRecord
  2
AXES_FEATURES
 70
0
 62
7
  6
CONTINUOUS
370
-3
390
F
  0
LAYER
  5
1FF
100
AcDbSymbolTableRecord
100
AcDbLayerTableRecord
  2
DIMENSIONS
 70
0
 62
7
  6
CONTINUOUS
370
-3
390
F
  0
ENDTAB
  0
TABLE
  2
STYLE
  5
3
100
AcDbSymbolTable
 70
1
  0
STYLE
  5
11
100
AcDbSymbolTableRecord
100
AcDbTextStyleTableRecord
  2
STANDARD
 70
0
 40
0.0
 41
0.8
 50
0.0
 71
0
 42
0.2
  3
txt
  4

  0
STYLE
  5
200
100
AcDbSymbolTableRecord
100
AcDbTextStyleTableRecord
  2
TEXTSTYLE_1
 70
0
 40
0.0
 41
0.8
 50
0.0
 71
0
 42
0.2
  3
gdt
  4

  0
ENDTAB
  0
TABLE
  2
VIEW
  5
6
100
AcDbSymbolTable
 70
0
  0
ENDTAB
  0
TABLE
  2
UCS
  5
7
100
AcDbSymbolTable
 70
0
  0
ENDTAB
  0
TABLE
  2
APPID
  5
9
100
AcDbSymbolTable
 70
1
  0
APPID
  5
201
100
AcDbSymbolTableRecord
100
AcDbRegAppTableRecord
  2
ACAD
 70
0
  0
ENDTAB
  0
TABLE
  2
BLOCK_RECORD
  5
1
100
AcDbSymbolTable
 70
0
  0
BLOCK_RECORD
  5
202
100
AcDbSymbolTableRecord
100
AcDbBlockTableRecord
  2
*Model_Space
  0
BLOCK_RECORD
  5
203
100
AcDbSymbolTableRecord
100
AcDbBlockTableRecord
  2
*Paper_Space
  0
BLOCK_RECORD
  5
204
100
AcDbSymbolTableRecord
100
AcDbBlockTableRecord
  2
_FILLED
  0
ENDTAB
  0
TABLE
  2
DIMSTYLE
  5
A
100
AcDbSymbolTable
 70
1
100
AcDbDimStyleTable
 71
0
  0
DIMSTYLE
105
205
100
AcDbSymbolTableRecord
100
AcDbDimStyleTableRecord
  2
STANDARD
 70
0
  3

  4

 40
1.0
 41
0.1
 42
0.0625
 43
0.38
 44
0.125
 45
0.0
 46
0.0
 47
0.001
 48
0.001
140
0.08
141
0.09
142
0.0
143
25.4
144
1.0
145
0.0
146
1.0
147
0.09
 71
1.0
 72
0.0
 73
1
 74
1
 75
0
 76
0
 77
0
 78
4
 79
1
170
1
171
2
172
0
173
0
174
0
175
0
176
0
177
0
178
0
270
2
179
3
271
3
272
3
273
2
274
2
275
0
280
0
281
0
282
0
283
1
284
4
285
0
286
0
287
3
288
0
340
11
278
46
341
204
342
204
343
204
344
204
  0
ENDTAB
  0
ENDSEC
  0
SECTION
  2
BLOCKS
  0
BLOCK
  5
20
100
AcDbEntity
  8
0
100
AcDbBlockBegin
  2
*Model_Space
 70
0
 10
0.0
 20
0.0
 30
0.0
  3
*Model_Space
  1

  0
ENDBLK
  5
21
100
AcDbEntity
  8
0
100
AcDbBlockEnd
  0
BLOCK
  5
1C
100
AcDbEntity
  8
0
100
AcDbBlockBegin
  2
*Paper_Space
 70
0
 10
0.0
 20
0.0
 30
0.0
  3
*Paper_Space
  1

  0
ENDBLK
  5
1D
100
AcDbEntity
  8
0
100
AcDbBlockEnd
  0
BLOCK
  5
206
100
AcDbEntity
  8
0
100
AcDbBlockBegin
  2
_FILLED
 70
64
 10
0.0
 20
0.0
  3
_FILLED
  1

  0
SOLID
  5
207
100
AcDbEntity
  8
0
  6
BYBLOCK
 62
0
100
AcDbTrace
 10
0.0
 20
0.0
 11
-1.0
 21
0.2
 12
-1.0
 22
-0.2
 13
-1.0
 23
-0.2
  0
ENDBLK
  5
208
100
AcDbEntity
  8
0
  6
BYBLOCK
 62
0
100
AcDbBlockEnd
  0
ENDSEC
  0
SECTION
  2
ENTITIES
  0
LINE
  5
209
100
AcDbEntity
  8
0
100
AcDbLine
 62
7
  6
CONTINUOUS
 10
10.6767502453
 20
-3.0420629129
 11
10.705439388
 21
-3.0508340641
  0
LINE
  5
20A
100
AcDbEntity
  8
0
100
AcDbLine
 62
7
  6
CONTINUOUS
 10
11.3891972885
 20
-3.2598798329
 11
11.4178864312
 21
-3.2686509841
  0
LINE
  5
20B
100
AcDbEntity
  8
0
100
AcDbLine
 62
7
  6
CONTINUOUS
 10
10.7051761461
 20
-2.9734367179
 11
10.7316645738
 21
-2.9875208648
  0
LINE
  5
20C
100
AcDbEntity
  8
0
100
AcDbLine
 62
7
  6
CONTINUOUS
 10
11.3629721027
 20
-3.3231930322
 11
11.3894605305
 21
-3.3372771791
  0
LINE
  5
20D
100
AcDbEntity
  8
0
100
AcDbLine
 62
9
  6
CONTINUOUS
 10
3.8359699815
 20
8.4555954324
 11
3.8359699815
 21
9.2336906705
  0
LINE
  5
20E
100
AcDbEntity
  8
0
100
AcDbLine
 62
7
  6
CONTINUOUS
 10
3.9149333051
 20
9.2246430515
 11
3.9149333051
 21
8.4646430515
  0
LINE
  5
20F
100
AcDbEntity
  8
0
100
AcDbLine
 62
9
  6
CONTINUOUS
 10
10.5959702917
 20
-0.1553569485
 11
10.5684044863
 21
-0.1553569485
  0
LINE
  5
210
100
AcDbEntity
  8
0
100
AcDbLine
 62
9
  6
CONTINUOUS
 10
11.4986663849
 20
-0.1553569485
 11
11.5262321903
 21
-0.1553569485
  0
LINE
  5
211
100
AcDbEntity
  8
0
100
AcDbLine
 62
7
  6
CONTINUOUS
 10
6.1663928983
 20
9.1446421365
 11
6.1663928983
 21
8.5446439665
  0
LINE
  5
212
100
AcDbEntity
  8
0
100
AcDbLine
 62
9
  6
CONTINUOUS
 10
6.2167778813
 20
9.1667918167
 11
6.2167778813
 21
8.5224942863
  0
LINE
  5
213
100
AcDbEntity
  8
0
100
AcDbLine
 62
9
  6
CONTINUOUS
 10
6.277799749
 20
9.137045091
 11
6.277799749
 21
8.5522410131
  0
LINE
  5
214
100
AcDbEntity
  8
0
100
AcDbLine
 62
7
  6
CONTINUOUS
 10
6.5802096781
 20
9.0605871193
 11
6.7514263253
 21
9.3571430515
  0
LINE
  5
215
100
AcDbEntity
  8
0
100
AcDbLine
 62
7
  6
CONTINUOUS
 10
10.8653981077
 20
-2.8132147563
 11
10.8794822546
 21
-2.8397031841
  0
LINE
  5
216
100
AcDbEntity
  8
0
100
AcDbLine
 62
7
  6
CONTINUOUS
 10
11.215154422
 20
-3.471010713
 11
11.2292385689
 21
-3.4974991407
  0
LINE
  5
217
100
AcDbEntity
  8
0
100
AcDbLine
 62
7
  6
CONTINUOUS
 10
7.6391023642
 20
8.8446430515
 11
7.3432103512
 21
8.3321430515
  0
LINE
  5
218
100
AcDbEntity
  8
0
100
AcDbLine
 62
7
  6
CONTINUOUS
 10
6.7514263253
 20
8.3321430515
 11
6.5802091264
 21
8.6286999391
  0
LINE
  5
219
100
AcDbEntity
  8
0
100
AcDbLine
 62
7
  6
CONTINUOUS
 10
10.9340243027
 20
-2.7847888556
 11
10.9427954538
 21
-2.8134779982
  0
LINE
  5
21A
100
AcDbEntity
  8
0
100
AcDbLine
 62
7
  6
CONTINUOUS
 10
11.1518412227
 20
-3.4972358988
 11
11.1606123739
 21
-3.5259250414
  0
LINE
  5
21B
100
AcDbEntity
  8
0
100
AcDbLine
 62
7
  6
CONTINUOUS
 10
7.3432103512
 20
9.3571430515
 11
7.6391023642
 21
8.8446430515
  0
LINE
  5
21C
100
AcDbEntity
  8
0
100
AcDbLine
 62
7
  6
CONTINUOUS
 10
15.3432103512
 20
8.3321430515
 11
14.7514263253
 21
8.3321430515
  0
LINE
  5
21D
100
AcDbEntity
  8
0
100
AcDbLine
 62
7
  6
CONTINUOUS
 10
7.3432103512
 20
8.3321430515
 11
6.7514263253
 21
8.3321430515
  0
LINE
  5
21E
100
AcDbEntity
  8
0
100
AcDbLine
 62
7
  6
CONTINUOUS
 10
6.1663928983
 20
8.5746430515
 11
3.9149333051
 21
8.4946430515
  0
LINE
  5
21F
100
AcDbEntity
  8
0
100
AcDbLine
 62
7
  6
CONTINUOUS
 10
15.9282437783
 20
9.1146430515
 11
18.1797033714
 21
9.1946430515
  0
LINE
  5
220
100
AcDbEntity
  8
0
100
AcDbLine
 62
9
  6
CONTINUOUS
 10
14.5793495023
 20
8.8446430515
 11
14.5513691224
 21
8.8446430515
  0
LINE
  5
221
100
AcDbEntity
  8
0
100
AcDbLine
 62
9
  6
CONTINUOUS
 10
6.5793495023
 20
8.8446430515
 11
6.2777997563
 21
8.8446430515
  0
LINE
  5
222
100
AcDbEntity
  8
0
100
AcDbLine
 62
9
  6
CONTINUOUS
 10
6.2167778257
 20
8.8446430515
 11
6.1663928983
 21
8.8446430515
  0
LINE
  5
223
100
AcDbEntity
  8
0
100
AcDbLine
 62
9
  6
CONTINUOUS
 10
7.5152871743
 20
8.8446430515
 11
7.5432675541
 21
8.8446430515
  0
LINE
  5
224
100
AcDbEntity
  8
0
100
AcDbLine
 62
9
  6
CONTINUOUS
 10
15.8778588509
 20
8.8446430515
 11
15.9282437783
 21
8.8446430515
  0
LINE
  5
225
100
AcDbEntity
  8
0
100
AcDbLine
 62
9
  6
CONTINUOUS
 10
15.8168369215
 20
8.8446430515
 11
15.5152871743
 21
8.8446430515
  0
LINE
  5
226
100
AcDbEntity
  8
0
100
AcDbLine
 62
7
  6
CONTINUOUS
 10
6.7514263253
 20
9.3571430515
 11
7.3432103512
 21
9.3571430515
  0
LINE
  5
227
100
AcDbEntity
  8
0
100
AcDbLine
 62
7
  6
CONTINUOUS
 10
14.7514263253
 20
9.3571430515
 11
15.3432103512
 21
9.3571430515
  0
LINE
  5
228
100
AcDbEntity
  8
0
100
AcDbLine
 62
7
  6
CONTINUOUS
 10
15.9282437783
 20
8.5746430515
 11
18.1797033714
 21
8.4946430515
  0
LINE
  5
229
100
AcDbEntity
  8
0
100
AcDbLine
 62
7
  6
CONTINUOUS
 10
6.1663928983
 20
9.1146430515
 11
3.9149333051
 21
9.1946430515
  0
LINE
  5
22A
100
AcDbEntity
  8
0
100
AcDbLine
 62
7
  6
CONTINUOUS
 10
14.4555343124
 20
8.8446430515
 11
14.7514263253
 21
9.3571430515
  0
LINE
  5
22B
100
AcDbEntity
  8
0
100
AcDbLine
 62
7
  6
CONTINUOUS
 10
10.9340243027
 20
-3.5259250414
 11
10.9427954538
 21
-3.4972358988
  0
LINE
  5
22C
100
AcDbEntity
  8
0
100
AcDbLine
 62
7
  6
CONTINUOUS
 10
11.1518412227
 20
-2.8134779982
 11
11.1606123739
 21
-2.7847888556
  0
LINE
  5
22D
100
AcDbEntity
  8
0
100
AcDbLine
 62
7
  6
CONTINUOUS
 10
15.5144269985
 20
8.6286989836
 11
15.3432103512
 21
8.3321430515
  0
LINE
  5
22E
100
AcDbEntity
  8
0
100
AcDbLine
 62
7
  6
CONTINUOUS
 10
14.7514263253
 20
8.3321430515
 11
14.4555343124
 21
8.8446430515
  0
LINE
  5
22F
100
AcDbEntity
  8
0
100
AcDbLine
 62
9
  6
CONTINUOUS
 10
15.8168369289
 20
8.5522410129
 11
15.8168369289
 21
9.1370450901
  0
LINE
  5
230
100
AcDbEntity
  8
0
100
AcDbLine
 62
9
  6
CONTINUOUS
 10
15.8778587953
 20
8.5224942863
 11
15.8778587953
 21
9.1667918167
  0
LINE
  5
231
100
AcDbEntity
  8
0
100
AcDbLine
 62
7
  6
CONTINUOUS
 10
15.9282437783
 20
8.5446439665
 11
15.9282437783
 21
9.1446421365
  0
LINE
  5
232
100
AcDbEntity
  8
0
100
AcDbLine
 62
7
  6
CONTINUOUS
 10
10.8653981077
 20
-3.4974991407
 11
10.8794822546
 21
-3.4710107129
  0
LINE
  5
233
100
AcDbEntity
  8
0
100
AcDbLine
 62
7
  6
CONTINUOUS
 10
11.215154422
 20
-2.8397031841
 11
11.2292385689
 21
-2.8132147563
  0
LINE
  5
234
100
AcDbEntity
  8
0
100
AcDbLine
 62
7
  6
CONTINUOUS
 10
15.3432103512
 20
9.3571430515
 11
15.5144275501
 21
9.0605861639
  0
LINE
  5
235
100
AcDbEntity
  8
0
100
AcDbLine
 62
7
  6
CONTINUOUS
 10
18.1797033714
 20
9.22462841
 11
18.1797033714
 21
8.464657693
  0
LINE
  5
236
100
AcDbEntity
  8
0
100
AcDbLine
 62
9
  6
CONTINUOUS
 10
18.2586666951
 20
8.4555954324
 11
18.2586666951
 21
9.2336906705
  0
LINE
  5
237
100
AcDbEntity
  8
0
100
AcDbLine
 62
7
  6
CONTINUOUS
 10
10.7051761461
 20
-3.3372771791
 11
10.7316645738
 21
-3.3231930322
  0
LINE
  5
238
100
AcDbEntity
  8
0
100
AcDbLine
 62
7
  6
CONTINUOUS
 10
11.3629721027
 20
-2.9875208648
 11
11.3894605305
 21
-2.9734367179
  0
LINE
  5
239
100
AcDbEntity
  8
0
100
AcDbLine
 62
7
  6
CONTINUOUS
 10
10.6767502453
 20
-3.2686509841
 11
10.705439388
 21
-3.2598798329
  0
LINE
  5
23A
100
AcDbEntity
  8
0
100
AcDbLine
 62
7
  6
CONTINUOUS
 10
11.3891972885
 20
-3.0508340641
 11
11.4178864312
 21
-3.0420629129
  0
ARC
  5
23B
100
AcDbEntity
  8
0
100
AcDbCircle
 62
7
  6
CONTINUOUS
 10
5.5113928983
 20
8.8446430515
 40
1.72
100
AcDbArc
 50
166.9271076843
 51
193.0728923157
  0
ARC
  5
23C
100
AcDbEntity
  8
0
100
AcDbCircle
 62
7
  6
CONTINUOUS
 10
6.2977236577
 20
8.4339065718
 40
0.1200000078
100
AcDbArc
 50
99.5572233037
 51
132.4190668096
  0
ARC
  5
23D
100
AcDbEntity
  8
0
100
AcDbCircle
 62
7
  6
CONTINUOUS
 10
6.2977236577
 20
9.2553795312
 40
0.1200000078
100
AcDbArc
 50
227.5809331914
 51
260.4427766965
  0
ARC
  5
23E
100
AcDbEntity
  8
0
100
AcDbCircle
 62
7
  6
CONTINUOUS
 10
3.8749333051
 20
9.2246430515
 40
0.04
100
AcDbArc
 50
0.0
 51
166.9271076842
  0
ARC
  5
23F
100
AcDbEntity
  8
0
100
AcDbCircle
 62
7
  6
CONTINUOUS
 10
3.8749333051
 20
8.4646430515
 40
0.04
100
AcDbArc
 50
193.0728923158
 51
360.0
  0
ARC
  5
240
100
AcDbEntity
  8
0
100
AcDbCircle
 62
7
  6
CONTINUOUS
 10
7.0473183383
 20
8.8446430515
 40
1.1355877937
100
AcDbArc
 50
194.1537354567
 51
165.8461558129
  0
ARC
  5
241
100
AcDbEntity
  8
0
100
AcDbCircle
 62
9
  6
CONTINUOUS
 10
7.0473183383
 20
8.8446430515
 40
1.1018951051
100
AcDbArc
 50
194.5436089534
 51
165.4563753575
  0
ARC
  5
242
100
AcDbEntity
  8
0
100
AcDbCircle
 62
9
  6
CONTINUOUS
 10
7.0473183383
 20
8.8446430515
 40
1.0686940646
100
AcDbArc
 50
194.9664567689
 51
165.0335432311
  0
ARC
  5
243
100
AcDbEntity
  8
0
100
AcDbCircle
 62
9
  6
CONTINUOUS
 10
7.0473183383
 20
8.8446430515
 40
0.9981262705
100
AcDbArc
 50
195.8736322343
 51
164.1264069357
  0
ARC
  5
244
100
AcDbEntity
  8
0
100
AcDbCircle
 62
9
  6
CONTINUOUS
 10
7.0473183383
 20
8.8446430515
 40
0.9302280237
100
AcDbArc
 50
196.9064692115
 51
198.7099479653
  0
ARC
  5
245
100
AcDbEntity
  8
0
100
AcDbCircle
 62
9
  6
CONTINUOUS
 10
7.0473183383
 20
8.8446430515
 40
0.9302280237
100
AcDbArc
 50
198.9469736761
 51
161.0520241998
  0
ARC
  5
246
100
AcDbEntity
  8
0
100
AcDbCircle
 62
9
  6
CONTINUOUS
 10
7.0473183383
 20
8.8446430515
 40
0.9302280237
100
AcDbArc
 50
161.2901686896
 51
163.0934848477
  0
ARC
  5
247
100
AcDbEntity
  8
0
100
AcDbCircle
 62
9
  6
CONTINUOUS
 10
7.0473183383
 20
8.8446430515
 40
0.7616485311
100
AcDbArc
 50
201.5207480483
 51
158.4792503805
  0
ARC
  5
248
100
AcDbEntity
  8
0
100
AcDbCircle
 62
7
  6
CONTINUOUS
 10
7.0473183383
 20
8.8446430515
 40
0.6917203626
100
AcDbArc
 50
202.4176079081
 51
157.5840102887
  0
ARC
  5
249
100
AcDbEntity
  8
0
100
AcDbCircle
 62
9
  6
CONTINUOUS
 10
7.0473183383
 20
8.8446430515
 40
0.5085759512
100
AcDbArc
 50
204.9630675
 51
155.0367938712
  0
CIRCLE
  5
24A
100
AcDbEntity
  8
0
100
AcDbCircle
 62
7
  6
CONTINUOUS
 10
7.0473183383
 20
8.8446430515
 40
0.4959492158
  0
CIRCLE
  5
24B
100
AcDbEntity
  8
0
100
AcDbCircle
 62
9
  6
CONTINUOUS
 10
7.0473183383
 20
8.8446430515
 40
0.4679685477
  0
CIRCLE
  5
24C
100
AcDbEntity
  8
0
100
AcDbCircle
 62
9
  6
CONTINUOUS
 10
7.0473183197
 20
8.8446431084
 40
0.3452421749
  0
ARC
  5
24D
100
AcDbEntity
  8
0
100
AcDbCircle
 62
7
  6
CONTINUOUS
 10
10.1989287938
 20
18.6931711889
 40
0.21
100
AcDbArc
 50
264.8708339359
 51
5.1291660639
  0
ARC
  5
24E
100
AcDbEntity
  8
0
100
AcDbCircle
 62
7
  6
CONTINUOUS
 10
10.1989287938
 20
16.9961149141
 40
0.21
100
AcDbArc
 50
354.8708339361
 51
95.1291660641
  0
ARC
  5
24F
100
AcDbEntity
  8
0
100
AcDbCircle
 62
7
  6
CONTINUOUS
 10
9.8474569312
 20
17.8446430515
 40
0.21
100
AcDbArc
 50
309.8708339358
 51
50.1291660642
  0
CIRCLE
  5
250
100
AcDbEntity
  8
0
100
AcDbCircle
 62
7
  6
CONTINUOUS
 10
11.0473183383
 20
-3.1553569485
 40
0.79
  0
CIRCLE
  5
251
100
AcDbEntity
  8
0
100
AcDbCircle
 62
7
  6
CONTINUOUS
 10
11.0473183383
 20
-0.1553569485
 40
0.656
  0
CIRCLE
  5
252
100
AcDbEntity
  8
0
100
AcDbCircle
 62
7
  6
CONTINUOUS
 10
11.0473183383
 20
-3.1553569485
 40
0.495
  0
CIRCLE
  5
253
100
AcDbEntity
  8
0
100
AcDbCircle
 62
9
  6
CONTINUOUS
 10
11.0473183383
 20
-3.1553569485
 40
0.49
  0
CIRCLE
  5
254
100
AcDbEntity
  8
0
100
AcDbCircle
 62
9
  6
CONTINUOUS
 10
11.0473183383
 20
-0.1553569485
 40
0.4795772124
  0
CIRCLE
  5
255
100
AcDbEntity
  8
0
100
AcDbCircle
 62
7
  6
CONTINUOUS
 10
11.0473183383
 20
-0.1553569485
 40
0.478913852
  0
CIRCLE
  5
256
100
AcDbEntity
  8
0
100
AcDbCircle
 62
7
  6
CONTINUOUS
 10
11.0473183383
 20
-3.1553569485
 40
0.47
  0
CIRCLE
  5
257
100
AcDbEntity
  8
0
100
AcDbCircle
 62
7
  6
CONTINUOUS
 10
11.0473183383
 20
-3.1553569485
 40
0.4625
  0
CIRCLE
  5
258
100
AcDbEntity
  8
0
100
AcDbCircle
 62
9
  6
CONTINUOUS
 10
11.0473183383
 20
-0.1553569485
 40
0.4513477724
  0
CIRCLE
  5
259
100
AcDbEntity
  8
0
100
AcDbCircle
 62
9
  6
CONTINUOUS
 10
11.0473183383
 20
-3.1553569485
 40
0.4272880871
  0
CIRCLE
  5
25A
100
AcDbEntity
  8
0
100
AcDbCircle
 62
9
  6
CONTINUOUS
 10
11.0473183383
 20
-3.1553569485
 40
0.4181683849
  0
CIRCLE
  5
25B
100
AcDbEntity
  8
0
100
AcDbCircle
 62
7
  6
CONTINUOUS
 10
11.0473183383
 20
-3.1553569485
 40
0.396
  0
CIRCLE
  5
25C
100
AcDbEntity
  8
0
100
AcDbCircle
 62
7
  6
CONTINUOUS
 10
11.0473183383
 20
-3.1553569485
 40
0.395
  0
CIRCLE
  5
25D
100
AcDbEntity
  8
0
100
AcDbCircle
 62
7
  6
CONTINUOUS
 10
11.0473183383
 20
-3.1553569485
 40
0.3875
  0
ARC
  5
25E
100
AcDbEntity
  8
0
100
AcDbCircle
 62
7
  6
CONTINUOUS
 10
11.0473183383
 20
-3.1553569485
 40
0.375
100
AcDbArc
 50
196.9999999999
 51
208.0000000005
  0
ARC
  5
25F
100
AcDbEntity
  8
0
100
AcDbCircle
 62
7
  6
CONTINUOUS
 10
11.0473183383
 20
-3.1553569485
 40
0.375
100
AcDbArc
 50
106.9999999998
 51
117.9999999998
  0
ARC
  5
260
100
AcDbEntity
  8
0
100
AcDbCircle
 62
7
  6
CONTINUOUS
 10
11.0473183383
 20
-3.1553569485
 40
0.375
100
AcDbArc
 50
152.0000000006
 51
162.9999999998
  0
ARC
  5
261
100
AcDbEntity
  8
0
100
AcDbCircle
 62
7
  6
CONTINUOUS
 10
11.0473183383
 20
-3.1553569485
 40
0.375
100
AcDbArc
 50
286.9999999998
 51
297.9999999998
  0
ARC
  5
262
100
AcDbEntity
  8
0
100
AcDbCircle
 62
7
  6
CONTINUOUS
 10
11.0473183383
 20
-3.1553569485
 40
0.375
100
AcDbArc
 50
16.9999999999
 51
28.0000000005
  0
ARC
  5
263
100
AcDbEntity
  8
0
100
AcDbCircle
 62
7
  6
CONTINUOUS
 10
11.0473183383
 20
-3.1553569485
 40
0.375
100
AcDbArc
 50
241.9999999999
 51
253.0000000001
  0
ARC
  5
264
100
AcDbEntity
  8
0
100
AcDbCircle
 62
7
  6
CONTINUOUS
 10
11.0473183383
 20
-3.1553569485
 40
0.375
100
AcDbArc
 50
332.0000000006
 51
342.9999999998
  0
ARC
  5
265
100
AcDbEntity
  8
0
100
AcDbCircle
 62
7
  6
CONTINUOUS
 10
11.0473183383
 20
-3.1553569485
 40
0.375
100
AcDbArc
 50
61.9999999999
 51
73.0000000001
  0
ARC
  5
266
100
AcDbEntity
  8
0
100
AcDbCircle
 62
7
  6
CONTINUOUS
 10
11.0473183383
 20
-3.1553569485
 40
0.3575
100
AcDbArc
 50
342.9999999998
 51
16.9999999998
  0
ARC
  5
267
100
AcDbEntity
  8
0
100
AcDbCircle
 62
7
  6
CONTINUOUS
 10
11.0473183383
 20
-3.1553569485
 40
0.3575
100
AcDbArc
 50
297.9999999998
 51
332.0000000007
  0
ARC
  5
268
100
AcDbEntity
  8
0
100
AcDbCircle
 62
7
  6
CONTINUOUS
 10
11.0473183383
 20
-3.1553569485
 40
0.3575
100
AcDbArc
 50
253.0000000001
 51
286.9999999998
  0
ARC
  5
269
100
AcDbEntity
  8
0
100
AcDbCircle
 62
7
  6
CONTINUOUS
 10
11.0473183383
 20
-3.1553569485
 40
0.3575
100
AcDbArc
 50
208.0000000006
 51
241.9999999998
  0
ARC
  5
26A
100
AcDbEntity
  8
0
100
AcDbCircle
 62
7
  6
CONTINUOUS
 10
11.0473183383
 20
-3.1553569485
 40
0.3575
100
AcDbArc
 50
162.9999999998
 51
196.9999999998
  0
ARC
  5
26B
100
AcDbEntity
  8
0
100
AcDbCircle
 62
7
  6
CONTINUOUS
 10
11.0473183383
 20
-3.1553569485
 40
0.3575
100
AcDbArc
 50
117.9999999998
 51
152.0000000007
  0
ARC
  5
26C
100
AcDbEntity
  8
0
100
AcDbCircle
 62
7
  6
CONTINUOUS
 10
11.0473183383
 20
-3.1553569485
 40
0.3575
100
AcDbArc
 50
73.0000000001
 51
106.9999999998
  0
ARC
  5
26D
100
AcDbEntity
  8
0
100
AcDbCircle
 62
7
  6
CONTINUOUS
 10
11.0473183383
 20
-3.1553569485
 40
0.3575
100
AcDbArc
 50
28.0000000006
 51
61.9999999998
  0
CIRCLE
  5
26E
100
AcDbEntity
  8
0
100
AcDbCircle
 62
9
  6
CONTINUOUS
 10
11.0473183383
 20
-0.1553569485
 40
0.328445666
  0
CIRCLE
  5
26F
100
AcDbEntity
  8
0
100
AcDbCircle
 62
7
  6
CONTINUOUS
 10
11.0473183383
 20
-3.1553569485
 40
0.3125
  0
ARC
  5
270
100
AcDbEntity
  8
0
100
AcDbCircle
 62
7
  6
CONTINUOUS
 10
11.0474569312
 20
17.8446430515
 40
1.0775
100
AcDbArc
 50
143.6026297633
 51
171.3973702366
  0
ARC
  5
271
100
AcDbEntity
  8
0
100
AcDbCircle
 62
7
  6
CONTINUOUS
 10
11.0474569312
 20
17.8446430515
 40
1.0775
100
AcDbArc
 50
98.6026297633
 51
126.3973702367
  0
ARC
  5
272
100
AcDbEntity
  8
0
100
AcDbCircle
 62
7
  6
CONTINUOUS
 10
11.0474569312
 20
17.8446430515
 40
1.0775
100
AcDbArc
 50
53.6026297633
 51
81.3973702367
  0
ARC
  5
273
100
AcDbEntity
  8
0
100
AcDbCircle
 62
7
  6
CONTINUOUS
 10
11.0474569312
 20
17.8446430515
 40
1.0775
100
AcDbArc
 50
8.6026297634
 51
36.3973702367
  0
ARC
  5
274
100
AcDbEntity
  8
0
100
AcDbCircle
 62
7
  6
CONTINUOUS
 10
11.0474569312
 20
17.8446430515
 40
1.0775
100
AcDbArc
 50
278.6026297634
 51
306.3973702367
  0
ARC
  5
275
100
AcDbEntity
  8
0
100
AcDbCircle
 62
7
  6
CONTINUOUS
 10
11.0474569312
 20
17.8446430515
 40
1.0775
100
AcDbArc
 50
233.6026297633
 51
261.3973702366
  0
ARC
  5
276
100
AcDbEntity
  8
0
100
AcDbCircle
 62
7
  6
CONTINUOUS
 10
11.0474569312
 20
17.8446430515
 40
1.0775
100
AcDbArc
 50
188.6026297634
 51
216.3973702367
  0
ARC
  5
277
100
AcDbEntity
  8
0
100
AcDbCircle
 62
7
  6
CONTINUOUS
 10
11.0474569312
 20
17.8446430515
 40
1.0775
100
AcDbArc
 50
323.6026297633
 51
351.3973702366
  0
ARC
  5
278
100
AcDbEntity
  8
0
100
AcDbCircle
 62
7
  6
CONTINUOUS
 10
11.0474569312
 20
17.8446430515
 40
1.0125
100
AcDbArc
 50
310.3973230526
 51
319.6117730258
  0
ARC
  5
279
100
AcDbEntity
  8
0
100
AcDbCircle
 62
7
  6
CONTINUOUS
 10
11.0474569312
 20
17.8446430515
 40
1.0125
100
AcDbArc
 50
265.1734325195
 51
274.8507121143
  0
ARC
  5
27A
100
AcDbEntity
  8
0
100
AcDbCircle
 62
7
  6
CONTINUOUS
 10
11.0474569312
 20
17.8446430515
 40
1.0125
100
AcDbArc
 50
220.4263419138
 51
229.6352922597
  0
ARC
  5
27B
100
AcDbEntity
  8
0
100
AcDbCircle
 62
7
  6
CONTINUOUS
 10
11.0474569312
 20
17.8446430515
 40
1.0125
100
AcDbArc
 50
175.4739221177
 51
184.4873382468
  0
ARC
  5
27C
100
AcDbEntity
  8
0
100
AcDbCircle
 62
7
  6
CONTINUOUS
 10
11.0474569312
 20
17.8446430515
 40
1.0125
100
AcDbArc
 50
130.3973230526
 51
139.6117730258
  0
ARC
  5
27D
100
AcDbEntity
  8
0
100
AcDbCircle
 62
7
  6
CONTINUOUS
 10
11.0474569312
 20
17.8446430515
 40
1.0125
100
AcDbArc
 50
85.1734325194
 51
94.8507121144
  0
ARC
  5
27E
100
AcDbEntity
  8
0
100
AcDbCircle
 62
7
  6
CONTINUOUS
 10
11.0474569312
 20
17.8446430515
 40
1.0125
100
AcDbArc
 50
40.4263419138
 51
49.6352922597
  0
ARC
  5
27F
100
AcDbEntity
  8
0
100
AcDbCircle
 62
7
  6
CONTINUOUS
 10
11.0474569312
 20
17.8446430515
 40
1.0125
100
AcDbArc
 50
355.4739221177
 51
4.4873382469
  0
CIRCLE
  5
280
100
AcDbEntity
  8
0
100
AcDbCircle
 62
7
  6
CONTINUOUS
 10
11.0474569312
 20
17.8446430515
 40
0.935
  0
CIRCLE
  5
281
100
AcDbEntity
  8
0
100
AcDbCircle
 62
9
  6
CONTINUOUS
 10
11.0474569312
 20
17.8446430515
 40
0.909136433
  0
ARC
  5
282
100
AcDbEntity
  8
0
100
AcDbCircle
 62
7
  6
CONTINUOUS
 10
11.0474569312
 20
19.0446430515
 40
0.21
100
AcDbArc
 50
219.8708339353
 51
320.1291660647
  0
ARC
  5
283
100
AcDbEntity
  8
0
100
AcDbCircle
 62
7
  6
CONTINUOUS
 10
11.8959850686
 20
18.6931711889
 40
0.21
100
AcDbArc
 50
174.8708339361
 51
275.129166064
  0
ARC
  5
284
100
AcDbEntity
  8
0
100
AcDbCircle
 62
7
  6
CONTINUOUS
 10
11.8959850686
 20
16.9961149141
 40
0.21
100
AcDbArc
 50
84.870833936
 51
185.1291660639
  0
ARC
  5
285
100
AcDbEntity
  8
0
100
AcDbCircle
 62
7
  6
CONTINUOUS
 10
11.0474569312
 20
16.6446430515
 40
0.21
100
AcDbArc
 50
39.8708339359
 51
140.1291660641
  0
ARC
  5
286
100
AcDbEntity
  8
0
100
AcDbCircle
 62
7
  6
CONTINUOUS
 10
12.2474569312
 20
17.8446430515
 40
0.21
100
AcDbArc
 50
129.8708339358
 51
230.1291660642
  0
ARC
  5
287
100
AcDbEntity
  8
0
100
AcDbCircle
 62
7
  6
CONTINUOUS
 10
16.5832437783
 20
8.8446430515
 40
1.72
100
AcDbArc
 50
346.9271076843
 51
13.0728923157
  0
ARC
  5
288
100
AcDbEntity
  8
0
100
AcDbCircle
 62
7
  6
CONTINUOUS
 10
15.0473183383
 20
8.8446430515
 40
1.1355877937
100
AcDbArc
 50
14.1537354567
 51
345.8461558129
  0
ARC
  5
289
100
AcDbEntity
  8
0
100
AcDbCircle
 62
9
  6
CONTINUOUS
 10
15.0473183383
 20
8.8446430515
 40
1.1018951051
100
AcDbArc
 50
14.5436089534
 51
345.4563753575
  0
ARC
  5
28A
100
AcDbEntity
  8
0
100
AcDbCircle
 62
9
  6
CONTINUOUS
 10
15.0473183383
 20
8.8446430515
 40
1.0686940646
100
AcDbArc
 50
14.9664567689
 51
345.0335432311
  0
ARC
  5
28B
100
AcDbEntity
  8
0
100
AcDbCircle
 62
9
  6
CONTINUOUS
 10
15.0473183383
 20
8.8446430515
 40
0.9981262705
100
AcDbArc
 50
15.8736322343
 51
344.1264069357
  0
ARC
  5
28C
100
AcDbEntity
  8
0
100
AcDbCircle
 62
9
  6
CONTINUOUS
 10
15.0473183383
 20
8.8446430515
 40
0.9302280237
100
AcDbArc
 50
16.9064692115
 51
18.7099479653
  0
ARC
  5
28D
100
AcDbEntity
  8
0
100
AcDbCircle
 62
9
  6
CONTINUOUS
 10
15.0473183383
 20
8.8446430515
 40
0.9302280237
100
AcDbArc
 50
18.9469736761
 51
341.0520241998
  0
ARC
  5
28E
100
AcDbEntity
  8
0
100
AcDbCircle
 62
9
  6
CONTINUOUS
 10
15.0473183383
 20
8.8446430515
 40
0.9302280237
100
AcDbArc
 50
341.2901686896
 51
343.0934848477
  0
ARC
  5
28F
100
AcDbEntity
  8
0
100
AcDbCircle
 62
9
  6
CONTINUOUS
 10
15.0473183383
 20
8.8446430515
 40
0.7616485311
100
AcDbArc
 50
21.5207480472
 51
338.4792503816
  0
ARC
  5
290
100
AcDbEntity
  8
0
100
AcDbCircle
 62
7
  6
CONTINUOUS
 10
15.0473183383
 20
8.8446430515
 40
0.6917203626
100
AcDbArc
 50
22.4176079069
 51
337.5840102899
  0
ARC
  5
291
100
AcDbEntity
  8
0
100
AcDbCircle
 62
9
  6
CONTINUOUS
 10
15.0473183383
 20
8.8446430515
 40
0.5085759512
100
AcDbArc
 50
24.9630675002
 51
335.036793871
  0
CIRCLE
  5
292
100
AcDbEntity
  8
0
100
AcDbCircle
 62
7
  6
CONTINUOUS
 10
15.0473183383
 20
8.8446430515
 40
0.4959492158
  0
CIRCLE
  5
293
100
AcDbEntity
  8
0
100
AcDbCircle
 62
9
  6
CONTINUOUS
 10
15.0473183383
 20
8.8446430515
 40
0.4679685478
  0
CIRCLE
  5
294
100
AcDbEntity
  8
0
100
AcDbCircle
 62
9
  6
CONTINUOUS
 10
15.0473183569
 20
8.8446429946
 40
0.3452421752
  0
ARC
  5
295
100
AcDbEntity
  8
0
100
AcDbCircle
 62
7
  6
CONTINUOUS
 10
15.7969130189
 20
9.2553795312
 40
0.1200000078
100
AcDbArc
 50
279.5572239234
 51
312.4190668088
  0
ARC
  5
296
100
AcDbEntity
  8
0
100
AcDbCircle
 62
7
  6
CONTINUOUS
 10
15.7969130189
 20
8.4339065718
 40
0.1200000078
100
AcDbArc
 50
47.5809331903
 51
80.4427760768
  0
ARC
  5
297
100
AcDbEntity
  8
0
100
AcDbCircle
 62
7
  6
CONTINUOUS
 10
18.2197033714
 20
8.4646430515
 40
0.04
100
AcDbArc
 50
180.0
 51
346.9271076842
  0
ARC
  5
298
100
AcDbEntity
  8
0
100
AcDbCircle
 62
7
  6
CONTINUOUS
 10
18.2197033714
 20
9.2246430515
 40
0.04
100
AcDbArc
 50
13.0728923158
 51
180.0
  0
SPLINE
  5
299
100
AcDbEntity
  8
0
100
AcDbSpline
 62
7
  6
CONTINUOUS
 70
0
 71
3
 72
21
 73
17
 74
0
 42
0.0000001
 43
0.0000001
 44
0.0000000001
 40
0.0
 40
0.0
 40
0.0
 40
0.0
 40
0.1246853177
 40
0.1873118613
 40
0.2499099749
 40
0.3124082806
 40
0.3748459933
 40
0.4373588076
 40
0.4999663742
 40
0.5625889971
 40
0.6251341667
 40
0.6875827827
 40
0.7500517603
 40
0.812624311
 40
0.8752529988
 40
1.0
 40
1.0
 40
1.0
 40
1.0
 10
15.9282437783
 20
8.5446433455
 30
0.0
 10
15.9282437783
 20
8.5417593405
 30
0.0
 10
15.9275769216
 20
8.5373965636
 30
0.0
 10
15.9255215364
 20
8.5319812474
 30
0.0
 10
15.9234224055
 20
8.5281623762
 30
0.0
 10
15.920804034
 20
8.5246849563
 30
0.0
 10
15.9176947648
 20
8.5216392585
 30
0.0
 10
15.9141662587
 20
8.5190890912
 30
0.0
 10
15.9103093387
 20
8.5170627505
 30
0.0
 10
15.9062063227
 20
8.5155951858
 30
0.0
 10
15.9019406873
 20
8.5147204403
 30
0.0
 10
15.8975948566
 20
8.5144775697
 30
0.0
 10
15.893262525
 20
8.5148959523
 30
0.0
 10
15.8890314257
 20
8.5159344798
 30
0.0
 10
15.8836534635
 20
8.5180886055
 30
0.0
 10
15.8799889524
 20
8.5205479834
 30
0.0
 10
15.8778588112
 20
8.522494317
 30
0.0
  0
SPLINE
  5
29A
100
AcDbEntity
  8
0
100
AcDbSpline
 62
7
  6
CONTINUOUS
 70
0
 71
3
 72
21
 73
17
 74
0
 42
0.0000001
 43
0.0000001
 44
0.0000000001
 40
0.0
 40
0.0
 40
0.0
 40
0.0
 40
0.1246853177
 40
0.1873118613
 40
0.2499099749
 40
0.3124082806
 40
0.3748459933
 40
0.4373588076
 40
0.4999663742
 40
0.5625889971
 40
0.6251341667
 40
0.6875827826
 40
0.7500517603
 40
0.812624311
 40
0.8752529988
 40
1.0
 40
1.0
 40
1.0
 40
1.0
 10
15.9282437783
 20
9.1446427575
 30
0.0
 10
15.9282437783
 20
9.1475267625
 30
0.0
 10
15.9275769216
 20
9.1518895394
 30
0.0
 10
15.9255215364
 20
9.1573048556
 30
0.0
 10
15.9234224055
 20
9.1611237268
 30
0.0
 10
15.920804034
 20
9.1646011467
 30
0.0
 10
15.9176947648
 20
9.1676468444
 30
0.0
 10
15.9141662587
 20
9.1701970118
 30
0.0
 10
15.9103093387
 20
9.1722233525
 30
0.0
 10
15.9062063227
 20
9.1736909172
 30
0.0
 10
15.9019406873
 20
9.1745656627
 30
0.0
 10
15.8975948566
 20
9.1748085332
 30
0.0
 10
15.893262525
 20
9.1743901507
 30
0.0
 10
15.8890314257
 20
9.1733516232
 30
0.0
 10
15.8836534635
 20
9.1711974975
 30
0.0
 10
15.8799889524
 20
9.1687381196
 30
0.0
 10
15.8778588112
 20
9.166791786
 30
0.0
  0
SPLINE
  5
29B
100
AcDbEntity
  8
0
100
AcDbSpline
 62
7
  6
CONTINUOUS
 70
0
 71
3
 72
13
 73
9
 74
0
 42
0.0000001
 43
0.0000001
 44
0.0000000001
 40
0.0
 40
0.0
 40
0.0
 40
0.0
 40
0.2508113745
 40
0.5014602759
 40
0.7512533318
 40
0.8757375806
 40
0.9378905297
 40
1.0
 40
1.0
 40
1.0
 40
1.0
 10
15.4941562827
 20
9.0546766416
 30
0.0
 10
15.5210632644
 20
9.0618836581
 30
0.0
 10
15.5746473479
 20
9.0770767063
 30
0.0
 10
15.6548496722
 20
9.1000690481
 30
0.0
 10
15.722013401
 20
9.1176381618
 30
0.0
 10
15.7693412211
 20
9.128135771
 30
0.0
 10
15.7964484048
 20
9.1334709315
 30
0.0
 10
15.8100346994
 20
9.135900079
 30
0.0
 10
15.8168369215
 20
9.1370453691
 30
0.0
  0
SPLINE
  5
29C
100
AcDbEntity
  8
0
100
AcDbSpline
 62
7
  6
CONTINUOUS
 70
0
 71
3
 72
13
 73
9
 74
0
 42
0.0000001
 43
0.0000001
 44
0.0000000001
 40
0.0
 40
0.0
 40
0.0
 40
0.0
 40
0.2508114037
 40
0.5014602919
 40
0.7512533287
 40
0.875737576
 40
0.9378905268
 40
1.0
 40
1.0
 40
1.0
 40
1.0
 10
15.4941628381
 20
8.6346077056
 30
0.0
 10
15.5210692578
 20
8.6274007712
 30
0.0
 10
15.5746522355
 20
8.6122079784
 30
0.0
 10
15.6548529416
 20
8.5892161569
 30
0.0
 10
15.7220153208
 20
8.5716474861
 30
0.0
 10
15.7693421841
 20
8.561150134
 30
0.0
 10
15.7964488188
 20
8.5558150961
 30
0.0
 10
15.8100348376
 20
8.5533860007
 30
0.0
 10
15.8168369215
 20
8.5522407339
 30
0.0
  0
SPLINE
  5
29D
100
AcDbEntity
  8
0
100
AcDbSpline
 62
9
  6
CONTINUOUS
 70
0
 71
3
 72
12
 73
8
 74
0
 42
0.0000001
 43
0.0000001
 44
0.0000000001
 40
0.0
 40
0.0
 40
0.0
 40
0.0
 40
0.2334880752
 40
0.4847473066
 40
0.6141484475
 40
0.7444060938
 40
1.0
 40
1.0
 40
1.0
 40
1.0
 10
15.5798484843
 20
8.9136438315
 30
0.0
 10
15.5766406865
 20
8.9127806807
 30
0.0
 10
15.5699258976
 20
8.9111889709
 30
0.0
 10
15.561317525
 20
8.9096599497
 30
0.0
 10
15.5541069106
 20
8.9087296637
 30
0.0
 10
15.5468074096
 20
8.9080460641
 30
0.0
 10
15.541315806
 20
8.9078158343
 30
0.0
 10
15.5376794042
 20
8.9078147477
 30
0.0
  0
SPLINE
  5
29E
100
AcDbEntity
  8
0
100
AcDbSpline
 62
9
  6
CONTINUOUS
 70
0
 71
3
 72
11
 73
7
 74
0
 42
0.0000001
 43
0.0000001
 44
0.0000000001
 40
0.0
 40
0.0
 40
0.0
 40
0.0
 40
0.2241348215
 40
0.4713216756
 40
0.734584901
 40
1.0
 40
1.0
 40
1.0
 40
1.0
 10
15.5798483076
 20
8.775641398
 30
0.0
 10
15.5767643698
 20
8.7764712703
 30
0.0
 10
15.5702287958
 20
8.7780330429
 30
0.0
 10
15.5599210665
 20
8.779887891
 30
0.0
 10
15.5489303455
 20
8.7811458562
 30
0.0
 10
15.5413955066
 20
8.78148284
 30
0.0
 10
15.53761367
 20
8.781482079
 30
0.0
  0
SPLINE
  5
29F
100
AcDbEntity
  8
0
100
AcDbSpline
 62
9
  6
CONTINUOUS
 70
0
 71
3
 72
15
 73
11
 74
0
 42
0.0000001
 43
0.0000001
 44
0.0000000001
 40
0.0
 40
0.0
 40
0.0
 40
0.0
 40
0.0911447782
 40
0.1922878283
 40
0.303216057
 40
0.4238461404
 40
0.5542284435
 40
0.6942541097
 40
0.8431177085
 40
1.0
 40
1.0
 40
1.0
 40
1.0
 10
15.5032384298
 20
8.6523288363
 30
0.0
 10
15.5070283518
 20
8.6547730485
 30
0.0
 10
15.5146977411
 20
8.6604454589
 30
0.0
 10
15.5257437083
 20
8.6706347231
 30
0.0
 10
15.5366781791
 20
8.6829760951
 30
0.0
 10
15.5472359954
 20
8.6974737107
 30
0.0
 10
15.557143069
 20
8.7141244007
 30
0.0
 10
15.5661188828
 20
8.7328570168
 30
0.0
 10
15.5739194174
 20
8.7535147561
 30
0.0
 10
15.5780480427
 20
8.7680911329
 30
0.0
 10
15.5798483952
 20
8.775641809
 30
0.0
  0
SPLINE
  5
2A0
100
AcDbEntity
  8
0
100
AcDbSpline
 62
9
  6
CONTINUOUS
 70
0
 71
3
 72
11
 73
7
 74
0
 42
0.0000001
 43
0.0000001
 44
0.0000000001
 40
0.0
 40
0.0
 40
0.0
 40
0.0
 40
0.2322598104
 40
0.4775146466
 40
0.7350899107
 40
1.0
 40
1.0
 40
1.0
 40
1.0
 10
15.5798486531
 20
8.7756417137
 30
0.0
 10
15.5811086757
 20
8.7809261356
 30
0.0
 10
15.5838668318
 20
8.7917491378
 30
0.0
 10
15.5877750966
 20
8.8084977393
 30
0.0
 10
15.5907695202
 20
8.8262197461
 30
0.0
 10
15.5916162716
 20
8.8384467944
 30
0.0
 10
15.5916170306
 20
8.8446430515
 30
0.0
  0
SPLINE
  5
2A1
100
AcDbEntity
  8
0
100
AcDbSpline
 62
9
  6
CONTINUOUS
 70
0
 71
3
 72
11
 73
7
 74
0
 42
0.0000001
 43
0.0000001
 44
0.0000000001
 40
0.0
 40
0.0
 40
0.0
 40
0.0
 40
0.2649085237
 40
0.5224852877
 40
0.7677405403
 40
1.0
 40
1.0
 40
1.0
 40
1.0
 10
15.591617165
 20
8.8446430516
 30
0.0
 10
15.5916164141
 20
8.8508392759
 30
0.0
 10
15.5907696698
 20
8.86306633
 30
0.0
 10
15.5877752947
 20
8.8807883657
 30
0.0
 10
15.5838669878
 20
8.8975370073
 30
0.0
 10
15.581108801
 20
8.9083600106
 30
0.0
 10
15.5798487811
 20
8.9136444283
 30
0.0
  0
SPLINE
  5
2A2
100
AcDbEntity
  8
0
100
AcDbSpline
 62
9
  6
CONTINUOUS
 70
0
 71
3
 72
15
 73
11
 74
0
 42
0.0000001
 43
0.0000001
 44
0.0000000001
 40
0.0
 40
0.0
 40
0.0
 40
0.0
 40
0.1569706749
 40
0.3059003882
 40
0.4459661188
 40
0.5763613825
 40
0.6969802945
 40
0.8078717045
 40
0.9089500293
 40
1.0
 40
1.0
 40
1.0
 40
1.0
 10
15.5798484002
 20
8.9136442939
 30
0.0
 10
15.5780446154
 20
8.9212093619
 30
0.0
 10
15.5739071819
 20
8.9358124292
 30
0.0
 10
15.5660876881
 20
8.9565051048
 30
0.0
 10
15.5570893498
 20
8.9752645214
 30
0.0
 10
15.5471574805
 20
8.9919332624
 30
0.0
 10
15.5365745829
 20
9.0064403674
 30
0.0
 10
15.5256162121
 20
9.0187828229
 30
0.0
 10
15.5145491864
 20
9.0289648073
 30
0.0
 10
15.5068664246
 20
9.0346276246
 30
0.0
 10
15.5030706881
 20
9.037065305
 30
0.0
  0
SPLINE
  5
2A3
100
AcDbEntity
  8
0
100
AcDbSpline
 62
7
  6
CONTINUOUS
 70
0
 71
3
 72
21
 73
17
 74
0
 42
0.0000001
 43
0.0000001
 44
0.0000000001
 40
0.0
 40
0.0
 40
0.0
 40
0.0
 40
0.1246853177
 40
0.1873118613
 40
0.2499099749
 40
0.3124082806
 40
0.3748459933
 40
0.4373588076
 40
0.4999663742
 40
0.5625889971
 40
0.6251341667
 40
0.6875827827
 40
0.7500517603
 40
0.812624311
 40
0.8752529988
 40
1.0
 40
1.0
 40
1.0
 40
1.0
 10
6.1663928983
 20
9.1446427575
 30
0.0
 10
6.1663928983
 20
9.1475267625
 30
0.0
 10
6.167059755
 20
9.1518895394
 30
0.0
 10
6.1691151402
 20
9.1573048556
 30
0.0
 10
6.1712142711
 20
9.1611237268
 30
0.0
 10
6.1738326425
 20
9.1646011467
 30
0.0
 10
6.1769419118
 20
9.1676468444
 30
0.0
 10
6.1804704178
 20
9.1701970118
 30
0.0
 10
6.1843273378
 20
9.1722233525
 30
0.0
 10
6.1884303539
 20
9.1736909172
 30
0.0
 10
6.1926959893
 20
9.1745656627
 30
0.0
 10
6.1970418199
 20
9.1748085332
 30
0.0
 10
6.2013741516
 20
9.1743901507
 30
0.0
 10
6.2056052509
 20
9.1733516232
 30
0.0
 10
6.2109832131
 20
9.1711974975
 30
0.0
 10
6.2146477241
 20
9.1687381196
 30
0.0
 10
6.2167778654
 20
9.166791786
 30
0.0
  0
SPLINE
  5
2A4
100
AcDbEntity
  8
0
100
AcDbSpline
 62
7
  6
CONTINUOUS
 70
0
 71
3
 72
21
 73
17
 74
0
 42
0.0000001
 43
0.0000001
 44
0.0000000001
 40
0.0
 40
0.0
 40
0.0
 40
0.0
 40
0.1246853177
 40
0.1873118613
 40
0.2499099749
 40
0.3124082806
 40
0.3748459933
 40
0.4373588076
 40
0.4999663742
 40
0.5625889971
 40
0.6251341667
 40
0.6875827826
 40
0.7500517603
 40
0.812624311
 40
0.8752529988
 40
1.0
 40
1.0
 40
1.0
 40
1.0
 10
6.1663928983
 20
8.5446433455
 30
0.0
 10
6.1663928983
 20
8.5417593405
 30
0.0
 10
6.167059755
 20
8.5373965636
 30
0.0
 10
6.1691151402
 20
8.5319812474
 30
0.0
 10
6.1712142711
 20
8.5281623762
 30
0.0
 10
6.1738326425
 20
8.5246849563
 30
0.0
 10
6.1769419118
 20
8.5216392585
 30
0.0
 10
6.1804704178
 20
8.5190890912
 30
0.0
 10
6.1843273378
 20
8.5170627505
 30
0.0
 10
6.1884303539
 20
8.5155951858
 30
0.0
 10
6.1926959893
 20
8.5147204403
 30
0.0
 10
6.1970418199
 20
8.5144775697
 30
0.0
 10
6.2013741516
 20
8.5148959523
 30
0.0
 10
6.2056052509
 20
8.5159344798
 30
0.0
 10
6.2109832131
 20
8.5180886055
 30
0.0
 10
6.2146477241
 20
8.5205479834
 30
0.0
 10
6.2167778654
 20
8.522494317
 30
0.0
  0
SPLINE
  5
2A5
100
AcDbEntity
  8
0
100
AcDbSpline
 62
7
  6
CONTINUOUS
 70
0
 71
3
 72
13
 73
9
 74
0
 42
0.0000001
 43
0.0000001
 44
0.0000000001
 40
0.0
 40
0.0
 40
0.0
 40
0.0
 40
0.2508113745
 40
0.5014602759
 40
0.7512533318
 40
0.8757375806
 40
0.9378905297
 40
1.0
 40
1.0
 40
1.0
 40
1.0
 10
6.6004803938
 20
8.6346094614
 30
0.0
 10
6.5735734122
 20
8.6274024449
 30
0.0
 10
6.519989329
 20
8.6122093968
 30
0.0
 10
6.439787005
 20
8.589217055
 30
0.0
 10
6.3726232765
 20
8.5716479414
 30
0.0
 10
6.3252954565
 20
8.5611503322
 30
0.0
 10
6.298188273
 20
8.5558151717
 30
0.0
 10
6.2846019784
 20
8.5533860242
 30
0.0
 10
6.2777997563
 20
8.5522407341
 30
0.0
  0
SPLINE
  5
2A6
100
AcDbEntity
  8
0
100
AcDbSpline
 62
7
  6
CONTINUOUS
 70
0
 71
3
 72
13
 73
9
 74
0
 42
0.0000001
 43
0.0000001
 44
0.0000000001
 40
0.0
 40
0.0
 40
0.0
 40
0.0
 40
0.2508114037
 40
0.5014602919
 40
0.7512533287
 40
0.875737576
 40
0.9378905268
 40
1.0
 40
1.0
 40
1.0
 40
1.0
 10
6.6004738384
 20
9.0546783974
 30
0.0
 10
6.5735674188
 20
9.0618853318
 30
0.0
 10
6.5199844413
 20
9.0770781245
 30
0.0
 10
6.4397837356
 20
9.1000699459
 30
0.0
 10
6.3726213567
 20
9.1176386166
 30
0.0
 10
6.3252944935
 20
9.1281359688
 30
0.0
 10
6.298187859
 20
9.1334710066
 30
0.0
 10
6.2846018402
 20
9.1359001021
 30
0.0
 10
6.2777997563
 20
9.1370453689
 30
0.0
  0
SPLINE
  5
2A7
100
AcDbEntity
  8
0
100
AcDbSpline
 62
9
  6
CONTINUOUS
 70
0
 71
3
 72
12
 73
8
 74
0
 42
0.0000001
 43
0.0000001
 44
0.0000000001
 40
0.0
 40
0.0
 40
0.0
 40
0.0
 40
0.2334880752
 40
0.4847473066
 40
0.6141484475
 40
0.7444060938
 40
1.0
 40
1.0
 40
1.0
 40
1.0
 10
6.5147881923
 20
8.7756422715
 30
0.0
 10
6.5179959901
 20
8.7765054223
 30
0.0
 10
6.524710779
 20
8.778097132
 30
0.0
 10
6.5333191515
 20
8.7796261533
 30
0.0
 10
6.540529766
 20
8.7805564393
 30
0.0
 10
6.547829267
 20
8.7812400388
 30
0.0
 10
6.5533208706
 20
8.7814702687
 30
0.0
 10
6.5569572724
 20
8.7814713553
 30
0.0
  0
SPLINE
  5
2A8
100
AcDbEntity
  8
0
100
AcDbSpline
 62
9
  6
CONTINUOUS
 70
0
 71
3
 72
11
 73
7
 74
0
 42
0.0000001
 43
0.0000001
 44
0.0000000001
 40
0.0
 40
0.0
 40
0.0
 40
0.0
 40
0.2241348215
 40
0.4713216756
 40
0.734584901
 40
1.0
 40
1.0
 40
1.0
 40
1.0
 10
6.514788369
 20
8.913644705
 30
0.0
 10
6.5178723068
 20
8.9128148327
 30
0.0
 10
6.5244078807
 20
8.9112530601
 30
0.0
 10
6.5347156101
 20
8.909398212
 30
0.0
 10
6.5457063311
 20
8.9081402468
 30
0.0
 10
6.5532411699
 20
8.907803263
 30
0.0
 10
6.5570230065
 20
8.907804024
 30
0.0
  0
SPLINE
  5
2A9
100
AcDbEntity
  8
0
100
AcDbSpline
 62
9
  6
CONTINUOUS
 70
0
 71
3
 72
11
 73
7
 74
0
 42
0.0000001
 43
0.0000001
 44
0.0000000001
 40
0.0
 40
0.0
 40
0.0
 40
0.0
 40
0.2322598093
 40
0.4775146452
 40
0.7350899097
 40
1.0
 40
1.0
 40
1.0
 40
1.0
 10
6.5147880222
 20
8.9136443897
 30
0.0
 10
6.5135279996
 20
8.9083599678
 30
0.0
 10
6.5107698435
 20
8.8975369655
 30
0.0
 10
6.5068615787
 20
8.880788364
 30
0.0
 10
6.503867155
 20
8.863066357
 30
0.0
 10
6.5030204036
 20
8.8508393086
 30
0.0
 10
6.5030196446
 20
8.8446430515
 30
0.0
  0
SPLINE
  5
2AA
100
AcDbEntity
  8
0
100
AcDbSpline
 62
9
  6
CONTINUOUS
 70
0
 71
3
 72
15
 73
11
 74
0
 42
0.0000001
 43
0.0000001
 44
0.0000000001
 40
0.0
 40
0.0
 40
0.0
 40
0.0
 40
0.0911447782
 40
0.1922878283
 40
0.303216057
 40
0.4238461404
 40
0.5542284435
 40
0.6942541097
 40
0.8431177085
 40
1.0
 40
1.0
 40
1.0
 40
1.0
 10
6.5913982468
 20
9.0369572667
 30
0.0
 10
6.5876083247
 20
9.0345130545
 30
0.0
 10
6.5799389354
 20
9.0288406441
 30
0.0
 10
6.5688929683
 20
9.0186513799
 30
0.0
 10
6.5579584974
 20
9.0063100079
 30
0.0
 10
6.5474006812
 20
8.9918123923
 30
0.0
 10
6.5374936076
 20
8.9751617023
 30
0.0
 10
6.5285177938
 20
8.9564290862
 30
0.0
 10
6.5207172591
 20
8.9357713469
 30
0.0
 10
6.5165886339
 20
8.9211949701
 30
0.0
 10
6.5147882813
 20
8.913644294
 30
0.0
  0
SPLINE
  5
2AB
100
AcDbEntity
  8
0
100
AcDbSpline
 62
9
  6
CONTINUOUS
 70
0
 71
3
 72
11
 73
7
 74
0
 42
0.0000001
 43
0.0000001
 44
0.0000000001
 40
0.0
 40
0.0
 40
0.0
 40
0.0
 40
0.2649085342
 40
0.5224853027
 40
0.7677405513
 40
1.0
 40
1.0
 40
1.0
 40
1.0
 10
6.5030194978
 20
8.8446430514
 30
0.0
 10
6.5030202487
 20
8.8384468265
 30
0.0
 10
6.5038669931
 20
8.8262197713
 30
0.0
 10
6.5068613684
 20
8.8084977343
 30
0.0
 10
6.5107696753
 20
8.7917490919
 30
0.0
 10
6.5135278622
 20
8.7809260882
 30
0.0
 10
6.5147878821
 20
8.7756416705
 30
0.0
  0
SPLINE
  5
2AC
100
AcDbEntity
  8
0
100
AcDbSpline
 62
9
  6
CONTINUOUS
 70
0
 71
3
 72
15
 73
11
 74
0
 42
0.0000001
 43
0.0000001
 44
0.0000000001
 40
0.0
 40
0.0
 40
0.0
 40
0.0
 40
0.1569706749
 40
0.3059003882
 40
0.4459661188
 40
0.5763613825
 40
0.6969802945
 40
0.8078717045
 40
0.9089500293
 40
1.0
 40
1.0
 40
1.0
 40
1.0
 10
6.5147882763
 20
8.7756418091
 30
0.0
 10
6.5165920612
 20
8.7680767411
 30
0.0
 10
6.5207294947
 20
8.7534736738
 30
0.0
 10
6.5285489885
 20
8.7327809982
 30
0.0
 10
6.5375473268
 20
8.7140215816
 30
0.0
 10
6.5474791961
 20
8.6973528406
 30
0.0
 10
6.5580620937
 20
8.6828457356
 30
0.0
 10
6.5690204645
 20
8.6705032801
 30
0.0
 10
6.5800874902
 20
8.6603212957
 30
0.0
 10
6.587770252
 20
8.6546584784
 30
0.0
 10
6.5915659885
 20
8.652220798
 30
0.0
  0
ENDSEC
  0
SECTION
  2
OBJECTS
  0
DICTIONARY
  5
C
100
AcDbDictionary
280
0
281
1
  3
ACAD_GROUP
350
D
  3
ACAD_MLINESTYLE
350
17
  3
ACAD_LAYOUT
350
1A
  3
ACAD_PLOTSETTINGS
350
19
  3
ACAD_PLOTSTYLENAME
350
E
  0
DICTIONARY
  5
D
102
{ACAD_REACTORS
330
C
102
}
100
AcDbDictionary
280
0
281
1
  0
ACDBDICTIONARYWDFLT
  5
E
102
{ACAD_REACTORS
330
C
102
}
100
AcDbDictionary
281
1
  3
Normal
350
F
100
AcDbDictionaryWithDefault
340
F
  0
DICTIONARY
  5
17
102
{ACAD_REACTORS
330
C
102
}
100
AcDbDictionary
280
0
281
1
  3
Standard
350
18
  0
DICTIONARY
  5
19
102
{ACAD_REACTORS
330
C
102
}
100
AcDbDictionary
281
1
  0
DICTIONARY
  5
1A
102
{ACAD_REACTORS
330
C
102
}
100
AcDbDictionary
281
1
  3
Model
350
2AD
  3
Layout1
350
2AE
  0
ACDBPLACEHOLDER
  5
F
102
{ACAD_REACTORS
330
E
102
}
  0
MLINESTYLE
  5
18
102
{ACAD_REACTORS
330
17
102
}
100
AcDbMlineStyle
  2
STANDARD
 70
0
  3

 62
256
 51
90.0
 52
90.0
 71
2
 49
0.5
 62
256
  6
BYLAYER
 49
-0.5
 62
256
  6
BYLAYER
  0
LAYOUT
  5
2AD
102
{ACAD_REACTORS
330
1A
102
}
100
AcDbPlotSettings
  1

  2
none_device
  4
ANSI_C_(22.00_x_17.00_Inches)
  6

 40
0.0
 41
0.0
 42
0.0
 43
0.0
 44
558.8
 45
431.8
 46
0.0
 47
0.0
 48
0.0
 49
0.0
140
0.0
141
0.0
142
1.0
143
1.0
 70
1024
 72
0
 73
0
 74
0
  7

 75
0
147
1.0
148
0.0
149
0.0
100
AcDbLayout
  1
Model
 70
0
 71
0
 10
0.0
 20
0.0
 11
22.0
 21
17.0
 12
0.0
 22
0.0
 32
0.0
 14
0.0
 24
0.0
 34
0.0
 15
0.0
 25
0.0
 35
0.0
146
0.0
 13
0.0
 23
0.0
 33
0.0
 16
1.0
 26
0.0
 36
0.0
 17
0.0
 27
1.0
 37
0.0
 76
0
330
202
345
0
346
0
  0
LAYOUT
  5
2AE
102
{ACAD_REACTORS
330
1A
102
}
100
AcDbPlotSettings
  1

  2
none_device
  4
ANSI_C_(22.00_x_17.00_Inches)
  6

 40
0.0
 41
0.0
 42
0.0
 43
0.0
 44
558.8
 45
431.8
 46
0.0
 47
0.0
 48
0.0
 49
0.0
140
0.0
141
0.0
142
1.0
143
1.0
 70
0
 72
0
 73
0
 74
0
  7

 75
0
147
1.0
148
0.0
149
0.0
100
AcDbLayout
  1
Layout1
 70
0
 71
1
 10
0.0
 20
0.0
 11
22.0
 21
17.0
 12
0.0
 22
0.0
 32
0.0
 14
0.0
 24
0.0
 34
0.0
 15
0.0
 25
0.0
 35
0.0
146
0.0
 13
0.0
 23
0.0
 33
0.0
 16
1.0
 26
0.0
 36
0.0
 17
0.0
 27
1.0
 37
0.0
 76
0
330
203
345
0
346
0
  0
ENDSEC
  0
EOF
