999
DXF file: E:\BT Custom\CADOUTPUT\_FRONT.dxf
999
Pro/ENGINEER 2018400 by Parametric Technology Corporation
  0
SECTION
  2
HEADER
  9
$ACADVER
  1
AC1018
  9
$DWGCODEPAGE
  3
ANSI_1252
  9
$EXTMAX
 10
22.0
 20
17.0
 30
0.0
  9
$EXTMIN
 10
0.0
 20
0.0
 30
0.0
  9
$LIMMIN
 10
0.0
 20
0.0
  9
$LIMMAX
 10
22.0
 20
17.0
  9
$VIEWCTR
 10
11.0
 20
8.5
  9
$VIEWSIZE
 40
17.0
  9
$CLAYER
  8
0
  9
$LTSCALE
 40
1.21
  9
$CELTYPE
  6
BYLAYER
  9
$DIMSCALE
 40
1.0
  9
$DIMASZ
 40
0.1
  9
$DIMEXO
 40
0.0625
  9
$DIMDLI
 40
0.836
  9
$DIMEXE
 40
0.125
  9
$DIMCEN
 40
0.198
  9
$DIMLFAC
 40
1.0
  9
$DIMBLK
  1
_FILLED
  9
$DIMALT
 70
1
  9
$DIMALTD
 70
2
  9
$DIMALTTD
 70
2
  9
$DIMALTF
 40
25.4
  9
$DIMTXT
 40
0.08
  9
$DIMTOL
 70
1
  9
$DIMLIM
 70
0
  9
$DIMTFAC
 40
1.0
  9
$DIMTP
 40
0.001
  9
$DIMTM
 40
0.001
  9
$DIMGAP
 40
0.09
  9
$DIMDSEP
 70
46
  9
$AUNITS
 70
0
  9
$PDMODE
 70
3
  9
$PDSIZE
 40
0.06
  9
$HANDSEED
  5
2E5
  9
$TILEMODE
 70
1
  9
$MEASUREMENT
 70
0
  9
$INSUNITS
 70
1
  0
ENDSEC
  0
SECTION
  2
CLASSES
  0
CLASS
  1
ACDBDICTIONARYWDFLT
  2
AcDbDictionaryWithDefault
  3
AutoCAD 2000
 90
0
 91
1
280
0
281
0
  0
CLASS
  1
ACDBPLACEHOLDER
  2
AcDbPlaceHolder
  3
AutoCAD 2000
 90
0
 91
1
280
0
281
0
  0
CLASS
  1
LAYOUT
  2
AcDbLayout
  3
AutoCAD 2000
 90
0
 91
0
280
0
281
0
  0
ENDSEC
  0
SECTION
  2
TABLES
  0
TABLE
  2
VPORT
  5
8
100
AcDbSymbolTable
 70
2
  0
VPORT
  5
1F4
100
AcDbSymbolTableRecord
100
AcDbViewportTableRecord
  2
*ACTIVE
 70
0
 10
0.0
 20
0.0
 11
1.0
 21
1.0
 12
11.0
 22
8.5
 13
0.0
 23
0.0
 14
1.0
 24
1.0
 15
0.0
 25
0.0
 16
0.0
 26
0.0
 36
1.0
 17
0.0
 27
0.0
 37
0.0
 40
17.0
 41
1.2941176471
 42
50.0
 43
0.0
 44
0.0
 50
0.0
 51
0.0
 71
0
 72
100
 73
1
 74
1
 75
0
 76
0
 77
0
 78
0
  0
ENDTAB
  0
TABLE
  2
LTYPE
  5
5
100
AcDbSymbolTable
 70
6
  0
LTYPE
  5
14
100
AcDbSymbolTableRecord
100
AcDbLinetypeTableRecord
  2
BYBLOCK
 70
0
  3

 72
65
 73
0
 40
0.0
  0
LTYPE
  5
15
100
AcDbSymbolTableRecord
100
AcDbLinetypeTableRecord
  2
BYLAYER
 70
0
  3

 72
65
 73
0
 40
0.0
  0
LTYPE
  5
16
100
AcDbSymbolTableRecord
100
AcDbLinetypeTableRecord
  2
CONTINUOUS
 70
64
  3
Solid line
 72
65
 73
0
 40
0.0
  0
LTYPE
  5
1F5
100
AcDbSymbolTableRecord
100
AcDbLinetypeTableRecord
  2
CENTER
 70
64
  3
____ _ ____ _ ____ _ ____ _ ____ _ ____ _ ____
 72
65
 73
4
 40
0.6
 49
0.375
 74
0
 49
-0.075
 74
0
 49
0.075
 74
0
 49
-0.075
 74
0
  0
LTYPE
  5
1F6
100
AcDbSymbolTableRecord
100
AcDbLinetypeTableRecord
  2
HIDDEN
 70
64
  3
- - - - - - - - - - - - - - - - - - - -
 72
65
 73
2
 40
0.2
 49
0.1
 74
0
 49
-0.1
 74
0
  0
LTYPE
  5
1F7
100
AcDbSymbolTableRecord
100
AcDbLinetypeTableRecord
  2
PHANTOM
 70
64
  3
_____ _ _ _____ _ _ _____ _ _ _____
 72
65
 73
6
 40
0.8
 49
0.45
 74
0
 49
-0.05
 74
0
 49
0.1
 74
0
 49
-0.05
 74
0
 49
0.1
 74
0
 49
-0.05
 74
0
  0
LTYPE
  5
1F8
100
AcDbSymbolTableRecord
100
AcDbLinetypeTableRecord
  2
DOT
 70
64
  3
. . . . . . . . . . . . . . . . . . . .
 72
65
 73
2
 40
0.2
 49
0.1
 74
0
 49
-0.1
 74
0
  0
LTYPE
  5
1F9
100
AcDbSymbolTableRecord
100
AcDbLinetypeTableRecord
  2
DASHED
 70
64
  3
- - - - - - - - - - - - - - - - - - - -
 72
65
 73
2
 40
0.2
 49
0.1
 74
0
 49
-0.1
 74
0
  0
ENDTAB
  0
TABLE
  2
LAYER
  5
2
100
AcDbSymbolTable
 70
36
  0
LAYER
  5
10
100
AcDbSymbolTableRecord
100
AcDbLayerTableRecord
  2
0
 70
0
 62
7
  6
CONTINUOUS
370
-3
390
F
  0
LAYER
  5
1FA
100
AcDbSymbolTableRecord
100
AcDbLayerTableRecord
  2
DEFAULT_1
 70
0
 62
7
  6
CENTER
370
-3
390
F
  0
LAYER
  5
1FB
100
AcDbSymbolTableRecord
100
AcDbLayerTableRecord
  2
DEFAULT_2
 70
0
 62
8
  6
HIDDEN
370
-3
390
F
  0
LAYER
  5
1FC
100
AcDbSymbolTableRecord
100
AcDbLayerTableRecord
  2
DEFAULT_3
 70
0
 62
7
  6
PHANTOM
370
-3
390
F
  0
LAYER
  5
1FD
100
AcDbSymbolTableRecord
100
AcDbLayerTableRecord
  2
ALL_FEATURES
 70
0
 62
7
  6
CONTINUOUS
370
-3
390
F
  0
LAYER
  5
1FE
100
AcDbSymbolTableRecord
100
AcDbLayerTableRecord
  2
AXES_FEATURES
 70
0
 62
7
  6
CONTINUOUS
370
-3
390
F
  0
LAYER
  5
1FF
100
AcDbSymbolTableRecord
100
AcDbLayerTableRecord
  2
DIMENSIONS
 70
0
 62
7
  6
CONTINUOUS
370
-3
390
F
  0
ENDTAB
  0
TABLE
  2
STYLE
  5
3
100
AcDbSymbolTable
 70
1
  0
STYLE
  5
11
100
AcDbSymbolTableRecord
100
AcDbTextStyleTableRecord
  2
STANDARD
 70
0
 40
0.0
 41
0.8
 50
0.0
 71
0
 42
0.2
  3
txt
  4

  0
STYLE
  5
200
100
AcDbSymbolTableRecord
100
AcDbTextStyleTableRecord
  2
TEXTSTYLE_1
 70
0
 40
0.0
 41
0.8
 50
0.0
 71
0
 42
0.2
  3
gdt
  4

  0
ENDTAB
  0
TABLE
  2
VIEW
  5
6
100
AcDbSymbolTable
 70
0
  0
ENDTAB
  0
TABLE
  2
UCS
  5
7
100
AcDbSymbolTable
 70
0
  0
ENDTAB
  0
TABLE
  2
APPID
  5
9
100
AcDbSymbolTable
 70
1
  0
APPID
  5
201
100
AcDbSymbolTableRecord
100
AcDbRegAppTableRecord
  2
ACAD
 70
0
  0
ENDTAB
  0
TABLE
  2
BLOCK_RECORD
  5
1
100
AcDbSymbolTable
 70
0
  0
BLOCK_RECORD
  5
202
100
AcDbSymbolTableRecord
100
AcDbBlockTableRecord
  2
*Model_Space
  0
BLOCK_RECORD
  5
203
100
AcDbSymbolTableRecord
100
AcDbBlockTableRecord
  2
*Paper_Space
  0
BLOCK_RECORD
  5
204
100
AcDbSymbolTableRecord
100
AcDbBlockTableRecord
  2
_FILLED
  0
ENDTAB
  0
TABLE
  2
DIMSTYLE
  5
A
100
AcDbSymbolTable
 70
1
100
AcDbDimStyleTable
 71
0
  0
DIMSTYLE
105
205
100
AcDbSymbolTableRecord
100
AcDbDimStyleTableRecord
  2
STANDARD
 70
0
  3

  4

 40
1.0
 41
0.1
 42
0.0625
 43
0.38
 44
0.125
 45
0.0
 46
0.0
 47
0.001
 48
0.001
140
0.08
141
0.09
142
0.0
143
25.4
144
1.0
145
0.0
146
1.0
147
0.09
 71
1.0
 72
0.0
 73
1
 74
1
 75
0
 76
0
 77
0
 78
4
 79
1
170
1
171
2
172
0
173
0
174
0
175
0
176
0
177
0
178
0
270
2
179
3
271
3
272
3
273
2
274
2
275
0
280
0
281
0
282
0
283
1
284
4
285
0
286
0
287
3
288
0
340
11
278
46
341
204
342
204
343
204
344
204
  0
ENDTAB
  0
ENDSEC
  0
SECTION
  2
BLOCKS
  0
BLOCK
  5
20
100
AcDbEntity
  8
0
100
AcDbBlockBegin
  2
*Model_Space
 70
0
 10
0.0
 20
0.0
 30
0.0
  3
*Model_Space
  1

  0
ENDBLK
  5
21
100
AcDbEntity
  8
0
100
AcDbBlockEnd
  0
BLOCK
  5
1C
100
AcDbEntity
  8
0
100
AcDbBlockBegin
  2
*Paper_Space
 70
0
 10
0.0
 20
0.0
 30
0.0
  3
*Paper_Space
  1

  0
ENDBLK
  5
1D
100
AcDbEntity
  8
0
100
AcDbBlockEnd
  0
BLOCK
  5
206
100
AcDbEntity
  8
0
100
AcDbBlockBegin
  2
_FILLED
 70
64
 10
0.0
 20
0.0
  3
_FILLED
  1

  0
SOLID
  5
207
100
AcDbEntity
  8
0
  6
BYBLOCK
 62
0
100
AcDbTrace
 10
0.0
 20
0.0
 11
-1.0
 21
0.2
 12
-1.0
 22
-0.2
 13
-1.0
 23
-0.2
  0
ENDBLK
  5
208
100
AcDbEntity
  8
0
  6
BYBLOCK
 62
0
100
AcDbBlockEnd
  0
ENDSEC
  0
SECTION
  2
ENTITIES
  0
LINE
  5
209
100
AcDbEntity
  8
0
100
AcDbLine
 62
7
  6
CONTINUOUS
 10
5.7501920847
 20
3.4950825466
 11
8.1251926008
 21
3.4950825466
  0
LINE
  5
20A
100
AcDbEntity
  8
0
100
AcDbLine
 62
7
  6
CONTINUOUS
 10
9.7502021789
 20
3.4950825466
 11
12.1251825066
 21
3.4950825466
  0
LINE
  5
20B
100
AcDbEntity
  8
0
100
AcDbLine
 62
7
  6
CONTINUOUS
 10
13.7501920847
 20
3.4950825466
 11
16.1251926008
 21
3.4950825466
  0
LINE
  5
20C
100
AcDbEntity
  8
0
100
AcDbLine
 62
7
  6
CONTINUOUS
 10
16.1251943398
 20
3.8700825466
 11
13.7501903457
 21
3.8700825466
  0
LINE
  5
20D
100
AcDbEntity
  8
0
100
AcDbLine
 62
7
  6
CONTINUOUS
 10
12.1251825066
 20
3.8700825466
 11
9.7502021789
 21
3.8700825466
  0
LINE
  5
20E
100
AcDbEntity
  8
0
100
AcDbLine
 62
7
  6
CONTINUOUS
 10
8.1251943398
 20
3.8700825466
 11
5.7501903457
 21
3.8700825466
  0
LINE
  5
20F
100
AcDbEntity
  8
0
100
AcDbLine
 62
7
  6
CONTINUOUS
 10
6.5532444959
 20
5.7295863374
 11
5.8729429665
 21
6.1831206837
  0
LWPOLYLINE
  5
210
100
AcDbEntity
  8
0
100
AcDbPolyline
 62
7
  6
CONTINUOUS
 90
3
 70
0
 10
6.5532455332
 20
5.7295859827
 10
6.5619587953
 20
5.7218916167
 10
6.5661981429
 20
5.715666174
  0
LINE
  5
211
100
AcDbEntity
  8
0
100
AcDbLine
 62
7
  6
CONTINUOUS
 10
5.7501923427
 20
3.8700825466
 11
5.7501923427
 21
3.4950825466
  0
LWPOLYLINE
  5
212
100
AcDbEntity
  8
0
100
AcDbPolyline
 62
7
  6
CONTINUOUS
 90
3
 70
0
 10
5.8489890546
 20
6.1943890149
 10
5.862706443
 20
6.1890097327
 10
5.8729427789
 20
6.1831206745
  0
LINE
  5
213
100
AcDbEntity
  8
0
100
AcDbLine
 62
7
  6
CONTINUOUS
 10
6.4814716422
 20
6.1980825466
 11
6.5268785676
 21
6.1678112629
  0
LINE
  5
214
100
AcDbEntity
  8
0
100
AcDbLine
 62
7
  6
CONTINUOUS
 10
6.2814423427
 20
4.9780825466
 11
6.2814423427
 21
3.8700825466
  0
LINE
  5
215
100
AcDbEntity
  8
0
100
AcDbLine
 62
7
  6
CONTINUOUS
 10
6.5626923427
 20
6.1980825466
 11
6.5626923427
 21
6.1767048029
  0
LINE
  5
216
100
AcDbEntity
  8
0
100
AcDbLine
 62
7
  6
CONTINUOUS
 10
6.5626923427
 20
5.720814409
 11
6.5626923427
 21
5.5980825466
  0
LINE
  5
217
100
AcDbEntity
  8
0
100
AcDbLine
 62
7
  6
CONTINUOUS
 10
6.6226923427
 20
5.5980825466
 11
6.6226923427
 21
4.9980825466
  0
LINE
  5
218
100
AcDbEntity
  8
0
100
AcDbLine
 62
7
  6
CONTINUOUS
 10
6.7539432158
 20
4.9780825466
 11
6.7539432158
 21
4.9980825466
  0
LINE
  5
219
100
AcDbEntity
  8
0
100
AcDbLine
 62
7
  6
CONTINUOUS
 10
6.7597114215
 20
4.9980825466
 11
6.7597114215
 21
4.9780825466
  0
LINE
  5
21A
100
AcDbEntity
  8
0
100
AcDbLine
 62
7
  6
CONTINUOUS
 10
6.776149149
 20
4.9780825466
 11
6.776149149
 21
4.9980825466
  0
LINE
  5
21B
100
AcDbEntity
  8
0
100
AcDbLine
 62
7
  6
CONTINUOUS
 10
15.593943329
 20
4.9780825466
 11
14.2814413565
 21
4.9780825466
  0
LINE
  5
21C
100
AcDbEntity
  8
0
100
AcDbLine
 62
7
  6
CONTINUOUS
 10
7.593943329
 20
4.9780825466
 11
6.2814413565
 21
4.9780825466
  0
LINE
  5
21D
100
AcDbEntity
  8
0
100
AcDbLine
 62
7
  6
CONTINUOUS
 10
6.6227106512
 20
4.9980825466
 11
7.2526740343
 21
4.9980825466
  0
LINE
  5
21E
100
AcDbEntity
  8
0
100
AcDbLine
 62
7
  6
CONTINUOUS
 10
14.6227106512
 20
4.9980825466
 11
15.2526740343
 21
4.9980825466
  0
LINE
  5
21F
100
AcDbEntity
  8
0
100
AcDbLine
 62
7
  6
CONTINUOUS
 10
6.7925756091
 20
4.9980825466
 11
6.7925756091
 21
4.9780825466
  0
LINE
  5
220
100
AcDbEntity
  8
0
100
AcDbLine
 62
7
  6
CONTINUOUS
 10
6.8154766683
 20
4.9780825466
 11
6.8154766683
 21
4.9980825466
  0
LINE
  5
221
100
AcDbEntity
  8
0
100
AcDbLine
 62
7
  6
CONTINUOUS
 10
6.822948569
 20
4.9780825466
 11
6.822948569
 21
4.9980825466
  0
LINE
  5
222
100
AcDbEntity
  8
0
100
AcDbLine
 62
7
  6
CONTINUOUS
 10
6.8475325038
 20
4.9980825466
 11
6.8475325038
 21
4.9780825466
  0
LINE
  5
223
100
AcDbEntity
  8
0
100
AcDbLine
 62
7
  6
CONTINUOUS
 10
6.8663420556
 20
4.9780825466
 11
6.8663420556
 21
4.9980825466
  0
LINE
  5
224
100
AcDbEntity
  8
0
100
AcDbLine
 62
7
  6
CONTINUOUS
 10
6.8841220533
 20
4.9980825466
 11
6.8841220533
 21
4.9780825466
  0
LINE
  5
225
100
AcDbEntity
  8
0
100
AcDbLine
 62
7
  6
CONTINUOUS
 10
6.8872166885
 20
4.9780825466
 11
6.8872166885
 21
4.9980825466
  0
LINE
  5
226
100
AcDbEntity
  8
0
100
AcDbLine
 62
7
  6
CONTINUOUS
 10
6.9162154168
 20
4.9980825466
 11
6.9162154168
 21
4.9780825466
  0
LINE
  5
227
100
AcDbEntity
  8
0
100
AcDbLine
 62
7
  6
CONTINUOUS
 10
6.9280698774
 20
4.9780825466
 11
6.9280698774
 21
4.9980825466
  0
LINE
  5
228
100
AcDbEntity
  8
0
100
AcDbLine
 62
7
  6
CONTINUOUS
 10
6.9473148081
 20
4.9980825466
 11
6.9473148081
 21
4.9780825466
  0
LINE
  5
229
100
AcDbEntity
  8
0
100
AcDbLine
 62
7
  6
CONTINUOUS
 10
6.9591692687
 20
4.9780825466
 11
6.9591692687
 21
4.9980825466
  0
LINE
  5
22A
100
AcDbEntity
  8
0
100
AcDbLine
 62
7
  6
CONTINUOUS
 10
6.988167997
 20
4.9980825466
 11
6.988167997
 21
4.9780825466
  0
LINE
  5
22B
100
AcDbEntity
  8
0
100
AcDbLine
 62
7
  6
CONTINUOUS
 10
6.9912626322
 20
4.9780825466
 11
6.9912626322
 21
4.9980825466
  0
LINE
  5
22C
100
AcDbEntity
  8
0
100
AcDbLine
 62
7
  6
CONTINUOUS
 10
7.0090426298
 20
4.9980825466
 11
7.0090426298
 21
4.9780825466
  0
LINE
  5
22D
100
AcDbEntity
  8
0
100
AcDbLine
 62
7
  6
CONTINUOUS
 10
7.0278521816
 20
4.9780825466
 11
7.0278521816
 21
4.9980825466
  0
LINE
  5
22E
100
AcDbEntity
  8
0
100
AcDbLine
 62
7
  6
CONTINUOUS
 10
7.0524361165
 20
4.9980825466
 11
7.0524361165
 21
4.9780825466
  0
LINE
  5
22F
100
AcDbEntity
  8
0
100
AcDbLine
 62
7
  6
CONTINUOUS
 10
7.0599080171
 20
4.9980825466
 11
7.0599080171
 21
4.9780825466
  0
LINE
  5
230
100
AcDbEntity
  8
0
100
AcDbLine
 62
7
  6
CONTINUOUS
 10
7.0828090764
 20
4.9780825466
 11
7.0828090764
 21
4.9980825466
  0
LINE
  5
231
100
AcDbEntity
  8
0
100
AcDbLine
 62
7
  6
CONTINUOUS
 10
7.0992355365
 20
4.9980825466
 11
7.0992355365
 21
4.9780825466
  0
LINE
  5
232
100
AcDbEntity
  8
0
100
AcDbLine
 62
7
  6
CONTINUOUS
 10
7.115673264
 20
4.9780825466
 11
7.115673264
 21
4.9980825466
  0
LINE
  5
233
100
AcDbEntity
  8
0
100
AcDbLine
 62
7
  6
CONTINUOUS
 10
7.1214414697
 20
4.9980825466
 11
7.1214414697
 21
4.9780825466
  0
LINE
  5
234
100
AcDbEntity
  8
0
100
AcDbLine
 62
7
  6
CONTINUOUS
 10
7.2526923427
 20
5.5980825466
 11
7.2526923427
 21
4.9980825466
  0
LINE
  5
235
100
AcDbEntity
  8
0
100
AcDbLine
 62
7
  6
CONTINUOUS
 10
15.3512913401
 20
6.1696680778
 11
15.3466306442
 21
6.1685312656
  0
LINE
  5
236
100
AcDbEntity
  8
0
100
AcDbLine
 62
7
  6
CONTINUOUS
 10
16.0255058107
 20
6.1941173538
 11
16.0378342461
 21
6.1970059331
  0
LINE
  5
237
100
AcDbEntity
  8
0
100
AcDbLine
 62
7
  6
CONTINUOUS
 10
6.562711239
 20
5.5980825466
 11
7.3126734465
 21
5.5980825466
  0
LINE
  5
238
100
AcDbEntity
  8
0
100
AcDbLine
 62
7
  6
CONTINUOUS
 10
14.562711239
 20
5.5980825466
 11
15.3126734465
 21
5.5980825466
  0
LINE
  5
239
100
AcDbEntity
  8
0
100
AcDbLine
 62
7
  6
CONTINUOUS
 10
5.8361225051
 20
6.197221931
 11
5.8489890546
 21
6.1943890149
  0
LINE
  5
23A
100
AcDbEntity
  8
0
100
AcDbLine
 62
7
  6
CONTINUOUS
 10
6.528403248
 20
6.1685877135
 11
6.5247527416
 21
6.1694093466
  0
LINE
  5
23B
100
AcDbEntity
  8
0
100
AcDbLine
 62
7
  6
CONTINUOUS
 10
7.3126923427
 20
6.1980825466
 11
7.3126923427
 21
6.1766060835
  0
LINE
  5
23C
100
AcDbEntity
  8
0
100
AcDbLine
 62
7
  6
CONTINUOUS
 10
7.3126923427
 20
5.720702888
 11
7.3126923427
 21
5.5980825466
  0
LINE
  5
23D
100
AcDbEntity
  8
0
100
AcDbLine
 62
7
  6
CONTINUOUS
 10
7.5939423427
 20
4.9780825466
 11
7.5939423427
 21
3.8700825466
  0
LWPOLYLINE
  5
23E
100
AcDbEntity
  8
0
100
AcDbPolyline
 62
7
  6
CONTINUOUS
 90
3
 70
0
 10
16.0378342461
 20
6.1970059331
 10
16.0487261521
 20
6.1980445384
 10
16.0512140562
 20
6.1980827537
  0
LINE
  5
23F
100
AcDbEntity
  8
0
100
AcDbLine
 62
7
  6
CONTINUOUS
 10
15.3466306442
 20
6.1685312656
 11
15.3405082421
 21
6.1680752026
  0
LINE
  5
240
100
AcDbEntity
  8
0
100
AcDbLine
 62
7
  6
CONTINUOUS
 10
14.5349056873
 20
6.1680751595
 11
14.5352066987
 21
6.1680754526
  0
LINE
  5
241
100
AcDbEntity
  8
0
100
AcDbLine
 62
7
  6
CONTINUOUS
 10
7.3405082421
 20
6.1680752025
 11
7.3401733633
 21
6.1680754677
  0
LWPOLYLINE
  5
242
100
AcDbEntity
  8
0
100
AcDbPolyline
 62
7
  6
CONTINUOUS
 90
3
 70
0
 10
5.8241740208
 20
6.1980826952
 10
5.8252528582
 20
6.19807543
 10
5.8361225051
 20
6.197221931
  0
LINE
  5
243
100
AcDbEntity
  8
0
100
AcDbLine
 62
7
  6
CONTINUOUS
 10
6.5349056873
 20
6.1680751595
 11
6.528403248
 21
6.1685877135
  0
LWPOLYLINE
  5
244
100
AcDbEntity
  8
0
100
AcDbPolyline
 62
7
  6
CONTINUOUS
 90
5
 70
0
 10
7.3401733633
 20
6.1680754677
 10
7.3280170032
 20
6.1696882804
 10
7.3135946378
 20
6.1758707178
 10
7.3045328659
 20
6.1832560147
 10
7.3013704512
 20
6.1872522985
  0
LINE
  5
245
100
AcDbEntity
  8
0
100
AcDbLine
 62
7
  6
CONTINUOUS
 10
8.1251923427
 20
3.8700825466
 11
8.1251923427
 21
3.4950825466
  0
LWPOLYLINE
  5
246
100
AcDbEntity
  8
0
100
AcDbPolyline
 62
7
  6
CONTINUOUS
 90
5
 70
0
 10
7.3099919199
 20
5.72002233
 10
7.3088440742
 20
5.7150032249
 10
7.309458125
 20
5.7161902182
 10
7.3140740353
 20
5.7226307489
 10
7.3221518673
 20
5.7295942247
  0
LWPOLYLINE
  5
247
100
AcDbEntity
  8
0
100
AcDbPolyline
 62
7
  6
CONTINUOUS
 90
6
 70
0
 10
6.5739217977
 20
6.1868796684
 10
6.5741720434
 20
6.1875050928
 10
6.5704506217
 20
6.1828318897
 10
6.5611019128
 20
6.1754487637
 10
6.5469294361
 20
6.1695766509
 10
6.5352066987
 20
6.1680754526
  0
LWPOLYLINE
  5
248
100
AcDbEntity
  8
0
100
AcDbPolyline
 62
7
  6
CONTINUOUS
 90
3
 70
0
 10
8.0378342461
 20
6.1970059331
 10
8.0487261521
 20
6.1980445384
 10
8.0512140562
 20
6.1980827537
  0
LINE
  5
249
100
AcDbEntity
  8
0
100
AcDbLine
 62
7
  6
CONTINUOUS
 10
7.3466306442
 20
6.1685312656
 11
7.3405082421
 21
6.1680752026
  0
LINE
  5
24A
100
AcDbEntity
  8
0
100
AcDbLine
 62
7
  6
CONTINUOUS
 10
6.5349056873
 20
6.1680751595
 11
6.5352066987
 21
6.1680754526
  0
LINE
  5
24B
100
AcDbEntity
  8
0
100
AcDbLine
 62
7
  6
CONTINUOUS
 10
15.9620871643
 20
6.1980825494
 11
15.9620027941
 21
6.1980825467
  0
LINE
  5
24C
100
AcDbEntity
  8
0
100
AcDbLine
 62
7
  6
CONTINUOUS
 10
5.7015940105
 20
6.1980825466
 11
5.8241703396
 21
6.1980825466
  0
LINE
  5
24D
100
AcDbEntity
  8
0
100
AcDbLine
 62
7
  6
CONTINUOUS
 10
5.9133692959
 20
6.1980825466
 11
7.9620061537
 21
6.1980825466
  0
LINE
  5
24E
100
AcDbEntity
  8
0
100
AcDbLine
 62
7
  6
CONTINUOUS
 10
8.0512141265
 20
6.1980825466
 11
8.173790675
 21
6.1980825466
  0
LINE
  5
24F
100
AcDbEntity
  8
0
100
AcDbLine
 62
7
  6
CONTINUOUS
 10
13.7015940105
 20
6.1980825466
 11
13.8241703396
 21
6.1980825466
  0
LINE
  5
250
100
AcDbEntity
  8
0
100
AcDbLine
 62
7
  6
CONTINUOUS
 10
13.9133692959
 20
6.1980825466
 11
15.9620061537
 21
6.1980825466
  0
LINE
  5
251
100
AcDbEntity
  8
0
100
AcDbLine
 62
7
  6
CONTINUOUS
 10
16.0512141265
 20
6.1980825466
 11
16.173790675
 21
6.1980825466
  0
LINE
  5
252
100
AcDbEntity
  8
0
100
AcDbLine
 62
7
  6
CONTINUOUS
 10
7.9620871643
 20
6.1980825494
 11
7.9620027941
 21
6.1980825467
  0
LINE
  5
253
100
AcDbEntity
  8
0
100
AcDbLine
 62
7
  6
CONTINUOUS
 10
5.7015940105
 20
6.5980825466
 11
8.173790675
 21
6.5980825466
  0
LINE
  5
254
100
AcDbEntity
  8
0
100
AcDbLine
 62
7
  6
CONTINUOUS
 10
13.7015940105
 20
6.5980825466
 11
16.173790675
 21
6.5980825466
  0
LINE
  5
255
100
AcDbEntity
  8
0
100
AcDbLine
 62
9
  6
CONTINUOUS
 10
11.6176923427
 20
6.6500825466
 11
10.2576923427
 21
6.6500825466
  0
LINE
  5
256
100
AcDbEntity
  8
0
100
AcDbLine
 62
7
  6
CONTINUOUS
 10
11.5876923427
 20
6.6800825466
 11
10.2876923427
 21
6.6800825466
  0
LINE
  5
257
100
AcDbEntity
  8
0
100
AcDbLine
 62
7
  6
CONTINUOUS
 10
15.3405082421
 20
6.1680752025
 11
15.3401733633
 21
6.1680754677
  0
LWPOLYLINE
  5
258
100
AcDbEntity
  8
0
100
AcDbPolyline
 62
7
  6
CONTINUOUS
 90
3
 70
0
 10
13.8241740208
 20
6.1980826952
 10
13.8252528582
 20
6.19807543
 10
13.8361225051
 20
6.197221931
  0
LINE
  5
259
100
AcDbEntity
  8
0
100
AcDbLine
 62
7
  6
CONTINUOUS
 10
14.5349056873
 20
6.1680751595
 11
14.528403248
 21
6.1685877135
  0
LINE
  5
25A
100
AcDbEntity
  8
0
100
AcDbLine
 62
7
  6
CONTINUOUS
 10
7.3512913401
 20
6.1696680778
 11
7.3466306442
 21
6.1685312656
  0
LINE
  5
25B
100
AcDbEntity
  8
0
100
AcDbLine
 62
7
  6
CONTINUOUS
 10
8.0255058107
 20
6.1941173538
 11
8.0378342461
 21
6.1970059331
  0
LWPOLYLINE
  5
25C
100
AcDbEntity
  8
0
100
AcDbPolyline
 62
7
  6
CONTINUOUS
 90
5
 70
0
 10
15.3401733633
 20
6.1680754677
 10
15.3280170032
 20
6.1696882804
 10
15.3135946378
 20
6.1758707178
 10
15.3045328659
 20
6.1832560147
 10
15.3013704512
 20
6.1872522985
  0
LINE
  5
25D
100
AcDbEntity
  8
0
100
AcDbLine
 62
7
  6
CONTINUOUS
 10
13.8361225051
 20
6.197221931
 11
13.8489890546
 21
6.1943890149
  0
LINE
  5
25E
100
AcDbEntity
  8
0
100
AcDbLine
 62
7
  6
CONTINUOUS
 10
14.528403248
 20
6.1685877135
 11
14.5247527416
 21
6.1694093466
  0
LWPOLYLINE
  5
25F
100
AcDbEntity
  8
0
100
AcDbPolyline
 62
7
  6
CONTINUOUS
 90
3
 70
0
 10
13.8489890546
 20
6.1943890149
 10
13.862706443
 20
6.1890097327
 10
13.8729427789
 20
6.1831206745
  0
LINE
  5
260
100
AcDbEntity
  8
0
100
AcDbLine
 62
7
  6
CONTINUOUS
 10
9.7501923427
 20
3.8700825466
 11
9.7501923427
 21
3.4950825466
  0
LINE
  5
261
100
AcDbEntity
  8
0
100
AcDbLine
 62
7
  6
CONTINUOUS
 10
10.2576923427
 20
6.6500825466
 11
10.2576923427
 21
3.8700825466
  0
LINE
  5
262
100
AcDbEntity
  8
0
100
AcDbLine
 62
7
  6
CONTINUOUS
 10
14.4814716422
 20
6.1980825466
 11
14.5268785676
 21
6.1678112629
  0
LINE
  5
263
100
AcDbEntity
  8
0
100
AcDbLine
 62
7
  6
CONTINUOUS
 10
14.5532444959
 20
5.7295863374
 11
13.8729429665
 21
6.1831206837
  0
LINE
  5
264
100
AcDbEntity
  8
0
100
AcDbLine
 62
7
  6
CONTINUOUS
 10
10.5001923427
 20
6.6800825466
 11
10.5001923427
 21
14.6120825466
  0
LWPOLYLINE
  5
265
100
AcDbEntity
  8
0
100
AcDbPolyline
 62
7
  6
CONTINUOUS
 90
3
 70
0
 10
14.5532455332
 20
5.7295859827
 10
14.5619587953
 20
5.7218916167
 10
14.5661981429
 20
5.715666174
  0
LINE
  5
266
100
AcDbEntity
  8
0
100
AcDbLine
 62
7
  6
CONTINUOUS
 10
11.3751923427
 20
6.6800825466
 11
11.3751923427
 21
14.6120825466
  0
LINE
  5
267
100
AcDbEntity
  8
0
100
AcDbLine
 62
7
  6
CONTINUOUS
 10
7.3939130433
 20
6.1980825466
 11
7.3485078761
 21
6.1678124351
  0
LINE
  5
268
100
AcDbEntity
  8
0
100
AcDbLine
 62
7
  6
CONTINUOUS
 10
10.5001923427
 20
9.4900825466
 11
11.3751923427
 21
9.4900825466
  0
LINE
  5
269
100
AcDbEntity
  8
0
100
AcDbLine
 62
7
  6
CONTINUOUS
 10
11.6176923427
 20
6.6500825466
 11
11.6176923427
 21
3.8700825466
  0
LINE
  5
26A
100
AcDbEntity
  8
0
100
AcDbLine
 62
7
  6
CONTINUOUS
 10
8.0024402299
 20
6.1831196898
 11
7.3221578895
 21
5.7295981285
  0
LINE
  5
26B
100
AcDbEntity
  8
0
100
AcDbLine
 62
7
  6
CONTINUOUS
 10
7.3221572654
 20
5.7295977125
 11
7.3221519968
 21
5.7295942009
  0
LINE
  5
26C
100
AcDbEntity
  8
0
100
AcDbLine
 62
7
  6
CONTINUOUS
 10
11.3751923427
 20
10.3000825466
 11
10.5001923427
 21
10.3000825466
  0
LINE
  5
26D
100
AcDbEntity
  8
0
100
AcDbLine
 62
7
  6
CONTINUOUS
 10
12.1251923427
 20
3.8700825466
 11
12.1251923427
 21
3.4950825466
  0
LWPOLYLINE
  5
26E
100
AcDbEntity
  8
0
100
AcDbPolyline
 62
7
  6
CONTINUOUS
 90
3
 70
0
 10
8.0024404721
 20
6.1831197951
 10
8.0123603016
 20
6.1888530358
 10
8.0255058107
 20
6.1941173538
  0
LINE
  5
26F
100
AcDbEntity
  8
0
100
AcDbLine
 62
9
  6
CONTINUOUS
 10
11.3751923427
 20
11.0490825466
 11
10.5001923427
 21
11.0490825466
  0
LINE
  5
270
100
AcDbEntity
  8
0
100
AcDbLine
 62
7
  6
CONTINUOUS
 10
13.7501923427
 20
3.8700825466
 11
13.7501923427
 21
3.4950825466
  0
LINE
  5
271
100
AcDbEntity
  8
0
100
AcDbLine
 62
7
  6
CONTINUOUS
 10
14.2814423427
 20
4.9780825466
 11
14.2814423427
 21
3.8700825466
  0
LINE
  5
272
100
AcDbEntity
  8
0
100
AcDbLine
 62
7
  6
CONTINUOUS
 10
14.5626923427
 20
6.1980825466
 11
14.5626923427
 21
6.1767048029
  0
LINE
  5
273
100
AcDbEntity
  8
0
100
AcDbLine
 62
7
  6
CONTINUOUS
 10
14.5626923427
 20
5.720814409
 11
14.5626923427
 21
5.5980825466
  0
LINE
  5
274
100
AcDbEntity
  8
0
100
AcDbLine
 62
7
  6
CONTINUOUS
 10
14.6226923427
 20
5.5980825466
 11
14.6226923427
 21
4.9980825466
  0
LINE
  5
275
100
AcDbEntity
  8
0
100
AcDbLine
 62
7
  6
CONTINUOUS
 10
14.7539432158
 20
4.9780825466
 11
14.7539432158
 21
4.9980825466
  0
LINE
  5
276
100
AcDbEntity
  8
0
100
AcDbLine
 62
7
  6
CONTINUOUS
 10
14.7597114215
 20
4.9980825466
 11
14.7597114215
 21
4.9780825466
  0
LINE
  5
277
100
AcDbEntity
  8
0
100
AcDbLine
 62
7
  6
CONTINUOUS
 10
14.776149149
 20
4.9780825466
 11
14.776149149
 21
4.9980825466
  0
LINE
  5
278
100
AcDbEntity
  8
0
100
AcDbLine
 62
7
  6
CONTINUOUS
 10
14.7925756091
 20
4.9980825466
 11
14.7925756091
 21
4.9780825466
  0
LINE
  5
279
100
AcDbEntity
  8
0
100
AcDbLine
 62
7
  6
CONTINUOUS
 10
14.8154766683
 20
4.9780825466
 11
14.8154766683
 21
4.9980825466
  0
LINE
  5
27A
100
AcDbEntity
  8
0
100
AcDbLine
 62
7
  6
CONTINUOUS
 10
14.822948569
 20
4.9780825466
 11
14.822948569
 21
4.9980825466
  0
LINE
  5
27B
100
AcDbEntity
  8
0
100
AcDbLine
 62
7
  6
CONTINUOUS
 10
14.8475325038
 20
4.9980825466
 11
14.8475325038
 21
4.9780825466
  0
LINE
  5
27C
100
AcDbEntity
  8
0
100
AcDbLine
 62
7
  6
CONTINUOUS
 10
14.8663420556
 20
4.9780825466
 11
14.8663420556
 21
4.9980825466
  0
LINE
  5
27D
100
AcDbEntity
  8
0
100
AcDbLine
 62
7
  6
CONTINUOUS
 10
14.8841220533
 20
4.9980825466
 11
14.8841220533
 21
4.9780825466
  0
LINE
  5
27E
100
AcDbEntity
  8
0
100
AcDbLine
 62
7
  6
CONTINUOUS
 10
14.8872166885
 20
4.9780825466
 11
14.8872166885
 21
4.9980825466
  0
LINE
  5
27F
100
AcDbEntity
  8
0
100
AcDbLine
 62
7
  6
CONTINUOUS
 10
14.9162154168
 20
4.9980825466
 11
14.9162154168
 21
4.9780825466
  0
LINE
  5
280
100
AcDbEntity
  8
0
100
AcDbLine
 62
7
  6
CONTINUOUS
 10
14.9280698774
 20
4.9780825466
 11
14.9280698774
 21
4.9980825466
  0
LINE
  5
281
100
AcDbEntity
  8
0
100
AcDbLine
 62
7
  6
CONTINUOUS
 10
14.9473148081
 20
4.9980825466
 11
14.9473148081
 21
4.9780825466
  0
LINE
  5
282
100
AcDbEntity
  8
0
100
AcDbLine
 62
7
  6
CONTINUOUS
 10
14.9591692687
 20
4.9780825466
 11
14.9591692687
 21
4.9980825466
  0
LINE
  5
283
100
AcDbEntity
  8
0
100
AcDbLine
 62
7
  6
CONTINUOUS
 10
14.988167997
 20
4.9980825466
 11
14.988167997
 21
4.9780825466
  0
LINE
  5
284
100
AcDbEntity
  8
0
100
AcDbLine
 62
7
  6
CONTINUOUS
 10
14.9912626322
 20
4.9780825466
 11
14.9912626322
 21
4.9980825466
  0
LINE
  5
285
100
AcDbEntity
  8
0
100
AcDbLine
 62
7
  6
CONTINUOUS
 10
15.0090426298
 20
4.9980825466
 11
15.0090426298
 21
4.9780825466
  0
LINE
  5
286
100
AcDbEntity
  8
0
100
AcDbLine
 62
7
  6
CONTINUOUS
 10
15.0278521816
 20
4.9780825466
 11
15.0278521816
 21
4.9980825466
  0
LINE
  5
287
100
AcDbEntity
  8
0
100
AcDbLine
 62
7
  6
CONTINUOUS
 10
15.0524361165
 20
4.9980825466
 11
15.0524361165
 21
4.9780825466
  0
LINE
  5
288
100
AcDbEntity
  8
0
100
AcDbLine
 62
7
  6
CONTINUOUS
 10
15.0599080171
 20
4.9980825466
 11
15.0599080171
 21
4.9780825466
  0
LINE
  5
289
100
AcDbEntity
  8
0
100
AcDbLine
 62
7
  6
CONTINUOUS
 10
15.0828090764
 20
4.9780825466
 11
15.0828090764
 21
4.9980825466
  0
LINE
  5
28A
100
AcDbEntity
  8
0
100
AcDbLine
 62
7
  6
CONTINUOUS
 10
15.0992355365
 20
4.9980825466
 11
15.0992355365
 21
4.9780825466
  0
LINE
  5
28B
100
AcDbEntity
  8
0
100
AcDbLine
 62
7
  6
CONTINUOUS
 10
15.115673264
 20
4.9780825466
 11
15.115673264
 21
4.9980825466
  0
LINE
  5
28C
100
AcDbEntity
  8
0
100
AcDbLine
 62
7
  6
CONTINUOUS
 10
15.1214414697
 20
4.9980825466
 11
15.1214414697
 21
4.9780825466
  0
LINE
  5
28D
100
AcDbEntity
  8
0
100
AcDbLine
 62
7
  6
CONTINUOUS
 10
15.2526923427
 20
5.5980825466
 11
15.2526923427
 21
4.9980825466
  0
LINE
  5
28E
100
AcDbEntity
  8
0
100
AcDbLine
 62
7
  6
CONTINUOUS
 10
15.3126923427
 20
6.1980825466
 11
15.3126923427
 21
6.1766060835
  0
LINE
  5
28F
100
AcDbEntity
  8
0
100
AcDbLine
 62
7
  6
CONTINUOUS
 10
15.3126923427
 20
5.720702888
 11
15.3126923427
 21
5.5980825466
  0
LINE
  5
290
100
AcDbEntity
  8
0
100
AcDbLine
 62
7
  6
CONTINUOUS
 10
15.5939423427
 20
4.9780825466
 11
15.5939423427
 21
3.8700825466
  0
LWPOLYLINE
  5
291
100
AcDbEntity
  8
0
100
AcDbPolyline
 62
7
  6
CONTINUOUS
 90
6
 70
0
 10
14.5739217977
 20
6.1868796684
 10
14.5741720434
 20
6.1875050928
 10
14.5704506217
 20
6.1828318897
 10
14.5611019128
 20
6.1754487637
 10
14.5469294361
 20
6.1695766509
 10
14.5352066987
 20
6.1680754526
  0
LINE
  5
292
100
AcDbEntity
  8
0
100
AcDbLine
 62
7
  6
CONTINUOUS
 10
16.1251923427
 20
3.8700825466
 11
16.1251923427
 21
3.4950825466
  0
LWPOLYLINE
  5
293
100
AcDbEntity
  8
0
100
AcDbPolyline
 62
7
  6
CONTINUOUS
 90
5
 70
0
 10
15.3099919199
 20
5.72002233
 10
15.3088440742
 20
5.7150032249
 10
15.309458125
 20
5.7161902182
 10
15.3140740353
 20
5.7226307489
 10
15.3221518673
 20
5.7295942247
  0
LINE
  5
294
100
AcDbEntity
  8
0
100
AcDbLine
 62
7
  6
CONTINUOUS
 10
15.3939130433
 20
6.1980825466
 11
15.3485078761
 21
6.1678124351
  0
LWPOLYLINE
  5
295
100
AcDbEntity
  8
0
100
AcDbPolyline
 62
7
  6
CONTINUOUS
 90
3
 70
0
 10
16.0024404721
 20
6.1831197951
 10
16.0123603016
 20
6.1888530358
 10
16.0255058107
 20
6.1941173538
  0
LINE
  5
296
100
AcDbEntity
  8
0
100
AcDbLine
 62
7
  6
CONTINUOUS
 10
16.0024402299
 20
6.1831196898
 11
15.3221578895
 21
5.7295981285
  0
LINE
  5
297
100
AcDbEntity
  8
0
100
AcDbLine
 62
7
  6
CONTINUOUS
 10
15.3221572654
 20
5.7295977125
 11
15.3221519968
 21
5.7295942009
  0
ARC
  5
298
100
AcDbEntity
  8
0
100
AcDbCircle
 62
7
  6
CONTINUOUS
 10
10.9376923427
 20
14.6120825466
 40
0.4375
100
AcDbArc
 50
0.0
 51
180.0
  0
ARC
  5
299
100
AcDbEntity
  8
0
100
AcDbCircle
 62
9
  6
CONTINUOUS
 10
6.9451885105
 20
6.1305691752
 40
0.3652565421
100
AcDbArc
 50
7.9995184177
 51
8.1863592796
  0
ARC
  5
29A
100
AcDbEntity
  8
0
100
AcDbCircle
 62
9
  6
CONTINUOUS
 10
14.9451885108
 20
6.1305691752
 40
0.3652565417
100
AcDbArc
 50
7.9995184177
 51
8.1863592797
  0
ARC
  5
29B
100
AcDbEntity
  8
0
100
AcDbCircle
 62
9
  6
CONTINUOUS
 10
14.9300293422
 20
6.1305879116
 40
0.3650886631
100
AcDbArc
 50
171.8081273658
 51
172.007679739
  0
ARC
  5
29C
100
AcDbEntity
  8
0
100
AcDbCircle
 62
9
  6
CONTINUOUS
 10
6.9300293418
 20
6.1305879117
 40
0.3650886627
100
AcDbArc
 50
171.8081273658
 51
172.0076797392
  0
ARC
  5
29D
100
AcDbEntity
  8
0
100
AcDbCircle
 62
9
  6
CONTINUOUS
 10
14.9093773236
 20
6.133583384
 40
0.3442205486
100
AcDbArc
 50
170.9361355219
 51
171.811827912
  0
ARC
  5
29E
100
AcDbEntity
  8
0
100
AcDbCircle
 62
9
  6
CONTINUOUS
 10
6.9093773235
 20
6.133583384
 40
0.3442205485
100
AcDbArc
 50
170.9361355217
 51
171.811827912
  0
ARC
  5
29F
100
AcDbEntity
  8
0
100
AcDbCircle
 62
9
  6
CONTINUOUS
 10
14.9669517301
 20
6.1337269862
 40
0.3432654361
100
AcDbArc
 50
8.1819031674
 51
9.1302768248
  0
ARC
  5
2A0
100
AcDbEntity
  8
0
100
AcDbCircle
 62
9
  6
CONTINUOUS
 10
6.9669517301
 20
6.1337269862
 40
0.3432654361
100
AcDbArc
 50
8.1819031674
 51
9.1302768248
  0
ARC
  5
2A1
100
AcDbEntity
  8
0
100
AcDbCircle
 62
9
  6
CONTINUOUS
 10
6.8608247174
 20
5.7441776916
 40
0.297558341
100
AcDbArc
 50
185.0217791842
 51
185.4495632113
  0
ARC
  5
2A2
100
AcDbEntity
  8
0
100
AcDbCircle
 62
9
  6
CONTINUOUS
 10
14.8608247171
 20
5.7441776916
 40
0.2975583407
100
AcDbArc
 50
185.021779184
 51
185.4495632115
  0
ARC
  5
2A3
100
AcDbEntity
  8
0
100
AcDbCircle
 62
9
  6
CONTINUOUS
 10
15.0152809563
 20
5.7441132544
 40
0.2968344116
100
AcDbArc
 50
354.5194345931
 51
354.9801473908
  0
ARC
  5
2A4
100
AcDbEntity
  8
0
100
AcDbCircle
 62
9
  6
CONTINUOUS
 10
7.0152809567
 20
5.7441132544
 40
0.2968344113
100
AcDbArc
 50
354.5194345928
 51
354.9801473911
  0
ARC
  5
2A5
100
AcDbEntity
  8
0
100
AcDbCircle
 62
9
  6
CONTINUOUS
 10
14.8582530264
 20
6.1417763382
 40
0.2924439451
100
AcDbArc
 50
168.8649316048
 51
170.9433396719
  0
ARC
  5
2A6
100
AcDbEntity
  8
0
100
AcDbCircle
 62
9
  6
CONTINUOUS
 10
6.8582530264
 20
6.1417763382
 40
0.2924439451
100
AcDbArc
 50
168.8649316048
 51
170.9433396719
  0
ARC
  5
2A7
100
AcDbEntity
  8
0
100
AcDbCircle
 62
9
  6
CONTINUOUS
 10
15.0185759055
 20
6.1420431428
 40
0.2909757286
100
AcDbArc
 50
9.1265204838
 51
11.1387115375
  0
ARC
  5
2A8
100
AcDbEntity
  8
0
100
AcDbCircle
 62
9
  6
CONTINUOUS
 10
7.0185759054
 20
6.1420431428
 40
0.2909757286
100
AcDbArc
 50
9.1265204839
 51
11.1387115375
  0
ARC
  5
2A9
100
AcDbEntity
  8
0
100
AcDbCircle
 62
7
  6
CONTINUOUS
 10
13.7001923427
 20
6.3980825466
 40
0.2
100
AcDbArc
 50
90.0
 51
270.0
  0
ARC
  5
2AA
100
AcDbEntity
  8
0
100
AcDbCircle
 62
7
  6
CONTINUOUS
 10
16.1751923427
 20
6.3980825466
 40
0.2
100
AcDbArc
 50
270.0
 51
90.0
  0
ARC
  5
2AB
100
AcDbEntity
  8
0
100
AcDbCircle
 62
7
  6
CONTINUOUS
 10
5.7001923427
 20
6.3980825466
 40
0.2
100
AcDbArc
 50
90.0
 51
270.0
  0
ARC
  5
2AC
100
AcDbEntity
  8
0
100
AcDbCircle
 62
7
  6
CONTINUOUS
 10
8.1751923427
 20
6.3980825466
 40
0.2
100
AcDbArc
 50
270.0
 51
90.0
  0
ARC
  5
2AD
100
AcDbEntity
  8
0
100
AcDbCircle
 62
9
  6
CONTINUOUS
 10
15.4346245977
 20
6.0388616705
 40
0.1550681638
100
AcDbArc
 50
123.7343913013
 51
126.0363258572
  0
ARC
  5
2AE
100
AcDbEntity
  8
0
100
AcDbCircle
 62
9
  6
CONTINUOUS
 10
7.4346245977
 20
6.0388616705
 40
0.1550681638
100
AcDbArc
 50
123.7343913013
 51
126.0363258572
  0
ARC
  5
2AF
100
AcDbEntity
  8
0
100
AcDbCircle
 62
9
  6
CONTINUOUS
 10
14.4435685046
 20
6.0429022008
 40
0.1501485797
100
AcDbArc
 50
53.9163171181
 51
56.3003694329
  0
ARC
  5
2B0
100
AcDbEntity
  8
0
100
AcDbCircle
 62
9
  6
CONTINUOUS
 10
6.4435685046
 20
6.0429022008
 40
0.1501485797
100
AcDbArc
 50
53.916317118
 51
56.3003694329
  0
ARC
  5
2B1
100
AcDbEntity
  8
0
100
AcDbCircle
 62
7
  6
CONTINUOUS
 10
10.2876923427
 20
6.6500825466
 40
0.03
100
AcDbArc
 50
90.0
 51
180.0
  0
ARC
  5
2B2
100
AcDbEntity
  8
0
100
AcDbCircle
 62
7
  6
CONTINUOUS
 10
11.5876923427
 20
6.6500825466
 40
0.03
100
AcDbArc
 50
0.0
 51
90.0
  0
SPLINE
  5
2B3
100
AcDbEntity
  8
0
100
AcDbSpline
 62
7
  6
CONTINUOUS
 70
0
 71
3
 72
12
 73
8
 74
0
 42
0.0000001
 43
0.0000001
 44
0.0000000001
 40
0.0
 40
0.0
 40
0.0
 40
0.0
 40
0.0947447157
 40
0.2005422495
 40
0.4404666709
 40
0.70992467
 40
1.0
 40
1.0
 40
1.0
 40
1.0
 10
13.8477760962
 20
6.1991909418
 30
0.0
 10
13.8498479579
 20
6.1991912996
 30
0.0
 10
13.8542333926
 20
6.1991574532
 30
0.0
 10
13.8638640163
 20
6.1989868116
 30
0.0
 10
13.8773119512
 20
6.1986269527
 30
0.0
 10
13.8947894264
 20
6.1982091987
 30
0.0
 10
13.9070253609
 20
6.1980824855
 30
0.0
 10
13.9133686801
 20
6.1980826929
 30
0.0
  0
SPLINE
  5
2B4
100
AcDbEntity
  8
0
100
AcDbSpline
 62
9
  6
CONTINUOUS
 70
0
 71
3
 72
21
 73
17
 74
0
 42
0.0000001
 43
0.0000001
 44
0.0000000001
 40
0.0
 40
0.0
 40
0.0
 40
0.0
 40
0.1191794237
 40
0.168968765
 40
0.2121029596
 40
0.2491242025
 40
0.2815583752
 40
0.3123982044
 40
0.3458291608
 40
0.3858584331
 40
0.4352747703
 40
0.4958486662
 40
0.5687843697
 40
0.6549825511
 40
0.7551768771
 40
1.0
 40
1.0
 40
1.0
 40
1.0
 10
13.8729418325
 20
6.1831213085
 30
0.0
 10
13.8725553922
 20
6.183379073
 30
0.0
 10
13.8720229694
 20
6.1837729309
 30
0.0
 10
13.8714383122
 20
6.1843596531
 30
0.0
 10
13.871130636
 20
6.1847645946
 30
0.0
 10
13.8709341888
 20
6.1851611016
 30
0.0
 10
13.8708619229
 20
6.185552585
 30
0.0
 10
13.8709373786
 20
6.1859320598
 30
0.0
 10
13.8711689653
 20
6.186276654
 30
0.0
 10
13.8715465514
 20
6.1865790505
 30
0.0
 10
13.8720697803
 20
6.1868459006
 30
0.0
 10
13.8727455563
 20
6.187078253
 30
0.0
 10
13.8735801734
 20
6.1872744527
 30
0.0
 10
13.8745793494
 20
6.1874318295
 30
0.0
 10
13.8762526282
 20
6.1875967586
 30
0.0
 10
13.8775988089
 20
6.1876318913
 30
0.0
 10
13.8785530439
 20
6.1876318601
 30
0.0
  0
SPLINE
  5
2B5
100
AcDbEntity
  8
0
100
AcDbSpline
 62
9
  6
CONTINUOUS
 70
0
 71
3
 72
16
 73
12
 74
0
 42
0.0000001
 43
0.0000001
 44
0.0000000001
 40
0.0
 40
0.0
 40
0.0
 40
0.0
 40
0.2299709988
 40
0.4266794499
 40
0.5908948615
 40
0.7242837874
 40
0.8292245407
 40
0.9084319069
 40
0.9645039802
 40
0.9846673336
 40
1.0
 40
1.0
 40
1.0
 40
1.0
 10
13.8477760962
 20
6.1991909418
 30
0.0
 10
13.845964198
 20
6.1991911898
 30
0.0
 10
13.8426023778
 20
6.1991683999
 30
0.0
 10
13.8379479291
 20
6.1990555433
 30
0.0
 10
13.834056847
 20
6.1988836824
 30
0.0
 10
13.8308917245
 20
6.1986778936
 30
0.0
 10
13.8283988039
 20
6.1984653238
 30
0.0
 10
13.8265154276
 20
6.1982785234
 30
0.0
 10
13.8252971663
 20
6.1981519839
 30
0.0
 10
13.8245779873
 20
6.1980948732
 30
0.0
 10
13.8242983913
 20
6.198082675
 30
0.0
 10
13.8241775881
 20
6.1980826799
 30
0.0
  0
SPLINE
  5
2B6
100
AcDbEntity
  8
0
100
AcDbSpline
 62
9
  6
CONTINUOUS
 70
0
 71
3
 72
12
 73
8
 74
0
 42
0.0000001
 43
0.0000001
 44
0.0000000001
 40
0.0
 40
0.0
 40
0.0
 40
0.0
 40
0.0947513793
 40
0.200551577
 40
0.4404758942
 40
0.7099037828
 40
1.0
 40
1.0
 40
1.0
 40
1.0
 10
16.0276085894
 20
6.1991909418
 30
0.0
 10
16.0255388456
 20
6.1991912245
 30
0.0
 10
16.0211579982
 20
6.1991575483
 30
0.0
 10
16.0115376896
 20
6.1989872662
 30
0.0
 10
15.9981050494
 20
6.1986277155
 30
0.0
 10
15.9806468727
 20
6.1982104481
 30
0.0
 10
15.9684245206
 20
6.1980829694
 30
0.0
 10
15.9620876748
 20
6.1980826816
 30
0.0
  0
SPLINE
  5
2B7
100
AcDbEntity
  8
0
100
AcDbSpline
 62
9
  6
CONTINUOUS
 70
0
 71
3
 72
11
 73
7
 74
0
 42
0.0000001
 43
0.0000001
 44
0.0000000001
 40
0.0
 40
0.0
 40
0.0
 40
0.0
 40
0.2394946449
 40
0.4864327016
 40
0.7399381506
 40
1.0
 40
1.0
 40
1.0
 40
1.0
 10
13.8785528523
 20
6.187632006
 30
0.0
 10
13.8763505801
 20
6.1891001881
 30
0.0
 10
13.8717132537
 20
6.1918433998
 30
0.0
 10
13.8642478005
 20
6.1952214013
 30
0.0
 10
13.8562245571
 20
6.1977879891
 30
0.0
 10
13.8506290575
 20
6.1988426708
 30
0.0
 10
13.8477761336
 20
6.1991909422
 30
0.0
  0
SPLINE
  5
2B8
100
AcDbEntity
  8
0
100
AcDbSpline
 62
9
  6
CONTINUOUS
 70
0
 71
3
 72
16
 73
12
 74
0
 42
0.0000001
 43
0.0000001
 44
0.0000000001
 40
0.0
 40
0.0
 40
0.0
 40
0.0
 40
0.230042589
 40
0.4267978123
 40
0.5910476928
 40
0.7244245565
 40
0.8293240922
 40
0.9085020839
 40
0.9645499324
 40
0.984694417
 40
1.0
 40
1.0
 40
1.0
 40
1.0
 10
16.0276085894
 20
6.1991909418
 30
0.0
 10
16.0294212778
 20
6.1991912228
 30
0.0
 10
16.032784451
 20
6.1991683933
 30
0.0
 10
16.0374406809
 20
6.1990553702
 30
0.0
 10
16.0413327927
 20
6.198883456
 30
0.0
 10
16.0444981563
 20
6.1986775401
 30
0.0
 10
16.0469907212
 20
6.1984647865
 30
0.0
 10
16.0488735829
 20
6.19827799
 30
0.0
 10
16.0500914403
 20
6.1981515921
 30
0.0
 10
16.0508101707
 20
6.1980946871
 30
0.0
 10
16.0510894464
 20
6.1980826076
 30
0.0
 10
16.0512100512
 20
6.1980826914
 30
0.0
  0
SPLINE
  5
2B9
100
AcDbEntity
  8
0
100
AcDbSpline
 62
9
  6
CONTINUOUS
 70
0
 71
3
 72
11
 73
7
 74
0
 42
0.0000001
 43
0.0000001
 44
0.0000000001
 40
0.0
 40
0.0
 40
0.0
 40
0.0
 40
0.2394940035
 40
0.4864318276
 40
0.7399374719
 40
1.0
 40
1.0
 40
1.0
 40
1.0
 10
15.9968318386
 20
6.1876320059
 30
0.0
 10
15.9990341047
 20
6.1891001839
 30
0.0
 10
16.0036714217
 20
6.1918433912
 30
0.0
 10
16.0111368659
 20
6.1952213923
 30
0.0
 10
16.0191601144
 20
6.1977879848
 30
0.0
 10
16.0247556228
 20
6.1988426689
 30
0.0
 10
16.0276085538
 20
6.1991909414
 30
0.0
  0
SPLINE
  5
2BA
100
AcDbEntity
  8
0
100
AcDbSpline
 62
9
  6
CONTINUOUS
 70
0
 71
3
 72
21
 73
17
 74
0
 42
0.0000001
 43
0.0000001
 44
0.0000000001
 40
0.0
 40
0.0
 40
0.0
 40
0.0
 40
0.2448238555
 40
0.3450126482
 40
0.431201762
 40
0.5041252803
 40
0.5646844991
 40
0.6140847424
 40
0.6540985364
 40
0.687518389
 40
0.7183557064
 40
0.750796793
 40
0.7878316051
 40
0.8309827057
 40
0.8807897448
 40
1.0
 40
1.0
 40
1.0
 40
1.0
 10
15.9968316374
 20
6.1876318573
 30
0.0
 10
15.9977860977
 20
6.1876319008
 30
0.0
 10
15.9991325745
 20
6.1875967756
 30
0.0
 10
16.0008061888
 20
6.1874318025
 30
0.0
 10
16.001805491
 20
6.1872743803
 30
0.0
 10
16.002640156
 20
6.1870781201
 30
0.0
 10
16.0033159072
 20
6.1868456932
 30
0.0
 10
16.0038390445
 20
6.1865787529
 30
0.0
 10
16.0042164793
 20
6.1862762398
 30
0.0
 10
16.0044478252
 20
6.1859314887
 30
0.0
 10
16.0045229382
 20
6.1855518768
 30
0.0
 10
16.0044503069
 20
6.1851603022
 30
0.0
 10
16.0042534984
 20
6.1847637033
 30
0.0
 10
16.0039454507
 20
6.1843586631
 30
0.0
 10
16.0033602803
 20
6.1837718233
 30
0.0
 10
16.0028275057
 20
6.183377872
 30
0.0
 10
16.0024408307
 20
6.1831200478
 30
0.0
  0
SPLINE
  5
2BB
100
AcDbEntity
  8
0
100
AcDbSpline
 62
9
  6
CONTINUOUS
 70
0
 71
3
 72
16
 73
12
 74
0
 42
0.0000001
 43
0.0000001
 44
0.0000000001
 40
0.0
 40
0.0
 40
0.0
 40
0.0
 40
0.1165287618
 40
0.235937203
 40
0.3581777324
 40
0.4203335256
 40
0.4830945324
 40
0.6101782352
 40
0.739093535
 40
0.8692859126
 40
1.0
 40
1.0
 40
1.0
 40
1.0
 10
15.3401733678
 20
6.1680770288
 30
0.0
 10
15.3375761627
 20
6.1680870411
 30
0.0
 10
15.3323139778
 20
6.1684112023
 30
0.0
 10
15.3244380632
 20
6.1698162549
 30
0.0
 10
15.3179437623
 20
6.1717938631
 30
0.0
 10
15.3128314545
 20
6.173852567
 30
0.0
 10
15.3077480089
 20
6.1762474136
 30
0.0
 10
15.3015900813
 20
6.1798249379
 30
0.0
 10
15.2946780125
 20
6.18498435
 30
0.0
 10
15.288304693
 20
6.190912187
 30
0.0
 10
15.2844741163
 20
6.1953036857
 30
0.0
 10
15.2826743809
 20
6.1975947111
 30
0.0
  0
SPLINE
  5
2BC
100
AcDbEntity
  8
0
100
AcDbSpline
 62
9
  6
CONTINUOUS
 70
0
 71
3
 72
26
 73
22
 74
0
 42
0.0000001
 43
0.0000001
 44
0.0000000001
 40
0.0
 40
0.0
 40
0.0
 40
0.0
 40
0.0654252592
 40
0.131742007
 40
0.198759085
 40
0.2663055408
 40
0.33426394
 40
0.4024551417
 40
0.5386276622
 40
0.6061600988
 40
0.6729427681
 40
0.7384722257
 40
0.8020097973
 40
0.8326801514
 40
0.8623958833
 40
0.8908425302
 40
0.9176314849
 40
0.9423742045
 40
0.9646527673
 40
0.9840100267
 40
1.0
 40
1.0
 40
1.0
 40
1.0
 10
15.7321833883
 20
6.197840236
 30
0.0
 10
15.737528454
 20
6.1954797634
 30
0.0
 10
15.748533513
 20
6.191263386
 30
0.0
 10
15.7655855264
 20
6.1862786185
 30
0.0
 10
15.7831189394
 20
6.1824224123
 30
0.0
 10
15.8009880582
 20
6.1795669629
 30
0.0
 10
15.8190829195
 20
6.1776216191
 30
0.0
 10
15.8433624821
 20
6.17610435
 30
0.0
 10
15.8676688997
 20
6.176001934
 30
0.0
 10
15.8918059352
 20
6.1770299119
 30
0.0
 10
15.9096118714
 20
6.178287212
 30
0.0
 10
15.9270269056
 20
6.1799310947
 30
0.0
 10
15.9412020384
 20
6.1815444044
 30
0.0
 10
15.952186708
 20
6.1828962312
 30
0.0
 10
15.9600565776
 20
6.1838997928
 30
0.0
 10
15.9675815882
 20
6.1848671007
 30
0.0
 10
15.974669121
 20
6.185754317
 30
0.0
 10
15.9812169252
 20
6.1865166612
 30
0.0
 10
15.987115529
 20
6.1871131747
 30
0.0
 10
15.9922471457
 20
6.1875088094
 30
0.0
 10
15.9954035754
 20
6.1876318982
 30
0.0
 10
15.9968316272
 20
6.1876318505
 30
0.0
  0
SPLINE
  5
2BD
100
AcDbEntity
  8
0
100
AcDbSpline
 62
9
  6
CONTINUOUS
 70
0
 71
3
 72
40
 73
36
 74
0
 42
0.0000001
 43
0.0000001
 44
0.0000000001
 40
0.0
 40
0.0
 40
0.0
 40
0.0
 40
0.0174786577
 40
0.0369331052
 40
0.0583446693
 40
0.0815691042
 40
0.1064120009
 40
0.1326371489
 40
0.1600064965
 40
0.1883101427
 40
0.2173756028
 40
0.2471080183
 40
0.277455985
 40
0.3084370443
 40
0.3400930083
 40
0.3724440017
 40
0.4055158398
 40
0.4392735625
 40
0.4736619774
 40
0.5085937088
 40
0.5439847748
 40
0.5797906327
 40
0.6159393439
 40
0.6523320801
 40
0.7253892823
 40
0.7618564186
 40
0.7981355336
 40
0.8341097248
 40
0.8519250875
 40
0.8695840703
 40
0.9043064081
 40
0.9379360154
 40
0.9700280168
 40
0.9853338915
 40
1.0
 40
1.0
 40
1.0
 40
1.0
 10
15.3014227501
 20
5.7240259325
 30
0.0
 10
15.298185465
 20
5.7240261976
 30
0.0
 10
15.2913401896
 20
5.7246325869
 30
0.0
 10
15.2807784889
 20
5.7270291877
 30
0.0
 10
15.269549632
 20
5.7309482934
 30
0.0
 10
15.2578660382
 20
5.7363880076
 30
0.0
 10
15.2459689122
 20
5.7433398086
 30
0.0
 10
15.234131963
 20
5.7517983015
 30
0.0
 10
15.2226620015
 20
5.7617607321
 30
0.0
 10
15.2118759732
 20
5.7731999967
 30
0.0
 10
15.2021063023
 20
5.786079925
 30
0.0
 10
15.1936841641
 20
5.8003248259
 30
0.0
 10
15.1868567294
 20
5.8157928738
 30
0.0
 10
15.181891411
 20
5.8323279219
 30
0.0
 10
15.1788283457
 20
5.8496918578
 30
0.0
 10
15.1777239158
 20
5.8676735767
 30
0.0
 10
15.1784678908
 20
5.8860562142
 30
0.0
 10
15.1809223725
 20
5.9046647147
 30
0.0
 10
15.1849207384
 20
5.9233503899
 30
0.0
 10
15.1902660726
 20
5.9420066647
 30
0.0
 10
15.1968036092
 20
5.9605552078
 30
0.0
 10
15.2044077115
 20
5.9789344602
 30
0.0
 10
15.2129521939
 20
5.9970995458
 30
0.0
 10
15.2254482052
 20
6.0210026817
 30
0.0
 10
15.2393002715
 20
6.0442409979
 30
0.0
 10
15.2543180503
 20
6.0666893271
 30
0.0
 10
15.2660816211
 20
6.0830373827
 30
0.0
 10
15.2762744829
 20
6.0962475006
 30
0.0
 10
15.2846320906
 20
6.1065084425
 30
0.0
 10
15.2930284889
 20
6.1164357501
 30
0.0
 10
15.3036637524
 20
6.1283026164
 30
0.0
 10
15.3166789721
 20
6.1416042895
 30
0.0
 10
15.3277325759
 20
6.1517700897
 30
0.0
 10
15.3365763285
 20
6.1591167063
 30
0.0
 10
15.3409835515
 20
6.1624953952
 30
0.0
 10
15.3431780639
 20
6.1640962519
 30
0.0
  0
LINE
  5
2BE
100
AcDbEntity
  8
0
100
AcDbLine
 62
9
  6
CONTINUOUS
 10
15.3431780639
 20
6.1640962519
 11
15.3433982985
 21
6.1642566374
  0
SPLINE
  5
2BF
100
AcDbEntity
  8
0
100
AcDbSpline
 62
9
  6
CONTINUOUS
 70
0
 71
3
 72
11
 73
7
 74
0
 42
0.0000001
 43
0.0000001
 44
0.0000000001
 40
0.0
 40
0.0
 40
0.0
 40
0.0
 40
0.2321640665
 40
0.472946149
 40
0.7275186549
 40
1.0
 40
1.0
 40
1.0
 40
1.0
 10
15.3221515744
 20
5.7295943339
 30
0.0
 10
15.3207504154
 20
5.7286601727
 30
0.0
 10
15.3177238499
 20
5.7270037478
 30
0.0
 10
15.3127193681
 20
5.725264542
 30
0.0
 10
15.3072277102
 20
5.7242346987
 30
0.0
 10
15.3033994606
 20
5.7240261499
 30
0.0
 10
15.3014230029
 20
5.724026101
 30
0.0
  0
SPLINE
  5
2C0
100
AcDbEntity
  8
0
100
AcDbSpline
 62
9
  6
CONTINUOUS
 70
0
 71
3
 72
40
 73
36
 74
0
 42
0.0000001
 43
0.0000001
 44
0.0000000001
 40
0.0
 40
0.0
 40
0.0
 40
0.0
 40
0.0146255271
 40
0.0298952936
 40
0.0619287172
 40
0.0955136219
 40
0.1302024328
 40
0.1478476272
 40
0.1656509173
 40
0.2016054523
 40
0.2378691301
 40
0.2743240364
 40
0.3473634243
 40
0.3837493748
 40
0.4198931675
 40
0.4556966283
 40
0.4910883648
 40
0.5260244294
 40
0.5604223838
 40
0.5941963823
 40
0.6272911038
 40
0.6596679008
 40
0.6913492419
 40
0.7223533454
 40
0.7527213393
 40
0.7824725733
 40
0.8115575538
 40
0.8398818595
 40
0.867272719
 40
0.8935191859
 40
0.9183815565
 40
0.9416225756
 40
0.9630480746
 40
0.9825136995
 40
1.0
 40
1.0
 40
1.0
 40
1.0
 10
14.5320009472
 20
6.1642459236
 30
0.0
 10
14.5341927232
 20
6.1626519988
 30
0.0
 10
14.5385952695
 20
6.1592864328
 30
0.0
 10
14.5474325418
 20
6.1519631052
 30
0.0
 10
14.5584820673
 20
6.1418209282
 30
0.0
 10
14.57149629
 20
6.1285419641
 30
0.0
 10
14.5821332752
 20
6.1166898561
 30
0.0
 10
14.5905328459
 20
6.1067719577
 30
0.0
 10
14.5988953258
 20
6.0965181548
 30
0.0
 10
14.6090952207
 20
6.0833149838
 30
0.0
 10
14.6208685015
 20
6.0669735221
 30
0.0
 10
14.6359015755
 20
6.0445308964
 30
0.0
 10
14.6497704351
 20
6.0212963661
 30
0.0
 10
14.6622852424
 20
5.9973955106
 30
0.0
 10
14.6708455215
 20
5.9792307544
 30
0.0
 10
14.6784671043
 20
5.9608503813
 30
0.0
 10
14.6850240599
 20
5.942298803
 30
0.0
 10
14.6903912211
 20
5.9236369262
 30
0.0
 10
14.6944134625
 20
5.9049418749
 30
0.0
 10
14.6968921986
 20
5.8863189437
 30
0.0
 10
14.6976595253
 20
5.8679169319
 30
0.0
 10
14.6965777528
 20
5.8499119721
 30
0.0
 10
14.69353514
 20
5.8325223867
 30
0.0
 10
14.688586874
 20
5.8159607712
 30
0.0
 10
14.6817712351
 20
5.800466496
 30
0.0
 10
14.6733552761
 20
5.7861965567
 30
0.0
 10
14.6635866085
 20
5.7732928473
 30
0.0
 10
14.6527966757
 20
5.7618316501
 30
0.0
 10
14.6413187144
 20
5.7518498878
 30
0.0
 10
14.6294710187
 20
5.7433751618
 30
0.0
 10
14.6175619729
 20
5.7364102566
 30
0.0
 10
14.6058663264
 20
5.7309605866
 30
0.0
 10
14.5946259609
 20
5.7270345716
 30
0.0
 10
14.5840539291
 20
5.7246338058
 30
0.0
 10
14.5772020802
 20
5.7240262331
 30
0.0
 10
14.573961917
 20
5.7240259447
 30
0.0
  0
SPLINE
  5
2C1
100
AcDbEntity
  8
0
100
AcDbSpline
 62
9
  6
CONTINUOUS
 70
0
 71
3
 72
15
 73
11
 74
0
 42
0.0000001
 43
0.0000001
 44
0.0000000001
 40
0.0
 40
0.0
 40
0.0
 40
0.0
 40
0.1006680404
 40
0.2090420284
 40
0.3253279599
 40
0.4491288582
 40
0.5799327672
 40
0.7164245965
 40
0.8571226513
 40
1.0
 40
1.0
 40
1.0
 40
1.0
 10
15.3014230121
 20
5.7240261073
 30
0.0
 10
15.2988928325
 20
5.7223393209
 30
0.0
 10
15.2938444418
 20
5.7185180375
 30
0.0
 10
15.2867510792
 20
5.7116837162
 30
0.0
 10
15.2800972534
 20
5.7034934771
 30
0.0
 10
15.274129836
 20
5.6939774349
 30
0.0
 10
15.269139667
 20
5.6832358031
 30
0.0
 10
15.2653448824
 20
5.6714761112
 30
0.0
 10
15.2629951435
 20
5.6589745496
 30
0.0
 10
15.2624518689
 20
5.6503997426
 30
0.0
 10
15.2624518689
 20
5.646083821
 30
0.0
  0
SPLINE
  5
2C2
100
AcDbEntity
  8
0
100
AcDbSpline
 62
9
  6
CONTINUOUS
 70
0
 71
3
 72
37
 73
33
 74
0
 42
0.0000001
 43
0.0000001
 44
0.0000000001
 40
0.0
 40
0.0
 40
0.0
 40
0.0
 40
0.0180268856
 40
0.027819523
 40
0.0381557358
 40
0.0604654618
 40
0.0849009777
 40
0.111280719
 40
0.1393682603
 40
0.1689063395
 40
0.1996410802
 40
0.2313369001
 40
0.2637840324
 40
0.2968019871
 40
0.3302407451
 40
0.3639810559
 40
0.3979262908
 40
0.432005689
 40
0.4661664817
 40
0.5003674597
 40
0.5345788458
 40
0.5687788347
 40
0.6029465751
 40
0.6710993087
 40
0.7050620762
 40
0.7389144869
 40
0.8061592788
 40
0.8725195064
 40
0.9052168473
 40
0.9374617629
 40
0.9691180195
 40
1.0
 40
1.0
 40
1.0
 40
1.0
 10
15.2624518692
 20
5.646083821
 30
0.0
 10
15.2585856587
 20
5.646084176
 30
0.0
 10
15.2526089891
 20
5.646745115
 30
0.0
 10
15.2446449182
 20
5.6486406137
 30
0.0
 10
15.2359673692
 20
5.6514159023
 30
0.0
 10
15.2247274908
 20
5.6563547413
 30
0.0
 10
15.2111473029
 20
5.6642525259
 30
0.0
 10
15.1973941463
 20
5.6741536423
 30
0.0
 10
15.1837362623
 20
5.6859361738
 30
0.0
 10
15.1704353549
 20
5.699463231
 30
0.0
 10
15.1577437259
 20
5.7145881263
 30
0.0
 10
15.1458937417
 20
5.7311547378
 30
0.0
 10
15.1350951051
 20
5.7490000659
 30
0.0
 10
15.1255096597
 20
5.7679452459
 30
0.0
 10
15.1172742499
 20
5.7878156472
 30
0.0
 10
15.1104696768
 20
5.8084286126
 30
0.0
 10
15.1051142866
 20
5.8296054819
 30
0.0
 10
15.1012279067
 20
5.851190708
 30
0.0
 10
15.0987441506
 20
5.873034791
 30
0.0
 10
15.097593879
 20
5.8950164321
 30
0.0
 10
15.0977085337
 20
5.9170343839
 30
0.0
 10
15.0989830919
 20
5.9390072337
 30
0.0
 10
15.1021040317
 20
5.9681289667
 30
0.0
 10
15.1072012753
 20
5.9969525266
 30
0.0
 10
15.1139762022
 20
6.0253204093
 30
0.0
 10
15.1217614257
 20
6.0532272635
 30
0.0
 10
15.1332616588
 20
6.0872830937
 30
0.0
 10
15.1469779749
 20
6.1202402771
 30
0.0
 10
15.1591787411
 20
6.1456262723
 30
0.0
 10
15.1688575239
 20
6.1639502155
 30
0.0
 10
15.1790885379
 20
6.1815227259
 30
0.0
 10
15.1863727604
 20
6.1927931035
 30
0.0
 10
15.1901213086
 20
6.1982534681
 30
0.0
  0
SPLINE
  5
2C3
100
AcDbEntity
  8
0
100
AcDbSpline
 62
9
  6
CONTINUOUS
 70
0
 71
3
 72
26
 73
22
 74
0
 42
0.0000001
 43
0.0000001
 44
0.0000000001
 40
0.0
 40
0.0
 40
0.0
 40
0.0
 40
0.0159923675
 40
0.0353529188
 40
0.0576346821
 40
0.0823795324
 40
0.1091687348
 40
0.1376130401
 40
0.167323143
 40
0.1979847737
 40
0.2615032048
 40
0.3270217234
 40
0.3938000805
 40
0.461330667
 40
0.5975042151
 40
0.6656976232
 40
0.7336595572
 40
0.8012113916
 40
0.8682361733
 40
0.9345630078
 40
1.0
 40
1.0
 40
1.0
 40
1.0
 10
13.8785529209
 20
6.1876319421
 30
0.0
 10
13.8799811916
 20
6.1876320277
 30
0.0
 10
13.8831381434
 20
6.187508972
 30
0.0
 10
13.8882705738
 20
6.1871133242
 30
0.0
 10
13.8941699653
 20
6.1865167269
 30
0.0
 10
13.9007182758
 20
6.1857542153
 30
0.0
 10
13.9078058151
 20
6.1848668176
 30
0.0
 10
13.9153301465
 20
6.1838994227
 30
0.0
 10
13.9231985554
 20
6.1828959667
 30
0.0
 10
13.9341803066
 20
6.1815445869
 30
0.0
 10
13.9483520776
 20
6.1799319394
 30
0.0
 10
13.9657640999
 20
6.1782882038
 30
0.0
 10
13.9835685489
 20
6.1770306233
 30
0.0
 10
14.0077051943
 20
6.1760022082
 30
0.0
 10
14.0320118235
 20
6.1761041653
 30
0.0
 10
14.0562921081
 20
6.17762097
 30
0.0
 10
14.0743880639
 20
6.1795660393
 30
0.0
 10
14.0922587755
 20
6.1824213354
 30
0.0
 10
14.109794382
 20
6.1862774916
 30
0.0
 10
14.1268491252
 20
6.1912625971
 30
0.0
 10
14.1378559959
 20
6.1954798468
 30
0.0
 10
14.1432020108
 20
6.1978408159
 30
0.0
  0
SPLINE
  5
2C4
100
AcDbEntity
  8
0
100
AcDbSpline
 62
9
  6
CONTINUOUS
 70
0
 71
3
 72
22
 73
18
 74
0
 42
0.0000001
 43
0.0000001
 44
0.0000000001
 40
0.0
 40
0.0
 40
0.0
 40
0.0
 40
0.0574757057
 40
0.1124737447
 40
0.1656156234
 40
0.2176752893
 40
0.269490663
 40
0.3219080167
 40
0.3757235633
 40
0.4316444594
 40
0.4902538051
 40
0.5520046744
 40
0.6172252042
 40
0.6861338006
 40
0.7588540963
 40
0.8354309178
 40
1.0
 40
1.0
 40
1.0
 40
1.0
 10
15.2624518692
 20
5.646083821
 30
0.0
 10
15.2642575019
 20
5.6460838681
 30
0.0
 10
15.2677947445
 20
5.6462678825
 30
0.0
 10
15.2729357128
 20
5.6471460774
 30
0.0
 10
15.2777628391
 20
5.6486205382
 30
0.0
 10
15.2822594027
 20
5.6506852929
 30
0.0
 10
15.2864132772
 20
5.6533315341
 30
0.0
 10
15.2902178165
 20
5.6565439483
 30
0.0
 10
15.293671174
 20
5.6603060163
 30
0.0
 10
15.2967786794
 20
5.6645985773
 30
0.0
 10
15.2995490198
 20
5.6694038227
 30
0.0
 10
15.3019955584
 20
5.6747033327
 30
0.0
 10
15.3041324957
 20
5.6804797534
 30
0.0
 10
15.3059771877
 20
5.6867149483
 30
0.0
 10
15.3075471244
 20
5.6933910557
 30
0.0
 10
15.3093430188
 20
5.7030892326
 30
0.0
 10
15.3102645367
 20
5.7106167724
 30
0.0
 10
15.3107584345
 20
5.7157631605
 30
0.0
  0
SPLINE
  5
2C5
100
AcDbEntity
  8
0
100
AcDbSpline
 62
9
  6
CONTINUOUS
 70
0
 71
3
 72
40
 73
36
 74
0
 42
0.0000001
 43
0.0000001
 44
0.0000000001
 40
0.0
 40
0.0
 40
0.0
 40
0.0
 40
0.0308819673
 40
0.0625377879
 40
0.0947822533
 40
0.1274788886
 40
0.1938379871
 40
0.2610807856
 40
0.2949325517
 40
0.3288944887
 40
0.3629442521
 40
0.3970611406
 40
0.4312281845
 40
0.4654263043
 40
0.4996369417
 40
0.5338378555
 40
0.5679960872
 40
0.6020746722
 40
0.6360204098
 40
0.6697579543
 40
0.6865241927
 40
0.7032023478
 40
0.7197752684
 40
0.7362252497
 40
0.7686708083
 40
0.8003656918
 40
0.8310998222
 40
0.8606362062
 40
0.8887233662
 40
0.915101836
 40
0.9395367106
 40
0.9618455025
 40
0.9721813831
 40
0.9819736997
 40
1.0
 40
1.0
 40
1.0
 40
1.0
 10
14.6852673937
 20
6.1982494279
 30
0.0
 10
14.6890158677
 20
6.1927888754
 30
0.0
 10
14.6962993256
 20
6.1815178357
 30
0.0
 10
14.7065300685
 20
6.1639449977
 30
0.0
 10
14.7162086785
 20
6.1456209442
 30
0.0
 10
14.7284091838
 20
6.1202347875
 30
0.0
 10
14.7421228491
 20
6.0872768454
 30
0.0
 10
14.7536246249
 20
6.0532214527
 30
0.0
 10
14.7614097496
 20
6.0253154704
 30
0.0
 10
14.7664845584
 20
6.0040603484
 30
0.0
 10
14.7707243201
 20
5.9825646019
 30
0.0
 10
14.7740562559
 20
5.960864088
 30
0.0
 10
14.7764047518
 20
5.9390021133
 30
0.0
 10
14.7776773748
 20
5.9170296284
 30
0.0
 10
14.7777851657
 20
5.8950119383
 30
0.0
 10
14.7766460605
 20
5.8730302365
 30
0.0
 10
14.7741597184
 20
5.8511861809
 30
0.0
 10
14.7702552944
 20
5.8296048763
 30
0.0
 10
14.7649217986
 20
5.8084234605
 30
0.0
 10
14.7592310959
 20
5.7912095795
 30
0.0
 10
14.7539544328
 20
5.7777989266
 30
0.0
 10
14.7496592163
 20
5.7679662305
 30
0.0
 10
14.745028323
 20
5.7583622281
 30
0.0
 10
14.7384501697
 20
5.7459540833
 30
0.0
 10
14.7294869455
 20
5.7311538957
 30
0.0
 10
14.7176394693
 20
5.7145867369
 30
0.0
 10
14.7049493861
 20
5.6994605823
 30
0.0
 10
14.6916459545
 20
5.6859365078
 30
0.0
 10
14.6779904606
 20
5.6741518322
 30
0.0
 10
14.6642361908
 20
5.6642525259
 30
0.0
 10
14.6506568911
 20
5.6563539678
 30
0.0
 10
14.6394168514
 20
5.6514158631
 30
0.0
 10
14.6307394543
 20
5.6486407681
 30
0.0
 10
14.6227755746
 20
5.6467449714
 30
0.0
 10
14.6167989688
 20
5.6460842088
 30
0.0
 10
14.6129328163
 20
5.646083821
 30
0.0
  0
SPLINE
  5
2C6
100
AcDbEntity
  8
0
100
AcDbSpline
 62
9
  6
CONTINUOUS
 70
0
 71
3
 72
22
 73
18
 74
0
 42
0.0000001
 43
0.0000001
 44
0.0000000001
 40
0.0
 40
0.0
 40
0.0
 40
0.0
 40
0.0575322736
 40
0.1125896346
 40
0.1657908775
 40
0.2179043348
 40
0.2697614445
 40
0.3222111266
 40
0.3760521588
 40
0.4319845171
 40
0.4905861237
 40
0.552314345
 40
0.6175015344
 40
0.6863673697
 40
0.7590367318
 40
0.8355562725
 40
1.0
 40
1.0
 40
1.0
 40
1.0
 10
14.6129328163
 20
5.646083821
 30
0.0
 10
14.6111315329
 20
5.6460839893
 30
0.0
 10
14.6076026844
 20
5.6462670546
 30
0.0
 10
14.6024733478
 20
5.6471407503
 30
0.0
 10
14.5976564528
 20
5.6486084305
 30
0.0
 10
14.5931683869
 20
5.650662827
 30
0.0
 10
14.5890206888
 20
5.6532949973
 30
0.0
 10
14.5852206445
 20
5.6564914162
 30
0.0
 10
14.5817706686
 20
5.6602360197
 30
0.0
 10
14.5786647053
 20
5.6645086004
 30
0.0
 10
14.575894143
 20
5.6692913152
 30
0.0
 10
14.5734460782
 20
5.6745661357
 30
0.0
 10
14.5713066246
 20
5.6803160765
 30
0.0
 10
14.5694583919
 20
5.6865230962
 30
0.0
 10
14.567884144
 20
5.6931694607
 30
0.0
 10
14.5660814721
 20
5.7028249493
 30
0.0
 10
14.5651544491
 20
5.7103202121
 30
0.0
 10
14.5646569123
 20
5.7154447
 30
0.0
  0
LINE
  5
2C7
100
AcDbEntity
  8
0
100
AcDbLine
 62
9
  6
CONTINUOUS
 10
14.5646569123
 20
5.7154447
 11
14.5646112852
 21
5.7159187307
  0
SPLINE
  5
2C8
100
AcDbEntity
  8
0
100
AcDbSpline
 62
9
  6
CONTINUOUS
 70
0
 71
3
 72
15
 73
11
 74
0
 42
0.0000001
 43
0.0000001
 44
0.0000000001
 40
0.0
 40
0.0
 40
0.0
 40
0.0
 40
0.1006680338
 40
0.2090420164
 40
0.3253279437
 40
0.4491288399
 40
0.5799327493
 40
0.7164245816
 40
0.8571226424
 40
1.0
 40
1.0
 40
1.0
 40
1.0
 10
14.5739616736
 20
5.7240261073
 30
0.0
 10
14.5764918531
 20
5.722339321
 30
0.0
 10
14.5815402435
 20
5.7185180378
 30
0.0
 10
14.5886336058
 20
5.7116837169
 30
0.0
 10
14.5952874315
 20
5.7034934782
 30
0.0
 10
14.601254849
 20
5.6939774363
 30
0.0
 10
14.6062450182
 20
5.6832358045
 30
0.0
 10
14.6100398031
 20
5.6714761124
 30
0.0
 10
14.6123895422
 20
5.6589745503
 30
0.0
 10
14.6129328169
 20
5.6503997428
 30
0.0
 10
14.6129328169
 20
5.6460838209
 30
0.0
  0
SPLINE
  5
2C9
100
AcDbEntity
  8
0
100
AcDbSpline
 62
9
  6
CONTINUOUS
 70
0
 71
3
 72
11
 73
7
 74
0
 42
0.0000001
 43
0.0000001
 44
0.0000000001
 40
0.0
 40
0.0
 40
0.0
 40
0.0
 40
0.2723385517
 40
0.5269286843
 40
0.7677869037
 40
1.0
 40
1.0
 40
1.0
 40
1.0
 10
14.5739619142
 20
5.7240259466
 30
0.0
 10
14.5719878433
 20
5.7240261115
 30
0.0
 10
14.5681631557
 20
5.7242345889
 30
0.0
 10
14.5626754706
 20
5.7252625674
 30
0.0
 10
14.557672674
 20
5.7269985974
 30
0.0
 10
14.5546464963
 20
5.7286527263
 30
0.0
 10
14.5532455461
 20
5.7295857649
 30
0.0
  0
SPLINE
  5
2CA
100
AcDbEntity
  8
0
100
AcDbSpline
 62
9
  6
CONTINUOUS
 70
0
 71
3
 72
14
 73
10
 74
0
 42
0.0000001
 43
0.0000001
 44
0.0000000001
 40
0.0
 40
0.0
 40
0.0
 40
0.0
 40
0.2356473717
 40
0.35794197
 40
0.4828625251
 40
0.6100030347
 40
0.7389761515
 40
0.8692270758
 40
1.0
 40
1.0
 40
1.0
 40
1.0
 10
14.5352066942
 20
6.1680770109
 30
0.0
 10
14.540456856
 20
6.1680968882
 30
0.0
 10
14.5484681408
 20
6.1690605848
 30
0.0
 10
14.5587759467
 20
6.1722005795
 30
0.0
 10
14.56643618
 20
6.1755501271
 30
0.0
 10
14.5737926498
 20
6.1798236169
 30
0.0
 10
14.5807058414
 20
6.1849835702
 30
0.0
 10
14.5870795603
 20
6.1909116858
 30
0.0
 10
14.5909104714
 20
6.1953035152
 30
0.0
 10
14.5927103412
 20
6.1975947107
 30
0.0
  0
SPLINE
  5
2CB
100
AcDbEntity
  8
0
100
AcDbSpline
 62
7
  6
CONTINUOUS
 70
0
 71
3
 72
12
 73
8
 74
0
 42
0.0000001
 43
0.0000001
 44
0.0000000001
 40
0.0
 40
0.0
 40
0.0
 40
0.0
 40
0.0947447157
 40
0.2005422495
 40
0.4404666709
 40
0.70992467
 40
1.0
 40
1.0
 40
1.0
 40
1.0
 10
5.8477760962
 20
6.1991909418
 30
0.0
 10
5.8498479579
 20
6.1991912996
 30
0.0
 10
5.8542333926
 20
6.1991574532
 30
0.0
 10
5.8638640163
 20
6.1989868116
 30
0.0
 10
5.8773119512
 20
6.1986269527
 30
0.0
 10
5.8947894264
 20
6.1982091987
 30
0.0
 10
5.9070253609
 20
6.1980824855
 30
0.0
 10
5.9133686801
 20
6.1980826929
 30
0.0
  0
SPLINE
  5
2CC
100
AcDbEntity
  8
0
100
AcDbSpline
 62
9
  6
CONTINUOUS
 70
0
 71
3
 72
21
 73
17
 74
0
 42
0.0000001
 43
0.0000001
 44
0.0000000001
 40
0.0
 40
0.0
 40
0.0
 40
0.0
 40
0.1191794237
 40
0.168968765
 40
0.2121029596
 40
0.2491242025
 40
0.2815583752
 40
0.3123982044
 40
0.3458291608
 40
0.3858584331
 40
0.4352747703
 40
0.4958486662
 40
0.5687843697
 40
0.6549825511
 40
0.7551768771
 40
1.0
 40
1.0
 40
1.0
 40
1.0
 10
5.8729418325
 20
6.1831213085
 30
0.0
 10
5.8725553922
 20
6.183379073
 30
0.0
 10
5.8720229694
 20
6.1837729309
 30
0.0
 10
5.8714383122
 20
6.1843596531
 30
0.0
 10
5.871130636
 20
6.1847645946
 30
0.0
 10
5.8709341888
 20
6.1851611016
 30
0.0
 10
5.8708619229
 20
6.185552585
 30
0.0
 10
5.8709373786
 20
6.1859320598
 30
0.0
 10
5.8711689653
 20
6.186276654
 30
0.0
 10
5.8715465514
 20
6.1865790505
 30
0.0
 10
5.8720697803
 20
6.1868459006
 30
0.0
 10
5.8727455563
 20
6.187078253
 30
0.0
 10
5.8735801734
 20
6.1872744527
 30
0.0
 10
5.8745793494
 20
6.1874318295
 30
0.0
 10
5.8762526282
 20
6.1875967586
 30
0.0
 10
5.8775988089
 20
6.1876318913
 30
0.0
 10
5.8785530439
 20
6.1876318601
 30
0.0
  0
SPLINE
  5
2CD
100
AcDbEntity
  8
0
100
AcDbSpline
 62
9
  6
CONTINUOUS
 70
0
 71
3
 72
16
 73
12
 74
0
 42
0.0000001
 43
0.0000001
 44
0.0000000001
 40
0.0
 40
0.0
 40
0.0
 40
0.0
 40
0.2299709988
 40
0.4266794499
 40
0.5908948615
 40
0.7242837874
 40
0.8292245407
 40
0.9084319069
 40
0.9645039802
 40
0.9846673336
 40
1.0
 40
1.0
 40
1.0
 40
1.0
 10
5.8477760962
 20
6.1991909418
 30
0.0
 10
5.845964198
 20
6.1991911898
 30
0.0
 10
5.8426023778
 20
6.1991683999
 30
0.0
 10
5.8379479291
 20
6.1990555433
 30
0.0
 10
5.834056847
 20
6.1988836824
 30
0.0
 10
5.8308917245
 20
6.1986778936
 30
0.0
 10
5.8283988039
 20
6.1984653238
 30
0.0
 10
5.8265154276
 20
6.1982785234
 30
0.0
 10
5.8252971663
 20
6.1981519839
 30
0.0
 10
5.8245779873
 20
6.1980948732
 30
0.0
 10
5.8242983913
 20
6.198082675
 30
0.0
 10
5.8241775881
 20
6.1980826799
 30
0.0
  0
SPLINE
  5
2CE
100
AcDbEntity
  8
0
100
AcDbSpline
 62
9
  6
CONTINUOUS
 70
0
 71
3
 72
12
 73
8
 74
0
 42
0.0000001
 43
0.0000001
 44
0.0000000001
 40
0.0
 40
0.0
 40
0.0
 40
0.0
 40
0.0947513793
 40
0.200551577
 40
0.4404758942
 40
0.7099037828
 40
1.0
 40
1.0
 40
1.0
 40
1.0
 10
8.0276085894
 20
6.1991909418
 30
0.0
 10
8.0255388456
 20
6.1991912245
 30
0.0
 10
8.0211579982
 20
6.1991575483
 30
0.0
 10
8.0115376896
 20
6.1989872662
 30
0.0
 10
7.9981050494
 20
6.1986277155
 30
0.0
 10
7.9806468727
 20
6.1982104481
 30
0.0
 10
7.9684245206
 20
6.1980829694
 30
0.0
 10
7.9620876748
 20
6.1980826816
 30
0.0
  0
SPLINE
  5
2CF
100
AcDbEntity
  8
0
100
AcDbSpline
 62
9
  6
CONTINUOUS
 70
0
 71
3
 72
11
 73
7
 74
0
 42
0.0000001
 43
0.0000001
 44
0.0000000001
 40
0.0
 40
0.0
 40
0.0
 40
0.0
 40
0.2394946449
 40
0.4864327016
 40
0.7399381506
 40
1.0
 40
1.0
 40
1.0
 40
1.0
 10
5.8785528523
 20
6.187632006
 30
0.0
 10
5.8763505801
 20
6.1891001881
 30
0.0
 10
5.8717132537
 20
6.1918433998
 30
0.0
 10
5.8642478005
 20
6.1952214013
 30
0.0
 10
5.8562245571
 20
6.1977879891
 30
0.0
 10
5.8506290575
 20
6.1988426708
 30
0.0
 10
5.8477761336
 20
6.1991909422
 30
0.0
  0
SPLINE
  5
2D0
100
AcDbEntity
  8
0
100
AcDbSpline
 62
9
  6
CONTINUOUS
 70
0
 71
3
 72
16
 73
12
 74
0
 42
0.0000001
 43
0.0000001
 44
0.0000000001
 40
0.0
 40
0.0
 40
0.0
 40
0.0
 40
0.230042589
 40
0.4267978123
 40
0.5910476928
 40
0.7244245565
 40
0.8293240922
 40
0.9085020839
 40
0.9645499324
 40
0.984694417
 40
1.0
 40
1.0
 40
1.0
 40
1.0
 10
8.0276085894
 20
6.1991909418
 30
0.0
 10
8.0294212778
 20
6.1991912228
 30
0.0
 10
8.032784451
 20
6.1991683933
 30
0.0
 10
8.0374406809
 20
6.1990553702
 30
0.0
 10
8.0413327927
 20
6.198883456
 30
0.0
 10
8.0444981563
 20
6.1986775401
 30
0.0
 10
8.0469907212
 20
6.1984647865
 30
0.0
 10
8.0488735829
 20
6.19827799
 30
0.0
 10
8.0500914403
 20
6.1981515921
 30
0.0
 10
8.0508101707
 20
6.1980946871
 30
0.0
 10
8.0510894464
 20
6.1980826076
 30
0.0
 10
8.0512100512
 20
6.1980826914
 30
0.0
  0
SPLINE
  5
2D1
100
AcDbEntity
  8
0
100
AcDbSpline
 62
9
  6
CONTINUOUS
 70
0
 71
3
 72
11
 73
7
 74
0
 42
0.0000001
 43
0.0000001
 44
0.0000000001
 40
0.0
 40
0.0
 40
0.0
 40
0.0
 40
0.2394940035
 40
0.4864318276
 40
0.7399374719
 40
1.0
 40
1.0
 40
1.0
 40
1.0
 10
7.9968318386
 20
6.1876320059
 30
0.0
 10
7.9990341047
 20
6.1891001839
 30
0.0
 10
8.0036714217
 20
6.1918433912
 30
0.0
 10
8.0111368659
 20
6.1952213923
 30
0.0
 10
8.0191601144
 20
6.1977879848
 30
0.0
 10
8.0247556228
 20
6.1988426689
 30
0.0
 10
8.0276085538
 20
6.1991909414
 30
0.0
  0
SPLINE
  5
2D2
100
AcDbEntity
  8
0
100
AcDbSpline
 62
9
  6
CONTINUOUS
 70
0
 71
3
 72
21
 73
17
 74
0
 42
0.0000001
 43
0.0000001
 44
0.0000000001
 40
0.0
 40
0.0
 40
0.0
 40
0.0
 40
0.2448238555
 40
0.3450126482
 40
0.431201762
 40
0.5041252803
 40
0.5646844991
 40
0.6140847424
 40
0.6540985364
 40
0.687518389
 40
0.7183557064
 40
0.750796793
 40
0.7878316051
 40
0.8309827057
 40
0.8807897448
 40
1.0
 40
1.0
 40
1.0
 40
1.0
 10
7.9968316374
 20
6.1876318573
 30
0.0
 10
7.9977860977
 20
6.1876319008
 30
0.0
 10
7.9991325745
 20
6.1875967756
 30
0.0
 10
8.0008061888
 20
6.1874318025
 30
0.0
 10
8.001805491
 20
6.1872743803
 30
0.0
 10
8.002640156
 20
6.1870781201
 30
0.0
 10
8.0033159072
 20
6.1868456932
 30
0.0
 10
8.0038390445
 20
6.1865787529
 30
0.0
 10
8.0042164793
 20
6.1862762398
 30
0.0
 10
8.0044478252
 20
6.1859314887
 30
0.0
 10
8.0045229382
 20
6.1855518768
 30
0.0
 10
8.0044503069
 20
6.1851603022
 30
0.0
 10
8.0042534984
 20
6.1847637033
 30
0.0
 10
8.0039454507
 20
6.1843586631
 30
0.0
 10
8.0033602803
 20
6.1837718233
 30
0.0
 10
8.0028275057
 20
6.183377872
 30
0.0
 10
8.0024408307
 20
6.1831200478
 30
0.0
  0
SPLINE
  5
2D3
100
AcDbEntity
  8
0
100
AcDbSpline
 62
9
  6
CONTINUOUS
 70
0
 71
3
 72
16
 73
12
 74
0
 42
0.0000001
 43
0.0000001
 44
0.0000000001
 40
0.0
 40
0.0
 40
0.0
 40
0.0
 40
0.1165287618
 40
0.235937203
 40
0.3581777324
 40
0.4203335256
 40
0.4830945324
 40
0.6101782352
 40
0.739093535
 40
0.8692859126
 40
1.0
 40
1.0
 40
1.0
 40
1.0
 10
7.3401733678
 20
6.1680770288
 30
0.0
 10
7.3375761627
 20
6.1680870411
 30
0.0
 10
7.3323139778
 20
6.1684112023
 30
0.0
 10
7.3244380632
 20
6.1698162549
 30
0.0
 10
7.3179437623
 20
6.1717938631
 30
0.0
 10
7.3128314545
 20
6.173852567
 30
0.0
 10
7.3077480089
 20
6.1762474136
 30
0.0
 10
7.3015900813
 20
6.1798249379
 30
0.0
 10
7.2946780125
 20
6.18498435
 30
0.0
 10
7.288304693
 20
6.190912187
 30
0.0
 10
7.2844741163
 20
6.1953036857
 30
0.0
 10
7.2826743809
 20
6.1975947111
 30
0.0
  0
SPLINE
  5
2D4
100
AcDbEntity
  8
0
100
AcDbSpline
 62
9
  6
CONTINUOUS
 70
0
 71
3
 72
26
 73
22
 74
0
 42
0.0000001
 43
0.0000001
 44
0.0000000001
 40
0.0
 40
0.0
 40
0.0
 40
0.0
 40
0.0654252592
 40
0.131742007
 40
0.198759085
 40
0.2663055408
 40
0.33426394
 40
0.4024551417
 40
0.5386276622
 40
0.6061600988
 40
0.6729427681
 40
0.7384722257
 40
0.8020097973
 40
0.8326801514
 40
0.8623958833
 40
0.8908425302
 40
0.9176314849
 40
0.9423742045
 40
0.9646527673
 40
0.9840100267
 40
1.0
 40
1.0
 40
1.0
 40
1.0
 10
7.7321833883
 20
6.197840236
 30
0.0
 10
7.737528454
 20
6.1954797634
 30
0.0
 10
7.748533513
 20
6.191263386
 30
0.0
 10
7.7655855264
 20
6.1862786185
 30
0.0
 10
7.7831189394
 20
6.1824224123
 30
0.0
 10
7.8009880582
 20
6.1795669629
 30
0.0
 10
7.8190829195
 20
6.1776216191
 30
0.0
 10
7.8433624821
 20
6.17610435
 30
0.0
 10
7.8676688997
 20
6.176001934
 30
0.0
 10
7.8918059352
 20
6.1770299119
 30
0.0
 10
7.9096118714
 20
6.178287212
 30
0.0
 10
7.9270269056
 20
6.1799310947
 30
0.0
 10
7.9412020384
 20
6.1815444044
 30
0.0
 10
7.952186708
 20
6.1828962312
 30
0.0
 10
7.9600565776
 20
6.1838997928
 30
0.0
 10
7.9675815882
 20
6.1848671007
 30
0.0
 10
7.974669121
 20
6.185754317
 30
0.0
 10
7.9812169252
 20
6.1865166612
 30
0.0
 10
7.987115529
 20
6.1871131747
 30
0.0
 10
7.9922471457
 20
6.1875088094
 30
0.0
 10
7.9954035754
 20
6.1876318982
 30
0.0
 10
7.9968316272
 20
6.1876318505
 30
0.0
  0
SPLINE
  5
2D5
100
AcDbEntity
  8
0
100
AcDbSpline
 62
9
  6
CONTINUOUS
 70
0
 71
3
 72
40
 73
36
 74
0
 42
0.0000001
 43
0.0000001
 44
0.0000000001
 40
0.0
 40
0.0
 40
0.0
 40
0.0
 40
0.0174786577
 40
0.0369331052
 40
0.0583446693
 40
0.0815691042
 40
0.1064120009
 40
0.1326371489
 40
0.1600064965
 40
0.1883101427
 40
0.2173756028
 40
0.2471080183
 40
0.277455985
 40
0.3084370443
 40
0.3400930083
 40
0.3724440017
 40
0.4055158398
 40
0.4392735625
 40
0.4736619774
 40
0.5085937088
 40
0.5439847748
 40
0.5797906327
 40
0.6159393439
 40
0.6523320801
 40
0.7253892823
 40
0.7618564186
 40
0.7981355336
 40
0.8341097248
 40
0.8519250875
 40
0.8695840703
 40
0.9043064081
 40
0.9379360154
 40
0.9700280168
 40
0.9853338915
 40
1.0
 40
1.0
 40
1.0
 40
1.0
 10
7.3014227501
 20
5.7240259325
 30
0.0
 10
7.298185465
 20
5.7240261976
 30
0.0
 10
7.2913401896
 20
5.7246325869
 30
0.0
 10
7.2807784889
 20
5.7270291877
 30
0.0
 10
7.269549632
 20
5.7309482934
 30
0.0
 10
7.2578660382
 20
5.7363880076
 30
0.0
 10
7.2459689122
 20
5.7433398086
 30
0.0
 10
7.234131963
 20
5.7517983015
 30
0.0
 10
7.2226620015
 20
5.7617607321
 30
0.0
 10
7.2118759732
 20
5.7731999967
 30
0.0
 10
7.2021063023
 20
5.786079925
 30
0.0
 10
7.1936841641
 20
5.8003248259
 30
0.0
 10
7.1868567294
 20
5.8157928738
 30
0.0
 10
7.181891411
 20
5.8323279219
 30
0.0
 10
7.1788283457
 20
5.8496918578
 30
0.0
 10
7.1777239158
 20
5.8676735767
 30
0.0
 10
7.1784678908
 20
5.8860562142
 30
0.0
 10
7.1809223725
 20
5.9046647147
 30
0.0
 10
7.1849207384
 20
5.9233503899
 30
0.0
 10
7.1902660726
 20
5.9420066647
 30
0.0
 10
7.1968036092
 20
5.9605552078
 30
0.0
 10
7.2044077115
 20
5.9789344602
 30
0.0
 10
7.2129521939
 20
5.9970995458
 30
0.0
 10
7.2254482052
 20
6.0210026817
 30
0.0
 10
7.2393002715
 20
6.0442409979
 30
0.0
 10
7.2543180503
 20
6.0666893271
 30
0.0
 10
7.2660816211
 20
6.0830373827
 30
0.0
 10
7.2762744829
 20
6.0962475006
 30
0.0
 10
7.2846320906
 20
6.1065084425
 30
0.0
 10
7.2930284889
 20
6.1164357501
 30
0.0
 10
7.3036637524
 20
6.1283026164
 30
0.0
 10
7.3166789721
 20
6.1416042895
 30
0.0
 10
7.3277325759
 20
6.1517700897
 30
0.0
 10
7.3365763285
 20
6.1591167063
 30
0.0
 10
7.3409835515
 20
6.1624953952
 30
0.0
 10
7.3431780639
 20
6.1640962519
 30
0.0
  0
LINE
  5
2D6
100
AcDbEntity
  8
0
100
AcDbLine
 62
9
  6
CONTINUOUS
 10
7.3431780639
 20
6.1640962519
 11
7.3433982985
 21
6.1642566374
  0
SPLINE
  5
2D7
100
AcDbEntity
  8
0
100
AcDbSpline
 62
9
  6
CONTINUOUS
 70
0
 71
3
 72
11
 73
7
 74
0
 42
0.0000001
 43
0.0000001
 44
0.0000000001
 40
0.0
 40
0.0
 40
0.0
 40
0.0
 40
0.2321640665
 40
0.472946149
 40
0.7275186549
 40
1.0
 40
1.0
 40
1.0
 40
1.0
 10
7.3221515744
 20
5.7295943339
 30
0.0
 10
7.3207504154
 20
5.7286601727
 30
0.0
 10
7.3177238499
 20
5.7270037478
 30
0.0
 10
7.3127193681
 20
5.725264542
 30
0.0
 10
7.3072277102
 20
5.7242346987
 30
0.0
 10
7.3033994606
 20
5.7240261499
 30
0.0
 10
7.3014230029
 20
5.724026101
 30
0.0
  0
SPLINE
  5
2D8
100
AcDbEntity
  8
0
100
AcDbSpline
 62
9
  6
CONTINUOUS
 70
0
 71
3
 72
40
 73
36
 74
0
 42
0.0000001
 43
0.0000001
 44
0.0000000001
 40
0.0
 40
0.0
 40
0.0
 40
0.0
 40
0.0146255271
 40
0.0298952936
 40
0.0619287172
 40
0.0955136219
 40
0.1302024328
 40
0.1478476272
 40
0.1656509173
 40
0.2016054523
 40
0.2378691301
 40
0.2743240364
 40
0.3473634243
 40
0.3837493748
 40
0.4198931675
 40
0.4556966283
 40
0.4910883648
 40
0.5260244294
 40
0.5604223838
 40
0.5941963823
 40
0.6272911038
 40
0.6596679008
 40
0.6913492419
 40
0.7223533454
 40
0.7527213393
 40
0.7824725733
 40
0.8115575538
 40
0.8398818595
 40
0.867272719
 40
0.8935191859
 40
0.9183815565
 40
0.9416225756
 40
0.9630480746
 40
0.9825136995
 40
1.0
 40
1.0
 40
1.0
 40
1.0
 10
6.5320009472
 20
6.1642459236
 30
0.0
 10
6.5341927232
 20
6.1626519988
 30
0.0
 10
6.5385952695
 20
6.1592864328
 30
0.0
 10
6.5474325418
 20
6.1519631052
 30
0.0
 10
6.5584820673
 20
6.1418209282
 30
0.0
 10
6.57149629
 20
6.1285419641
 30
0.0
 10
6.5821332752
 20
6.1166898561
 30
0.0
 10
6.5905328459
 20
6.1067719577
 30
0.0
 10
6.5988953258
 20
6.0965181548
 30
0.0
 10
6.6090952207
 20
6.0833149838
 30
0.0
 10
6.6208685015
 20
6.0669735221
 30
0.0
 10
6.6359015755
 20
6.0445308964
 30
0.0
 10
6.6497704351
 20
6.0212963661
 30
0.0
 10
6.6622852424
 20
5.9973955106
 30
0.0
 10
6.6708455215
 20
5.9792307544
 30
0.0
 10
6.6784671043
 20
5.9608503813
 30
0.0
 10
6.6850240599
 20
5.942298803
 30
0.0
 10
6.6903912211
 20
5.9236369262
 30
0.0
 10
6.6944134625
 20
5.9049418749
 30
0.0
 10
6.6968921986
 20
5.8863189437
 30
0.0
 10
6.6976595253
 20
5.8679169319
 30
0.0
 10
6.6965777528
 20
5.8499119721
 30
0.0
 10
6.69353514
 20
5.8325223867
 30
0.0
 10
6.688586874
 20
5.8159607712
 30
0.0
 10
6.6817712351
 20
5.800466496
 30
0.0
 10
6.6733552761
 20
5.7861965567
 30
0.0
 10
6.6635866085
 20
5.7732928473
 30
0.0
 10
6.6527966757
 20
5.7618316501
 30
0.0
 10
6.6413187144
 20
5.7518498878
 30
0.0
 10
6.6294710187
 20
5.7433751618
 30
0.0
 10
6.6175619729
 20
5.7364102566
 30
0.0
 10
6.6058663264
 20
5.7309605866
 30
0.0
 10
6.5946259609
 20
5.7270345716
 30
0.0
 10
6.5840539291
 20
5.7246338058
 30
0.0
 10
6.5772020802
 20
5.7240262331
 30
0.0
 10
6.573961917
 20
5.7240259447
 30
0.0
  0
SPLINE
  5
2D9
100
AcDbEntity
  8
0
100
AcDbSpline
 62
9
  6
CONTINUOUS
 70
0
 71
3
 72
15
 73
11
 74
0
 42
0.0000001
 43
0.0000001
 44
0.0000000001
 40
0.0
 40
0.0
 40
0.0
 40
0.0
 40
0.1006680404
 40
0.2090420284
 40
0.3253279599
 40
0.4491288582
 40
0.5799327672
 40
0.7164245965
 40
0.8571226513
 40
1.0
 40
1.0
 40
1.0
 40
1.0
 10
7.3014230121
 20
5.7240261073
 30
0.0
 10
7.2988928325
 20
5.7223393209
 30
0.0
 10
7.2938444418
 20
5.7185180375
 30
0.0
 10
7.2867510792
 20
5.7116837162
 30
0.0
 10
7.2800972534
 20
5.7034934771
 30
0.0
 10
7.274129836
 20
5.6939774349
 30
0.0
 10
7.269139667
 20
5.6832358031
 30
0.0
 10
7.2653448824
 20
5.6714761112
 30
0.0
 10
7.2629951435
 20
5.6589745496
 30
0.0
 10
7.2624518689
 20
5.6503997426
 30
0.0
 10
7.2624518689
 20
5.646083821
 30
0.0
  0
SPLINE
  5
2DA
100
AcDbEntity
  8
0
100
AcDbSpline
 62
9
  6
CONTINUOUS
 70
0
 71
3
 72
37
 73
33
 74
0
 42
0.0000001
 43
0.0000001
 44
0.0000000001
 40
0.0
 40
0.0
 40
0.0
 40
0.0
 40
0.0180268856
 40
0.027819523
 40
0.0381557358
 40
0.0604654618
 40
0.0849009777
 40
0.111280719
 40
0.1393682603
 40
0.1689063395
 40
0.1996410802
 40
0.2313369001
 40
0.2637840324
 40
0.2968019871
 40
0.3302407451
 40
0.3639810559
 40
0.3979262908
 40
0.432005689
 40
0.4661664817
 40
0.5003674597
 40
0.5345788458
 40
0.5687788347
 40
0.6029465751
 40
0.6710993087
 40
0.7050620762
 40
0.7389144869
 40
0.8061592788
 40
0.8725195064
 40
0.9052168473
 40
0.9374617629
 40
0.9691180195
 40
1.0
 40
1.0
 40
1.0
 40
1.0
 10
7.2624518692
 20
5.646083821
 30
0.0
 10
7.2585856587
 20
5.646084176
 30
0.0
 10
7.2526089891
 20
5.646745115
 30
0.0
 10
7.2446449182
 20
5.6486406137
 30
0.0
 10
7.2359673692
 20
5.6514159023
 30
0.0
 10
7.2247274908
 20
5.6563547413
 30
0.0
 10
7.2111473029
 20
5.6642525259
 30
0.0
 10
7.1973941463
 20
5.6741536423
 30
0.0
 10
7.1837362623
 20
5.6859361738
 30
0.0
 10
7.1704353549
 20
5.699463231
 30
0.0
 10
7.1577437259
 20
5.7145881263
 30
0.0
 10
7.1458937417
 20
5.7311547378
 30
0.0
 10
7.1350951051
 20
5.7490000659
 30
0.0
 10
7.1255096597
 20
5.7679452459
 30
0.0
 10
7.1172742499
 20
5.7878156472
 30
0.0
 10
7.1104696768
 20
5.8084286126
 30
0.0
 10
7.1051142866
 20
5.8296054819
 30
0.0
 10
7.1012279067
 20
5.851190708
 30
0.0
 10
7.0987441506
 20
5.873034791
 30
0.0
 10
7.097593879
 20
5.8950164321
 30
0.0
 10
7.0977085337
 20
5.9170343839
 30
0.0
 10
7.0989830919
 20
5.9390072337
 30
0.0
 10
7.1021040317
 20
5.9681289667
 30
0.0
 10
7.1072012753
 20
5.9969525266
 30
0.0
 10
7.1139762022
 20
6.0253204093
 30
0.0
 10
7.1217614257
 20
6.0532272635
 30
0.0
 10
7.1332616588
 20
6.0872830937
 30
0.0
 10
7.1469779749
 20
6.1202402771
 30
0.0
 10
7.1591787411
 20
6.1456262723
 30
0.0
 10
7.1688575239
 20
6.1639502155
 30
0.0
 10
7.1790885379
 20
6.1815227259
 30
0.0
 10
7.1863727604
 20
6.1927931035
 30
0.0
 10
7.1901213086
 20
6.1982534681
 30
0.0
  0
SPLINE
  5
2DB
100
AcDbEntity
  8
0
100
AcDbSpline
 62
9
  6
CONTINUOUS
 70
0
 71
3
 72
26
 73
22
 74
0
 42
0.0000001
 43
0.0000001
 44
0.0000000001
 40
0.0
 40
0.0
 40
0.0
 40
0.0
 40
0.0159923675
 40
0.0353529188
 40
0.0576346821
 40
0.0823795324
 40
0.1091687348
 40
0.1376130401
 40
0.167323143
 40
0.1979847737
 40
0.2615032048
 40
0.3270217234
 40
0.3938000805
 40
0.461330667
 40
0.5975042151
 40
0.6656976232
 40
0.7336595572
 40
0.8012113916
 40
0.8682361733
 40
0.9345630078
 40
1.0
 40
1.0
 40
1.0
 40
1.0
 10
5.8785529209
 20
6.1876319421
 30
0.0
 10
5.8799811916
 20
6.1876320277
 30
0.0
 10
5.8831381434
 20
6.187508972
 30
0.0
 10
5.8882705738
 20
6.1871133242
 30
0.0
 10
5.8941699653
 20
6.1865167269
 30
0.0
 10
5.9007182758
 20
6.1857542153
 30
0.0
 10
5.9078058151
 20
6.1848668176
 30
0.0
 10
5.9153301465
 20
6.1838994227
 30
0.0
 10
5.9231985554
 20
6.1828959667
 30
0.0
 10
5.9341803066
 20
6.1815445869
 30
0.0
 10
5.9483520776
 20
6.1799319394
 30
0.0
 10
5.9657640999
 20
6.1782882038
 30
0.0
 10
5.9835685489
 20
6.1770306233
 30
0.0
 10
6.0077051943
 20
6.1760022082
 30
0.0
 10
6.0320118235
 20
6.1761041653
 30
0.0
 10
6.0562921081
 20
6.17762097
 30
0.0
 10
6.0743880639
 20
6.1795660393
 30
0.0
 10
6.0922587755
 20
6.1824213354
 30
0.0
 10
6.109794382
 20
6.1862774916
 30
0.0
 10
6.1268491252
 20
6.1912625971
 30
0.0
 10
6.1378559959
 20
6.1954798468
 30
0.0
 10
6.1432020108
 20
6.1978408159
 30
0.0
  0
SPLINE
  5
2DC
100
AcDbEntity
  8
0
100
AcDbSpline
 62
9
  6
CONTINUOUS
 70
0
 71
3
 72
22
 73
18
 74
0
 42
0.0000001
 43
0.0000001
 44
0.0000000001
 40
0.0
 40
0.0
 40
0.0
 40
0.0
 40
0.0574757057
 40
0.1124737447
 40
0.1656156234
 40
0.2176752893
 40
0.269490663
 40
0.3219080167
 40
0.3757235633
 40
0.4316444594
 40
0.4902538051
 40
0.5520046744
 40
0.6172252042
 40
0.6861338006
 40
0.7588540963
 40
0.8354309178
 40
1.0
 40
1.0
 40
1.0
 40
1.0
 10
7.2624518692
 20
5.646083821
 30
0.0
 10
7.2642575019
 20
5.6460838681
 30
0.0
 10
7.2677947445
 20
5.6462678825
 30
0.0
 10
7.2729357128
 20
5.6471460774
 30
0.0
 10
7.2777628391
 20
5.6486205382
 30
0.0
 10
7.2822594027
 20
5.6506852929
 30
0.0
 10
7.2864132772
 20
5.6533315341
 30
0.0
 10
7.2902178165
 20
5.6565439483
 30
0.0
 10
7.293671174
 20
5.6603060163
 30
0.0
 10
7.2967786794
 20
5.6645985773
 30
0.0
 10
7.2995490198
 20
5.6694038227
 30
0.0
 10
7.3019955584
 20
5.6747033327
 30
0.0
 10
7.3041324957
 20
5.6804797534
 30
0.0
 10
7.3059771877
 20
5.6867149483
 30
0.0
 10
7.3075471244
 20
5.6933910557
 30
0.0
 10
7.3093430188
 20
5.7030892326
 30
0.0
 10
7.3102645367
 20
5.7106167724
 30
0.0
 10
7.3107584345
 20
5.7157631605
 30
0.0
  0
SPLINE
  5
2DD
100
AcDbEntity
  8
0
100
AcDbSpline
 62
9
  6
CONTINUOUS
 70
0
 71
3
 72
40
 73
36
 74
0
 42
0.0000001
 43
0.0000001
 44
0.0000000001
 40
0.0
 40
0.0
 40
0.0
 40
0.0
 40
0.0308819673
 40
0.0625377879
 40
0.0947822533
 40
0.1274788886
 40
0.1938379871
 40
0.2610807856
 40
0.2949325517
 40
0.3288944887
 40
0.3629442521
 40
0.3970611406
 40
0.4312281845
 40
0.4654263043
 40
0.4996369417
 40
0.5338378555
 40
0.5679960872
 40
0.6020746722
 40
0.6360204098
 40
0.6697579543
 40
0.6865241927
 40
0.7032023478
 40
0.7197752684
 40
0.7362252497
 40
0.7686708083
 40
0.8003656918
 40
0.8310998222
 40
0.8606362062
 40
0.8887233662
 40
0.915101836
 40
0.9395367106
 40
0.9618455025
 40
0.9721813831
 40
0.9819736997
 40
1.0
 40
1.0
 40
1.0
 40
1.0
 10
6.6852673937
 20
6.1982494279
 30
0.0
 10
6.6890158677
 20
6.1927888754
 30
0.0
 10
6.6962993256
 20
6.1815178357
 30
0.0
 10
6.7065300685
 20
6.1639449977
 30
0.0
 10
6.7162086785
 20
6.1456209442
 30
0.0
 10
6.7284091838
 20
6.1202347875
 30
0.0
 10
6.7421228491
 20
6.0872768454
 30
0.0
 10
6.7536246249
 20
6.0532214527
 30
0.0
 10
6.7614097496
 20
6.0253154704
 30
0.0
 10
6.7664845584
 20
6.0040603484
 30
0.0
 10
6.7707243201
 20
5.9825646019
 30
0.0
 10
6.7740562559
 20
5.960864088
 30
0.0
 10
6.7764047518
 20
5.9390021133
 30
0.0
 10
6.7776773748
 20
5.9170296284
 30
0.0
 10
6.7777851657
 20
5.8950119383
 30
0.0
 10
6.7766460605
 20
5.8730302365
 30
0.0
 10
6.7741597184
 20
5.8511861809
 30
0.0
 10
6.7702552944
 20
5.8296048763
 30
0.0
 10
6.7649217986
 20
5.8084234605
 30
0.0
 10
6.7592310959
 20
5.7912095795
 30
0.0
 10
6.7539544328
 20
5.7777989266
 30
0.0
 10
6.7496592163
 20
5.7679662305
 30
0.0
 10
6.745028323
 20
5.7583622281
 30
0.0
 10
6.7384501697
 20
5.7459540833
 30
0.0
 10
6.7294869455
 20
5.7311538957
 30
0.0
 10
6.7176394693
 20
5.7145867369
 30
0.0
 10
6.7049493861
 20
5.6994605823
 30
0.0
 10
6.6916459545
 20
5.6859365078
 30
0.0
 10
6.6779904606
 20
5.6741518322
 30
0.0
 10
6.6642361908
 20
5.6642525259
 30
0.0
 10
6.6506568911
 20
5.6563539678
 30
0.0
 10
6.6394168514
 20
5.6514158631
 30
0.0
 10
6.6307394543
 20
5.6486407681
 30
0.0
 10
6.6227755746
 20
5.6467449714
 30
0.0
 10
6.6167989688
 20
5.6460842088
 30
0.0
 10
6.6129328163
 20
5.646083821
 30
0.0
  0
SPLINE
  5
2DE
100
AcDbEntity
  8
0
100
AcDbSpline
 62
9
  6
CONTINUOUS
 70
0
 71
3
 72
22
 73
18
 74
0
 42
0.0000001
 43
0.0000001
 44
0.0000000001
 40
0.0
 40
0.0
 40
0.0
 40
0.0
 40
0.0575322736
 40
0.1125896346
 40
0.1657908775
 40
0.2179043348
 40
0.2697614445
 40
0.3222111266
 40
0.3760521588
 40
0.4319845171
 40
0.4905861237
 40
0.552314345
 40
0.6175015344
 40
0.6863673697
 40
0.7590367318
 40
0.8355562725
 40
1.0
 40
1.0
 40
1.0
 40
1.0
 10
6.6129328163
 20
5.646083821
 30
0.0
 10
6.6111315329
 20
5.6460839893
 30
0.0
 10
6.6076026844
 20
5.6462670546
 30
0.0
 10
6.6024733478
 20
5.6471407503
 30
0.0
 10
6.5976564528
 20
5.6486084305
 30
0.0
 10
6.5931683869
 20
5.650662827
 30
0.0
 10
6.5890206888
 20
5.6532949973
 30
0.0
 10
6.5852206445
 20
5.6564914162
 30
0.0
 10
6.5817706686
 20
5.6602360197
 30
0.0
 10
6.5786647053
 20
5.6645086004
 30
0.0
 10
6.575894143
 20
5.6692913152
 30
0.0
 10
6.5734460782
 20
5.6745661357
 30
0.0
 10
6.5713066246
 20
5.6803160765
 30
0.0
 10
6.5694583919
 20
5.6865230962
 30
0.0
 10
6.567884144
 20
5.6931694607
 30
0.0
 10
6.5660814721
 20
5.7028249493
 30
0.0
 10
6.5651544491
 20
5.7103202121
 30
0.0
 10
6.5646569123
 20
5.7154447
 30
0.0
  0
LINE
  5
2DF
100
AcDbEntity
  8
0
100
AcDbLine
 62
9
  6
CONTINUOUS
 10
6.5646569123
 20
5.7154447
 11
6.5646112852
 21
5.7159187307
  0
SPLINE
  5
2E0
100
AcDbEntity
  8
0
100
AcDbSpline
 62
9
  6
CONTINUOUS
 70
0
 71
3
 72
15
 73
11
 74
0
 42
0.0000001
 43
0.0000001
 44
0.0000000001
 40
0.0
 40
0.0
 40
0.0
 40
0.0
 40
0.1006680338
 40
0.2090420164
 40
0.3253279437
 40
0.4491288399
 40
0.5799327493
 40
0.7164245816
 40
0.8571226424
 40
1.0
 40
1.0
 40
1.0
 40
1.0
 10
6.5739616736
 20
5.7240261073
 30
0.0
 10
6.5764918531
 20
5.722339321
 30
0.0
 10
6.5815402435
 20
5.7185180378
 30
0.0
 10
6.5886336058
 20
5.7116837169
 30
0.0
 10
6.5952874315
 20
5.7034934782
 30
0.0
 10
6.601254849
 20
5.6939774363
 30
0.0
 10
6.6062450182
 20
5.6832358045
 30
0.0
 10
6.6100398031
 20
5.6714761124
 30
0.0
 10
6.6123895422
 20
5.6589745503
 30
0.0
 10
6.6129328169
 20
5.6503997428
 30
0.0
 10
6.6129328169
 20
5.6460838209
 30
0.0
  0
SPLINE
  5
2E1
100
AcDbEntity
  8
0
100
AcDbSpline
 62
9
  6
CONTINUOUS
 70
0
 71
3
 72
11
 73
7
 74
0
 42
0.0000001
 43
0.0000001
 44
0.0000000001
 40
0.0
 40
0.0
 40
0.0
 40
0.0
 40
0.2723385517
 40
0.5269286843
 40
0.7677869037
 40
1.0
 40
1.0
 40
1.0
 40
1.0
 10
6.5739619142
 20
5.7240259466
 30
0.0
 10
6.5719878433
 20
5.7240261115
 30
0.0
 10
6.5681631557
 20
5.7242345889
 30
0.0
 10
6.5626754706
 20
5.7252625674
 30
0.0
 10
6.557672674
 20
5.7269985974
 30
0.0
 10
6.5546464963
 20
5.7286527263
 30
0.0
 10
6.5532455461
 20
5.7295857649
 30
0.0
  0
SPLINE
  5
2E2
100
AcDbEntity
  8
0
100
AcDbSpline
 62
9
  6
CONTINUOUS
 70
0
 71
3
 72
14
 73
10
 74
0
 42
0.0000001
 43
0.0000001
 44
0.0000000001
 40
0.0
 40
0.0
 40
0.0
 40
0.0
 40
0.2356473717
 40
0.35794197
 40
0.4828625251
 40
0.6100030347
 40
0.7389761515
 40
0.8692270758
 40
1.0
 40
1.0
 40
1.0
 40
1.0
 10
6.5352066942
 20
6.1680770109
 30
0.0
 10
6.540456856
 20
6.1680968882
 30
0.0
 10
6.5484681408
 20
6.1690605848
 30
0.0
 10
6.5587759467
 20
6.1722005795
 30
0.0
 10
6.56643618
 20
6.1755501271
 30
0.0
 10
6.5737926498
 20
6.1798236169
 30
0.0
 10
6.5807058414
 20
6.1849835702
 30
0.0
 10
6.5870795603
 20
6.1909116858
 30
0.0
 10
6.5909104714
 20
6.1953035152
 30
0.0
 10
6.5927103412
 20
6.1975947107
 30
0.0
  0
ENDSEC
  0
SECTION
  2
OBJECTS
  0
DICTIONARY
  5
C
100
AcDbDictionary
280
0
281
1
  3
ACAD_GROUP
350
D
  3
ACAD_MLINESTYLE
350
17
  3
ACAD_LAYOUT
350
1A
  3
ACAD_PLOTSETTINGS
350
19
  3
ACAD_PLOTSTYLENAME
350
E
  0
DICTIONARY
  5
D
102
{ACAD_REACTORS
330
C
102
}
100
AcDbDictionary
280
0
281
1
  0
ACDBDICTIONARYWDFLT
  5
E
102
{ACAD_REACTORS
330
C
102
}
100
AcDbDictionary
281
1
  3
Normal
350
F
100
AcDbDictionaryWithDefault
340
F
  0
DICTIONARY
  5
17
102
{ACAD_REACTORS
330
C
102
}
100
AcDbDictionary
280
0
281
1
  3
Standard
350
18
  0
DICTIONARY
  5
19
102
{ACAD_REACTORS
330
C
102
}
100
AcDbDictionary
281
1
  0
DICTIONARY
  5
1A
102
{ACAD_REACTORS
330
C
102
}
100
AcDbDictionary
281
1
  3
Model
350
2E3
  3
Layout1
350
2E4
  0
ACDBPLACEHOLDER
  5
F
102
{ACAD_REACTORS
330
E
102
}
  0
MLINESTYLE
  5
18
102
{ACAD_REACTORS
330
17
102
}
100
AcDbMlineStyle
  2
STANDARD
 70
0
  3

 62
256
 51
90.0
 52
90.0
 71
2
 49
0.5
 62
256
  6
BYLAYER
 49
-0.5
 62
256
  6
BYLAYER
  0
LAYOUT
  5
2E3
102
{ACAD_REACTORS
330
1A
102
}
100
AcDbPlotSettings
  1

  2
none_device
  4
ANSI_C_(22.00_x_17.00_Inches)
  6

 40
0.0
 41
0.0
 42
0.0
 43
0.0
 44
558.8
 45
431.8
 46
0.0
 47
0.0
 48
0.0
 49
0.0
140
0.0
141
0.0
142
1.0
143
1.0
 70
1024
 72
0
 73
0
 74
0
  7

 75
0
147
1.0
148
0.0
149
0.0
100
AcDbLayout
  1
Model
 70
0
 71
0
 10
0.0
 20
0.0
 11
22.0
 21
17.0
 12
0.0
 22
0.0
 32
0.0
 14
0.0
 24
0.0
 34
0.0
 15
0.0
 25
0.0
 35
0.0
146
0.0
 13
0.0
 23
0.0
 33
0.0
 16
1.0
 26
0.0
 36
0.0
 17
0.0
 27
1.0
 37
0.0
 76
0
330
202
345
0
346
0
  0
LAYOUT
  5
2E4
102
{ACAD_REACTORS
330
1A
102
}
100
AcDbPlotSettings
  1

  2
none_device
  4
ANSI_C_(22.00_x_17.00_Inches)
  6

 40
0.0
 41
0.0
 42
0.0
 43
0.0
 44
558.8
 45
431.8
 46
0.0
 47
0.0
 48
0.0
 49
0.0
140
0.0
141
0.0
142
1.0
143
1.0
 70
0
 72
0
 73
0
 74
0
  7

 75
0
147
1.0
148
0.0
149
0.0
100
AcDbLayout
  1
Layout1
 70
0
 71
1
 10
0.0
 20
0.0
 11
22.0
 21
17.0
 12
0.0
 22
0.0
 32
0.0
 14
0.0
 24
0.0
 34
0.0
 15
0.0
 25
0.0
 35
0.0
146
0.0
 13
0.0
 23
0.0
 33
0.0
 16
1.0
 26
0.0
 36
0.0
 17
0.0
 27
1.0
 37
0.0
 76
0
330
203
345
0
346
0
  0
ENDSEC
  0
EOF
