999
DXF file: E:\BT Custom\CADOUTPUT\_RIGHT.dxf
999
Pro/ENGINEER 2018400 by Parametric Technology Corporation
  0
SECTION
  2
HEADER
  9
$ACADVER
  1
AC1018
  9
$DWGCODEPAGE
  3
ANSI_1252
  9
$EXTMAX
 10
22.0
 20
17.0
 30
0.0
  9
$EXTMIN
 10
0.0
 20
0.0
 30
0.0
  9
$LIMMIN
 10
0.0
 20
0.0
  9
$LIMMAX
 10
22.0
 20
17.0
  9
$VIEWCTR
 10
11.0
 20
8.5
  9
$VIEWSIZE
 40
17.0
  9
$CLAYER
  8
0
  9
$LTSCALE
 40
1.21
  9
$CELTYPE
  6
BYLAYER
  9
$DIMSCALE
 40
1.0
  9
$DIMASZ
 40
0.1
  9
$DIMEXO
 40
0.0625
  9
$DIMDLI
 40
0.836
  9
$DIMEXE
 40
0.125
  9
$DIMCEN
 40
0.198
  9
$DIMLFAC
 40
1.0
  9
$DIMBLK
  1
_FILLED
  9
$DIMALT
 70
1
  9
$DIMALTD
 70
2
  9
$DIMALTTD
 70
2
  9
$DIMALTF
 40
25.4
  9
$DIMTXT
 40
0.08
  9
$DIMTOL
 70
1
  9
$DIMLIM
 70
0
  9
$DIMTFAC
 40
1.0
  9
$DIMTP
 40
0.001
  9
$DIMTM
 40
0.001
  9
$DIMGAP
 40
0.09
  9
$DIMDSEP
 70
46
  9
$AUNITS
 70
0
  9
$PDMODE
 70
3
  9
$PDSIZE
 40
0.06
  9
$HANDSEED
  5
26C
  9
$TILEMODE
 70
1
  9
$MEASUREMENT
 70
0
  9
$INSUNITS
 70
1
  0
ENDSEC
  0
SECTION
  2
CLASSES
  0
CLASS
  1
ACDBDICTIONARYWDFLT
  2
AcDbDictionaryWithDefault
  3
AutoCAD 2000
 90
0
 91
1
280
0
281
0
  0
CLASS
  1
ACDBPLACEHOLDER
  2
AcDbPlaceHolder
  3
AutoCAD 2000
 90
0
 91
1
280
0
281
0
  0
CLASS
  1
LAYOUT
  2
AcDbLayout
  3
AutoCAD 2000
 90
0
 91
0
280
0
281
0
  0
ENDSEC
  0
SECTION
  2
TABLES
  0
TABLE
  2
VPORT
  5
8
100
AcDbSymbolTable
 70
2
  0
VPORT
  5
1F4
100
AcDbSymbolTableRecord
100
AcDbViewportTableRecord
  2
*ACTIVE
 70
0
 10
0.0
 20
0.0
 11
1.0
 21
1.0
 12
11.0
 22
8.5
 13
0.0
 23
0.0
 14
1.0
 24
1.0
 15
0.0
 25
0.0
 16
0.0
 26
0.0
 36
1.0
 17
0.0
 27
0.0
 37
0.0
 40
17.0
 41
1.2941176471
 42
50.0
 43
0.0
 44
0.0
 50
0.0
 51
0.0
 71
0
 72
100
 73
1
 74
1
 75
0
 76
0
 77
0
 78
0
  0
ENDTAB
  0
TABLE
  2
LTYPE
  5
5
100
AcDbSymbolTable
 70
6
  0
LTYPE
  5
14
100
AcDbSymbolTableRecord
100
AcDbLinetypeTableRecord
  2
BYBLOCK
 70
0
  3

 72
65
 73
0
 40
0.0
  0
LTYPE
  5
15
100
AcDbSymbolTableRecord
100
AcDbLinetypeTableRecord
  2
BYLAYER
 70
0
  3

 72
65
 73
0
 40
0.0
  0
LTYPE
  5
16
100
AcDbSymbolTableRecord
100
AcDbLinetypeTableRecord
  2
CONTINUOUS
 70
64
  3
Solid line
 72
65
 73
0
 40
0.0
  0
LTYPE
  5
1F5
100
AcDbSymbolTableRecord
100
AcDbLinetypeTableRecord
  2
CENTER
 70
64
  3
____ _ ____ _ ____ _ ____ _ ____ _ ____ _ ____
 72
65
 73
4
 40
0.6
 49
0.375
 74
0
 49
-0.075
 74
0
 49
0.075
 74
0
 49
-0.075
 74
0
  0
LTYPE
  5
1F6
100
AcDbSymbolTableRecord
100
AcDbLinetypeTableRecord
  2
HIDDEN
 70
64
  3
- - - - - - - - - - - - - - - - - - - -
 72
65
 73
2
 40
0.2
 49
0.1
 74
0
 49
-0.1
 74
0
  0
LTYPE
  5
1F7
100
AcDbSymbolTableRecord
100
AcDbLinetypeTableRecord
  2
PHANTOM
 70
64
  3
_____ _ _ _____ _ _ _____ _ _ _____
 72
65
 73
6
 40
0.8
 49
0.45
 74
0
 49
-0.05
 74
0
 49
0.1
 74
0
 49
-0.05
 74
0
 49
0.1
 74
0
 49
-0.05
 74
0
  0
LTYPE
  5
1F8
100
AcDbSymbolTableRecord
100
AcDbLinetypeTableRecord
  2
DOT
 70
64
  3
. . . . . . . . . . . . . . . . . . . .
 72
65
 73
2
 40
0.2
 49
0.1
 74
0
 49
-0.1
 74
0
  0
LTYPE
  5
1F9
100
AcDbSymbolTableRecord
100
AcDbLinetypeTableRecord
  2
DASHED
 70
64
  3
- - - - - - - - - - - - - - - - - - - -
 72
65
 73
2
 40
0.2
 49
0.1
 74
0
 49
-0.1
 74
0
  0
ENDTAB
  0
TABLE
  2
LAYER
  5
2
100
AcDbSymbolTable
 70
36
  0
LAYER
  5
10
100
AcDbSymbolTableRecord
100
AcDbLayerTableRecord
  2
0
 70
0
 62
7
  6
CONTINUOUS
370
-3
390
F
  0
LAYER
  5
1FA
100
AcDbSymbolTableRecord
100
AcDbLayerTableRecord
  2
DEFAULT_1
 70
0
 62
7
  6
CENTER
370
-3
390
F
  0
LAYER
  5
1FB
100
AcDbSymbolTableRecord
100
AcDbLayerTableRecord
  2
DEFAULT_2
 70
0
 62
8
  6
HIDDEN
370
-3
390
F
  0
LAYER
  5
1FC
100
AcDbSymbolTableRecord
100
AcDbLayerTableRecord
  2
DEFAULT_3
 70
0
 62
7
  6
PHANTOM
370
-3
390
F
  0
LAYER
  5
1FD
100
AcDbSymbolTableRecord
100
AcDbLayerTableRecord
  2
ALL_FEATURES
 70
0
 62
7
  6
CONTINUOUS
370
-3
390
F
  0
LAYER
  5
1FE
100
AcDbSymbolTableRecord
100
AcDbLayerTableRecord
  2
AXES_FEATURES
 70
0
 62
7
  6
CONTINUOUS
370
-3
390
F
  0
LAYER
  5
1FF
100
AcDbSymbolTableRecord
100
AcDbLayerTableRecord
  2
DIMENSIONS
 70
0
 62
7
  6
CONTINUOUS
370
-3
390
F
  0
ENDTAB
  0
TABLE
  2
STYLE
  5
3
100
AcDbSymbolTable
 70
1
  0
STYLE
  5
11
100
AcDbSymbolTableRecord
100
AcDbTextStyleTableRecord
  2
STANDARD
 70
0
 40
0.0
 41
0.8
 50
0.0
 71
0
 42
0.2
  3
txt
  4

  0
STYLE
  5
200
100
AcDbSymbolTableRecord
100
AcDbTextStyleTableRecord
  2
TEXTSTYLE_1
 70
0
 40
0.0
 41
0.8
 50
0.0
 71
0
 42
0.2
  3
gdt
  4

  0
ENDTAB
  0
TABLE
  2
VIEW
  5
6
100
AcDbSymbolTable
 70
0
  0
ENDTAB
  0
TABLE
  2
UCS
  5
7
100
AcDbSymbolTable
 70
0
  0
ENDTAB
  0
TABLE
  2
APPID
  5
9
100
AcDbSymbolTable
 70
1
  0
APPID
  5
201
100
AcDbSymbolTableRecord
100
AcDbRegAppTableRecord
  2
ACAD
 70
0
  0
ENDTAB
  0
TABLE
  2
BLOCK_RECORD
  5
1
100
AcDbSymbolTable
 70
0
  0
BLOCK_RECORD
  5
202
100
AcDbSymbolTableRecord
100
AcDbBlockTableRecord
  2
*Model_Space
  0
BLOCK_RECORD
  5
203
100
AcDbSymbolTableRecord
100
AcDbBlockTableRecord
  2
*Paper_Space
  0
BLOCK_RECORD
  5
204
100
AcDbSymbolTableRecord
100
AcDbBlockTableRecord
  2
_FILLED
  0
ENDTAB
  0
TABLE
  2
DIMSTYLE
  5
A
100
AcDbSymbolTable
 70
1
100
AcDbDimStyleTable
 71
0
  0
DIMSTYLE
105
205
100
AcDbSymbolTableRecord
100
AcDbDimStyleTableRecord
  2
STANDARD
 70
0
  3

  4

 40
1.0
 41
0.1
 42
0.0625
 43
0.38
 44
0.125
 45
0.0
 46
0.0
 47
0.001
 48
0.001
140
0.08
141
0.09
142
0.0
143
25.4
144
1.0
145
0.0
146
1.0
147
0.09
 71
1.0
 72
0.0
 73
1
 74
1
 75
0
 76
0
 77
0
 78
4
 79
1
170
1
171
2
172
0
173
0
174
0
175
0
176
0
177
0
178
0
270
2
179
3
271
3
272
3
273
2
274
2
275
0
280
0
281
0
282
0
283
1
284
4
285
0
286
0
287
3
288
0
340
11
278
46
341
204
342
204
343
204
344
204
  0
ENDTAB
  0
ENDSEC
  0
SECTION
  2
BLOCKS
  0
BLOCK
  5
20
100
AcDbEntity
  8
0
100
AcDbBlockBegin
  2
*Model_Space
 70
0
 10
0.0
 20
0.0
 30
0.0
  3
*Model_Space
  1

  0
ENDBLK
  5
21
100
AcDbEntity
  8
0
100
AcDbBlockEnd
  0
BLOCK
  5
1C
100
AcDbEntity
  8
0
100
AcDbBlockBegin
  2
*Paper_Space
 70
0
 10
0.0
 20
0.0
 30
0.0
  3
*Paper_Space
  1

  0
ENDBLK
  5
1D
100
AcDbEntity
  8
0
100
AcDbBlockEnd
  0
BLOCK
  5
206
100
AcDbEntity
  8
0
100
AcDbBlockBegin
  2
_FILLED
 70
64
 10
0.0
 20
0.0
  3
_FILLED
  1

  0
SOLID
  5
207
100
AcDbEntity
  8
0
  6
BYBLOCK
 62
0
100
AcDbTrace
 10
0.0
 20
0.0
 11
-1.0
 21
0.2
 12
-1.0
 22
-0.2
 13
-1.0
 23
-0.2
  0
ENDBLK
  5
208
100
AcDbEntity
  8
0
  6
BYBLOCK
 62
0
100
AcDbBlockEnd
  0
ENDSEC
  0
SECTION
  2
ENTITIES
  0
LINE
  5
209
100
AcDbEntity
  8
0
100
AcDbLine
 62
7
  6
CONTINUOUS
 10
12.5862323243
 20
3.2373048485
 11
14.9612243731
 21
3.2373048485
  0
LINE
  5
20A
100
AcDbEntity
  8
0
100
AcDbLine
 62
7
  6
CONTINUOUS
 10
14.961223614
 20
3.6123048485
 11
12.5862330834
 21
3.6123048485
  0
LINE
  5
20B
100
AcDbEntity
  8
0
100
AcDbLine
 62
7
  6
CONTINUOUS
 10
6.2102283487
 20
10.7913048485
 11
6.2102283487
 21
9.2323048485
  0
LINE
  5
20C
100
AcDbEntity
  8
0
100
AcDbLine
 62
7
  6
CONTINUOUS
 10
14.4299741046
 20
4.7203048485
 11
13.1174825928
 21
4.7203048485
  0
LINE
  5
20D
100
AcDbEntity
  8
0
100
AcDbLine
 62
7
  6
CONTINUOUS
 10
13.4587405759
 20
4.7403048485
 11
14.0887161215
 21
4.7403048485
  0
LINE
  5
20E
100
AcDbEntity
  8
0
100
AcDbLine
 62
7
  6
CONTINUOUS
 10
14.4161020452
 20
4.7998048485
 11
14.8757283487
 21
4.7998048485
  0
LINE
  5
20F
100
AcDbEntity
  8
0
100
AcDbLine
 62
7
  6
CONTINUOUS
 10
7.0852283487
 20
10.7913048485
 11
7.0852283487
 21
9.2323048485
  0
LINE
  5
210
100
AcDbEntity
  8
0
100
AcDbLine
 62
7
  6
CONTINUOUS
 10
14.4161020452
 20
5.1748048485
 11
14.8757283487
 21
5.1748048485
  0
LINE
  5
211
100
AcDbEntity
  8
0
100
AcDbLine
 62
7
  6
CONTINUOUS
 10
13.3987401778
 20
5.3403048485
 11
14.1487165196
 21
5.3403048485
  0
LINE
  5
212
100
AcDbEntity
  8
0
100
AcDbLine
 62
7
  6
CONTINUOUS
 10
13.2338439234
 20
5.9403048485
 11
13.2340107648
 21
5.9403048606
  0
LINE
  5
213
100
AcDbEntity
  8
0
100
AcDbLine
 62
7
  6
CONTINUOUS
 10
12.5376300165
 20
5.9403048485
 11
13.0793311521
 21
5.9403048485
  0
LINE
  5
214
100
AcDbEntity
  8
0
100
AcDbLine
 62
7
  6
CONTINUOUS
 10
13.2338436508
 20
5.9403048485
 11
15.0088113662
 21
5.9403060256
  0
LINE
  5
215
100
AcDbEntity
  8
0
100
AcDbLine
 62
7
  6
CONTINUOUS
 10
13.0793363208
 20
5.9403048486
 11
13.0793323035
 21
5.9403048487
  0
LINE
  5
216
100
AcDbEntity
  8
0
100
AcDbLine
 62
7
  6
CONTINUOUS
 10
12.5376300165
 20
6.3403048485
 11
15.0098266809
 21
6.3403048485
  0
LINE
  5
217
100
AcDbEntity
  8
0
100
AcDbLine
 62
9
  6
CONTINUOUS
 10
14.4537283487
 20
6.3923048485
 11
13.0937283487
 21
6.3923048485
  0
LINE
  5
218
100
AcDbEntity
  8
0
100
AcDbLine
 62
7
  6
CONTINUOUS
 10
14.4237283487
 20
6.4223048485
 11
13.1237296224
 21
6.4223048485
  0
LINE
  5
219
100
AcDbEntity
  8
0
100
AcDbLine
 62
7
  6
CONTINUOUS
 10
13.0773364269
 20
5.9403048485
 11
13.0814055311
 21
5.9396301034
  0
LWPOLYLINE
  5
21A
100
AcDbEntity
  8
0
100
AcDbPolyline
 62
7
  6
CONTINUOUS
 90
4
 70
0
 10
13.0813833531
 20
5.939633781
 10
13.0917290637
 20
5.9361938651
 10
13.1054694364
 20
5.9280209109
 10
13.1155865507
 20
5.9184736841
  0
LINE
  5
21B
100
AcDbEntity
  8
0
100
AcDbLine
 62
7
  6
CONTINUOUS
 10
13.1155892229
 20
5.9184705778
 11
13.4758683784
 21
5.5024561083
  0
LINE
  5
21C
100
AcDbEntity
  8
0
100
AcDbLine
 62
7
  6
CONTINUOUS
 10
13.1155929361
 20
5.9184663301
 11
13.1155956587
 21
5.9184631465
  0
LINE
  5
21D
100
AcDbEntity
  8
0
100
AcDbLine
 62
7
  6
CONTINUOUS
 10
6.2102285909
 20
9.2323048485
 11
7.0852281065
 21
9.2323048485
  0
LINE
  5
21E
100
AcDbEntity
  8
0
100
AcDbLine
 62
7
  6
CONTINUOUS
 10
13.5596866692
 20
5.9403048485
 11
13.6402235237
 21
5.8473088991
  0
LINE
  5
21F
100
AcDbEntity
  8
0
100
AcDbLine
 62
7
  6
CONTINUOUS
 10
7.0852281065
 20
10.0423048485
 11
6.2102285909
 21
10.0423048485
  0
LINE
  5
220
100
AcDbEntity
  8
0
100
AcDbLine
 62
7
  6
CONTINUOUS
 10
12.5862283487
 20
3.6123048485
 11
12.5862283487
 21
3.2373048485
  0
LINE
  5
221
100
AcDbEntity
  8
0
100
AcDbLine
 62
9
  6
CONTINUOUS
 10
14.2112283487
 20
10.7913048485
 11
13.3362283487
 21
10.7913048485
  0
LINE
  5
222
100
AcDbEntity
  8
0
100
AcDbLine
 62
9
  6
CONTINUOUS
 10
7.0852283487
 20
10.7913048485
 11
6.2102283487
 21
10.7913048485
  0
LINE
  5
223
100
AcDbEntity
  8
0
100
AcDbLine
 62
7
  6
CONTINUOUS
 10
13.0937283487
 20
6.3923048485
 11
13.0937283487
 21
6.3403048485
  0
LINE
  5
224
100
AcDbEntity
  8
0
100
AcDbLine
 62
7
  6
CONTINUOUS
 10
13.0937283487
 20
5.9350046642
 11
13.0937283487
 21
3.6123048485
  0
LINE
  5
225
100
AcDbEntity
  8
0
100
AcDbLine
 62
7
  6
CONTINUOUS
 10
13.1174783487
 20
4.7203048485
 11
13.1174783487
 21
3.6123048485
  0
LINE
  5
226
100
AcDbEntity
  8
0
100
AcDbLine
 62
7
  6
CONTINUOUS
 10
13.3362283487
 20
6.4223048485
 11
13.3362283487
 21
10.7913048485
  0
LINE
  5
227
100
AcDbEntity
  8
0
100
AcDbLine
 62
7
  6
CONTINUOUS
 10
13.3987283487
 20
5.5915296767
 11
13.3987283487
 21
5.3403048485
  0
LINE
  5
228
100
AcDbEntity
  8
0
100
AcDbLine
 62
7
  6
CONTINUOUS
 10
13.4587283487
 20
5.3403048485
 11
13.4587283487
 21
4.7403048485
  0
LINE
  5
229
100
AcDbEntity
  8
0
100
AcDbLine
 62
7
  6
CONTINUOUS
 10
13.5899792218
 20
4.7203048485
 11
13.5899792218
 21
4.7403048485
  0
LINE
  5
22A
100
AcDbEntity
  8
0
100
AcDbLine
 62
7
  6
CONTINUOUS
 10
13.5957474275
 20
4.7403048485
 11
13.5957474275
 21
4.7203048485
  0
LINE
  5
22B
100
AcDbEntity
  8
0
100
AcDbLine
 62
7
  6
CONTINUOUS
 10
13.6121851549
 20
4.7203048485
 11
13.6121851549
 21
4.7403048485
  0
LINE
  5
22C
100
AcDbEntity
  8
0
100
AcDbLine
 62
7
  6
CONTINUOUS
 10
13.628611615
 20
4.7403048485
 11
13.628611615
 21
4.7203048485
  0
LINE
  5
22D
100
AcDbEntity
  8
0
100
AcDbLine
 62
7
  6
CONTINUOUS
 10
13.6515126743
 20
4.7203048485
 11
13.6515126743
 21
4.7403048485
  0
LINE
  5
22E
100
AcDbEntity
  8
0
100
AcDbLine
 62
7
  6
CONTINUOUS
 10
13.658984575
 20
4.7203048485
 11
13.658984575
 21
4.7403048485
  0
LINE
  5
22F
100
AcDbEntity
  8
0
100
AcDbLine
 62
7
  6
CONTINUOUS
 10
13.6835685098
 20
4.7403048485
 11
13.6835685098
 21
4.7203048485
  0
LINE
  5
230
100
AcDbEntity
  8
0
100
AcDbLine
 62
7
  6
CONTINUOUS
 10
13.7023780616
 20
4.7203048485
 11
13.7023780616
 21
4.7403048485
  0
LINE
  5
231
100
AcDbEntity
  8
0
100
AcDbLine
 62
7
  6
CONTINUOUS
 10
13.7201580592
 20
4.7403048485
 11
13.7201580592
 21
4.7203048485
  0
LINE
  5
232
100
AcDbEntity
  8
0
100
AcDbLine
 62
7
  6
CONTINUOUS
 10
13.7232526944
 20
4.7203048485
 11
13.7232526944
 21
4.7403048485
  0
LINE
  5
233
100
AcDbEntity
  8
0
100
AcDbLine
 62
7
  6
CONTINUOUS
 10
13.7522514227
 20
4.7403048485
 11
13.7522514227
 21
4.7203048485
  0
LINE
  5
234
100
AcDbEntity
  8
0
100
AcDbLine
 62
7
  6
CONTINUOUS
 10
13.7641058833
 20
4.7203048485
 11
13.7641058833
 21
4.7403048485
  0
LINE
  5
235
100
AcDbEntity
  8
0
100
AcDbLine
 62
7
  6
CONTINUOUS
 10
13.7833508141
 20
4.7403048485
 11
13.7833508141
 21
4.7203048485
  0
LINE
  5
236
100
AcDbEntity
  8
0
100
AcDbLine
 62
7
  6
CONTINUOUS
 10
13.7952052747
 20
4.7203048485
 11
13.7952052747
 21
4.7403048485
  0
LINE
  5
237
100
AcDbEntity
  8
0
100
AcDbLine
 62
7
  6
CONTINUOUS
 10
13.824204003
 20
4.7403048485
 11
13.824204003
 21
4.7203048485
  0
LINE
  5
238
100
AcDbEntity
  8
0
100
AcDbLine
 62
7
  6
CONTINUOUS
 10
13.8272986382
 20
4.7203048485
 11
13.8272986382
 21
4.7403048485
  0
LINE
  5
239
100
AcDbEntity
  8
0
100
AcDbLine
 62
7
  6
CONTINUOUS
 10
13.8450786358
 20
4.7403048485
 11
13.8450786358
 21
4.7203048485
  0
LINE
  5
23A
100
AcDbEntity
  8
0
100
AcDbLine
 62
7
  6
CONTINUOUS
 10
13.8638881876
 20
4.7203048485
 11
13.8638881876
 21
4.7403048485
  0
LINE
  5
23B
100
AcDbEntity
  8
0
100
AcDbLine
 62
7
  6
CONTINUOUS
 10
13.8884721224
 20
4.7403048485
 11
13.8884721224
 21
4.7203048485
  0
LINE
  5
23C
100
AcDbEntity
  8
0
100
AcDbLine
 62
7
  6
CONTINUOUS
 10
13.8959440231
 20
4.7403048485
 11
13.8959440231
 21
4.7203048485
  0
LINE
  5
23D
100
AcDbEntity
  8
0
100
AcDbLine
 62
7
  6
CONTINUOUS
 10
13.9188450824
 20
4.7203048485
 11
13.9188450824
 21
4.7403048485
  0
LINE
  5
23E
100
AcDbEntity
  8
0
100
AcDbLine
 62
7
  6
CONTINUOUS
 10
13.9352715425
 20
4.7403048485
 11
13.9352715425
 21
4.7203048485
  0
LINE
  5
23F
100
AcDbEntity
  8
0
100
AcDbLine
 62
7
  6
CONTINUOUS
 10
13.9517092699
 20
4.7203048485
 11
13.9517092699
 21
4.7403048485
  0
LINE
  5
240
100
AcDbEntity
  8
0
100
AcDbLine
 62
7
  6
CONTINUOUS
 10
13.9574774756
 20
4.7403048485
 11
13.9574774756
 21
4.7203048485
  0
LINE
  5
241
100
AcDbEntity
  8
0
100
AcDbLine
 62
7
  6
CONTINUOUS
 10
14.0887283487
 20
5.3403048485
 11
14.0887283487
 21
4.7403048485
  0
LINE
  5
242
100
AcDbEntity
  8
0
100
AcDbLine
 62
7
  6
CONTINUOUS
 10
14.1487283487
 20
5.3883061229
 11
14.1487283487
 21
5.3403048485
  0
LINE
  5
243
100
AcDbEntity
  8
0
100
AcDbLine
 62
7
  6
CONTINUOUS
 10
14.2112283487
 20
6.4223048485
 11
14.2112283487
 21
10.7913048485
  0
LINE
  5
244
100
AcDbEntity
  8
0
100
AcDbLine
 62
7
  6
CONTINUOUS
 10
14.4161020452
 20
5.5946359227
 11
14.4161020452
 21
4.7203048485
  0
LINE
  5
245
100
AcDbEntity
  8
0
100
AcDbLine
 62
7
  6
CONTINUOUS
 10
14.4299783487
 20
4.7203048485
 11
14.4299783487
 21
3.6123048485
  0
LINE
  5
246
100
AcDbEntity
  8
0
100
AcDbLine
 62
7
  6
CONTINUOUS
 10
14.4537283487
 20
6.3923048485
 11
14.4537283487
 21
6.3403048485
  0
LINE
  5
247
100
AcDbEntity
  8
0
100
AcDbLine
 62
7
  6
CONTINUOUS
 10
14.4537283487
 20
3.7003035681
 11
14.4537283487
 21
3.6123048485
  0
LINE
  5
248
100
AcDbEntity
  8
0
100
AcDbLine
 62
7
  6
CONTINUOUS
 10
14.8757283487
 20
4.7998048485
 11
14.8757283487
 21
5.1748048485
  0
LINE
  5
249
100
AcDbEntity
  8
0
100
AcDbLine
 62
7
  6
CONTINUOUS
 10
14.9612283487
 20
3.6123048485
 11
14.9612283487
 21
3.2373048485
  0
LINE
  5
24A
100
AcDbEntity
  8
0
100
AcDbLine
 62
7
  6
CONTINUOUS
 10
14.2837283487
 20
5.9223551219
 11
14.3148181872
 21
5.9403048485
  0
LINE
  5
24B
100
AcDbEntity
  8
0
100
AcDbLine
 62
7
  6
CONTINUOUS
 10
14.1937283487
 20
5.4662484092
 11
14.9967173199
 21
5.9298543079
  0
ARC
  5
24C
100
AcDbEntity
  8
0
100
AcDbCircle
 62
7
  6
CONTINUOUS
 10
10.2107283487
 20
10.7913048485
 40
4.0005
100
AcDbArc
 50
0.0
 51
180.0
  0
ARC
  5
24D
100
AcDbEntity
  8
0
100
AcDbCircle
 62
7
  6
CONTINUOUS
 10
10.2107283487
 20
10.7913048485
 40
3.1255
100
AcDbArc
 50
0.0
 51
180.0
  0
ARC
  5
24E
100
AcDbEntity
  8
0
100
AcDbCircle
 62
9
  6
CONTINUOUS
 10
15.0080425981
 20
6.2092258461
 40
0.268920834
100
AcDbArc
 50
270.163993323
 51
270.6482917943
  0
ARC
  5
24F
100
AcDbEntity
  8
0
100
AcDbCircle
 62
7
  6
CONTINUOUS
 10
12.5362283487
 20
6.1403048485
 40
0.2
100
AcDbArc
 50
90.0
 51
270.0
  0
ARC
  5
250
100
AcDbEntity
  8
0
100
AcDbCircle
 62
7
  6
CONTINUOUS
 10
15.0112283487
 20
6.1403048485
 40
0.2
100
AcDbArc
 50
276.034909015
 51
90.0
  0
ARC
  5
251
100
AcDbEntity
  8
0
100
AcDbCircle
 62
7
  6
CONTINUOUS
 10
15.042110795
 20
5.8507579865
 40
0.0912061452
100
AcDbArc
 50
110.5149540833
 51
110.9979910651
  0
ARC
  5
252
100
AcDbEntity
  8
0
100
AcDbCircle
 62
7
  6
CONTINUOUS
 10
15.0420863366
 20
5.8508213827
 40
0.0911381947
100
AcDbArc
 50
110.9979174191
 51
111.9462109479
  0
ARC
  5
253
100
AcDbEntity
  8
0
100
AcDbCircle
 62
7
  6
CONTINUOUS
 10
15.0418244885
 20
5.8516757745
 40
0.0902462418
100
AcDbArc
 50
96.0868037265
 51
110.5489147848
  0
ARC
  5
254
100
AcDbEntity
  8
0
100
AcDbCircle
 62
7
  6
CONTINUOUS
 10
15.0413369108
 20
5.8525090631
 40
0.0892927477
100
AcDbArc
 50
111.9049059911
 51
119.9801578081
  0
ARC
  5
255
100
AcDbEntity
  8
0
100
AcDbCircle
 62
7
  6
CONTINUOUS
 10
13.1237283487
 20
6.3923048485
 40
0.03
100
AcDbArc
 50
90.0
 51
180.0
  0
ARC
  5
256
100
AcDbEntity
  8
0
100
AcDbCircle
 62
7
  6
CONTINUOUS
 10
14.4237283487
 20
6.3923048485
 40
0.03
100
AcDbArc
 50
0.0
 51
90.0
  0
SPLINE
  5
257
100
AcDbEntity
  8
0
100
AcDbSpline
 62
7
  6
CONTINUOUS
 70
0
 71
3
 72
36
 73
32
 74
0
 42
0.0000001
 43
0.0000001
 44
0.0000000001
 40
0.0
 40
0.0
 40
0.0
 40
0.0
 40
0.2193308559
 40
0.3207538161
 40
0.4162532099
 40
0.5055264186
 40
0.5882692399
 40
0.6641739355
 40
0.7329593552
 40
0.7943752978
 40
0.8481708486
 40
0.872132194
 40
0.8940995895
 40
0.9140532783
 40
0.931973753
 40
0.947841463
 40
0.9616368156
 40
0.9733401791
 40
0.9784012204
 40
0.9829318887
 40
0.9869303254
 40
0.9903961751
 40
0.9933293138
 40
0.9957296174
 40
0.9975969618
 40
0.9983307356
 40
0.998931223
 40
0.9993984085
 40
0.9997322768
 40
0.9999328122
 40
1.0
 40
1.0
 40
1.0
 40
1.0
 10
14.4299337804
 20
3.7867252181
 30
0.0
 10
14.431284134
 20
3.7803087884
 30
0.0
 10
14.4333937744
 20
3.7709529505
 30
0.0
 10
14.4363739337
 20
3.758870824
 30
0.0
 10
14.4385225807
 20
3.750588859
 30
0.0
 10
14.4406172869
 20
3.7428704231
 30
0.0
 10
14.4426318003
 20
3.7357376388
 30
0.0
 10
14.4445397157
 20
3.7292115301
 30
0.0
 10
14.4463172313
 20
3.7233118001
 30
0.0
 10
14.447943607
 20
3.7180570236
 30
0.0
 10
14.4491999127
 20
3.714090573
 30
0.0
 10
14.4501116785
 20
3.7112521176
 30
0.0
 10
14.4507183601
 20
3.7093782992
 30
0.0
 10
14.4512732652
 20
3.7076775463
 30
0.0
 10
14.4517748759
 20
3.7061512222
 30
0.0
 10
14.4522217045
 20
3.704800691
 30
0.0
 10
14.4526122576
 20
3.7036273147
 30
0.0
 10
14.4529020873
 20
3.7027609102
 30
0.0
 10
14.4531045366
 20
3.702157333
 30
0.0
 10
14.4532338566
 20
3.7017721812
 30
0.0
 10
14.4533480245
 20
3.7014322464
 30
0.0
 10
14.4534470228
 20
3.7011375994
 30
0.0
 10
14.4535308178
 20
3.7008882392
 30
0.0
 10
14.4535994568
 20
3.7006842183
 30
0.0
 10
14.4536470602
 20
3.7005424484
 30
0.0
 10
14.4536777033
 20
3.7004518197
 30
0.0
 10
14.4536946642
 20
3.7004006066
 30
0.0
 10
14.4537086325
 20
3.7003613521
 30
0.0
 10
14.4537168739
 20
3.7003319591
 30
0.0
 10
14.4537249689
 20
3.7003167147
 30
0.0
 10
14.4537251177
 20
3.7003072743
 30
0.0
 10
14.4537267786
 20
3.7003061449
 30
0.0
  0
LINE
  5
258
100
AcDbEntity
  8
0
100
AcDbLine
 62
7
  6
CONTINUOUS
 10
14.4537267787
 20
3.7003061448
 11
14.4533777392
 21
3.7013444734
  0
SPLINE
  5
259
100
AcDbEntity
  8
0
100
AcDbSpline
 62
7
  6
CONTINUOUS
 70
0
 71
3
 72
14
 73
10
 74
0
 42
0.0000001
 43
0.0000001
 44
0.0000000001
 40
0.0
 40
0.0
 40
0.0
 40
0.0
 40
0.1067030181
 40
0.2197105069
 40
0.4630547239
 40
0.5926757845
 40
0.7261301122
 40
0.8623595315
 40
1.0
 40
1.0
 40
1.0
 40
1.0
 10
14.1937283487
 20
5.4662484092
 30
0.0
 10
14.1908288738
 20
5.4645743966
 30
0.0
 10
14.1850451237
 20
5.4607896571
 30
0.0
 10
14.173860927
 20
5.4514791377
 30
0.0
 10
14.1640273239
 20
5.439564249
 30
0.0
 10
14.1564858136
 20
5.4255358262
 30
0.0
 10
14.1520854299
 20
5.413758103
 30
0.0
 10
14.1493593997
 20
5.4012299007
 30
0.0
 10
14.1487283487
 20
5.3926248738
 30
0.0
 10
14.1487283487
 20
5.3883061229
 30
0.0
  0
SPLINE
  5
25A
100
AcDbEntity
  8
0
100
AcDbSpline
 62
7
  6
CONTINUOUS
 70
0
 71
3
 72
19
 73
15
 74
0
 42
0.0000001
 43
0.0000001
 44
0.0000000001
 40
0.0
 40
0.0
 40
0.0
 40
0.0
 40
0.1053678762
 40
0.1610274068
 40
0.2186339852
 40
0.339062608
 40
0.4657573283
 40
0.5310275442
 40
0.5972665054
 40
0.6642431555
 40
0.731653037
 40
0.7992119515
 40
0.8666682145
 40
1.0
 40
1.0
 40
1.0
 40
1.0
 10
14.2837283488
 20
5.9223551219
 30
0.0
 10
14.2800149645
 20
5.9202111985
 30
0.0
 10
14.274094257
 20
5.9173357062
 30
0.0
 10
14.2657087278
 20
5.9143431357
 30
0.0
 10
14.2565237773
 20
5.9118452457
 30
0.0
 10
14.244196779
 20
5.9100349404
 30
0.0
 10
14.2314202301
 20
5.9103372761
 30
0.0
 10
14.2210233691
 20
5.9119332531
 30
0.0
 10
14.2131712998
 20
5.9138762341
 30
0.0
 10
14.2054461286
 20
5.9165512874
 30
0.0
 10
14.1979425181
 20
5.9199295288
 30
0.0
 10
14.190763134
 20
5.9239948106
 30
0.0
 10
14.1817909222
 20
5.9302371912
 30
0.0
 10
14.17572456
 20
5.9357982293
 30
0.0
 10
14.1720791772
 20
5.9398170125
 30
0.0
  0
SPLINE
  5
25B
100
AcDbEntity
  8
0
100
AcDbSpline
 62
9
  6
CONTINUOUS
 70
0
 71
3
 72
23
 73
19
 74
0
 42
0.0000001
 43
0.0000001
 44
0.0000000001
 40
0.0
 40
0.0
 40
0.0
 40
0.0
 40
0.001130903
 40
0.0045685799
 40
0.0102851493
 40
0.0182527292
 40
0.0284434452
 40
0.0408294314
 40
0.072072326
 40
0.1117014471
 40
0.1593948568
 40
0.2148301476
 40
0.2776748885
 40
0.3475367813
 40
0.424003491
 40
0.5951135517
 40
0.7879921137
 40
1.0
 40
1.0
 40
1.0
 40
1.0
 10
15.0322552254
 20
5.9414132437
 30
0.0
 10
15.0322628757
 20
5.9414155593
 30
0.0
 10
15.0321923915
 20
5.9414052295
 30
0.0
 10
15.0321572529
 20
5.9414056171
 30
0.0
 10
15.0320155535
 20
5.9413903773
 30
0.0
 10
15.0318568363
 20
5.9413767144
 30
0.0
 10
15.0316382556
 20
5.9413564647
 30
0.0
 10
15.031261085
 20
5.9413227105
 30
0.0
 10
15.0306738108
 20
5.9412707315
 30
0.0
 10
15.0298393034
 20
5.9411995962
 30
0.0
 10
15.0288334607
 20
5.9411177145
 30
0.0
 10
15.0276638879
 20
5.9410277018
 30
0.0
 10
15.0263375422
 20
5.9409320162
 30
0.0
 10
15.0248623984
 20
5.9408336532
 30
0.0
 10
15.0226228765
 20
5.9406977898
 30
0.0
 10
15.0195136245
 20
5.9405409342
 30
0.0
 10
15.0154449815
 20
5.9403956916
 30
0.0
 10
15.0125836806
 20
5.9403391915
 30
0.0
 10
15.0110853257
 20
5.9403222263
 30
0.0
  0
SPLINE
  5
25C
100
AcDbEntity
  8
0
100
AcDbSpline
 62
9
  6
CONTINUOUS
 70
0
 71
3
 72
26
 73
22
 74
0
 42
0.0000001
 43
0.0000001
 44
0.0000000001
 40
0.0
 40
0.0
 40
0.0
 40
0.0
 40
0.002860899
 40
0.006337555
 40
0.0109359326
 40
0.0168783024
 40
0.024264447
 40
0.0331446437
 40
0.0435474081
 40
0.0554908657
 40
0.0840556593
 40
0.1190838765
 40
0.1609767112
 40
0.2101867608
 40
0.26742129
 40
0.3336258772
 40
0.4098932083
 40
0.4978158486
 40
0.7164766256
 40
0.8499691888
 40
1.0
 40
1.0
 40
1.0
 40
1.0
 10
13.1155824649
 20
5.9184732545
 30
0.0
 10
13.115612363
 20
5.9184377081
 30
0.0
 10
13.1157040662
 20
5.9183791096
 30
0.0
 10
13.1158848855
 20
5.918365111
 30
0.0
 10
13.1161101427
 20
5.9184027768
 30
0.0
 10
13.1163884211
 20
5.9184902286
 30
0.0
 10
13.1167226882
 20
5.9186258784
 30
0.0
 10
13.1171153333
 20
5.9188086858
 30
0.0
 10
13.1175680046
 20
5.9190370676
 30
0.0
 10
13.1182985105
 20
5.9194238948
 30
0.0
 10
13.1193715673
 20
5.920017722
 30
0.0
 10
13.1208718498
 20
5.9208437155
 30
0.0
 10
13.1226845125
 20
5.9217968905
 30
0.0
 10
13.124846142
 20
5.9228596319
 30
0.0
 10
13.1274081181
 20
5.9239991186
 30
0.0
 10
13.1304304975
 20
5.9251763884
 30
0.0
 10
13.1339802859
 20
5.9263615074
 30
0.0
 10
13.1399856242
 20
5.9279798453
 30
0.0
 10
13.1470629929
 20
5.9291133428
 30
0.0
 10
13.1551934067
 20
5.9297439221
 30
0.0
 10
13.159798168
 20
5.9298541994
 30
0.0
 10
13.1622339977
 20
5.9298541524
 30
0.0
  0
SPLINE
  5
25D
100
AcDbEntity
  8
0
100
AcDbSpline
 62
9
  6
CONTINUOUS
 70
0
 71
3
 72
34
 73
30
 74
0
 42
0.0000001
 43
0.0000001
 44
0.0000000001
 40
0.0
 40
0.0
 40
0.0
 40
0.0
 40
0.0340872917
 40
0.0681507151
 40
0.1360633692
 40
0.2035706949
 40
0.2371187946
 40
0.2704754248
 40
0.3364374381
 40
0.3690176902
 40
0.4013209047
 40
0.4649252546
 40
0.4962080107
 40
0.5271105807
 40
0.5576555609
 40
0.5878975398
 40
0.6178942495
 40
0.6477375077
 40
0.6775264889
 40
0.7073328356
 40
0.737207485
 40
0.7671653149
 40
0.8271093827
 40
0.8569813052
 40
0.8866095275
 40
0.915862574
 40
0.944599307
 40
0.9726856055
 40
1.0
 40
1.0
 40
1.0
 40
1.0
 10
13.6402230892
 20
5.8473065398
 30
0.0
 10
13.6439921839
 20
5.8429536471
 30
0.0
 10
13.6513324403
 20
5.8340799057
 30
0.0
 10
13.6652473865
 20
5.8157814681
 30
0.0
 10
13.6812038908
 20
5.7919733154
 30
0.0
 10
13.6952107865
 20
5.7670708327
 30
0.0
 10
13.7051828286
 20
5.7466673704
 30
0.0
 10
13.7142169544
 20
5.726117802
 30
0.0
 10
13.7218449015
 20
5.7051421945
 30
0.0
 10
13.7277803191
 20
5.683841333
 30
0.0
 10
13.7324475242
 20
5.6626387948
 30
0.0
 10
13.7351646993
 20
5.6412451812
 30
0.0
 10
13.7354019677
 20
5.6199783116
 30
0.0
 10
13.7342591777
 20
5.6043353142
 30
0.0
 10
13.7316940801
 20
5.589036501
 30
0.0
 10
13.72764669
 20
5.5742175765
 30
0.0
 10
13.7221184575
 20
5.5600091927
 30
0.0
 10
13.7150923291
 20
5.5465636603
 30
0.0
 10
13.7066706432
 20
5.533986266
 30
0.0
 10
13.6969654978
 20
5.5223655194
 30
0.0
 10
13.6861023724
 20
5.511780625
 30
0.0
 10
13.6703163451
 20
5.4990878117
 30
0.0
 10
13.6528908893
 20
5.4885809213
 30
0.0
 10
13.6344821251
 20
5.4802906057
 30
0.0
 10
13.620367087
 20
5.4751921125
 30
0.0
 10
13.60609713
 20
5.4712162774
 30
0.0
 10
13.5918252566
 20
5.4683660247
 30
0.0
 10
13.5777041495
 20
5.4666458962
 30
0.0
 10
13.5683422247
 20
5.4662484687
 30
0.0
 10
13.5637283541
 20
5.4662484029
 30
0.0
  0
SPLINE
  5
25E
100
AcDbEntity
  8
0
100
AcDbSpline
 62
9
  6
CONTINUOUS
 70
0
 71
3
 72
31
 73
27
 74
0
 42
0.0000001
 43
0.0000001
 44
0.0000000001
 40
0.0
 40
0.0
 40
0.0
 40
0.0
 40
0.0278696132
 40
0.0566320462
 40
0.0861929957
 40
0.1164180453
 40
0.1782048825
 40
0.2410221636
 40
0.2726236823
 40
0.3042624766
 40
0.3359135258
 40
0.3675659361
 40
0.3992171168
 40
0.4308679232
 40
0.4625194545
 40
0.4941727995
 40
0.5574521347
 40
0.6207390881
 40
0.684028373
 40
0.7473216907
 40
0.8106177678
 40
0.8738935815
 40
0.9055130947
 40
0.9370923257
 40
0.9686025357
 40
1.0
 40
1.0
 40
1.0
 40
1.0
 10
13.5862283487
 20
5.3883061229
 30
0.0
 10
13.5926882338
 20
5.3883062202
 30
0.0
 10
13.6058260076
 20
5.3891195652
 30
0.0
 10
13.6255348094
 20
5.3926142315
 30
0.0
 10
13.6452845144
 20
5.3983415962
 30
0.0
 10
13.6714525168
 20
5.4089034355
 30
0.0
 10
13.7026122739
 20
5.427174077
 30
0.0
 10
13.7300719285
 20
5.4511081106
 30
0.0
 10
13.7492651673
 20
5.473184894
 30
0.0
 10
13.7621310367
 20
5.4910637656
 30
0.0
 10
13.7733259332
 20
5.5100443151
 30
0.0
 10
13.782791295
 20
5.529945852
 30
0.0
 10
13.7905096219
 20
5.5505854403
 30
0.0
 10
13.7965049229
 20
5.5717866819
 30
0.0
 10
13.8008361402
 20
5.5933877858
 30
0.0
 10
13.8045003125
 20
5.6225205884
 30
0.0
 10
13.8053642235
 20
5.6592921336
 30
0.0
 10
13.8012740052
 20
5.7031902208
 30
0.0
 10
13.7927631784
 20
5.7464383469
 30
0.0
 10
13.7803409503
 20
5.7887204865
 30
0.0
 10
13.7643109275
 20
5.8297621688
 30
0.0
 10
13.7480211235
 20
5.862673687
 30
0.0
 10
13.7331814733
 20
5.8879673669
 30
0.0
 10
13.7211148204
 20
5.9063192358
 30
0.0
 10
13.7080716098
 20
5.923927171
 30
0.0
 10
13.6986659936
 20
5.935086905
 30
0.0
 10
13.6937767956
 20
5.9404775695
 30
0.0
  0
SPLINE
  5
25F
100
AcDbEntity
  8
0
100
AcDbSpline
 62
9
  6
CONTINUOUS
 70
0
 71
3
 72
22
 73
18
 74
0
 42
0.0000001
 43
0.0000001
 44
0.0000000001
 40
0.0
 40
0.0
 40
0.0
 40
0.0
 40
0.0638922832
 40
0.1261415512
 40
0.1869032859
 40
0.2464556468
 40
0.3051569867
 40
0.3634296048
 40
0.4217288593
 40
0.480504188
 40
0.5401633763
 40
0.6010469962
 40
0.6634117433
 40
0.7274210322
 40
0.7931434317
 40
0.8605560761
 40
1.0
 40
1.0
 40
1.0
 40
1.0
 10
13.5862283487
 20
5.3883061229
 30
0.0
 10
13.5813253934
 20
5.3883063828
 30
0.0
 10
13.5716381287
 20
5.3887613376
 30
0.0
 10
13.557426978
 20
5.3908704826
 30
0.0
 10
13.5438353255
 20
5.3943769179
 30
0.0
 10
13.5309608522
 20
5.3992487283
 30
0.0
 10
13.5188818502
 20
5.405443482
 30
0.0
 10
13.5076541642
 20
5.4128999405
 30
0.0
 10
13.4973159547
 20
5.4215542398
 30
0.0
 10
13.4878848614
 20
5.4313341503
 30
0.0
 10
13.4793604063
 20
5.4421635043
 30
0.0
 10
13.4717272318
 20
5.4539641723
 30
0.0
 10
13.4649572134
 20
5.4666564606
 30
0.0
 10
13.4590138871
 20
5.4801597459
 30
0.0
 10
13.453854049
 20
5.4943918476
 30
0.0
 10
13.4478841651
 20
5.5144481122
 30
0.0
 10
13.4445436878
 20
5.5299961875
 30
0.0
 10
13.4426942591
 20
5.5405357784
 30
0.0
  0
SPLINE
  5
260
100
AcDbEntity
  8
0
100
AcDbSpline
 62
9
  6
CONTINUOUS
 70
0
 71
3
 72
15
 73
11
 74
0
 42
0.0000001
 43
0.0000001
 44
0.0000000001
 40
0.0
 40
0.0
 40
0.0
 40
0.0
 40
0.0837631907
 40
0.1798554946
 40
0.2891268901
 40
0.4114318816
 40
0.5460780393
 40
0.6909857694
 40
0.8435076055
 40
1.0
 40
1.0
 40
1.0
 40
1.0
 10
13.5637283484
 20
5.4662484092
 30
0.0
 10
13.5652386884
 20
5.4645044188
 30
0.0
 10
13.5682361085
 20
5.4605433497
 30
0.0
 10
13.5723140938
 20
5.4536872893
 30
0.0
 10
13.5761313201
 20
5.4454939266
 30
0.0
 10
13.579550446
 20
5.4359906439
 30
0.0
 10
13.5824052886
 20
5.4252842722
 30
0.0
 10
13.5845756784
 20
5.4135713253
 30
0.0
 10
13.5859182922
 20
5.4011304805
 30
0.0
 10
13.5862283483
 20
5.3926163796
 30
0.0
 10
13.5862283483
 20
5.3883061229
 30
0.0
  0
SPLINE
  5
261
100
AcDbEntity
  8
0
100
AcDbSpline
 62
9
  6
CONTINUOUS
 70
0
 71
3
 72
15
 73
11
 74
0
 42
0.0000001
 43
0.0000001
 44
0.0000000001
 40
0.0
 40
0.0
 40
0.0
 40
0.0
 40
0.1366675016
 40
0.2689725003
 40
0.3969023976
 40
0.5208980658
 40
0.6419042351
 40
0.7610771803
 40
0.8799126787
 40
1.0
 40
1.0
 40
1.0
 40
1.0
 10
13.5637285001
 20
5.4662482344
 30
0.0
 10
13.5592600735
 20
5.4662484457
 30
0.0
 10
13.5504605402
 20
5.4666110855
 30
0.0
 10
13.5375760543
 20
5.4683002371
 30
0.0
 10
13.5253143014
 20
5.4711299924
 30
0.0
 10
13.5137625037
 20
5.4751062082
 30
0.0
 10
13.5029816018
 20
5.4802219608
 30
0.0
 10
13.4930182698
 20
5.4864814988
 30
0.0
 10
13.4839009647
 20
5.493869722
 30
0.0
 10
13.4784438115
 20
5.4994883032
 30
0.0
 10
13.4758713108
 20
5.5024544941
 30
0.0
  0
SPLINE
  5
262
100
AcDbEntity
  8
0
100
AcDbSpline
 62
9
  6
CONTINUOUS
 70
0
 71
3
 72
25
 73
21
 74
0
 42
0.0000001
 43
0.0000001
 44
0.0000000001
 40
0.0
 40
0.0
 40
0.0
 40
0.0
 40
0.027234803
 40
0.0563808935
 40
0.1187551308
 40
0.184318782
 40
0.2176896184
 40
0.2511939322
 40
0.3182892376
 40
0.3850830212
 40
0.4512698236
 40
0.5166491883
 40
0.6444896362
 40
0.7068205196
 40
0.767945945
 40
0.8277933365
 40
0.8572477356
 40
0.8863975929
 40
0.9437626115
 40
1.0
 40
1.0
 40
1.0
 40
1.0
 10
13.1622339918
 20
5.9298541592
 30
0.0
 10
13.1645168085
 20
5.9298542192
 30
0.0
 10
13.1692428194
 20
5.9297496771
 30
0.0
 10
13.1791835604
 20
5.9292152318
 30
0.0
 10
13.1923005541
 20
5.9280299956
 30
0.0
 10
13.2057308227
 20
5.9264663039
 30
0.0
 10
13.2167513993
 20
5.9251324503
 30
0.0
 10
13.2279006296
 20
5.9237933474
 30
0.0
 10
13.2418393632
 20
5.9221851233
 30
0.0
 10
13.2585287572
 20
5.9205301344
 30
0.0
 10
13.2751093016
 20
5.9192641594
 30
0.0
 10
13.2968298983
 20
5.9182379936
 30
0.0
 10
13.3182772683
 20
5.9183082788
 30
0.0
 10
13.3392937779
 20
5.9198313848
 30
0.0
 10
13.354543971
 20
5.9217711717
 30
0.0
 10
13.3669360483
 20
5.9241583827
 30
0.0
 10
13.3765670385
 20
5.926580702
 30
0.0
 10
13.3858937492
 20
5.9293276257
 30
0.0
 10
13.397140467
 20
5.9334645358
 30
0.0
 10
13.405699501
 20
5.9376978717
 30
0.0
 10
13.4097788695
 20
5.9400598083
 30
0.0
  0
SPLINE
  5
263
100
AcDbEntity
  8
0
100
AcDbSpline
 62
9
  6
CONTINUOUS
 70
0
 71
3
 72
11
 73
7
 74
0
 42
0.0000001
 43
0.0000001
 44
0.0000000001
 40
0.0
 40
0.0
 40
0.0
 40
0.0
 40
0.2621927056
 40
0.5160764617
 40
0.7612188821
 40
1.0
 40
1.0
 40
1.0
 40
1.0
 10
13.1622338255
 20
5.9298543078
 30
0.0
 10
13.1610010875
 20
5.9312777495
 30
0.0
 10
13.1584151292
 20
5.9339476208
 30
0.0
 10
13.1541128605
 20
5.9373510837
 30
0.0
 10
13.1494699577
 20
5.9399558202
 30
0.0
 10
13.1461426585
 20
5.9410584879
 30
0.0
 10
13.1444648554
 20
5.9414132433
 30
0.0
  0
SPLINE
  5
264
100
AcDbEntity
  8
0
100
AcDbSpline
 62
9
  6
CONTINUOUS
 70
0
 71
3
 72
11
 73
7
 74
0
 42
0.0000001
 43
0.0000001
 44
0.0000000001
 40
0.0
 40
0.0
 40
0.0
 40
0.0
 40
0.23512444
 40
0.4838420693
 40
0.7401967109
 40
1.0
 40
1.0
 40
1.0
 40
1.0
 10
13.1444649107
 20
5.9414132437
 30
0.0
 10
13.1514705886
 20
5.9414138712
 30
0.0
 10
13.1658869726
 20
5.9412847783
 30
0.0
 10
13.1879376656
 20
5.9408687626
 30
0.0
 10
13.2107235934
 20
5.9404412274
 30
0.0
 10
13.2261028666
 20
5.94030471
 30
0.0
 10
13.2338438661
 20
5.9403049933
 30
0.0
  0
SPLINE
  5
265
100
AcDbEntity
  8
0
100
AcDbSpline
 62
9
  6
CONTINUOUS
 70
0
 71
3
 72
11
 73
7
 74
0
 42
0.0000001
 43
0.0000001
 44
0.0000000001
 40
0.0
 40
0.0
 40
0.0
 40
0.0
 40
0.2954437372
 40
0.5595298247
 40
0.7930894176
 40
1.0
 40
1.0
 40
1.0
 40
1.0
 10
13.1444649107
 20
5.9414132437
 30
0.0
 10
13.1380497972
 20
5.9414137494
 30
0.0
 10
13.1259001587
 20
5.9413123476
 30
0.0
 10
13.1086839107
 20
5.9409043747
 30
0.0
 10
13.0933921077
 20
5.9404652154
 30
0.0
 10
13.0838282967
 20
5.9403046726
 30
0.0
 10
13.0793355466
 20
5.9403049835
 30
0.0
  0
SPLINE
  5
266
100
AcDbEntity
  8
0
100
AcDbSpline
 62
9
  6
CONTINUOUS
 70
0
 71
3
 72
47
 73
43
 74
0
 42
0.0000001
 43
0.0000001
 44
0.0000000001
 40
0.0
 40
0.0
 40
0.0
 40
0.0
 40
0.0005961503
 40
0.0023735249
 40
0.0053187915
 40
0.0094187787
 40
0.0146565105
 40
0.0209996204
 40
0.0284128735
 40
0.0368623782
 40
0.0567188307
 40
0.0802285607
 40
0.1070626098
 40
0.1368714685
 40
0.1693531381
 40
0.2041786262
 40
0.2410644593
 40
0.2797013736
 40
0.319783461
 40
0.361034981
 40
0.403162305
 40
0.4459177449
 40
0.5323972842
 40
0.6191480668
 40
0.7046346007
 40
0.7463483769
 40
0.7870579924
 40
0.8264720645
 40
0.8641103906
 40
0.8993768609
 40
0.9314062237
 40
0.9458976085
 40
0.9591237814
 40
0.9708621971
 40
0.9808902324
 40
0.9889938832
 40
0.9922674868
 40
0.9949938342
 40
0.9971515932
 40
0.9987194303
 40
0.999676011
 40
1.0
 40
1.0
 40
1.0
 40
1.0
 10
14.193728136
 20
5.4662482864
 30
0.0
 10
14.1936694525
 20
5.4663274421
 30
0.0
 10
14.1934295076
 20
5.4666378625
 30
0.0
 10
14.1929049263
 20
5.4673433537
 30
0.0
 10
14.1920361015
 20
5.4685145414
 30
0.0
 10
14.1908400783
 20
5.4701551024
 30
0.0
 10
14.1893268921
 20
5.4722594026
 30
0.0
 10
14.1875248664
 20
5.4748303327
 30
0.0
 10
14.1854617154
 20
5.4778661266
 30
0.0
 10
14.1822233558
 20
5.4828029151
 30
0.0
 10
14.1777313829
 20
5.4900981148
 30
0.0
 10
14.1721377421
 20
5.5002704308
 30
0.0
 10
14.1664403386
 20
5.512240973
 30
0.0
 10
14.1610477111
 20
5.5259648068
 30
0.0
 10
14.1563845941
 20
5.5413436448
 30
0.0
 10
14.1527950617
 20
5.5582104901
 30
0.0
 10
14.1506354696
 20
5.5763459078
 30
0.0
 10
14.1500154019
 20
5.5954672567
 30
0.0
 10
14.151052279
 20
5.6152911932
 30
0.0
 10
14.1536338185
 20
5.6355507535
 30
0.0
 10
14.1576553252
 20
5.6560216845
 30
0.0
 10
14.1646998378
 20
5.683468232
 30
0.0
 10
14.1761013601
 20
5.7173499632
 30
0.0
 10
14.1926242027
 20
5.756816171
 30
0.0
 10
14.2079140821
 20
5.7887167241
 30
0.0
 10
14.2206331136
 20
5.8133851323
 30
0.0
 10
14.2301576755
 20
5.8311295674
 30
0.0
 10
14.2396008131
 20
5.8481506369
 30
0.0
 10
14.2488017456
 20
5.8642755558
 30
0.0
 10
14.2575538406
 20
5.8792500142
 30
0.0
 10
14.2644759667
 20
5.8908618771
 30
0.0
 10
14.269579939
 20
5.8993160817
 30
0.0
 10
14.2729680425
 20
5.9048884999
 30
0.0
 10
14.2759862262
 20
5.9098224083
 30
0.0
 10
14.2785720766
 20
5.9140282234
 30
0.0
 10
14.2804303496
 20
5.9170389478
 30
0.0
 10
14.281657048
 20
5.9190212337
 30
0.0
 10
14.2823677811
 20
5.9201670787
 30
0.0
 10
14.2829296779
 20
5.9210734543
 30
0.0
 10
14.2833399631
 20
5.9217296798
 30
0.0
 10
14.2835860595
 20
5.9221310114
 30
0.0
 10
14.2837010065
 20
5.9223088283
 30
0.0
 10
14.283728136
 20
5.922354999
 30
0.0
  0
SPLINE
  5
267
100
AcDbEntity
  8
0
100
AcDbSpline
 62
9
  6
CONTINUOUS
 70
0
 71
3
 72
9
 73
5
 74
0
 42
0.0000001
 43
0.0000001
 44
0.0000000001
 40
0.0
 40
0.0
 40
0.0
 40
0.0
 40
0.2417021942
 40
1.0
 40
1.0
 40
1.0
 40
1.0
 10
13.5689182112
 20
5.9293598109
 30
0.0
 10
13.5694345553
 20
5.9301661743
 30
0.0
 10
13.571503298
 20
5.9335454299
 30
0.0
 10
13.5733123038
 20
5.9370812132
 30
0.0
 10
13.5745531102
 20
5.939817013
 30
0.0
  0
SPLINE
  5
268
100
AcDbEntity
  8
0
100
AcDbSpline
 62
9
  6
CONTINUOUS
 70
0
 71
3
 72
44
 73
40
 74
0
 42
0.0000001
 43
0.0000001
 44
0.0000000001
 40
0.0
 40
0.0
 40
0.0
 40
0.0
 40
0.078720177
 40
0.1568438694
 40
0.2342416341
 40
0.3107899467
 40
0.3864019853
 40
0.4609198791
 40
0.5341036773
 40
0.6056195486
 40
0.6750908248
 40
0.7089337953
 40
0.742073071
 40
0.7743811934
 40
0.805727324
 40
0.835951549
 40
0.8648152396
 40
0.8920644891
 40
0.9174215628
 40
0.9292487208
 40
0.9404122677
 40
0.9508398223
 40
0.9604588811
 40
0.9691968335
 40
0.9769815509
 40
0.9837458812
 40
0.9867252188
 40
0.9894252377
 40
0.9918378598
 40
0.9939550041
 40
0.9957685873
 40
0.9972705233
 40
0.998452724
 40
0.9989213955
 40
0.9993070991
 40
0.9996088232
 40
0.9998255559
 40
0.9999562855
 40
1.0
 40
1.0
 40
1.0
 40
1.0
 10
14.7858841631
 20
5.9400620972
 30
0.0
 10
14.7910088205
 20
5.9377275756
 30
0.0
 10
14.8014378503
 20
5.9335449513
 30
0.0
 10
14.8174453958
 20
5.928544704
 30
0.0
 10
14.8336015697
 20
5.9246766513
 30
0.0
 10
14.8497803644
 20
5.9218115999
 30
0.0
 10
14.8658853122
 20
5.9198579615
 30
0.0
 10
14.8818249055
 20
5.9187124469
 30
0.0
 10
14.8975055567
 20
5.9182769348
 30
0.0
 10
14.9128291348
 20
5.9184776687
 30
0.0
 10
14.9253225215
 20
5.9191181306
 30
0.0
 10
14.9350542943
 20
5.9198830689
 30
0.0
 10
14.9421249533
 20
5.9205624768
 30
0.0
 10
14.9490058391
 20
5.9213388877
 30
0.0
 10
14.955666569
 20
5.9221987411
 30
0.0
 10
14.9620692668
 20
5.9231264684
 30
0.0
 10
14.9681684217
 20
5.9241005113
 30
0.0
 10
14.9739106124
 20
5.9250983275
 30
0.0
 10
14.9784410644
 20
5.9259481492
 30
0.0
 10
14.9818344865
 20
5.9266166135
 30
0.0
 10
14.9841775058
 20
5.9270913483
 30
0.0
 10
14.9863634607
 20
5.9275456685
 30
0.0
 10
14.9883775774
 20
5.9279739496
 30
0.0
 10
14.990205114
 20
5.9283706072
 30
0.0
 10
14.991831736
 20
5.928730082
 30
0.0
 10
14.9930551563
 20
5.9290049516
 30
0.0
 10
14.993923169
 20
5.9292023549
 30
0.0
 10
14.9944874147
 20
5.9293316426
 30
0.0
 10
14.9949913648
 20
5.9294479582
 30
0.0
 10
14.9954333429
 20
5.9295506829
 30
0.0
 10
14.9958118105
 20
5.9296392631
 30
0.0
 10
14.9961248269
 20
5.9297129559
 30
0.0
 10
14.9963446648
 20
5.9297651538
 30
0.0
 10
14.9964858048
 20
5.9297986363
 30
0.0
 10
14.9965674825
 20
5.9298184374
 30
0.0
 10
14.996627161
 20
5.9298319875
 30
0.0
 10
14.9966796592
 20
5.9298462975
 30
0.0
 10
14.9966939101
 20
5.9298467376
 30
0.0
 10
14.9967195009
 20
5.9298560093
 30
0.0
 10
14.9967170045
 20
5.9298541258
 30
0.0
  0
SPLINE
  5
269
100
AcDbEntity
  8
0
100
AcDbSpline
 62
9
  6
CONTINUOUS
 70
0
 71
3
 72
47
 73
43
 74
0
 42
0.0000001
 43
0.0000001
 44
0.0000000001
 40
0.0
 40
0.0
 40
0.0
 40
0.0
 40
0.0000367384
 40
0.0000824771
 40
0.0001464479
 40
0.0003290433
 40
0.0005844394
 40
0.0009125508
 40
0.0013132923
 40
0.0017865789
 40
0.0023323215
 40
0.003640246
 40
0.0052345563
 40
0.007112594
 40
0.0092716934
 40
0.0117087596
 40
0.0144201341
 40
0.0206510371
 40
0.0279310693
 40
0.0362193583
 40
0.0454732245
 40
0.0556481001
 40
0.0666980707
 40
0.0785745086
 40
0.1046109124
 40
0.1333675441
 40
0.1644595158
 40
0.1975158468
 40
0.2321840991
 40
0.2681385684
 40
0.3050829884
 40
0.3427541852
 40
0.4194086632
 40
0.4580681164
 40
0.4967716862
 40
0.5739364122
 40
0.6503260693
 40
0.7254762464
 40
0.7988980933
 40
0.8699331921
 40
0.9375549864
 40
1.0
 40
1.0
 40
1.0
 40
1.0
 10
14.1487283487
 20
5.3883061229
 30
0.0
 10
14.148726669
 20
5.388312882
 30
0.0
 10
14.1487163913
 20
5.388325492
 30
0.0
 10
14.1487042608
 20
5.3883502892
 30
0.0
 10
14.148676517
 20
5.3883983945
 30
0.0
 10
14.1486308191
 20
5.3884817715
 30
0.0
 10
14.1485599468
 20
5.3886085863
 30
0.0
 10
14.1484694247
 20
5.38877173
 30
0.0
 10
14.1483587678
 20
5.3889709652
 30
0.0
 10
14.1482282339
 20
5.3892063461
 30
0.0
 10
14.148014418
 20
5.3895922006
 30
0.0
 10
14.1476980543
 20
5.3901641952
 30
0.0
 10
14.1472605516
 20
5.3909578185
 30
0.0
 10
14.146746659
 20
5.3918935858
 30
0.0
 10
14.1461577147
 20
5.3929704082
 30
0.0
 10
14.1454953966
 20
5.3941871636
 30
0.0
 10
14.1444687029
 20
5.3960844377
 30
0.0
 10
14.1430167204
 20
5.3987954768
 30
0.0
 10
14.1410892768
 20
5.4024511218
 30
0.0
 10
14.1389257371
 20
5.4066300137
 30
0.0
 10
14.1365491458
 20
5.4113164015
 30
0.0
 10
14.1339855599
 20
5.4164947112
 30
0.0
 10
14.1312614661
 20
5.4221479765
 30
0.0
 10
14.1273303839
 20
5.4305568351
 30
0.0
 10
14.1222033375
 20
5.4421110422
 30
0.0
 10
14.1160404972
 20
5.457184231
 30
0.0
 10
14.1099189461
 20
5.473702604
 30
0.0
 10
14.1040548237
 20
5.4914991323
 30
0.0
 10
14.0986381236
 20
5.510398671
 30
0.0
 10
14.0938319525
 20
5.5302224748
 30
0.0
 10
14.0897571822
 20
5.5507907715
 30
0.0
 10
14.0853763989
 20
5.5791384691
 30
0.0
 10
14.0827676944
 20
5.6080609893
 30
0.0
 10
14.0818073773
 20
5.63724782
 30
0.0
 10
14.0819027565
 20
5.6665482764
 30
0.0
 10
14.083834997
 20
5.7029698087
 30
0.0
 10
14.0885479837
 20
5.7460876089
 30
0.0
 10
14.0951242352
 20
5.788237399
 30
0.0
 10
14.103078741
 20
5.8291106285
 30
0.0
 10
14.1119554382
 20
5.868328682
 30
0.0
 10
14.1212826531
 20
5.905297323
 30
0.0
 10
14.1277831476
 20
5.9290840804
 30
0.0
 10
14.1309968358
 20
5.9404776125
 30
0.0
  0
ENDSEC
  0
SECTION
  2
OBJECTS
  0
DICTIONARY
  5
C
100
AcDbDictionary
280
0
281
1
  3
ACAD_GROUP
350
D
  3
ACAD_MLINESTYLE
350
17
  3
ACAD_LAYOUT
350
1A
  3
ACAD_PLOTSETTINGS
350
19
  3
ACAD_PLOTSTYLENAME
350
E
  0
DICTIONARY
  5
D
102
{ACAD_REACTORS
330
C
102
}
100
AcDbDictionary
280
0
281
1
  0
ACDBDICTIONARYWDFLT
  5
E
102
{ACAD_REACTORS
330
C
102
}
100
AcDbDictionary
281
1
  3
Normal
350
F
100
AcDbDictionaryWithDefault
340
F
  0
DICTIONARY
  5
17
102
{ACAD_REACTORS
330
C
102
}
100
AcDbDictionary
280
0
281
1
  3
Standard
350
18
  0
DICTIONARY
  5
19
102
{ACAD_REACTORS
330
C
102
}
100
AcDbDictionary
281
1
  0
DICTIONARY
  5
1A
102
{ACAD_REACTORS
330
C
102
}
100
AcDbDictionary
281
1
  3
Model
350
26A
  3
Layout1
350
26B
  0
ACDBPLACEHOLDER
  5
F
102
{ACAD_REACTORS
330
E
102
}
  0
MLINESTYLE
  5
18
102
{ACAD_REACTORS
330
17
102
}
100
AcDbMlineStyle
  2
STANDARD
 70
0
  3

 62
256
 51
90.0
 52
90.0
 71
2
 49
0.5
 62
256
  6
BYLAYER
 49
-0.5
 62
256
  6
BYLAYER
  0
LAYOUT
  5
26A
102
{ACAD_REACTORS
330
1A
102
}
100
AcDbPlotSettings
  1

  2
none_device
  4
ANSI_C_(22.00_x_17.00_Inches)
  6

 40
0.0
 41
0.0
 42
0.0
 43
0.0
 44
558.8
 45
431.8
 46
0.0
 47
0.0
 48
0.0
 49
0.0
140
0.0
141
0.0
142
1.0
143
1.0
 70
1024
 72
0
 73
0
 74
0
  7

 75
0
147
1.0
148
0.0
149
0.0
100
AcDbLayout
  1
Model
 70
0
 71
0
 10
0.0
 20
0.0
 11
22.0
 21
17.0
 12
0.0
 22
0.0
 32
0.0
 14
0.0
 24
0.0
 34
0.0
 15
0.0
 25
0.0
 35
0.0
146
0.0
 13
0.0
 23
0.0
 33
0.0
 16
1.0
 26
0.0
 36
0.0
 17
0.0
 27
1.0
 37
0.0
 76
0
330
202
345
0
346
0
  0
LAYOUT
  5
26B
102
{ACAD_REACTORS
330
1A
102
}
100
AcDbPlotSettings
  1

  2
none_device
  4
ANSI_C_(22.00_x_17.00_Inches)
  6

 40
0.0
 41
0.0
 42
0.0
 43
0.0
 44
558.8
 45
431.8
 46
0.0
 47
0.0
 48
0.0
 49
0.0
140
0.0
141
0.0
142
1.0
143
1.0
 70
0
 72
0
 73
0
 74
0
  7

 75
0
147
1.0
148
0.0
149
0.0
100
AcDbLayout
  1
Layout1
 70
0
 71
1
 10
0.0
 20
0.0
 11
22.0
 21
17.0
 12
0.0
 22
0.0
 32
0.0
 14
0.0
 24
0.0
 34
0.0
 15
0.0
 25
0.0
 35
0.0
146
0.0
 13
0.0
 23
0.0
 33
0.0
 16
1.0
 26
0.0
 36
0.0
 17
0.0
 27
1.0
 37
0.0
 76
0
330
203
345
0
346
0
  0
ENDSEC
  0
EOF
