999
DXF file: 2940-5223_right.dxf
999
Pro/ENGINEER 2018400 by Parametric Technology Corporation
  0
SECTION
  2
HEADER
  9
$ACADVER
  1
AC1027
  9
$DWGCODEPAGE
  3
ANSI_1252
  9
$EXTMAX
 10
11.0
 20
8.5
 30
0.0
  9
$EXTMIN
 10
0.0
 20
0.0
 30
0.0
  9
$LIMMIN
 10
0.0
 20
0.0
  9
$LIMMAX
 10
11.0
 20
8.5
  9
$VIEWCTR
 10
5.5
 20
4.25
  9
$VIEWSIZE
 40
8.5
  9
$CLAYER
  8
0
  9
$LTSCALE
 40
0.605
  9
$CELTYPE
  6
BYLAYER
  9
$DIMSCALE
 40
1.0
  9
$DIMASZ
 40
0.1
  9
$DIMEXO
 40
0.0625
  9
$DIMDLI
 40
0.418
  9
$DIMEXE
 40
0.125
  9
$DIMCEN
 40
0.099
  9
$DIMLFAC
 40
1.0
  9
$DIMBLK
  1
_FILLED
  9
$DIMALT
 70
1
  9
$DIMALTD
 70
1
  9
$DIMALTTD
 70
2
  9
$DIMALTF
 40
25.4
  9
$DIMTXT
 40
0.08
  9
$DIMTOL
 70
1
  9
$DIMLIM
 70
0
  9
$DIMTFAC
 40
1.0
  9
$DIMTP
 40
0.01
  9
$DIMTM
 40
0.01
  9
$DIMGAP
 40
0.09
  9
$DIMDSEP
 70
46
  9
$AUNITS
 70
0
  9
$PDMODE
 70
3
  9
$PDSIZE
 40
0.3125
  9
$HANDSEED
  5
4A0
  9
$TILEMODE
 70
1
  9
$MEASUREMENT
 70
0
  9
$INSUNITS
 70
1
  0
ENDSEC
  0
SECTION
  2
CLASSES
  0
CLASS
  1
ACDBDICTIONARYWDFLT
  2
AcDbDictionaryWithDefault
  3
AutoCAD 2000
 90
0
 91
1
280
0
281
0
  0
CLASS
  1
ACDBPLACEHOLDER
  2
AcDbPlaceHolder
  3
AutoCAD 2000
 90
0
 91
1
280
0
281
0
  0
CLASS
  1
LAYOUT
  2
AcDbLayout
  3
AutoCAD 2000
 90
0
 91
0
280
0
281
0
  0
ENDSEC
  0
SECTION
  2
TABLES
  0
TABLE
  2
VPORT
  5
8
100
AcDbSymbolTable
 70
2
  0
VPORT
  5
1F4
100
AcDbSymbolTableRecord
100
AcDbViewportTableRecord
  2
*ACTIVE
 70
0
 10
0.0
 20
0.0
 11
1.0
 21
1.0
 12
5.5
 22
4.25
 13
0.0
 23
0.0
 14
1.0
 24
1.0
 15
0.0
 25
0.0
 16
0.0
 26
0.0
 36
1.0
 17
0.0
 27
0.0
 37
0.0
 40
8.5
 41
1.2941176471
 42
50.0
 43
0.0
 44
0.0
 50
0.0
 51
0.0
 71
0
 72
100
 73
1
 74
1
 75
0
 76
0
 77
0
 78
0
  0
ENDTAB
  0
TABLE
  2
LTYPE
  5
5
100
AcDbSymbolTable
 70
6
  0
LTYPE
  5
14
100
AcDbSymbolTableRecord
100
AcDbLinetypeTableRecord
  2
BYBLOCK
 70
0
  3

 72
65
 73
0
 40
0.0
  0
LTYPE
  5
15
100
AcDbSymbolTableRecord
100
AcDbLinetypeTableRecord
  2
BYLAYER
 70
0
  3

 72
65
 73
0
 40
0.0
  0
LTYPE
  5
16
100
AcDbSymbolTableRecord
100
AcDbLinetypeTableRecord
  2
CONTINUOUS
 70
64
  3
Solid line
 72
65
 73
0
 40
0.0
  0
LTYPE
  5
1F5
100
AcDbSymbolTableRecord
100
AcDbLinetypeTableRecord
  2
CENTER
 70
64
  3
____ _ ____ _ ____ _ ____ _ ____ _ ____ _ ____
 72
65
 73
4
 40
0.6
 49
0.375
 74
0
 49
-0.075
 74
0
 49
0.075
 74
0
 49
-0.075
 74
0
  0
LTYPE
  5
1F6
100
AcDbSymbolTableRecord
100
AcDbLinetypeTableRecord
  2
HIDDEN
 70
64
  3
- - - - - - - - - - - - - - - - - - - -
 72
65
 73
2
 40
0.2
 49
0.1
 74
0
 49
-0.1
 74
0
  0
LTYPE
  5
1F7
100
AcDbSymbolTableRecord
100
AcDbLinetypeTableRecord
  2
PHANTOM
 70
64
  3
_____ _ _ _____ _ _ _____ _ _ _____
 72
65
 73
6
 40
0.8
 49
0.45
 74
0
 49
-0.05
 74
0
 49
0.1
 74
0
 49
-0.05
 74
0
 49
0.1
 74
0
 49
-0.05
 74
0
  0
LTYPE
  5
1F8
100
AcDbSymbolTableRecord
100
AcDbLinetypeTableRecord
  2
DOT
 70
64
  3
. . . . . . . . . . . . . . . . . . . .
 72
65
 73
2
 40
0.2
 49
0.1
 74
0
 49
-0.1
 74
0
  0
LTYPE
  5
1F9
100
AcDbSymbolTableRecord
100
AcDbLinetypeTableRecord
  2
DASHED
 70
64
  3
- - - - - - - - - - - - - - - - - - - -
 72
65
 73
2
 40
0.2
 49
0.1
 74
0
 49
-0.1
 74
0
  0
ENDTAB
  0
TABLE
  2
LAYER
  5
2
100
AcDbSymbolTable
 70
36
  0
LAYER
  5
10
100
AcDbSymbolTableRecord
100
AcDbLayerTableRecord
  2
0
 70
0
 62
7
  6
CONTINUOUS
370
-3
390
F
  0
LAYER
  5
1FA
100
AcDbSymbolTableRecord
100
AcDbLayerTableRecord
  2
DEFAULT_1
 70
0
 62
7
  6
CENTER
370
-3
390
F
  0
LAYER
  5
1FB
100
AcDbSymbolTableRecord
100
AcDbLayerTableRecord
  2
DEFAULT_2
 70
0
 62
8
  6
HIDDEN
370
-3
390
F
  0
LAYER
  5
1FC
100
AcDbSymbolTableRecord
100
AcDbLayerTableRecord
  2
DEFAULT_3
 70
0
 62
7
  6
PHANTOM
370
-3
390
F
  0
LAYER
  5
1FD
100
AcDbSymbolTableRecord
100
AcDbLayerTableRecord
  2
DEFAULT_COORDINATE_SYSTEM
 70
0
 62
7
  6
CONTINUOUS
370
-3
390
F
  0
LAYER
  5
1FE
100
AcDbSymbolTableRecord
100
AcDbLayerTableRecord
  2
DEFAULT_DATUM_AXES
 70
0
 62
7
  6
CONTINUOUS
370
-3
390
F
  0
LAYER
  5
1FF
100
AcDbSymbolTableRecord
100
AcDbLayerTableRecord
  2
DEFAULT_DATUM_PLANES
 70
0
 62
7
  6
CONTINUOUS
370
-3
390
F
  0
ENDTAB
  0
TABLE
  2
STYLE
  5
3
100
AcDbSymbolTable
 70
1
  0
STYLE
  5
11
100
AcDbSymbolTableRecord
100
AcDbTextStyleTableRecord
  2
STANDARD
 70
0
 40
0.0
 41
0.8
 50
0.0
 71
0
 42
0.2
  3
txt
  4

  0
STYLE
  5
200
100
AcDbSymbolTableRecord
100
AcDbTextStyleTableRecord
  2
TEXTSTYLE_1
 70
0
 40
0.0
 41
0.8
 50
0.0
 71
0
 42
0.2
  3
gdt
  4

  0
ENDTAB
  0
TABLE
  2
VIEW
  5
6
100
AcDbSymbolTable
 70
0
  0
ENDTAB
  0
TABLE
  2
UCS
  5
7
100
AcDbSymbolTable
 70
0
  0
ENDTAB
  0
TABLE
  2
APPID
  5
9
100
AcDbSymbolTable
 70
1
  0
APPID
  5
201
100
AcDbSymbolTableRecord
100
AcDbRegAppTableRecord
  2
ACAD
 70
0
  0
ENDTAB
  0
TABLE
  2
BLOCK_RECORD
  5
1
100
AcDbSymbolTable
 70
0
  0
BLOCK_RECORD
  5
202
100
AcDbSymbolTableRecord
100
AcDbBlockTableRecord
  2
*Model_Space
  0
BLOCK_RECORD
  5
203
100
AcDbSymbolTableRecord
100
AcDbBlockTableRecord
  2
*Paper_Space
  0
BLOCK_RECORD
  5
204
100
AcDbSymbolTableRecord
100
AcDbBlockTableRecord
  2
_FILLED
  0
ENDTAB
  0
TABLE
  2
DIMSTYLE
  5
A
100
AcDbSymbolTable
 70
1
100
AcDbDimStyleTable
 71
0
  0
DIMSTYLE
105
205
100
AcDbSymbolTableRecord
100
AcDbDimStyleTableRecord
  2
STANDARD
 70
0
  3

  4

 40
1.0
 41
0.1
 42
0.0625
 43
0.38
 44
0.125
 45
0.0
 46
0.0
 47
0.01
 48
0.01
140
0.08
141
0.09
142
0.0
143
25.4
144
1.0
145
0.0
146
1.0
147
0.09
 71
1.0
 72
0.0
 73
1
 74
1
 75
0
 76
0
 77
0
 78
4
 79
1
170
1
171
1
172
0
173
0
174
0
175
0
176
0
177
0
178
0
270
2
179
2
271
2
272
2
273
2
274
2
275
0
280
0
281
0
282
0
283
1
284
4
285
0
286
0
287
3
288
0
340
11
278
46
341
204
342
204
343
204
344
204
  0
ENDTAB
  0
ENDSEC
  0
SECTION
  2
BLOCKS
  0
BLOCK
  5
20
100
AcDbEntity
  8
0
100
AcDbBlockBegin
  2
*Model_Space
 70
0
 10
0.0
 20
0.0
 30
0.0
  3
*Model_Space
  1

  0
ENDBLK
  5
21
100
AcDbEntity
  8
0
100
AcDbBlockEnd
  0
BLOCK
  5
1C
100
AcDbEntity
  8
0
100
AcDbBlockBegin
  2
*Paper_Space
 70
0
 10
0.0
 20
0.0
 30
0.0
  3
*Paper_Space
  1

  0
ENDBLK
  5
1D
100
AcDbEntity
  8
0
100
AcDbBlockEnd
  0
BLOCK
  5
206
100
AcDbEntity
  8
0
100
AcDbBlockBegin
  2
_FILLED
 70
64
 10
0.0
 20
0.0
  3
_FILLED
  1

  0
SOLID
  5
207
100
AcDbEntity
  8
0
  6
BYBLOCK
 62
0
100
AcDbTrace
 10
0.0
 20
0.0
 11
-1.0
 21
0.2
 12
-1.0
 22
-0.2
 13
-1.0
 23
-0.2
  0
ENDBLK
  5
208
100
AcDbEntity
  8
0
  6
BYBLOCK
 62
0
100
AcDbBlockEnd
  0
ENDSEC
  0
SECTION
  2
ENTITIES
  0
MTEXT
  5
209
100
AcDbEntity
  8
0
100
AcDbMText
 62
2
  6
CONTINUOUS
  7
STANDARD
 71
3
 72
1
 10
4.5248885592
 20
0.3133467243
 30
0.0
 11
1.0
 21
0.0
 31
0.0
 73
2
 44
0.9
  1
SCALE  .500
 40
0.08
 41
0.704
  0
LINE
  5
20A
100
AcDbEntity
  8
0
100
AcDbLine
 62
7
  6
CONTINUOUS
 10
0.0
 20
0.0
 11
0.0
 21
8.5
  0
LINE
  5
20B
100
AcDbEntity
  8
0
100
AcDbLine
 62
7
  6
CONTINUOUS
 10
0.0
 20
0.0
 11
11.0
 21
0.0
  0
LINE
  5
20C
100
AcDbEntity
  8
0
100
AcDbLine
 62
7
  6
CONTINUOUS
 10
0.0
 20
8.5
 11
11.0
 21
8.5
  0
LINE
  5
20D
100
AcDbEntity
  8
0
100
AcDbLine
 62
7
  6
CONTINUOUS
 10
11.0
 20
0.0
 11
11.0
 21
8.5
  0
LINE
  5
20E
100
AcDbEntity
  8
0
100
AcDbLine
 62
7
  6
CONTINUOUS
 10
6.5135794479
 20
0.6513775814
 11
7.6885794479
 21
0.6513775814
  0
LINE
  5
20F
100
AcDbEntity
  8
0
100
AcDbLine
 62
7
  6
CONTINUOUS
 10
6.5135794479
 20
0.7263775814
 11
7.6885794479
 21
0.7263775814
  0
LINE
  5
210
100
AcDbEntity
  8
0
100
AcDbLine
 62
7
  6
CONTINUOUS
 10
6.5385794479
 20
0.7513775814
 11
7.6635794479
 21
0.7513775814
  0
LINE
  5
211
100
AcDbEntity
  8
0
100
AcDbLine
 62
7
  6
CONTINUOUS
 10
7.6884943354
 20
0.8563775814
 11
6.5136645604
 21
0.8563775814
  0
LINE
  5
212
100
AcDbEntity
  8
0
100
AcDbLine
 62
7
  6
CONTINUOUS
 10
6.5136645604
 20
0.9063775814
 11
7.6884943354
 21
0.9063775814
  0
LINE
  5
213
100
AcDbEntity
  8
0
100
AcDbLine
 62
7
  6
CONTINUOUS
 10
6.6010794479
 20
0.9563775814
 11
7.6010794479
 21
0.9563775814
  0
LINE
  5
214
100
AcDbEntity
  8
0
100
AcDbLine
 62
7
  6
CONTINUOUS
 10
3.067238785
 20
5.1844298236
 11
2.9703355695
 21
4.8077411983
  0
LINE
  5
215
100
AcDbEntity
  8
0
100
AcDbLine
 62
7
  6
CONTINUOUS
 10
2.9440319207
 20
5.4827423027
 11
2.9299400468
 21
5.4385151055
  0
LINE
  5
216
100
AcDbEntity
  8
0
100
AcDbLine
 62
7
  6
CONTINUOUS
 10
2.9469280839
 20
5.4861344133
 11
2.9303399663
 21
5.4340727818
  0
LINE
  5
217
100
AcDbEntity
  8
0
100
AcDbLine
 62
7
  6
CONTINUOUS
 10
3.0670855595
 20
5.8559765331
 11
2.9217235461
 21
5.3997593923
  0
LINE
  5
218
100
AcDbEntity
  8
0
100
AcDbLine
 62
7
  6
CONTINUOUS
 10
3.0958420902
 20
5.8498150192
 11
2.9487420204
 21
5.388143007
  0
LWPOLYLINE
  5
219
100
AcDbEntity
  8
0
100
AcDbPolyline
 62
7
  6
CONTINUOUS
 90
38
 70
0
 10
3.02511567
 20
5.2764588208
 10
3.0246791067
 20
5.2754481843
 10
3.0242874593
 20
5.2744193056
 10
3.0239414876
 20
5.2733741796
 10
3.0236418627
 20
5.2723148326
 10
3.0233891662
 20
5.2712433191
 10
3.0231838884
 20
5.2701617179
 10
3.0230264277
 20
5.2690721264
 10
3.0229170897
 20
5.2679766574
 10
3.0228560865
 20
5.2668774356
 10
3.0228435368
 20
5.2657765925
 10
3.0228794648
 20
5.2646762629
 10
3.0229638012
 20
5.2635785812
 10
3.0230963825
 20
5.262485676
 10
3.0232769517
 20
5.2613996668
 10
3.0235051586
 20
5.2603226599
 10
3.0237805607
 20
5.2592567441
 10
3.024102624
 20
5.2582039863
 10
3.0244707238
 20
5.2571664286
 10
3.0248841462
 20
5.2561460831
 10
3.0253420896
 20
5.2551449284
 10
3.0258436657
 20
5.2541649061
 10
3.0263879019
 20
5.2532079167
 10
3.0269737428
 20
5.2522758159
 10
3.0276000523
 20
5.2513704114
 10
3.0282656158
 20
5.2504934587
 10
3.0289691426
 20
5.2496466586
 10
3.0297092686
 20
5.2488316531
 10
3.0304845583
 20
5.2480500227
 10
3.0312935083
 20
5.2473032831
 10
3.0321345499
 20
5.2465928824
 10
3.0330060523
 20
5.2459201982
 10
3.0339063252
 20
5.2452865351
 10
3.034833623
 20
5.2446931217
 10
3.0357861475
 20
5.244141109
 10
3.0367620514
 20
5.2436315672
 10
3.0377594423
 20
5.2431654847
 10
3.0381665622
 20
5.2429903429
  0
LINE
  5
21A
100
AcDbEntity
  8
0
100
AcDbLine
 62
7
  6
CONTINUOUS
 10
6.9123044479
 20
2.3744096902
 11
6.898882683
 21
2.3708133392
  0
LINE
  5
21B
100
AcDbEntity
  8
0
100
AcDbLine
 62
7
  6
CONTINUOUS
 10
3.126503466
 20
4.7653181749
 11
3.127333536
 21
4.7781542227
  0
LINE
  5
21C
100
AcDbEntity
  8
0
100
AcDbLine
 62
7
  6
CONTINUOUS
 10
3.1400072671
 20
4.7762148693
 11
3.1391771971
 21
4.7633788215
  0
LINE
  5
21D
100
AcDbEntity
  8
0
100
AcDbLine
 62
7
  6
CONTINUOUS
 10
3.1764998212
 20
4.7706307238
 11
3.1756697512
 21
4.757794676
  0
LINE
  5
21E
100
AcDbEntity
  8
0
100
AcDbLine
 62
7
  6
CONTINUOUS
 10
3.2324096578
 20
4.7620753166
 11
3.2315795879
 21
4.7492392688
  0
LINE
  5
21F
100
AcDbEntity
  8
0
100
AcDbLine
 62
7
  6
CONTINUOUS
 10
3.3009932255
 20
4.751580556
 11
3.3001631555
 21
4.7387445082
  0
LINE
  5
220
100
AcDbEntity
  8
0
100
AcDbLine
 62
7
  6
CONTINUOUS
 10
3.2339144571
 20
6.0380502435
 11
3.222717975
 21
5.9648809057
  0
LINE
  5
221
100
AcDbEntity
  8
0
100
AcDbLine
 62
7
  6
CONTINUOUS
 10
3.3193586902
 20
6.3319869152
 11
3.2909972864
 21
6.1466443114
  0
LINE
  5
222
100
AcDbEntity
  8
0
100
AcDbLine
 62
7
  6
CONTINUOUS
 10
3.2930605017
 20
6.1336830946
 11
3.2949512619
 21
6.1460392682
  0
LINE
  5
223
100
AcDbEntity
  8
0
100
AcDbLine
 62
7
  6
CONTINUOUS
 10
3.2302407903
 20
4.7624072
 11
3.2271943746
 21
4.7499103007
  0
LINE
  5
224
100
AcDbEntity
  8
0
100
AcDbLine
 62
7
  6
CONTINUOUS
 10
3.2861506269
 20
4.7538517927
 11
3.2831042113
 21
4.7413548935
  0
LINE
  5
225
100
AcDbEntity
  8
0
100
AcDbLine
 62
7
  6
CONTINUOUS
 10
2.9497013555
 20
5.4875674512
 11
2.9469280839
 21
5.4861344133
  0
LINE
  5
226
100
AcDbEntity
  8
0
100
AcDbLine
 62
7
  6
CONTINUOUS
 10
7.4347991062
 20
2.5044323107
 11
7.4212600066
 21
2.5013065632
  0
LINE
  5
227
100
AcDbEntity
  8
0
100
AcDbLine
 62
7
  6
CONTINUOUS
 10
6.8899561672
 20
2.3883744459
 11
6.8763162283
 21
2.3857231104
  0
LINE
  5
228
100
AcDbEntity
  8
0
100
AcDbLine
 62
7
  6
CONTINUOUS
 10
7.4202479742
 20
2.4816329529
 11
7.4065238141
 21
2.4794592594
  0
LINE
  5
229
100
AcDbEntity
  8
0
100
AcDbLine
 62
7
  6
CONTINUOUS
 10
6.8686364579
 20
2.4038641214
 11
6.8548447974
 21
2.4021707184
  0
LINE
  5
22A
100
AcDbEntity
  8
0
100
AcDbLine
 62
7
  6
CONTINUOUS
 10
7.4041418853
 20
2.4599041688
 11
7.3902995274
 21
2.4586931194
  0
LINE
  5
22B
100
AcDbEntity
  8
0
100
AcDbLine
 62
7
  6
CONTINUOUS
 10
3.3739783338
 20
4.740412265
 11
3.3731482638
 21
4.7275762172
  0
LINE
  5
22C
100
AcDbEntity
  8
0
100
AcDbLine
 62
7
  6
CONTINUOUS
 10
3.4425619015
 20
4.7299175044
 11
3.4417318315
 21
4.7170814566
  0
LINE
  5
22D
100
AcDbEntity
  8
0
100
AcDbLine
 62
7
  6
CONTINUOUS
 10
3.4984717381
 20
4.7213620972
 11
3.4976416681
 21
4.7085260494
  0
LINE
  5
22E
100
AcDbEntity
  8
0
100
AcDbLine
 62
7
  6
CONTINUOUS
 10
3.3547341946
 20
4.7433570321
 11
3.351687779
 21
4.7308601329
  0
LINE
  5
22F
100
AcDbEntity
  8
0
100
AcDbLine
 62
7
  6
CONTINUOUS
 10
3.4277193029
 20
4.7321887412
 11
3.4246728872
 21
4.7196918419
  0
LINE
  5
230
100
AcDbEntity
  8
0
100
AcDbLine
 62
7
  6
CONTINUOUS
 10
3.4963028706
 20
4.7216939806
 11
3.4932564549
 21
4.7091970813
  0
LINE
  5
231
100
AcDbEntity
  8
0
100
AcDbLine
 62
7
  6
CONTINUOUS
 10
3.5522127072
 20
4.7131385733
 11
3.5491662916
 21
4.7006416741
  0
LINE
  5
232
100
AcDbEntity
  8
0
100
AcDbLine
 62
7
  6
CONTINUOUS
 10
3.5887052614
 20
4.7075544278
 11
3.5856588457
 21
4.6950575286
  0
LINE
  5
233
100
AcDbEntity
  8
0
100
AcDbLine
 62
7
  6
CONTINUOUS
 10
3.5983325767
 20
4.6931181752
 11
3.6013789924
 21
4.7056150745
  0
LINE
  5
234
100
AcDbEntity
  8
0
100
AcDbLine
 62
7
  6
CONTINUOUS
 10
7.2898544479
 20
3.0283454726
 11
7.3032762128
 21
3.0319418237
  0
LINE
  5
235
100
AcDbEntity
  8
0
100
AcDbLine
 62
7
  6
CONTINUOUS
 10
6.7673597896
 20
2.8983228522
 11
6.7808988892
 21
2.9014485997
  0
LINE
  5
236
100
AcDbEntity
  8
0
100
AcDbLine
 62
7
  6
CONTINUOUS
 10
6.8484491875
 20
2.4208032526
 11
6.8345729969
 21
2.4200760322
  0
LINE
  5
237
100
AcDbEntity
  8
0
100
AcDbLine
 62
7
  6
CONTINUOUS
 10
7.3865593067
 20
2.4393518189
 11
7.3726661895
 21
2.4391093137
  0
LINE
  5
238
100
AcDbEntity
  8
0
100
AcDbLine
 62
7
  6
CONTINUOUS
 10
7.2798294479
 20
2.5951559478
 11
7.2698294479
 21
2.5951559478
  0
LINE
  5
239
100
AcDbEntity
  8
0
100
AcDbLine
 62
7
  6
CONTINUOUS
 10
6.9323294479
 20
2.5951559478
 11
6.9223294479
 21
2.5951559478
  0
LINE
  5
23A
100
AcDbEntity
  8
0
100
AcDbLine
 62
7
  6
CONTINUOUS
 10
6.8294927063
 20
2.4391093137
 11
6.8155995891
 21
2.4393518189
  0
LINE
  5
23B
100
AcDbEntity
  8
0
100
AcDbLine
 62
7
  6
CONTINUOUS
 10
7.3675858989
 20
2.4200760322
 11
7.3537097083
 21
2.4208032526
  0
LINE
  5
23C
100
AcDbEntity
  8
0
100
AcDbLine
 62
7
  6
CONTINUOUS
 10
6.8118593684
 20
2.4586931194
 11
6.7980170105
 21
2.4599041688
  0
LINE
  5
23D
100
AcDbEntity
  8
0
100
AcDbLine
 62
7
  6
CONTINUOUS
 10
3.7981571168
 20
5.4207114704
 11
3.7600404962
 21
4.6868993635
  0
LINE
  5
23E
100
AcDbEntity
  8
0
100
AcDbLine
 62
7
  6
CONTINUOUS
 10
3.8504848263
 20
6.0610306872
 11
3.848594066
 21
6.0486745136
  0
LINE
  5
23F
100
AcDbEntity
  8
0
100
AcDbLine
 62
7
  6
CONTINUOUS
 10
3.8748590126
 20
6.1938723186
 11
3.8544388018
 21
6.0604256439
  0
LINE
  5
240
100
AcDbEntity
  8
0
100
AcDbLine
 62
7
  6
CONTINUOUS
 10
3.8764354835
 20
5.9397307104
 11
3.8133834188
 21
5.5276836224
  0
LINE
  5
241
100
AcDbEntity
  8
0
100
AcDbLine
 62
7
  6
CONTINUOUS
 10
7.3122027286
 20
3.014380717
 11
7.3258426675
 21
3.0170320525
  0
LINE
  5
242
100
AcDbEntity
  8
0
100
AcDbLine
 62
7
  6
CONTINUOUS
 10
6.7819109216
 20
2.92112221
 11
6.7956350817
 21
2.9232959034
  0
LINE
  5
243
100
AcDbEntity
  8
0
100
AcDbLine
 62
7
  6
CONTINUOUS
 10
7.3335224379
 20
2.9988910415
 11
7.3473140984
 21
3.0005844444
  0
LINE
  5
244
100
AcDbEntity
  8
0
100
AcDbLine
 62
7
  6
CONTINUOUS
 10
6.7980170105
 20
2.9428509941
 11
6.8118593684
 21
2.9440620435
  0
LINE
  5
245
100
AcDbEntity
  8
0
100
AcDbLine
 62
7
  6
CONTINUOUS
 10
7.3537097083
 20
2.9819519103
 11
7.3675858989
 21
2.9826791306
  0
LINE
  5
246
100
AcDbEntity
  8
0
100
AcDbLine
 62
7
  6
CONTINUOUS
 10
7.1985794479
 20
2.8763775814
 11
7.0035794479
 21
2.8763775814
  0
LINE
  5
247
100
AcDbEntity
  8
0
100
AcDbLine
 62
7
  6
CONTINUOUS
 10
7.3473140984
 20
2.4021707184
 11
7.3335224379
 21
2.4038641214
  0
LINE
  5
248
100
AcDbEntity
  8
0
100
AcDbLine
 62
7
  6
CONTINUOUS
 10
6.7956350817
 20
2.4794592594
 11
6.7819109216
 21
2.4816329529
  0
LINE
  5
249
100
AcDbEntity
  8
0
100
AcDbLine
 62
7
  6
CONTINUOUS
 10
7.3258426675
 20
2.3857231104
 11
7.3122027286
 21
2.3883744459
  0
LINE
  5
24A
100
AcDbEntity
  8
0
100
AcDbLine
 62
7
  6
CONTINUOUS
 10
6.7808988892
 20
2.5013065632
 11
6.7673597896
 21
2.5044323107
  0
LINE
  5
24B
100
AcDbEntity
  8
0
100
AcDbLine
 62
7
  6
CONTINUOUS
 10
2.9303399663
 20
5.4340727818
 11
2.9317730042
 21
5.4312995101
  0
LINE
  5
24C
100
AcDbEntity
  8
0
100
AcDbLine
 62
7
  6
CONTINUOUS
 10
6.8155995891
 20
2.9634033439
 11
6.8294927063
 21
2.9636458492
  0
LINE
  5
24D
100
AcDbEntity
  8
0
100
AcDbLine
 62
7
  6
CONTINUOUS
 10
7.2180794479
 20
3.0513775814
 11
6.9840794479
 21
3.0513775814
  0
LINE
  5
24E
100
AcDbEntity
  8
0
100
AcDbLine
 62
7
  6
CONTINUOUS
 10
7.2510794479
 20
3.0888775814
 11
6.9510794479
 21
3.0888775814
  0
LINE
  5
24F
100
AcDbEntity
  8
0
100
AcDbLine
 62
7
  6
CONTINUOUS
 10
6.9510794479
 20
3.1513775814
 11
7.2510794479
 21
3.1513775814
  0
LINE
  5
250
100
AcDbEntity
  8
0
100
AcDbLine
 62
7
  6
CONTINUOUS
 10
7.3726661895
 20
2.9636458492
 11
7.3865593067
 21
2.9634033439
  0
LINE
  5
251
100
AcDbEntity
  8
0
100
AcDbLine
 62
7
  6
CONTINUOUS
 10
6.8345729969
 20
2.9826791306
 11
6.8484491875
 21
2.9819519103
  0
LINE
  5
252
100
AcDbEntity
  8
0
100
AcDbLine
 62
7
  6
CONTINUOUS
 10
7.3902995274
 20
2.9440620435
 11
7.4041418853
 21
2.9428509941
  0
LINE
  5
253
100
AcDbEntity
  8
0
100
AcDbLine
 62
7
  6
CONTINUOUS
 10
6.8548447974
 20
3.0005844444
 11
6.8686364579
 21
2.9988910415
  0
LINE
  5
254
100
AcDbEntity
  8
0
100
AcDbLine
 62
7
  6
CONTINUOUS
 10
7.3032762128
 20
2.3708133392
 11
7.2898544479
 21
2.3744096902
  0
LINE
  5
255
100
AcDbEntity
  8
0
100
AcDbLine
 62
7
  6
CONTINUOUS
 10
6.7677225842
 20
2.5241285929
 11
6.7544345063
 21
2.528191166
  0
LINE
  5
256
100
AcDbEntity
  8
0
100
AcDbLine
 62
7
  6
CONTINUOUS
 10
7.2797246758
 20
2.3575140437
 11
7.2665864744
 21
2.3620378893
  0
LINE
  5
257
100
AcDbEntity
  8
0
100
AcDbLine
 62
7
  6
CONTINUOUS
 10
6.7561703604
 20
2.5478141618
 11
6.7431980423
 21
2.5527937682
  0
LINE
  5
258
100
AcDbEntity
  8
0
100
AcDbLine
 62
7
  6
CONTINUOUS
 10
7.4065238141
 20
2.9232959034
 11
7.4202479742
 21
2.92112221
  0
LINE
  5
259
100
AcDbEntity
  8
0
100
AcDbLine
 62
7
  6
CONTINUOUS
 10
6.8763162283
 20
3.0170320525
 11
6.8899561672
 21
3.014380717
  0
LINE
  5
25A
100
AcDbEntity
  8
0
100
AcDbLine
 62
7
  6
CONTINUOUS
 10
7.4212600066
 20
2.9014485997
 11
7.4347991062
 21
2.8983228522
  0
LINE
  5
25B
100
AcDbEntity
  8
0
100
AcDbLine
 62
7
  6
CONTINUOUS
 10
6.898882683
 20
3.0319418237
 11
6.9123044479
 21
3.0283454726
  0
LINE
  5
25C
100
AcDbEntity
  8
0
100
AcDbLine
 62
7
  6
CONTINUOUS
 10
7.2553027971
 20
2.3458900169
 11
7.2425121672
 21
2.3513193171
  0
LINE
  5
25D
100
AcDbEntity
  8
0
100
AcDbLine
 62
7
  6
CONTINUOUS
 10
6.7462984989
 20
2.5722478763
 11
6.7337051406
 21
2.5781202558
  0
LINE
  5
25E
100
AcDbEntity
  8
0
100
AcDbLine
 62
7
  6
CONTINUOUS
 10
7.2301295578
 20
2.3359978897
 11
7.2177488141
 21
2.3423061937
  0
LINE
  5
25F
100
AcDbEntity
  8
0
100
AcDbLine
 62
7
  6
CONTINUOUS
 10
6.7381550946
 20
2.5973106978
 11
6.7260020495
 21
2.6040472406
  0
LINE
  5
260
100
AcDbEntity
  8
0
100
AcDbLine
 62
7
  6
CONTINUOUS
 10
7.6885794479
 20
0.7263775814
 11
7.6635794479
 21
0.7513775814
  0
LINE
  5
261
100
AcDbEntity
  8
0
100
AcDbLine
 62
7
  6
CONTINUOUS
 10
7.5760794479
 20
3.7413775814
 11
7.2510794479
 21
3.7413775814
  0
LINE
  5
262
100
AcDbEntity
  8
0
100
AcDbLine
 62
7
  6
CONTINUOUS
 10
6.9510794479
 20
3.7413775814
 11
6.6260794479
 21
3.7413775814
  0
LINE
  5
263
100
AcDbEntity
  8
0
100
AcDbLine
 62
7
  6
CONTINUOUS
 10
7.6010794479
 20
3.7563775814
 11
7.2510794479
 21
3.7563775814
  0
LINE
  5
264
100
AcDbEntity
  8
0
100
AcDbLine
 62
7
  6
CONTINUOUS
 10
6.9510794479
 20
3.7563775814
 11
6.6010794479
 21
3.7563775814
  0
LINE
  5
265
100
AcDbEntity
  8
0
100
AcDbLine
 62
7
  6
CONTINUOUS
 10
6.5760794479
 20
3.7813775814
 11
6.9510794479
 21
3.7813775814
  0
LINE
  5
266
100
AcDbEntity
  8
0
100
AcDbLine
 62
7
  6
CONTINUOUS
 10
7.2510794479
 20
3.7813775814
 11
7.6260794479
 21
3.7813775814
  0
LINE
  5
267
100
AcDbEntity
  8
0
100
AcDbLine
 62
7
  6
CONTINUOUS
 10
7.6510791946
 20
3.8063775814
 11
7.2510794479
 21
3.8063775814
  0
LINE
  5
268
100
AcDbEntity
  8
0
100
AcDbLine
 62
7
  6
CONTINUOUS
 10
6.5510797012
 20
3.8063775814
 11
6.9510794479
 21
3.8063775814
  0
LINE
  5
269
100
AcDbEntity
  8
0
100
AcDbLine
 62
7
  6
CONTINUOUS
 10
7.4344363116
 20
2.87862657
 11
7.4477243895
 21
2.8745639969
  0
LINE
  5
26A
100
AcDbEntity
  8
0
100
AcDbLine
 62
7
  6
CONTINUOUS
 10
6.92243422
 20
3.0452411191
 11
6.9355724214
 21
3.0407172736
  0
LINE
  5
26B
100
AcDbEntity
  8
0
100
AcDbLine
 62
7
  6
CONTINUOUS
 10
7.4459885354
 20
2.854941001
 11
7.4589608534
 21
2.8499613947
  0
LINE
  5
26C
100
AcDbEntity
  8
0
100
AcDbLine
 62
7
  6
CONTINUOUS
 10
6.9468560987
 20
3.056865146
 11
6.9596467286
 21
3.0514358457
  0
LINE
  5
26D
100
AcDbEntity
  8
0
100
AcDbLine
 62
7
  6
CONTINUOUS
 10
7.2043275994
 20
2.3278858557
 11
7.1924170596
 21
2.33504243
  0
LINE
  5
26E
100
AcDbEntity
  8
0
100
AcDbLine
 62
7
  6
CONTINUOUS
 10
6.7317798212
 20
2.6228805226
 11
6.7201262979
 21
2.6304484091
  0
LINE
  5
26F
100
AcDbEntity
  8
0
100
AcDbLine
 62
7
  6
CONTINUOUS
 10
7.1780226263
 20
2.3215934358
 11
7.1666403174
 21
2.3295634143
  0
LINE
  5
270
100
AcDbEntity
  8
0
100
AcDbLine
 62
7
  6
CONTINUOUS
 10
7.6510791946
 20
3.9563775814
 11
7.2510794479
 21
3.9563775814
  0
LINE
  5
271
100
AcDbEntity
  8
0
100
AcDbLine
 62
7
  6
CONTINUOUS
 10
6.5510797012
 20
3.9563775814
 11
6.9510794479
 21
3.9563775814
  0
LINE
  5
272
100
AcDbEntity
  8
0
100
AcDbLine
 62
7
  6
CONTINUOUS
 10
7.6260794479
 20
3.9813775814
 11
7.2510794479
 21
3.9813775814
  0
LINE
  5
273
100
AcDbEntity
  8
0
100
AcDbLine
 62
7
  6
CONTINUOUS
 10
6.5760794479
 20
3.9813775814
 11
6.9510794479
 21
3.9813775814
  0
LINE
  5
274
100
AcDbEntity
  8
0
100
AcDbLine
 62
7
  6
CONTINUOUS
 10
7.5760791831
 20
4.0313775814
 11
7.2510794479
 21
4.0313775814
  0
LINE
  5
275
100
AcDbEntity
  8
0
100
AcDbLine
 62
7
  6
CONTINUOUS
 10
6.6260797127
 20
4.0313775814
 11
6.9510794479
 21
4.0313775814
  0
LINE
  5
276
100
AcDbEntity
  8
0
100
AcDbLine
 62
7
  6
CONTINUOUS
 10
6.8160794479
 20
4.0388775814
 11
6.9510794479
 21
4.0388775814
  0
LINE
  5
277
100
AcDbEntity
  8
0
100
AcDbLine
 62
7
  6
CONTINUOUS
 10
7.2510794479
 20
4.0388775814
 11
7.3860794479
 21
4.0388775814
  0
LINE
  5
278
100
AcDbEntity
  8
0
100
AcDbLine
 62
7
  6
CONTINUOUS
 10
7.4558603969
 20
2.8305072866
 11
7.4684537552
 21
2.8246349071
  0
LINE
  5
279
100
AcDbEntity
  8
0
100
AcDbLine
 62
7
  6
CONTINUOUS
 10
6.972029338
 20
3.0667572732
 11
6.982747857
 21
3.0612959149
  0
LINE
  5
27A
100
AcDbEntity
  8
0
100
AcDbLine
 62
7
  6
CONTINUOUS
 10
7.4640038012
 20
2.8054444651
 11
7.4761568463
 21
2.7987079223
  0
LINE
  5
27B
100
AcDbEntity
  8
0
100
AcDbLine
 62
7
  6
CONTINUOUS
 10
7.2862879663
 20
2.5913179933
 11
7.2798294479
 21
2.5951559478
  0
LINE
  5
27C
100
AcDbEntity
  8
0
100
AcDbLine
 62
7
  6
CONTINUOUS
 10
6.7272037385
 20
2.6488327772
 11
6.7161065117
 21
2.6571951374
  0
LINE
  5
27D
100
AcDbEntity
  8
0
100
AcDbLine
 62
7
  6
CONTINUOUS
 10
7.1513427938
 20
2.3171512861
 11
7.1405441692
 21
2.3258958398
  0
LINE
  5
27E
100
AcDbEntity
  8
0
100
AcDbLine
 62
7
  6
CONTINUOUS
 10
6.7244491407
 20
2.6750410248
 11
6.7139622749
 21
2.6841571182
  0
LINE
  5
27F
100
AcDbEntity
  8
0
100
AcDbLine
 62
7
  6
CONTINUOUS
 10
7.4703790746
 20
2.7798746403
 11
7.4820325979
 21
2.7723067537
  0
LINE
  5
280
100
AcDbEntity
  8
0
100
AcDbLine
 62
7
  6
CONTINUOUS
 10
7.4749551573
 20
2.7539223857
 11
7.4860523841
 21
2.7455600254
  0
LINE
  5
281
100
AcDbEntity
  8
0
100
AcDbLine
 62
7
  6
CONTINUOUS
 10
7.1244180833
 20
2.3145810482
 11
7.1142557529
 21
2.3240575747
  0
LINE
  5
282
100
AcDbEntity
  8
0
100
AcDbLine
 62
7
  6
CONTINUOUS
 10
6.7235294479
 20
2.7013775814
 11
6.7137040341
 21
2.7112029953
  0
LINE
  5
283
100
AcDbEntity
  8
0
100
AcDbLine
 62
7
  6
CONTINUOUS
 10
7.0973796694
 20
2.3138952442
 11
7.0879031429
 21
2.3240575747
  0
LINE
  5
284
100
AcDbEntity
  8
0
100
AcDbLine
 62
7
  6
CONTINUOUS
 10
6.7244491407
 20
2.7277141381
 11
6.7153330473
 21
2.7382010039
  0
LINE
  5
285
100
AcDbEntity
  8
0
100
AcDbLine
 62
7
  6
CONTINUOUS
 10
7.2623294479
 20
4.4413775814
 11
6.9398294479
 21
4.4413775814
  0
LINE
  5
286
100
AcDbEntity
  8
0
100
AcDbLine
 62
7
  6
CONTINUOUS
 10
7.2623294479
 20
4.5013775814
 11
6.9398294479
 21
4.5013775814
  0
LINE
  5
287
100
AcDbEntity
  8
0
100
AcDbLine
 62
7
  6
CONTINUOUS
 10
3.4180231348
 20
4.7152558352
 11
3.3781671788
 21
4.7213546535
  0
LINE
  5
288
100
AcDbEntity
  8
0
100
AcDbLine
 62
7
  6
CONTINUOUS
 10
3.2764734439
 20
4.7369159816
 11
3.2365795178
 21
4.7430206102
  0
LINE
  5
289
100
AcDbEntity
  8
0
100
AcDbLine
 62
7
  6
CONTINUOUS
 10
3.2205446222
 20
4.745474294
 11
3.1441961121
 21
4.7571572577
  0
LINE
  5
28A
100
AcDbEntity
  8
0
100
AcDbLine
 62
7
  6
CONTINUOUS
 10
3.1315033959
 20
4.7590995162
 11
3.1439129088
 21
4.7572005939
  0
LINE
  5
28B
100
AcDbEntity
  8
0
100
AcDbLine
 62
7
  6
CONTINUOUS
 10
3.3051631641
 20
4.7325258375
 11
3.3450569329
 21
4.726421233
  0
LINE
  5
28C
100
AcDbEntity
  8
0
100
AcDbLine
 62
7
  6
CONTINUOUS
 10
3.4467317614
 20
4.710862798
 11
3.4866255685
 21
4.7047581876
  0
LINE
  5
28D
100
AcDbEntity
  8
0
100
AcDbLine
 62
7
  6
CONTINUOUS
 10
3.5026416443
 20
4.7023073837
 11
3.5790277473
 21
4.6906186674
  0
LINE
  5
28E
100
AcDbEntity
  8
0
100
AcDbLine
 62
7
  6
CONTINUOUS
 10
3.5792923046
 20
4.6905781844
 11
3.5917018094
 21
4.6886792633
  0
LINE
  5
28F
100
AcDbEntity
  8
0
100
AcDbLine
 62
7
  6
CONTINUOUS
 10
3.126503466
 20
4.7653181749
 11
3.2271943746
 21
4.7499103007
  0
LINE
  5
290
100
AcDbEntity
  8
0
100
AcDbLine
 62
7
  6
CONTINUOUS
 10
3.2315795879
 20
4.7492392688
 11
3.2831042113
 21
4.7413548935
  0
LINE
  5
291
100
AcDbEntity
  8
0
100
AcDbLine
 62
7
  6
CONTINUOUS
 10
3.3001631555
 20
4.7387445082
 11
3.351687779
 21
4.7308601329
  0
LINE
  5
292
100
AcDbEntity
  8
0
100
AcDbLine
 62
7
  6
CONTINUOUS
 10
3.3731482638
 20
4.7275762172
 11
3.4246728872
 21
4.7196918419
  0
LINE
  5
293
100
AcDbEntity
  8
0
100
AcDbLine
 62
7
  6
CONTINUOUS
 10
3.4417318315
 20
4.7170814566
 11
3.4932564549
 21
4.7091970813
  0
LINE
  5
294
100
AcDbEntity
  8
0
100
AcDbLine
 62
7
  6
CONTINUOUS
 10
3.4976416681
 20
4.7085260494
 11
3.5983325767
 21
4.6931181752
  0
LINE
  5
295
100
AcDbEntity
  8
0
100
AcDbLine
 62
7
  6
CONTINUOUS
 10
3.7542909238
 20
4.6822162609
 11
2.9744216046
 21
4.8015530363
  0
LINE
  5
296
100
AcDbEntity
  8
0
100
AcDbLine
 62
7
  6
CONTINUOUS
 10
3.7600404962
 20
4.6868993635
 11
2.9703355695
 21
4.8077411983
  0
LINE
  5
297
100
AcDbEntity
  8
0
100
AcDbLine
 62
7
  6
CONTINUOUS
 10
2.9532638768
 20
5.3380590846
 11
3.0398106264
 21
5.30964888
  0
LINE
  5
298
100
AcDbEntity
  8
0
100
AcDbLine
 62
7
  6
CONTINUOUS
 10
7.4777097551
 20
2.7277141381
 11
7.4881966209
 21
2.7185980447
  0
LINE
  5
299
100
AcDbEntity
  8
0
100
AcDbLine
 62
7
  6
CONTINUOUS
 10
7.0703592804
 20
2.3150972152
 11
7.0616147266
 21
2.3258958398
  0
LINE
  5
29A
100
AcDbEntity
  8
0
100
AcDbLine
 62
7
  6
CONTINUOUS
 10
6.7272037385
 20
2.7539223857
 11
6.7188413783
 21
2.7650196126
  0
LINE
  5
29B
100
AcDbEntity
  8
0
100
AcDbLine
 62
7
  6
CONTINUOUS
 10
7.0434885569
 20
2.3181811054
 11
7.0355185784
 21
2.3295634143
  0
LINE
  5
29C
100
AcDbEntity
  8
0
100
AcDbLine
 62
7
  6
CONTINUOUS
 10
3.0717356242
 20
5.1837417105
 11
3.067238785
 21
5.1844298236
  0
LINE
  5
29D
100
AcDbEntity
  8
0
100
AcDbLine
 62
7
  6
CONTINUOUS
 10
3.0669993226
 20
5.3087550521
 11
3.0941451174
 21
5.3046011618
  0
LINE
  5
29E
100
AcDbEntity
  8
0
100
AcDbLine
 62
7
  6
CONTINUOUS
 10
7.4786294479
 20
2.7013775814
 11
7.4884548617
 21
2.6915521676
  0
LINE
  5
29F
100
AcDbEntity
  8
0
100
AcDbLine
 62
7
  6
CONTINUOUS
 10
6.5760794479
 20
3.7813775814
 11
6.6010794479
 21
3.7563775814
  0
LINE
  5
2A0
100
AcDbEntity
  8
0
100
AcDbLine
 62
7
  6
CONTINUOUS
 10
7.4777097551
 20
2.6750410248
 11
7.4868258485
 21
2.6645541589
  0
LINE
  5
2A1
100
AcDbEntity
  8
0
100
AcDbLine
 62
7
  6
CONTINUOUS
 10
6.7317798212
 20
2.7798746403
 11
6.7242119347
 21
2.7915281637
  0
LINE
  5
2A2
100
AcDbEntity
  8
0
100
AcDbLine
 62
7
  6
CONTINUOUS
 10
7.0168984105
 20
2.3231318902
 11
7.0097418362
 21
2.33504243
  0
LINE
  5
2A3
100
AcDbEntity
  8
0
100
AcDbLine
 62
7
  6
CONTINUOUS
 10
6.7381550946
 20
2.8054444651
 11
6.7314185517
 21
2.8175975102
  0
LINE
  5
2A4
100
AcDbEntity
  8
0
100
AcDbLine
 62
7
  6
CONTINUOUS
 10
6.9907183857
 20
2.32992545
 11
6.9844100817
 21
2.3423061937
  0
LINE
  5
2A5
100
AcDbEntity
  8
0
100
AcDbLine
 62
7
  6
CONTINUOUS
 10
3.2060609922
 20
5.5113149165
 11
3.7981571168
 21
5.4207114704
  0
LINE
  5
2A6
100
AcDbEntity
  8
0
100
AcDbLine
 62
7
  6
CONTINUOUS
 10
3.2030855717
 20
5.5287986811
 11
3.807302599
 21
5.4363404305
  0
LINE
  5
2A7
100
AcDbEntity
  8
0
100
AcDbLine
 62
7
  6
CONTINUOUS
 10
3.8180817627
 20
5.5116734428
 11
3.2157388284
 21
5.6038448724
  0
LINE
  5
2A8
100
AcDbEntity
  8
0
100
AcDbLine
 62
7
  6
CONTINUOUS
 10
3.1475463763
 20
5.5767535606
 11
3.1871428877
 21
5.5700686282
  0
LINE
  5
2A9
100
AcDbEntity
  8
0
100
AcDbLine
 62
7
  6
CONTINUOUS
 10
3.1781254291
 20
5.5715849355
 11
3.179419785
 21
5.5713666188
  0
LINE
  5
2AA
100
AcDbEntity
  8
0
100
AcDbLine
 62
7
  6
CONTINUOUS
 10
3.048247527
 20
5.7968535673
 11
3.0444963309
 21
5.7980487907
  0
LINE
  5
2AB
100
AcDbEntity
  8
0
100
AcDbLine
 62
7
  6
CONTINUOUS
 10
7.4749551573
 20
2.6488327772
 11
7.4833175175
 21
2.6377355503
  0
LINE
  5
2AC
100
AcDbEntity
  8
0
100
AcDbLine
 62
7
  6
CONTINUOUS
 10
7.4703790746
 20
2.6228805226
 11
7.4779469611
 21
2.6112269992
  0
LINE
  5
2AD
100
AcDbEntity
  8
0
100
AcDbLine
 62
7
  6
CONTINUOUS
 10
6.7462984989
 20
2.8305072866
 11
6.7404261195
 21
2.8431006449
  0
LINE
  5
2AE
100
AcDbEntity
  8
0
100
AcDbLine
 62
7
  6
CONTINUOUS
 10
6.9650760288
 20
2.3385286873
 11
6.9596467286
 21
2.3513193171
  0
LINE
  5
2AF
100
AcDbEntity
  8
0
100
AcDbLine
 62
7
  6
CONTINUOUS
 10
6.7561703604
 20
2.854941001
 11
6.751190754
 21
2.8679133191
  0
LINE
  5
2B0
100
AcDbEntity
  8
0
100
AcDbLine
 62
7
  6
CONTINUOUS
 10
6.940096267
 20
2.3488996879
 11
6.9355724214
 21
2.3620378893
  0
LINE
  5
2B1
100
AcDbEntity
  8
0
100
AcDbLine
 62
7
  6
CONTINUOUS
 10
6.5135794479
 20
0.6513775814
 11
6.5135794479
 21
0.7263775814
  0
LINE
  5
2B2
100
AcDbEntity
  8
0
100
AcDbLine
 62
7
  6
CONTINUOUS
 10
6.5136645604
 20
0.8563775814
 11
6.5136645604
 21
0.9063775814
  0
LINE
  5
2B3
100
AcDbEntity
  8
0
100
AcDbLine
 62
7
  6
CONTINUOUS
 10
6.5139462326
 20
0.8563775814
 11
6.5139462326
 21
0.9063775814
  0
LINE
  5
2B4
100
AcDbEntity
  8
0
100
AcDbLine
 62
7
  6
CONTINUOUS
 10
6.5149929517
 20
0.8563775814
 11
6.5149929517
 21
0.9063775814
  0
LINE
  5
2B5
100
AcDbEntity
  8
0
100
AcDbLine
 62
7
  6
CONTINUOUS
 10
6.515837196
 20
0.8563775814
 11
6.515837196
 21
0.9063775814
  0
LINE
  5
2B6
100
AcDbEntity
  8
0
100
AcDbLine
 62
7
  6
CONTINUOUS
 10
6.5179277653
 20
0.8563775814
 11
6.5179277653
 21
0.9063775814
  0
LINE
  5
2B7
100
AcDbEntity
  8
0
100
AcDbLine
 62
7
  6
CONTINUOUS
 10
3.8133834188
 20
5.5276836224
 11
3.2238576311
 21
5.617893685
  0
LINE
  5
2B8
100
AcDbEntity
  8
0
100
AcDbLine
 62
7
  6
CONTINUOUS
 10
3.1776495245
 20
5.8525358682
 11
3.2049715956
 21
5.8483550038
  0
LINE
  5
2B9
100
AcDbEntity
  8
0
100
AcDbLine
 62
7
  6
CONTINUOUS
 10
7.4640038012
 20
2.5973106978
 11
7.4707403441
 21
2.5851576527
  0
LINE
  5
2BA
100
AcDbEntity
  8
0
100
AcDbLine
 62
7
  6
CONTINUOUS
 10
7.4558603969
 20
2.5722478763
 11
7.4617327763
 21
2.559654518
  0
LINE
  5
2BB
100
AcDbEntity
  8
0
100
AcDbLine
 62
7
  6
CONTINUOUS
 10
6.7677225842
 20
2.87862657
 11
6.7636600111
 21
2.8919146479
  0
LINE
  5
2BC
100
AcDbEntity
  8
0
100
AcDbLine
 62
7
  6
CONTINUOUS
 10
6.915900799
 20
2.3609879253
 11
6.9123044479
 21
2.3744096902
  0
LINE
  5
2BD
100
AcDbEntity
  8
0
100
AcDbLine
 62
7
  6
CONTINUOUS
 10
6.7808988892
 20
2.9014485997
 11
6.7777731418
 21
2.9149876992
  0
LINE
  5
2BE
100
AcDbEntity
  8
0
100
AcDbLine
 62
7
  6
CONTINUOUS
 10
6.8926075027
 20
2.374734507
 11
6.8899561672
 21
2.3883744459
  0
LINE
  5
2BF
100
AcDbEntity
  8
0
100
AcDbLine
 62
7
  6
CONTINUOUS
 10
6.8118593684
 20
2.9440620435
 11
6.810648319
 21
2.9579044014
  0
LINE
  5
2C0
100
AcDbEntity
  8
0
100
AcDbLine
 62
7
  6
CONTINUOUS
 10
6.8491764078
 20
2.406927062
 11
6.8484491875
 21
2.4208032526
  0
LINE
  5
2C1
100
AcDbEntity
  8
0
100
AcDbLine
 62
7
  6
CONTINUOUS
 10
6.8294927063
 20
2.9636458492
 11
6.829250201
 21
2.9775389664
  0
LINE
  5
2C2
100
AcDbEntity
  8
0
100
AcDbLine
 62
7
  6
CONTINUOUS
 10
6.5193322678
 20
0.8563775814
 11
6.5193322678
 21
0.9063775814
  0
LINE
  5
2C3
100
AcDbEntity
  8
0
100
AcDbLine
 62
7
  6
CONTINUOUS
 10
6.5224609571
 20
0.8563775814
 11
6.5224609571
 21
0.9063775814
  0
LINE
  5
2C4
100
AcDbEntity
  8
0
100
AcDbLine
 62
7
  6
CONTINUOUS
 10
6.5244218682
 20
0.8563775814
 11
6.5244218682
 21
0.9063775814
  0
LINE
  5
2C5
100
AcDbEntity
  8
0
100
AcDbLine
 62
7
  6
CONTINUOUS
 10
6.528580102
 20
0.8563775814
 11
6.528580102
 21
0.9063775814
  0
LINE
  5
2C6
100
AcDbEntity
  8
0
100
AcDbLine
 62
7
  6
CONTINUOUS
 10
6.5310920469
 20
0.8563775814
 11
6.5310920469
 21
0.9063775814
  0
LINE
  5
2C7
100
AcDbEntity
  8
0
100
AcDbLine
 62
7
  6
CONTINUOUS
 10
6.5362684278
 20
0.8563775814
 11
6.5362684278
 21
0.9063775814
  0
LINE
  5
2C8
100
AcDbEntity
  8
0
100
AcDbLine
 62
7
  6
CONTINUOUS
 10
6.5385794479
 20
0.7513775814
 11
6.5385794479
 21
0.8563775814
  0
LINE
  5
2C9
100
AcDbEntity
  8
0
100
AcDbLine
 62
7
  6
CONTINUOUS
 10
6.5393245215
 20
0.8563775814
 11
6.5393245215
 21
0.9063775814
  0
LINE
  5
2CA
100
AcDbEntity
  8
0
100
AcDbLine
 62
7
  6
CONTINUOUS
 10
6.5455048614
 20
0.8563775814
 11
6.5455048614
 21
0.9063775814
  0
LINE
  5
2CB
100
AcDbEntity
  8
0
100
AcDbLine
 62
7
  6
CONTINUOUS
 10
6.5490967272
 20
0.8563775814
 11
6.5490967272
 21
0.9063775814
  0
LINE
  5
2CC
100
AcDbEntity
  8
0
100
AcDbLine
 62
7
  6
CONTINUOUS
 10
6.5510794479
 20
3.8063775814
 11
6.5510794479
 21
3.9563775814
  0
LINE
  5
2CD
100
AcDbEntity
  8
0
100
AcDbLine
 62
7
  6
CONTINUOUS
 10
6.5562640862
 20
0.8563775814
 11
6.5562640862
 21
0.9063775814
  0
LINE
  5
2CE
100
AcDbEntity
  8
0
100
AcDbLine
 62
7
  6
CONTINUOUS
 10
6.5603818793
 20
0.8563775814
 11
6.5603818793
 21
0.9063775814
  0
LINE
  5
2CF
100
AcDbEntity
  8
0
100
AcDbLine
 62
7
  6
CONTINUOUS
 10
6.5685166121
 20
0.8563775814
 11
6.5685166121
 21
0.9063775814
  0
LINE
  5
2D0
100
AcDbEntity
  8
0
100
AcDbLine
 62
7
  6
CONTINUOUS
 10
6.5731490458
 20
0.8563775814
 11
6.5731490458
 21
0.9063775814
  0
LINE
  5
2D1
100
AcDbEntity
  8
0
100
AcDbLine
 62
7
  6
CONTINUOUS
 10
6.5760794479
 20
3.7813775814
 11
6.5760794479
 21
3.8063775814
  0
LINE
  5
2D2
100
AcDbEntity
  8
0
100
AcDbLine
 62
7
  6
CONTINUOUS
 10
6.5760794479
 20
3.9563775814
 11
6.5760794479
 21
3.9813775814
  0
LINE
  5
2D3
100
AcDbEntity
  8
0
100
AcDbLine
 62
7
  6
CONTINUOUS
 10
6.5822288558
 20
0.8563775814
 11
6.5822288558
 21
0.9063775814
  0
LINE
  5
2D4
100
AcDbEntity
  8
0
100
AcDbLine
 62
7
  6
CONTINUOUS
 10
6.5873632328
 20
0.8563775814
 11
6.5873632328
 21
0.9063775814
  0
LINE
  5
2D5
100
AcDbEntity
  8
0
100
AcDbLine
 62
7
  6
CONTINUOUS
 10
6.5973632328
 20
0.8563775814
 11
6.5973632328
 21
0.9063775814
  0
LINE
  5
2D6
100
AcDbEntity
  8
0
100
AcDbLine
 62
7
  6
CONTINUOUS
 10
6.6029854803
 20
0.8563775814
 11
6.6029854803
 21
0.9063775814
  0
LINE
  5
2D7
100
AcDbEntity
  8
0
100
AcDbLine
 62
7
  6
CONTINUOUS
 10
6.613878261
 20
0.8563775814
 11
6.613878261
 21
0.9063775814
  0
LINE
  5
2D8
100
AcDbEntity
  8
0
100
AcDbLine
 62
7
  6
CONTINUOUS
 10
6.6199729687
 20
0.8563775814
 11
6.6199729687
 21
0.9063775814
  0
LINE
  5
2D9
100
AcDbEntity
  8
0
100
AcDbLine
 62
7
  6
CONTINUOUS
 10
6.6260794479
 20
0.9563775814
 11
6.6260794479
 21
2.4777727792
  0
LINE
  5
2DA
100
AcDbEntity
  8
0
100
AcDbLine
 62
7
  6
CONTINUOUS
 10
6.6260794479
 20
2.9249823836
 11
6.6260794479
 21
3.7413775814
  0
LINE
  5
2DB
100
AcDbEntity
  8
0
100
AcDbLine
 62
7
  6
CONTINUOUS
 10
6.6317286737
 20
0.8563775814
 11
6.6317286737
 21
0.9063775814
  0
LINE
  5
2DC
100
AcDbEntity
  8
0
100
AcDbLine
 62
7
  6
CONTINUOUS
 10
6.6382791365
 20
0.8563775814
 11
6.6382791365
 21
0.9063775814
  0
LINE
  5
2DD
100
AcDbEntity
  8
0
100
AcDbLine
 62
7
  6
CONTINUOUS
 10
6.6508655443
 20
0.8563775814
 11
6.6508655443
 21
0.9063775814
  0
LINE
  5
2DE
100
AcDbEntity
  8
0
100
AcDbLine
 62
7
  6
CONTINUOUS
 10
6.6578538078
 20
0.8563775814
 11
6.6578538078
 21
0.9063775814
  0
LINE
  5
2DF
100
AcDbEntity
  8
0
100
AcDbLine
 62
7
  6
CONTINUOUS
 10
6.6712364199
 20
0.8563775814
 11
6.6712364199
 21
0.9063775814
  0
LINE
  5
2E0
100
AcDbEntity
  8
0
100
AcDbLine
 62
7
  6
CONTINUOUS
 10
6.6786433298
 20
0.8563775814
 11
6.6786433298
 21
0.9063775814
  0
LINE
  5
2E1
100
AcDbEntity
  8
0
100
AcDbLine
 62
7
  6
CONTINUOUS
 10
6.6927854654
 20
0.8563775814
 11
6.6927854654
 21
0.9063775814
  0
LINE
  5
2E2
100
AcDbEntity
  8
0
100
AcDbLine
 62
7
  6
CONTINUOUS
 10
6.7005907198
 20
0.8563775814
 11
6.7005907198
 21
0.9063775814
  0
LINE
  5
2E3
100
AcDbEntity
  8
0
100
AcDbLine
 62
7
  6
CONTINUOUS
 10
6.7147134741
 20
0.9063775814
 11
6.7147134741
 21
0.8563775814
  0
LINE
  5
2E4
100
AcDbEntity
  8
0
100
AcDbLine
 62
7
  6
CONTINUOUS
 10
6.7154536163
 20
0.8563775814
 11
6.7154536163
 21
0.9063775814
  0
LINE
  5
2E5
100
AcDbEntity
  8
0
100
AcDbLine
 62
7
  6
CONTINUOUS
 10
6.7236358216
 20
0.8563775814
 11
6.7236358216
 21
0.9063775814
  0
LINE
  5
2E6
100
AcDbEntity
  8
0
100
AcDbLine
 62
7
  6
CONTINUOUS
 10
6.7377004851
 20
0.9063775814
 11
6.7377004851
 21
0.8563775814
  0
LINE
  5
2E7
100
AcDbEntity
  8
0
100
AcDbLine
 62
7
  6
CONTINUOUS
 10
6.7391787408
 20
0.8563775814
 11
6.7391787408
 21
0.9063775814
  0
LINE
  5
2E8
100
AcDbEntity
  8
0
100
AcDbLine
 62
7
  6
CONTINUOUS
 10
6.7477154701
 20
0.8563775814
 11
6.7477154701
 21
0.9063775814
  0
LINE
  5
2E9
100
AcDbEntity
  8
0
100
AcDbLine
 62
7
  6
CONTINUOUS
 10
6.7616834926
 20
0.9063775814
 11
6.7616834926
 21
0.8563775814
  0
LINE
  5
2EA
100
AcDbEntity
  8
0
100
AcDbLine
 62
7
  6
CONTINUOUS
 10
6.76389581
 20
0.8563775814
 11
6.76389581
 21
0.9063775814
  0
LINE
  5
2EB
100
AcDbEntity
  8
0
100
AcDbLine
 62
7
  6
CONTINUOUS
 10
6.7727636648
 20
0.8563775814
 11
6.7727636648
 21
0.9063775814
  0
LINE
  5
2EC
100
AcDbEntity
  8
0
100
AcDbLine
 62
7
  6
CONTINUOUS
 10
6.7865967608
 20
0.9063775814
 11
6.7865967608
 21
0.8563775814
  0
LINE
  5
2ED
100
AcDbEntity
  8
0
100
AcDbLine
 62
7
  6
CONTINUOUS
 10
6.7895370761
 20
0.8563775814
 11
6.7895370761
 21
0.9063775814
  0
LINE
  5
2EE
100
AcDbEntity
  8
0
100
AcDbLine
 62
7
  6
CONTINUOUS
 10
6.7987117501
 20
0.8563775814
 11
6.7987117501
 21
0.9063775814
  0
LINE
  5
2EF
100
AcDbEntity
  8
0
100
AcDbLine
 62
7
  6
CONTINUOUS
 10
6.8123720042
 20
0.9063775814
 11
6.8123720042
 21
0.8563775814
  0
LINE
  5
2F0
100
AcDbEntity
  8
0
100
AcDbLine
 62
7
  6
CONTINUOUS
 10
3.1521985881
 20
5.8855443616
 11
3.1205466602
 21
5.8898087726
  0
LINE
  5
2F1
100
AcDbEntity
  8
0
100
AcDbLine
 62
7
  6
CONTINUOUS
 10
3.222717975
 20
5.9648809057
 11
3.227577534
 21
5.9641372887
  0
LINE
  5
2F2
100
AcDbEntity
  8
0
100
AcDbLine
 62
7
  6
CONTINUOUS
 10
3.2339144571
 20
6.0380502435
 11
3.8764354835
 21
5.9397307104
  0
LINE
  5
2F3
100
AcDbEntity
  8
0
100
AcDbLine
 62
7
  6
CONTINUOUS
 10
3.2292161132
 20
6.0540604232
 11
3.8857065295
 21
5.953603273
  0
LINE
  5
2F4
100
AcDbEntity
  8
0
100
AcDbLine
 62
7
  6
CONTINUOUS
 10
3.8673754499
 20
6.045800558
 11
3.2742791178
 21
6.1365570502
  0
LINE
  5
2F5
100
AcDbEntity
  8
0
100
AcDbLine
 62
7
  6
CONTINUOUS
 10
3.8544388018
 20
6.0604256439
 11
3.2909972864
 21
6.1466443114
  0
LINE
  5
2F6
100
AcDbEntity
  8
0
100
AcDbLine
 62
7
  6
CONTINUOUS
 10
7.237082867
 20
3.0642264756
 11
7.2425121672
 21
3.0514358457
  0
LINE
  5
2F7
100
AcDbEntity
  8
0
100
AcDbLine
 62
7
  6
CONTINUOUS
 10
7.4459885354
 20
2.5478141618
 11
7.4509681418
 21
2.5348418438
  0
LINE
  5
2F8
100
AcDbEntity
  8
0
100
AcDbLine
 62
7
  6
CONTINUOUS
 10
7.2620626288
 20
3.053855475
 11
7.2665864744
 21
3.0407172736
  0
LINE
  5
2F9
100
AcDbEntity
  8
0
100
AcDbLine
 62
7
  6
CONTINUOUS
 10
7.4344363116
 20
2.5241285929
 11
7.4384988847
 21
2.510840515
  0
LINE
  5
2FA
100
AcDbEntity
  8
0
100
AcDbLine
 62
7
  6
CONTINUOUS
 10
6.7956350817
 20
2.9232959034
 11
6.7934613883
 21
2.9370200636
  0
LINE
  5
2FB
100
AcDbEntity
  8
0
100
AcDbLine
 62
7
  6
CONTINUOUS
 10
6.8703298609
 20
2.3900724609
 11
6.8686364579
 21
2.4038641214
  0
LINE
  5
2FC
100
AcDbEntity
  8
0
100
AcDbLine
 62
7
  6
CONTINUOUS
 10
6.8160322582
 20
0.8563775814
 11
6.8160322582
 21
0.9063775814
  0
LINE
  5
2FD
100
AcDbEntity
  8
0
100
AcDbLine
 62
7
  6
CONTINUOUS
 10
6.8160794479
 20
4.0388775814
 11
6.8160794479
 21
6.022639463
  0
LINE
  5
2FE
100
AcDbEntity
  8
0
100
AcDbLine
 62
7
  6
CONTINUOUS
 10
6.8254886043
 20
0.8563775814
 11
6.8254886043
 21
0.9063775814
  0
LINE
  5
2FF
100
AcDbEntity
  8
0
100
AcDbLine
 62
7
  6
CONTINUOUS
 10
6.8389385746
 20
0.9063775814
 11
6.8389385746
 21
0.8563775814
  0
LINE
  5
300
100
AcDbEntity
  8
0
100
AcDbLine
 62
7
  6
CONTINUOUS
 10
6.8433087348
 20
0.8563775814
 11
6.8433087348
 21
0.9063775814
  0
LINE
  5
301
100
AcDbEntity
  8
0
100
AcDbLine
 62
7
  6
CONTINUOUS
 10
6.8530208339
 20
0.8563775814
 11
6.8530208339
 21
0.9063775814
  0
LINE
  5
302
100
AcDbEntity
  8
0
100
AcDbLine
 62
7
  6
CONTINUOUS
 10
6.8662236549
 20
0.9063775814
 11
6.8662236549
 21
0.8563775814
  0
LINE
  5
303
100
AcDbEntity
  8
0
100
AcDbLine
 62
7
  6
CONTINUOUS
 10
6.8712917431
 20
0.8563775814
 11
6.8712917431
 21
0.9063775814
  0
LINE
  5
304
100
AcDbEntity
  8
0
100
AcDbLine
 62
7
  6
CONTINUOUS
 10
6.8812329749
 20
0.8563775814
 11
6.8812329749
 21
0.9063775814
  0
LINE
  5
305
100
AcDbEntity
  8
0
100
AcDbLine
 62
7
  6
CONTINUOUS
 10
6.8941524586
 20
0.9063775814
 11
6.8941524586
 21
0.8563775814
  0
LINE
  5
306
100
AcDbEntity
  8
0
100
AcDbLine
 62
7
  6
CONTINUOUS
 10
6.8999045834
 20
0.8563775814
 11
6.8999045834
 21
0.9063775814
  0
LINE
  5
307
100
AcDbEntity
  8
0
100
AcDbLine
 62
7
  6
CONTINUOUS
 10
6.9100476998
 20
0.8563775814
 11
6.9100476998
 21
0.9063775814
  0
LINE
  5
308
100
AcDbEntity
  8
0
100
AcDbLine
 62
7
  6
CONTINUOUS
 10
6.9223294479
 20
2.5951415672
 11
6.9223294479
 21
2.6588496917
  0
LINE
  5
309
100
AcDbEntity
  8
0
100
AcDbLine
 62
7
  6
CONTINUOUS
 10
6.9226484349
 20
0.9063775814
 11
6.9226484349
 21
0.8563775814
  0
LINE
  5
30A
100
AcDbEntity
  8
0
100
AcDbLine
 62
7
  6
CONTINUOUS
 10
6.9290688301
 20
0.8563775814
 11
6.9290688301
 21
0.9063775814
  0
LINE
  5
30B
100
AcDbEntity
  8
0
100
AcDbLine
 62
7
  6
CONTINUOUS
 10
6.9323294479
 20
2.5351275814
 11
6.9323294479
 21
2.6287007048
  0
LINE
  5
30C
100
AcDbEntity
  8
0
100
AcDbLine
 62
7
  6
CONTINUOUS
 10
6.9393860294
 20
0.8563775814
 11
6.9393860294
 21
0.9063775814
  0
LINE
  5
30D
100
AcDbEntity
  8
0
100
AcDbLine
 62
7
  6
CONTINUOUS
 10
6.9510794479
 20
4.4413775814
 11
6.9510794479
 21
3.1513775814
  0
LINE
  5
30E
100
AcDbEntity
  8
0
100
AcDbLine
 62
7
  6
CONTINUOUS
 10
6.9516334781
 20
0.9063775814
 11
6.9516334781
 21
0.8563775814
  0
LINE
  5
30F
100
AcDbEntity
  8
0
100
AcDbLine
 62
7
  6
CONTINUOUS
 10
6.9587045459
 20
0.8563775814
 11
6.9587045459
 21
0.9063775814
  0
LINE
  5
310
100
AcDbEntity
  8
0
100
AcDbLine
 62
7
  6
CONTINUOUS
 10
6.9691675494
 20
0.8563775814
 11
6.9691675494
 21
0.9063775814
  0
LINE
  5
311
100
AcDbEntity
  8
0
100
AcDbLine
 62
7
  6
CONTINUOUS
 10
6.9810281423
 20
0.9063775814
 11
6.9810281423
 21
0.8563775814
  0
LINE
  5
312
100
AcDbEntity
  8
0
100
AcDbLine
 62
7
  6
CONTINUOUS
 10
6.9887305014
 20
0.8563775814
 11
6.9887305014
 21
0.9063775814
  0
LINE
  5
313
100
AcDbEntity
  8
0
100
AcDbLine
 62
7
  6
CONTINUOUS
 10
6.9993106308
 20
0.8563775814
 11
6.9993106308
 21
0.9063775814
  0
LINE
  5
314
100
AcDbEntity
  8
0
100
AcDbLine
 62
7
  6
CONTINUOUS
 10
7.0035794479
 20
3.0513775814
 11
7.0035794479
 21
2.7013775814
  0
LINE
  5
315
100
AcDbEntity
  8
0
100
AcDbLine
 62
7
  6
CONTINUOUS
 10
7.0107518589
 20
0.9063775814
 11
7.0107518589
 21
0.8563775814
  0
LINE
  5
316
100
AcDbEntity
  8
0
100
AcDbLine
 62
7
  6
CONTINUOUS
 10
7.0190643976
 20
0.8563775814
 11
7.0190643976
 21
0.9063775814
  0
LINE
  5
317
100
AcDbEntity
  8
0
100
AcDbLine
 62
7
  6
CONTINUOUS
 10
7.0297326535
 20
0.8563775814
 11
7.0297326535
 21
0.9063775814
  0
LINE
  5
318
100
AcDbEntity
  8
0
100
AcDbLine
 62
7
  6
CONTINUOUS
 10
7.040723157
 20
0.9063775814
 11
7.040723157
 21
0.8563775814
  0
LINE
  5
319
100
AcDbEntity
  8
0
100
AcDbLine
 62
7
  6
CONTINUOUS
 10
7.0496230914
 20
0.8563775814
 11
7.0496230914
 21
0.9063775814
  0
LINE
  5
31A
100
AcDbEntity
  8
0
100
AcDbLine
 62
7
  6
CONTINUOUS
 10
7.0603502327
 20
0.8563775814
 11
7.0603502327
 21
0.9063775814
  0
LINE
  5
31B
100
AcDbEntity
  8
0
100
AcDbLine
 62
7
  6
CONTINUOUS
 10
7.0708598876
 20
0.9063775814
 11
7.0708598876
 21
0.8563775814
  0
LINE
  5
31C
100
AcDbEntity
  8
0
100
AcDbLine
 62
7
  6
CONTINUOUS
 10
7.0803228234
 20
0.8563775814
 11
7.0803228234
 21
0.9063775814
  0
LINE
  5
31D
100
AcDbEntity
  8
0
100
AcDbLine
 62
7
  6
CONTINUOUS
 10
7.0910794479
 20
0.8563775814
 11
7.0910794479
 21
0.9063775814
  0
LINE
  5
31E
100
AcDbEntity
  8
0
100
AcDbLine
 62
7
  6
CONTINUOUS
 10
7.1010794479
 20
0.9063775814
 11
7.1010794479
 21
0.8563775814
  0
LINE
  5
31F
100
AcDbEntity
  8
0
100
AcDbLine
 62
7
  6
CONTINUOUS
 10
6.829250201
 20
2.4252161965
 11
6.8294927063
 21
2.4391093137
  0
LINE
  5
320
100
AcDbEntity
  8
0
100
AcDbLine
 62
7
  6
CONTINUOUS
 10
6.8484491875
 20
2.9819519103
 11
6.8491764078
 21
2.9958281009
  0
LINE
  5
321
100
AcDbEntity
  8
0
100
AcDbLine
 62
7
  6
CONTINUOUS
 10
6.810648319
 20
2.4448507615
 11
6.8118593684
 21
2.4586931194
  0
LINE
  5
322
100
AcDbEntity
  8
0
100
AcDbLine
 62
7
  6
CONTINUOUS
 10
6.8686364579
 20
2.9988910415
 11
6.8703298609
 21
3.012682702
  0
LINE
  5
323
100
AcDbEntity
  8
0
100
AcDbLine
 62
7
  6
CONTINUOUS
 10
6.7934613883
 20
2.4657350993
 11
6.7956350817
 21
2.4794592594
  0
LWPOLYLINE
  5
324
100
AcDbEntity
  8
0
100
AcDbPolyline
 62
7
  6
CONTINUOUS
 90
38
 70
0
 10
3.1757215889
 20
5.9225028668
 10
3.1755688831
 20
5.9224949735
 10
3.174500831
 20
5.9224135093
 10
3.1734372489
 20
5.9222863683
 10
3.1723800894
 20
5.9221137842
 10
3.1713312932
 20
5.9218960736
 10
3.1702927856
 20
5.9216336363
 10
3.1692664731
 20
5.9213269541
 10
3.1682542399
 20
5.9209765899
 10
3.1672579441
 20
5.920583187
 10
3.1662794148
 20
5.9201474675
 10
3.1653204482
 20
5.9196702313
 10
3.1643828049
 20
5.9191523546
 10
3.1634682062
 20
5.918594788
 10
3.162578331
 20
5.9179985551
 10
3.1617148131
 20
5.9173647505
 10
3.1608792376
 20
5.9166945377
 10
3.1600731385
 20
5.915989147
 10
3.1592979956
 20
5.9152498734
 10
3.158555232
 20
5.914478074
 10
3.1578462111
 20
5.9136751658
 10
3.1571722348
 20
5.9128426227
 10
3.1565345403
 20
5.9119819731
 10
3.1559342983
 20
5.9110947972
 10
3.1553726106
 20
5.9101827235
 10
3.1548505087
 20
5.9092474267
 10
3.1543689507
 20
5.9082906238
 10
3.1539288209
 20
5.9073140712
 10
3.1535309271
 20
5.9063195619
 10
3.1531759998
 20
5.9053089217
 10
3.1528646905
 20
5.9042840059
 10
3.1525975706
 20
5.9032466961
 10
3.1523751304
 20
5.9021988966
 10
3.1521977783
 20
5.9011425311
 10
3.1520658397
 20
5.900079539
 10
3.1519795567
 20
5.899011872
 10
3.1519390877
 20
5.8979414899
 10
3.1519445063
 20
5.8968703716
  0
LINE
  5
325
100
AcDbEntity
  8
0
100
AcDbLine
 62
7
  6
CONTINUOUS
 10
6.8160794479
 20
6.022639463
 11
7.3860794479
 21
6.022639463
  0
LINE
  5
326
100
AcDbEntity
  8
0
100
AcDbLine
 62
7
  6
CONTINUOUS
 10
3.877890783
 20
6.2465194949
 11
3.3193586902
 21
6.3319869152
  0
LINE
  5
327
100
AcDbEntity
  8
0
100
AcDbLine
 62
7
  6
CONTINUOUS
 10
7.2862580968
 20
3.0417672375
 11
7.2898544479
 21
3.0283454726
  0
LINE
  5
328
100
AcDbEntity
  8
0
100
AcDbLine
 62
7
  6
CONTINUOUS
 10
7.4212600066
 20
2.5013065632
 11
7.424385754
 21
2.4877674637
  0
LINE
  5
329
100
AcDbEntity
  8
0
100
AcDbLine
 62
7
  6
CONTINUOUS
 10
7.3095513931
 20
3.0280206559
 11
7.3122027286
 21
3.014380717
  0
LINE
  5
32A
100
AcDbEntity
  8
0
100
AcDbLine
 62
7
  6
CONTINUOUS
 10
7.4065238141
 20
2.4794592594
 11
7.4086975075
 21
2.4657350993
  0
LINE
  5
32B
100
AcDbEntity
  8
0
100
AcDbLine
 62
7
  6
CONTINUOUS
 10
7.3902995274
 20
2.4586931194
 11
7.3915105768
 21
2.4448507615
  0
LINE
  5
32C
100
AcDbEntity
  8
0
100
AcDbLine
 62
7
  6
CONTINUOUS
 10
7.352982488
 20
2.9958281009
 11
7.3537097083
 21
2.9819519103
  0
LINE
  5
32D
100
AcDbEntity
  8
0
100
AcDbLine
 62
7
  6
CONTINUOUS
 10
7.3726661895
 20
2.4391093137
 11
7.3729086948
 21
2.4252161965
  0
LINE
  5
32E
100
AcDbEntity
  8
0
100
AcDbLine
 62
7
  6
CONTINUOUS
 10
7.1110794479
 20
0.8563775814
 11
7.1110794479
 21
0.9063775814
  0
LINE
  5
32F
100
AcDbEntity
  8
0
100
AcDbLine
 62
7
  6
CONTINUOUS
 10
7.1218360724
 20
0.8563775814
 11
7.1218360724
 21
0.9063775814
  0
LINE
  5
330
100
AcDbEntity
  8
0
100
AcDbLine
 62
7
  6
CONTINUOUS
 10
7.1312990082
 20
0.9063775814
 11
7.1312990082
 21
0.8563775814
  0
LINE
  5
331
100
AcDbEntity
  8
0
100
AcDbLine
 62
7
  6
CONTINUOUS
 10
7.1418086631
 20
0.8563775814
 11
7.1418086631
 21
0.9063775814
  0
LINE
  5
332
100
AcDbEntity
  8
0
100
AcDbLine
 62
7
  6
CONTINUOUS
 10
7.1525358044
 20
0.8563775814
 11
7.1525358044
 21
0.9063775814
  0
LINE
  5
333
100
AcDbEntity
  8
0
100
AcDbLine
 62
7
  6
CONTINUOUS
 10
7.1614357388
 20
0.9063775814
 11
7.1614357388
 21
0.8563775814
  0
LINE
  5
334
100
AcDbEntity
  8
0
100
AcDbLine
 62
7
  6
CONTINUOUS
 10
7.1724262423
 20
0.8563775814
 11
7.1724262423
 21
0.9063775814
  0
LINE
  5
335
100
AcDbEntity
  8
0
100
AcDbLine
 62
7
  6
CONTINUOUS
 10
7.1830944982
 20
0.8563775814
 11
7.1830944982
 21
0.9063775814
  0
LINE
  5
336
100
AcDbEntity
  8
0
100
AcDbLine
 62
7
  6
CONTINUOUS
 10
7.1914070369
 20
0.9063775814
 11
7.1914070369
 21
0.8563775814
  0
LINE
  5
337
100
AcDbEntity
  8
0
100
AcDbLine
 62
7
  6
CONTINUOUS
 10
7.1985794479
 20
3.0513775814
 11
7.1985794479
 21
2.7013775814
  0
LINE
  5
338
100
AcDbEntity
  8
0
100
AcDbLine
 62
7
  6
CONTINUOUS
 10
7.202848265
 20
0.8563775814
 11
7.202848265
 21
0.9063775814
  0
LINE
  5
339
100
AcDbEntity
  8
0
100
AcDbLine
 62
7
  6
CONTINUOUS
 10
7.2134283944
 20
0.8563775814
 11
7.2134283944
 21
0.9063775814
  0
LINE
  5
33A
100
AcDbEntity
  8
0
100
AcDbLine
 62
7
  6
CONTINUOUS
 10
7.2211307535
 20
0.9063775814
 11
7.2211307535
 21
0.8563775814
  0
LINE
  5
33B
100
AcDbEntity
  8
0
100
AcDbLine
 62
7
  6
CONTINUOUS
 10
7.2329913464
 20
0.8563775814
 11
7.2329913464
 21
0.9063775814
  0
LINE
  5
33C
100
AcDbEntity
  8
0
100
AcDbLine
 62
7
  6
CONTINUOUS
 10
7.2434543499
 20
0.8563775814
 11
7.2434543499
 21
0.9063775814
  0
LINE
  5
33D
100
AcDbEntity
  8
0
100
AcDbLine
 62
7
  6
CONTINUOUS
 10
7.2505254177
 20
0.9063775814
 11
7.2505254177
 21
0.8563775814
  0
LINE
  5
33E
100
AcDbEntity
  8
0
100
AcDbLine
 62
7
  6
CONTINUOUS
 10
7.2510794479
 20
4.4413775814
 11
7.2510794479
 21
3.1513775814
  0
LINE
  5
33F
100
AcDbEntity
  8
0
100
AcDbLine
 62
7
  6
CONTINUOUS
 10
7.2627728664
 20
0.8563775814
 11
7.2627728664
 21
0.9063775814
  0
LINE
  5
340
100
AcDbEntity
  8
0
100
AcDbLine
 62
7
  6
CONTINUOUS
 10
7.2698294479
 20
2.6287007048
 11
7.2698294479
 21
2.5351275814
  0
LINE
  5
341
100
AcDbEntity
  8
0
100
AcDbLine
 62
7
  6
CONTINUOUS
 10
7.2730900657
 20
0.8563775814
 11
7.2730900657
 21
0.9063775814
  0
LINE
  5
342
100
AcDbEntity
  8
0
100
AcDbLine
 62
7
  6
CONTINUOUS
 10
7.2795104609
 20
0.9063775814
 11
7.2795104609
 21
0.8563775814
  0
LINE
  5
343
100
AcDbEntity
  8
0
100
AcDbLine
 62
7
  6
CONTINUOUS
 10
7.2798294479
 20
2.6588496917
 11
7.2798294479
 21
2.5951567457
  0
LINE
  5
344
100
AcDbEntity
  8
0
100
AcDbLine
 62
7
  6
CONTINUOUS
 10
7.292111196
 20
0.8563775814
 11
7.292111196
 21
0.9063775814
  0
LINE
  5
345
100
AcDbEntity
  8
0
100
AcDbLine
 62
7
  6
CONTINUOUS
 10
7.3022543124
 20
0.8563775814
 11
7.3022543124
 21
0.9063775814
  0
LINE
  5
346
100
AcDbEntity
  8
0
100
AcDbLine
 62
7
  6
CONTINUOUS
 10
7.3080064372
 20
0.9063775814
 11
7.3080064372
 21
0.8563775814
  0
LINE
  5
347
100
AcDbEntity
  8
0
100
AcDbLine
 62
7
  6
CONTINUOUS
 10
7.3209259209
 20
0.8563775814
 11
7.3209259209
 21
0.9063775814
  0
LINE
  5
348
100
AcDbEntity
  8
0
100
AcDbLine
 62
7
  6
CONTINUOUS
 10
7.3308671527
 20
0.8563775814
 11
7.3308671527
 21
0.9063775814
  0
LINE
  5
349
100
AcDbEntity
  8
0
100
AcDbLine
 62
7
  6
CONTINUOUS
 10
7.3359352409
 20
0.9063775814
 11
7.3359352409
 21
0.8563775814
  0
LINE
  5
34A
100
AcDbEntity
  8
0
100
AcDbLine
 62
7
  6
CONTINUOUS
 10
7.3491380619
 20
0.8563775814
 11
7.3491380619
 21
0.9063775814
  0
LINE
  5
34B
100
AcDbEntity
  8
0
100
AcDbLine
 62
7
  6
CONTINUOUS
 10
7.358850161
 20
0.8563775814
 11
7.358850161
 21
0.9063775814
  0
LINE
  5
34C
100
AcDbEntity
  8
0
100
AcDbLine
 62
7
  6
CONTINUOUS
 10
7.3632203212
 20
0.9063775814
 11
7.3632203212
 21
0.8563775814
  0
LINE
  5
34D
100
AcDbEntity
  8
0
100
AcDbLine
 62
7
  6
CONTINUOUS
 10
7.3766702914
 20
0.8563775814
 11
7.3766702914
 21
0.9063775814
  0
LINE
  5
34E
100
AcDbEntity
  8
0
100
AcDbLine
 62
7
  6
CONTINUOUS
 10
7.3860794479
 20
4.0388775814
 11
7.3860794479
 21
6.022639463
  0
LINE
  5
34F
100
AcDbEntity
  8
0
100
AcDbLine
 62
7
  6
CONTINUOUS
 10
7.3861266376
 20
0.8563775814
 11
7.3861266376
 21
0.9063775814
  0
LINE
  5
350
100
AcDbEntity
  8
0
100
AcDbLine
 62
7
  6
CONTINUOUS
 10
7.3897868916
 20
0.9063775814
 11
7.3897868916
 21
0.8563775814
  0
LINE
  5
351
100
AcDbEntity
  8
0
100
AcDbLine
 62
7
  6
CONTINUOUS
 10
7.3729086948
 20
2.9775389664
 11
7.3726661895
 21
2.9636458492
  0
LINE
  5
352
100
AcDbEntity
  8
0
100
AcDbLine
 62
7
  6
CONTINUOUS
 10
6.8899561672
 20
3.014380717
 11
6.8926075027
 21
3.0280206559
  0
LINE
  5
353
100
AcDbEntity
  8
0
100
AcDbLine
 62
7
  6
CONTINUOUS
 10
6.7777731418
 20
2.4877674637
 11
6.7808988892
 21
2.5013065632
  0
LINE
  5
354
100
AcDbEntity
  8
0
100
AcDbLine
 62
7
  6
CONTINUOUS
 10
6.9123044479
 20
3.0283454726
 11
6.915900799
 21
3.0417672375
  0
LINE
  5
355
100
AcDbEntity
  8
0
100
AcDbLine
 62
7
  6
CONTINUOUS
 10
6.7636600111
 20
2.510840515
 11
6.7677225842
 21
2.5241285929
  0
LINE
  5
356
100
AcDbEntity
  8
0
100
AcDbLine
 62
7
  6
CONTINUOUS
 10
6.9355724214
 20
3.0407172736
 11
6.940096267
 21
3.053855475
  0
LINE
  5
357
100
AcDbEntity
  8
0
100
AcDbLine
 62
7
  6
CONTINUOUS
 10
6.751190754
 20
2.5348418438
 11
6.7561703604
 21
2.5478141618
  0
LINE
  5
358
100
AcDbEntity
  8
0
100
AcDbLine
 62
7
  6
CONTINUOUS
 10
6.9596467286
 20
3.0514358457
 11
6.9650760288
 21
3.0642264756
  0
LINE
  5
359
100
AcDbEntity
  8
0
100
AcDbLine
 62
7
  6
CONTINUOUS
 10
6.7404261195
 20
2.559654518
 11
6.7462984989
 21
2.5722478763
  0
LINE
  5
35A
100
AcDbEntity
  8
0
100
AcDbLine
 62
7
  6
CONTINUOUS
 10
7.6260794479
 20
3.7813775814
 11
7.6010794479
 21
3.7563775814
  0
LINE
  5
35B
100
AcDbEntity
  8
0
100
AcDbLine
 62
7
  6
CONTINUOUS
 10
6.7260020495
 20
2.7987079223
 11
6.7381550946
 21
2.8054444651
  0
LINE
  5
35C
100
AcDbEntity
  8
0
100
AcDbLine
 62
7
  6
CONTINUOUS
 10
7.2194110388
 20
3.0612959149
 11
7.2301295578
 21
3.0667572732
  0
LINE
  5
35D
100
AcDbEntity
  8
0
100
AcDbLine
 62
7
  6
CONTINUOUS
 10
6.7337051406
 20
2.8246349071
 11
6.7462984989
 21
2.8305072866
  0
LINE
  5
35E
100
AcDbEntity
  8
0
100
AcDbLine
 62
7
  6
CONTINUOUS
 10
7.2425121672
 20
3.0514358457
 11
7.2553027971
 21
3.056865146
  0
LINE
  5
35F
100
AcDbEntity
  8
0
100
AcDbLine
 62
7
  6
CONTINUOUS
 10
6.7431980423
 20
2.8499613947
 11
6.7561703604
 21
2.854941001
  0
LINE
  5
360
100
AcDbEntity
  8
0
100
AcDbLine
 62
7
  6
CONTINUOUS
 10
7.2665864744
 20
3.0407172736
 11
7.2797246758
 21
3.0452411191
  0
LINE
  5
361
100
AcDbEntity
  8
0
100
AcDbLine
 62
7
  6
CONTINUOUS
 10
6.7544345063
 20
2.8745639969
 11
6.7677225842
 21
2.87862657
  0
LINE
  5
362
100
AcDbEntity
  8
0
100
AcDbLine
 62
7
  6
CONTINUOUS
 10
7.3318290349
 20
3.012682702
 11
7.3335224379
 21
2.9988910415
  0
LINE
  5
363
100
AcDbEntity
  8
0
100
AcDbLine
 62
7
  6
CONTINUOUS
 10
7.4034471457
 20
0.8563775814
 11
7.4034471457
 21
0.9063775814
  0
LINE
  5
364
100
AcDbEntity
  8
0
100
AcDbLine
 62
7
  6
CONTINUOUS
 10
7.4126218197
 20
0.8563775814
 11
7.4126218197
 21
0.9063775814
  0
LINE
  5
365
100
AcDbEntity
  8
0
100
AcDbLine
 62
7
  6
CONTINUOUS
 10
7.415562135
 20
0.9063775814
 11
7.415562135
 21
0.8563775814
  0
LINE
  5
366
100
AcDbEntity
  8
0
100
AcDbLine
 62
7
  6
CONTINUOUS
 10
7.429395231
 20
0.8563775814
 11
7.429395231
 21
0.9063775814
  0
LINE
  5
367
100
AcDbEntity
  8
0
100
AcDbLine
 62
7
  6
CONTINUOUS
 10
7.4382630858
 20
0.8563775814
 11
7.4382630858
 21
0.9063775814
  0
LINE
  5
368
100
AcDbEntity
  8
0
100
AcDbLine
 62
7
  6
CONTINUOUS
 10
7.4404754032
 20
0.9063775814
 11
7.4404754032
 21
0.8563775814
  0
LINE
  5
369
100
AcDbEntity
  8
0
100
AcDbLine
 62
7
  6
CONTINUOUS
 10
7.4544434257
 20
0.8563775814
 11
7.4544434257
 21
0.9063775814
  0
LINE
  5
36A
100
AcDbEntity
  8
0
100
AcDbLine
 62
7
  6
CONTINUOUS
 10
7.462980155
 20
0.8563775814
 11
7.462980155
 21
0.9063775814
  0
LINE
  5
36B
100
AcDbEntity
  8
0
100
AcDbLine
 62
7
  6
CONTINUOUS
 10
7.4644584107
 20
0.9063775814
 11
7.4644584107
 21
0.8563775814
  0
LINE
  5
36C
100
AcDbEntity
  8
0
100
AcDbLine
 62
7
  6
CONTINUOUS
 10
7.4785230742
 20
0.8563775814
 11
7.4785230742
 21
0.9063775814
  0
LINE
  5
36D
100
AcDbEntity
  8
0
100
AcDbLine
 62
7
  6
CONTINUOUS
 10
7.4867052795
 20
0.8563775814
 11
7.4867052795
 21
0.9063775814
  0
LINE
  5
36E
100
AcDbEntity
  8
0
100
AcDbLine
 62
7
  6
CONTINUOUS
 10
7.4874454217
 20
0.9063775814
 11
7.4874454217
 21
0.8563775814
  0
LINE
  5
36F
100
AcDbEntity
  8
0
100
AcDbLine
 62
7
  6
CONTINUOUS
 10
7.501568176
 20
0.8563775814
 11
7.501568176
 21
0.9063775814
  0
LINE
  5
370
100
AcDbEntity
  8
0
100
AcDbLine
 62
7
  6
CONTINUOUS
 10
7.5093734304
 20
0.8563775814
 11
7.5093734304
 21
0.9063775814
  0
LINE
  5
371
100
AcDbEntity
  8
0
100
AcDbLine
 62
7
  6
CONTINUOUS
 10
7.523515566
 20
0.8563775814
 11
7.523515566
 21
0.9063775814
  0
LINE
  5
372
100
AcDbEntity
  8
0
100
AcDbLine
 62
7
  6
CONTINUOUS
 10
7.5309224759
 20
0.8563775814
 11
7.5309224759
 21
0.9063775814
  0
LINE
  5
373
100
AcDbEntity
  8
0
100
AcDbLine
 62
7
  6
CONTINUOUS
 10
7.544305088
 20
0.8563775814
 11
7.544305088
 21
0.9063775814
  0
LINE
  5
374
100
AcDbEntity
  8
0
100
AcDbLine
 62
7
  6
CONTINUOUS
 10
7.5512933515
 20
0.8563775814
 11
7.5512933515
 21
0.9063775814
  0
LINE
  5
375
100
AcDbEntity
  8
0
100
AcDbLine
 62
7
  6
CONTINUOUS
 10
7.5638797593
 20
0.8563775814
 11
7.5638797593
 21
0.9063775814
  0
LINE
  5
376
100
AcDbEntity
  8
0
100
AcDbLine
 62
7
  6
CONTINUOUS
 10
7.5704302221
 20
0.8563775814
 11
7.5704302221
 21
0.9063775814
  0
LINE
  5
377
100
AcDbEntity
  8
0
100
AcDbLine
 62
7
  6
CONTINUOUS
 10
7.5760794479
 20
0.9563775814
 11
7.5760794479
 21
2.4777727792
  0
LINE
  5
378
100
AcDbEntity
  8
0
100
AcDbLine
 62
7
  6
CONTINUOUS
 10
7.5760794479
 20
2.9249823836
 11
7.5760794479
 21
3.7413775814
  0
LINE
  5
379
100
AcDbEntity
  8
0
100
AcDbLine
 62
7
  6
CONTINUOUS
 10
7.5821859271
 20
0.8563775814
 11
7.5821859271
 21
0.9063775814
  0
LINE
  5
37A
100
AcDbEntity
  8
0
100
AcDbLine
 62
7
  6
CONTINUOUS
 10
7.5882806348
 20
0.8563775814
 11
7.5882806348
 21
0.9063775814
  0
LINE
  5
37B
100
AcDbEntity
  8
0
100
AcDbLine
 62
7
  6
CONTINUOUS
 10
7.5991734155
 20
0.8563775814
 11
7.5991734155
 21
0.9063775814
  0
LINE
  5
37C
100
AcDbEntity
  8
0
100
AcDbLine
 62
7
  6
CONTINUOUS
 10
7.604795663
 20
0.8563775814
 11
7.604795663
 21
0.9063775814
  0
LINE
  5
37D
100
AcDbEntity
  8
0
100
AcDbLine
 62
7
  6
CONTINUOUS
 10
7.614795663
 20
0.8563775814
 11
7.614795663
 21
0.9063775814
  0
LINE
  5
37E
100
AcDbEntity
  8
0
100
AcDbLine
 62
7
  6
CONTINUOUS
 10
7.61993004
 20
0.8563775814
 11
7.61993004
 21
0.9063775814
  0
LINE
  5
37F
100
AcDbEntity
  8
0
100
AcDbLine
 62
7
  6
CONTINUOUS
 10
7.6260794479
 20
3.7813775814
 11
7.6260794479
 21
3.8063775814
  0
LINE
  5
380
100
AcDbEntity
  8
0
100
AcDbLine
 62
7
  6
CONTINUOUS
 10
7.6260794479
 20
3.9563775814
 11
7.6260794479
 21
3.9813775814
  0
LINE
  5
381
100
AcDbEntity
  8
0
100
AcDbLine
 62
7
  6
CONTINUOUS
 10
7.62900985
 20
0.8563775814
 11
7.62900985
 21
0.9063775814
  0
LINE
  5
382
100
AcDbEntity
  8
0
100
AcDbLine
 62
7
  6
CONTINUOUS
 10
7.6336422837
 20
0.8563775814
 11
7.6336422837
 21
0.9063775814
  0
LINE
  5
383
100
AcDbEntity
  8
0
100
AcDbLine
 62
7
  6
CONTINUOUS
 10
7.6417770165
 20
0.8563775814
 11
7.6417770165
 21
0.9063775814
  0
LINE
  5
384
100
AcDbEntity
  8
0
100
AcDbLine
 62
7
  6
CONTINUOUS
 10
7.6458948096
 20
0.8563775814
 11
7.6458948096
 21
0.9063775814
  0
LINE
  5
385
100
AcDbEntity
  8
0
100
AcDbLine
 62
7
  6
CONTINUOUS
 10
7.6510794479
 20
3.8063775814
 11
7.6510794479
 21
3.9563775814
  0
LINE
  5
386
100
AcDbEntity
  8
0
100
AcDbLine
 62
7
  6
CONTINUOUS
 10
7.6530621686
 20
0.8563775814
 11
7.6530621686
 21
0.9063775814
  0
LINE
  5
387
100
AcDbEntity
  8
0
100
AcDbLine
 62
7
  6
CONTINUOUS
 10
7.6566540344
 20
0.8563775814
 11
7.6566540344
 21
0.9063775814
  0
LINE
  5
388
100
AcDbEntity
  8
0
100
AcDbLine
 62
7
  6
CONTINUOUS
 10
7.6628343743
 20
0.8563775814
 11
7.6628343743
 21
0.9063775814
  0
LINE
  5
389
100
AcDbEntity
  8
0
100
AcDbLine
 62
7
  6
CONTINUOUS
 10
7.6635794479
 20
0.7513775814
 11
7.6635794479
 21
0.8563775814
  0
LINE
  5
38A
100
AcDbEntity
  8
0
100
AcDbLine
 62
7
  6
CONTINUOUS
 10
7.665890468
 20
0.8563775814
 11
7.665890468
 21
0.9063775814
  0
LINE
  5
38B
100
AcDbEntity
  8
0
100
AcDbLine
 62
7
  6
CONTINUOUS
 10
7.6710668489
 20
0.8563775814
 11
7.6710668489
 21
0.9063775814
  0
LINE
  5
38C
100
AcDbEntity
  8
0
100
AcDbLine
 62
7
  6
CONTINUOUS
 10
7.6735787938
 20
0.8563775814
 11
7.6735787938
 21
0.9063775814
  0
LINE
  5
38D
100
AcDbEntity
  8
0
100
AcDbLine
 62
7
  6
CONTINUOUS
 10
7.6777370276
 20
0.8563775814
 11
7.6777370276
 21
0.9063775814
  0
LINE
  5
38E
100
AcDbEntity
  8
0
100
AcDbLine
 62
7
  6
CONTINUOUS
 10
7.6796979387
 20
0.8563775814
 11
7.6796979387
 21
0.9063775814
  0
LINE
  5
38F
100
AcDbEntity
  8
0
100
AcDbLine
 62
7
  6
CONTINUOUS
 10
7.682826628
 20
0.8563775814
 11
7.682826628
 21
0.9063775814
  0
LINE
  5
390
100
AcDbEntity
  8
0
100
AcDbLine
 62
7
  6
CONTINUOUS
 10
7.6842311305
 20
0.8563775814
 11
7.6842311305
 21
0.9063775814
  0
LINE
  5
391
100
AcDbEntity
  8
0
100
AcDbLine
 62
7
  6
CONTINUOUS
 10
7.6863216998
 20
0.8563775814
 11
7.6863216998
 21
0.9063775814
  0
LINE
  5
392
100
AcDbEntity
  8
0
100
AcDbLine
 62
7
  6
CONTINUOUS
 10
7.6871659441
 20
0.8563775814
 11
7.6871659441
 21
0.9063775814
  0
LINE
  5
393
100
AcDbEntity
  8
0
100
AcDbLine
 62
7
  6
CONTINUOUS
 10
7.6882126632
 20
0.8563775814
 11
7.6882126632
 21
0.9063775814
  0
LINE
  5
394
100
AcDbEntity
  8
0
100
AcDbLine
 62
7
  6
CONTINUOUS
 10
7.6884943354
 20
0.8563775814
 11
7.6884943354
 21
0.9063775814
  0
LINE
  5
395
100
AcDbEntity
  8
0
100
AcDbLine
 62
7
  6
CONTINUOUS
 10
7.6885794479
 20
0.6513775814
 11
7.6885794479
 21
0.7263775814
  0
LINE
  5
396
100
AcDbEntity
  8
0
100
AcDbLine
 62
7
  6
CONTINUOUS
 10
7.3537097083
 20
2.4208032526
 11
7.352982488
 21
2.406927062
  0
LINE
  5
397
100
AcDbEntity
  8
0
100
AcDbLine
 62
7
  6
CONTINUOUS
 10
7.3915105768
 20
2.9579044014
 11
7.3902995274
 21
2.9440620435
  0
LINE
  5
398
100
AcDbEntity
  8
0
100
AcDbLine
 62
7
  6
CONTINUOUS
 10
7.3335224379
 20
2.4038641214
 11
7.3318290349
 21
2.3900724609
  0
LINE
  5
399
100
AcDbEntity
  8
0
100
AcDbLine
 62
7
  6
CONTINUOUS
 10
7.4086975075
 20
2.9370200636
 11
7.4065238141
 21
2.9232959034
  0
LINE
  5
39A
100
AcDbEntity
  8
0
100
AcDbLine
 62
7
  6
CONTINUOUS
 10
7.3122027286
 20
2.3883744459
 11
7.3095513931
 21
2.374734507
  0
LINE
  5
39B
100
AcDbEntity
  8
0
100
AcDbLine
 62
7
  6
CONTINUOUS
 10
6.7314185517
 20
2.5851576527
 11
6.7381550946
 21
2.5973106978
  0
LINE
  5
39C
100
AcDbEntity
  8
0
100
AcDbLine
 62
7
  6
CONTINUOUS
 10
6.7242119347
 20
2.6112269992
 11
6.7317798212
 21
2.6228805226
  0
LINE
  5
39D
100
AcDbEntity
  8
0
100
AcDbLine
 62
7
  6
CONTINUOUS
 10
6.7188413783
 20
2.6377355503
 11
6.7272037385
 21
2.6488327772
  0
LINE
  5
39E
100
AcDbEntity
  8
0
100
AcDbLine
 62
7
  6
CONTINUOUS
 10
6.7153330473
 20
2.6645541589
 11
6.7244491407
 21
2.6750410248
  0
LINE
  5
39F
100
AcDbEntity
  8
0
100
AcDbLine
 62
7
  6
CONTINUOUS
 10
6.7137040341
 20
2.6915521676
 11
6.7235294479
 21
2.7013775814
  0
LINE
  5
3A0
100
AcDbEntity
  8
0
100
AcDbLine
 62
7
  6
CONTINUOUS
 10
6.7139622749
 20
2.7185980447
 11
6.7244491407
 21
2.7277141381
  0
LINE
  5
3A1
100
AcDbEntity
  8
0
100
AcDbLine
 62
7
  6
CONTINUOUS
 10
6.7161065117
 20
2.7455600254
 11
6.7272037385
 21
2.7539223857
  0
LINE
  5
3A2
100
AcDbEntity
  8
0
100
AcDbLine
 62
7
  6
CONTINUOUS
 10
6.7201262979
 20
2.7723067537
 11
6.7317798212
 21
2.7798746403
  0
LINE
  5
3A3
100
AcDbEntity
  8
0
100
AcDbLine
 62
7
  6
CONTINUOUS
 10
6.9223294479
 20
2.5951559478
 11
6.9158709297
 21
2.5913179934
  0
LINE
  5
3A4
100
AcDbEntity
  8
0
100
AcDbLine
 62
7
  6
CONTINUOUS
 10
7.4477243895
 20
2.528191166
 11
7.4344363116
 21
2.5241285929
  0
LINE
  5
3A5
100
AcDbEntity
  8
0
100
AcDbLine
 62
7
  6
CONTINUOUS
 10
7.424385754
 20
2.9149876992
 11
7.4212600066
 21
2.9014485997
  0
LINE
  5
3A6
100
AcDbEntity
  8
0
100
AcDbLine
 62
7
  6
CONTINUOUS
 10
7.2898544479
 20
2.3744096902
 11
7.2862580968
 21
2.3609879253
  0
LINE
  5
3A7
100
AcDbEntity
  8
0
100
AcDbLine
 62
7
  6
CONTINUOUS
 10
7.4384988847
 20
2.8919146479
 11
7.4344363116
 21
2.87862657
  0
LINE
  5
3A8
100
AcDbEntity
  8
0
100
AcDbLine
 62
7
  6
CONTINUOUS
 10
7.2665864744
 20
2.3620378893
 11
7.2620626288
 21
2.3488996879
  0
LINE
  5
3A9
100
AcDbEntity
  8
0
100
AcDbLine
 62
7
  6
CONTINUOUS
 10
7.4509681418
 20
2.8679133191
 11
7.4459885354
 21
2.854941001
  0
LINE
  5
3AA
100
AcDbEntity
  8
0
100
AcDbLine
 62
7
  6
CONTINUOUS
 10
7.2425121672
 20
2.3513193171
 11
7.237082867
 21
2.3385286873
  0
LINE
  5
3AB
100
AcDbEntity
  8
0
100
AcDbLine
 62
7
  6
CONTINUOUS
 10
7.4617327763
 20
2.8431006449
 11
7.4558603969
 21
2.8305072866
  0
LINE
  5
3AC
100
AcDbEntity
  8
0
100
AcDbLine
 62
7
  6
CONTINUOUS
 10
7.2177488141
 20
2.3423061937
 11
7.2114405101
 21
2.32992545
  0
LINE
  5
3AD
100
AcDbEntity
  8
0
100
AcDbLine
 62
7
  6
CONTINUOUS
 10
7.4707403441
 20
2.8175975102
 11
7.4640038012
 21
2.8054444651
  0
LINE
  5
3AE
100
AcDbEntity
  8
0
100
AcDbLine
 62
7
  6
CONTINUOUS
 10
7.1924170596
 20
2.33504243
 11
7.1852604853
 21
2.3231318902
  0
LINE
  5
3AF
100
AcDbEntity
  8
0
100
AcDbLine
 62
7
  6
CONTINUOUS
 10
7.4779469611
 20
2.7915281637
 11
7.4703790746
 21
2.7798746403
  0
LINE
  5
3B0
100
AcDbEntity
  8
0
100
AcDbLine
 62
7
  6
CONTINUOUS
 10
7.4860523841
 20
2.6571951374
 11
7.4749551573
 21
2.6488327772
  0
LINE
  5
3B1
100
AcDbEntity
  8
0
100
AcDbLine
 62
7
  6
CONTINUOUS
 10
7.0355185784
 20
2.3295634143
 11
7.0241362695
 21
2.3215934358
  0
LINE
  5
3B2
100
AcDbEntity
  8
0
100
AcDbLine
 62
7
  6
CONTINUOUS
 10
7.4820325979
 20
2.6304484091
 11
7.4703790746
 21
2.6228805226
  0
LINE
  5
3B3
100
AcDbEntity
  8
0
100
AcDbLine
 62
7
  6
CONTINUOUS
 10
7.0097418362
 20
2.33504243
 11
6.9978312964
 21
2.3278858557
  0
LINE
  5
3B4
100
AcDbEntity
  8
0
100
AcDbLine
 62
7
  6
CONTINUOUS
 10
7.4761568463
 20
2.6040472406
 11
7.4640038012
 21
2.5973106978
  0
LINE
  5
3B5
100
AcDbEntity
  8
0
100
AcDbLine
 62
7
  6
CONTINUOUS
 10
6.9844100817
 20
2.3423061937
 11
6.972029338
 21
2.3359978897
  0
LINE
  5
3B6
100
AcDbEntity
  8
0
100
AcDbLine
 62
7
  6
CONTINUOUS
 10
7.4684537552
 20
2.5781202558
 11
7.4558603969
 21
2.5722478763
  0
LINE
  5
3B7
100
AcDbEntity
  8
0
100
AcDbLine
 62
7
  6
CONTINUOUS
 10
6.9596467286
 20
2.3513193171
 11
6.9468560987
 21
2.3458900169
  0
LINE
  5
3B8
100
AcDbEntity
  8
0
100
AcDbLine
 62
7
  6
CONTINUOUS
 10
7.4589608534
 20
2.5527937682
 11
7.4459885354
 21
2.5478141618
  0
LINE
  5
3B9
100
AcDbEntity
  8
0
100
AcDbLine
 62
7
  6
CONTINUOUS
 10
6.9355724214
 20
2.3620378893
 11
6.92243422
 21
2.3575140437
  0
LINE
  5
3BA
100
AcDbEntity
  8
0
100
AcDbLine
 62
7
  6
CONTINUOUS
 10
7.1666403174
 20
2.3295634143
 11
7.1586703389
 21
2.3181811054
  0
LINE
  5
3BB
100
AcDbEntity
  8
0
100
AcDbLine
 62
7
  6
CONTINUOUS
 10
7.4833175175
 20
2.7650196126
 11
7.4749551573
 21
2.7539223857
  0
LINE
  5
3BC
100
AcDbEntity
  8
0
100
AcDbLine
 62
7
  6
CONTINUOUS
 10
7.1405441692
 20
2.3258958398
 11
7.1317996154
 21
2.3150972152
  0
LINE
  5
3BD
100
AcDbEntity
  8
0
100
AcDbLine
 62
7
  6
CONTINUOUS
 10
7.4868258485
 20
2.7382010039
 11
7.4777097551
 21
2.7277141381
  0
LINE
  5
3BE
100
AcDbEntity
  8
0
100
AcDbLine
 62
7
  6
CONTINUOUS
 10
7.1142557529
 20
2.3240575747
 11
7.1047792264
 21
2.3138952442
  0
LINE
  5
3BF
100
AcDbEntity
  8
0
100
AcDbLine
 62
7
  6
CONTINUOUS
 10
7.4884548617
 20
2.7112029953
 11
7.4786294479
 21
2.7013775814
  0
LINE
  5
3C0
100
AcDbEntity
  8
0
100
AcDbLine
 62
7
  6
CONTINUOUS
 10
7.0879031429
 20
2.3240575747
 11
7.0777408125
 21
2.3145810482
  0
LINE
  5
3C1
100
AcDbEntity
  8
0
100
AcDbLine
 62
7
  6
CONTINUOUS
 10
7.4881966209
 20
2.6841571182
 11
7.4777097551
 21
2.6750410248
  0
LINE
  5
3C2
100
AcDbEntity
  8
0
100
AcDbLine
 62
7
  6
CONTINUOUS
 10
7.0616147266
 20
2.3258958398
 11
7.050816102
 21
2.3171512861
  0
LINE
  5
3C3
100
AcDbEntity
  8
0
100
AcDbLine
 62
7
  6
CONTINUOUS
 10
6.5135794479
 20
0.7263775814
 11
6.5385794479
 21
0.7513775814
  0
ARC
  5
3C4
100
AcDbEntity
  8
0
100
AcDbCircle
 62
7
  6
CONTINUOUS
 10
27.1112979863
 20
-1.8892537963
 40
25.026761712
100
AcDbArc
 50
162.8001053082
 51
163.3300698067
  0
ARC
  5
3C5
100
AcDbEntity
  8
0
100
AcDbCircle
 62
7
  6
CONTINUOUS
 10
22.1680574425
 20
-0.5564842713
 40
19.9541086957
100
AcDbArc
 50
162.2925842881
 51
162.9187066443
  0
ARC
  5
3C6
100
AcDbEntity
  8
0
100
AcDbCircle
 62
7
  6
CONTINUOUS
 10
1.5662100908
 20
-5.966681301
 40
11.9314991645
100
AcDbArc
 50
82.3602339942
 51
82.530447724
  0
ARC
  5
3C7
100
AcDbEntity
  8
0
100
AcDbCircle
 62
7
  6
CONTINUOUS
 10
-0.062879817
 20
6.0343893753
 40
3.2456278668
100
AcDbArc
 50
356.7880182356
 51
357.912998874
  0
ARC
  5
3C8
100
AcDbEntity
  8
0
100
AcDbCircle
 62
7
  6
CONTINUOUS
 10
0.0856714675
 20
6.2752840842
 40
3.1340856718
100
AcDbArc
 50
340.9400624513
 51
342.0376094079
  0
ARC
  5
3C9
100
AcDbEntity
  8
0
100
AcDbCircle
 62
7
  6
CONTINUOUS
 10
1.7526602927
 20
5.8613773438
 40
1.4250166313
100
AcDbArc
 50
349.6153442113
 51
359.6445076751
  0
ARC
  5
3CA
100
AcDbEntity
  8
0
100
AcDbCircle
 62
7
  6
CONTINUOUS
 10
1.7522137568
 20
5.8582136193
 40
1.4249791538
100
AcDbArc
 50
337.3195909168
 51
347.6269268927
  0
ARC
  5
3CB
100
AcDbEntity
  8
0
100
AcDbCircle
 62
7
  6
CONTINUOUS
 10
1.7524354263
 20
5.8597983427
 40
1.4
100
AcDbArc
 50
335.3757517852
 51
1.5167777603
  0
ARC
  5
3CC
100
AcDbEntity
  8
0
100
AcDbCircle
 62
7
  6
CONTINUOUS
 10
3.0188153921
 20
5.19688675
 40
0.05
100
AcDbArc
 50
345.5734594053
 51
67.2306317614
  0
ARC
  5
3CD
100
AcDbEntity
  8
0
100
AcDbCircle
 62
7
  6
CONTINUOUS
 10
3.7805817991
 20
5.4786015102
 40
0.05
100
AcDbArc
 50
302.3043144517
 51
41.4096851439
  0
ARC
  5
3CE
100
AcDbEntity
  8
0
100
AcDbCircle
 62
7
  6
CONTINUOUS
 10
2.9686127876
 20
5.384816873
 40
0.0492125984
100
AcDbArc
 50
162.3268404051
 51
251.8268395387
  0
ARC
  5
3CF
100
AcDbEntity
  8
0
100
AcDbCircle
 62
7
  6
CONTINUOUS
 10
3.048282797
 20
5.267015964
 40
0.0249960721
100
AcDbArc
 50
155.4333802902
 51
251.054602116
  0
ARC
  5
3D0
100
AcDbEntity
  8
0
100
AcDbCircle
 62
7
  6
CONTINUOUS
 10
3.1450703996
 20
4.7629977252
 40
0.0059055118
100
AcDbArc
 50
176.3
 51
261.3
  0
ARC
  5
3D1
100
AcDbEntity
  8
0
100
AcDbCircle
 62
7
  6
CONTINUOUS
 10
3.2214568798
 20
4.7513089512
 40
0.0059055118
100
AcDbArc
 50
261.3
 51
346.3
  0
ARC
  5
3D2
100
AcDbEntity
  8
0
100
AcDbCircle
 62
7
  6
CONTINUOUS
 10
3.1815629537
 20
4.7574135797
 40
0.0059055118
100
AcDbArc
 50
176.3
 51
261.3
  0
ARC
  5
3D3
100
AcDbEntity
  8
0
100
AcDbCircle
 62
7
  6
CONTINUOUS
 10
3.2374727903
 20
4.7488581725
 40
0.0059055118
100
AcDbArc
 50
176.3
 51
261.3
  0
ARC
  5
3D4
100
AcDbEntity
  8
0
100
AcDbCircle
 62
7
  6
CONTINUOUS
 10
3.2773667165
 20
4.7427535439
 40
0.0059055118
100
AcDbArc
 50
261.3
 51
346.3
  0
ARC
  5
3D5
100
AcDbEntity
  8
0
100
AcDbCircle
 62
7
  6
CONTINUOUS
 10
3.306056358
 20
4.7383634119
 40
0.0059055118
100
AcDbArc
 50
176.3
 51
261.3
  0
ARC
  5
3D6
100
AcDbEntity
  8
0
100
AcDbCircle
 62
7
  6
CONTINUOUS
 10
3.3459502841
 20
4.7322587833
 40
0.0059055118
100
AcDbArc
 50
261.3
 51
346.3
  0
ARC
  5
3D7
100
AcDbEntity
  8
0
100
AcDbCircle
 62
7
  6
CONTINUOUS
 10
3.3790414663
 20
4.7271951209
 40
0.0059055118
100
AcDbArc
 50
176.3
 51
261.3
  0
ARC
  5
3D8
100
AcDbEntity
  8
0
100
AcDbCircle
 62
7
  6
CONTINUOUS
 10
3.4189353924
 20
4.7210904924
 40
0.0059055118
100
AcDbArc
 50
261.3
 51
346.3
  0
ARC
  5
3D9
100
AcDbEntity
  8
0
100
AcDbCircle
 62
7
  6
CONTINUOUS
 10
3.447625034
 20
4.7167003603
 40
0.0059055118
100
AcDbArc
 50
176.3
 51
261.3
  0
ARC
  5
3DA
100
AcDbEntity
  8
0
100
AcDbCircle
 62
7
  6
CONTINUOUS
 10
3.4875189601
 20
4.7105957318
 40
0.0059055118
100
AcDbArc
 50
261.3
 51
346.3
  0
ARC
  5
3DB
100
AcDbEntity
  8
0
100
AcDbCircle
 62
7
  6
CONTINUOUS
 10
3.5035348706
 20
4.7081449531
 40
0.0059055118
100
AcDbArc
 50
176.3
 51
261.3
  0
ARC
  5
3DC
100
AcDbEntity
  8
0
100
AcDbCircle
 62
7
  6
CONTINUOUS
 10
3.5434287967
 20
4.7020403245
 40
0.0059055118
100
AcDbArc
 50
261.3
 51
346.3
  0
ARC
  5
3DD
100
AcDbEntity
  8
0
100
AcDbCircle
 62
7
  6
CONTINUOUS
 10
3.5799213509
 20
4.696456179
 40
0.0059055118
100
AcDbArc
 50
261.3
 51
346.3
  0
ARC
  5
3DE
100
AcDbEntity
  8
0
100
AcDbCircle
 62
7
  6
CONTINUOUS
 10
2.9355864422
 20
5.4367837889
 40
0.0059055118
100
AcDbArc
 50
162.3267205068
 51
207.3267176999
  0
ARC
  5
3DF
100
AcDbEntity
  8
0
100
AcDbCircle
 62
7
  6
CONTINUOUS
 10
2.9496391135
 20
5.480887949
 40
0.0059055118
100
AcDbArc
 50
117.3269631102
 51
162.3269603033
  0
ARC
  5
3E0
100
AcDbEntity
  8
0
100
AcDbCircle
 62
7
  6
CONTINUOUS
 10
3.1323966685
 20
4.7649370786
 40
0.0059055118
100
AcDbArc
 50
176.3000000044
 51
261.3
  0
ARC
  5
3E1
100
AcDbEntity
  8
0
100
AcDbCircle
 62
7
  6
CONTINUOUS
 10
3.5925950819
 20
4.6945168257
 40
0.0059055118
100
AcDbArc
 50
261.3
 51
346.2999999956
  0
ARC
  5
3E2
100
AcDbEntity
  8
0
100
AcDbCircle
 62
7
  6
CONTINUOUS
 10
3.7550472279
 20
4.6871587303
 40
0.005
100
AcDbArc
 50
261.3
 51
357.0265405951
  0
ARC
  5
3E3
100
AcDbEntity
  8
0
100
AcDbCircle
 62
7
  6
CONTINUOUS
 10
2.9751779088
 20
4.8064955057
 40
0.005
100
AcDbArc
 50
165.5734594049
 51
261.3
  0
ARC
  5
3E4
100
AcDbEntity
  8
0
100
AcDbCircle
 62
7
  6
CONTINUOUS
 10
3.2313388542
 20
5.5632747352
 40
0.0878625486
100
AcDbArc
 50
186.7981847598
 51
202.0915723166
  0
ARC
  5
3E5
100
AcDbEntity
  8
0
100
AcDbCircle
 62
7
  6
CONTINUOUS
 10
3.1732932807
 20
5.9724439468
 40
0.05
100
AcDbArc
 50
272.7837258895
 51
351.3
  0
ARC
  5
3E6
100
AcDbEntity
  8
0
100
AcDbCircle
 62
7
  6
CONTINUOUS
 10
3.2667160768
 20
6.0871323558
 40
0.05
100
AcDbArc
 50
81.3
 51
221.4096851439
  0
ARC
  5
3E7
100
AcDbEntity
  8
0
100
AcDbCircle
 62
7
  6
CONTINUOUS
 10
3.1139756986
 20
5.8410368308
 40
0.0492125984
100
AcDbArc
 50
82.3255479151
 51
162.3268404051
  0
ARC
  5
3E8
100
AcDbEntity
  8
0
100
AcDbCircle
 62
7
  6
CONTINUOUS
 10
3.1769563432
 20
5.8966255259
 40
0.0249973468
100
AcDbArc
 50
88.5096339993
 51
181.4724025278
  0
ARC
  5
3E9
100
AcDbEntity
  8
0
100
AcDbCircle
 62
7
  6
CONTINUOUS
 10
3.0564391249
 20
5.7577212479
 40
0.0236220472
100
AcDbArc
 50
128.7695306432
 51
195.884150167
  0
ARC
  5
3EA
100
AcDbEntity
  8
0
100
AcDbCircle
 62
7
  6
CONTINUOUS
 10
3.0670035073
 20
5.7908774501
 40
0.0236220472
100
AcDbArc
 50
128.7695306431
 51
195.884150167
  0
ARC
  5
3EB
100
AcDbEntity
  8
0
100
AcDbCircle
 62
7
  6
CONTINUOUS
 10
3.0775678897
 20
5.8240336524
 40
0.0236220472
100
AcDbArc
 50
128.7695306431
 51
195.884150167
  0
ARC
  5
3EC
100
AcDbEntity
  8
0
100
AcDbCircle
 62
7
  6
CONTINUOUS
 10
3.0520632145
 20
5.7439874993
 40
0.0236220472
100
AcDbArc
 50
144.5620829177
 51
195.884150167
  0
ARC
  5
3ED
100
AcDbEntity
  8
0
100
AcDbCircle
 62
7
  6
CONTINUOUS
 10
3.0819438001
 20
5.837767401
 40
0.0236220472
100
AcDbArc
 50
128.7673978789
 51
180.0915978924
  0
ARC
  5
3EE
100
AcDbEntity
  8
0
100
AcDbCircle
 62
7
  6
CONTINUOUS
 10
3.2144411275
 20
6.0410300817
 40
0.0197
100
AcDbArc
 50
351.3
 51
41.4096851446
  0
ARC
  5
3EF
100
AcDbEntity
  8
0
100
AcDbCircle
 62
7
  6
CONTINUOUS
 10
6.5510794479
 20
0.9563775814
 40
0.05
100
AcDbArc
 50
270.9691269401
 51
360.0
  0
ARC
  5
3F0
100
AcDbEntity
  8
0
100
AcDbCircle
 62
7
  6
CONTINUOUS
 10
6.9462726297
 20
3.0513775814
 40
0.0378068182
100
AcDbArc
 50
0.0
 51
82.6955544394
  0
ARC
  5
3F1
100
AcDbEntity
  8
0
100
AcDbCircle
 62
7
  6
CONTINUOUS
 10
6.9510794479
 20
3.1201275814
 40
0.03125
100
AcDbArc
 50
90.0
 51
270.0
  0
ARC
  5
3F2
100
AcDbEntity
  8
0
100
AcDbCircle
 62
7
  6
CONTINUOUS
 10
7.6510794479
 20
0.9563775814
 40
0.05
100
AcDbArc
 50
180.0
 51
269.0308730599
  0
ARC
  5
3F3
100
AcDbEntity
  8
0
100
AcDbCircle
 62
7
  6
CONTINUOUS
 10
7.1010794479
 20
2.7013775814
 40
0.525
100
AcDbArc
 50
106.6020780788
 51
73.3979219212
  0
ARC
  5
3F4
100
AcDbEntity
  8
0
100
AcDbCircle
 62
7
  6
CONTINUOUS
 10
7.1010794479
 20
2.7013775814
 40
0.515
100
AcDbArc
 50
106.9340075158
 51
73.0659924842
  0
ARC
  5
3F5
100
AcDbEntity
  8
0
100
AcDbCircle
 62
7
  6
CONTINUOUS
 10
7.1010794479
 20
2.7013775814
 40
0.485
100
AcDbArc
 50
108.0166393703
 51
71.9833606297
  0
ARC
  5
3F6
100
AcDbEntity
  8
0
100
AcDbCircle
 62
7
  6
CONTINUOUS
 10
7.1010794479
 20
2.7013775814
 40
0.3875
100
AcDbArc
 50
177.4529421543
 51
178.5470578457
  0
ARC
  5
3F7
100
AcDbEntity
  8
0
100
AcDbCircle
 62
7
  6
CONTINUOUS
 10
7.1010794479
 20
2.7013775814
 40
0.3875
100
AcDbArc
 50
181.4529421543
 51
182.5470578457
  0
ARC
  5
3F8
100
AcDbEntity
  8
0
100
AcDbCircle
 62
7
  6
CONTINUOUS
 10
7.1010794479
 20
2.7013775814
 40
0.3875
100
AcDbArc
 50
185.4529421543
 51
186.5470578457
  0
ARC
  5
3F9
100
AcDbEntity
  8
0
100
AcDbCircle
 62
7
  6
CONTINUOUS
 10
7.1010794479
 20
2.7013775814
 40
0.3875
100
AcDbArc
 50
189.4529421543
 51
190.5470578457
  0
ARC
  5
3FA
100
AcDbEntity
  8
0
100
AcDbCircle
 62
7
  6
CONTINUOUS
 10
7.1010794479
 20
2.7013775814
 40
0.3875
100
AcDbArc
 50
193.4529421543
 51
194.5470578457
  0
ARC
  5
3FB
100
AcDbEntity
  8
0
100
AcDbCircle
 62
7
  6
CONTINUOUS
 10
7.1010794479
 20
2.7013775814
 40
0.3875
100
AcDbArc
 50
197.4529421543
 51
198.5470578457
  0
ARC
  5
3FC
100
AcDbEntity
  8
0
100
AcDbCircle
 62
7
  6
CONTINUOUS
 10
7.1010794479
 20
2.7013775814
 40
0.3875
100
AcDbArc
 50
201.4529421543
 51
202.5470578457
  0
ARC
  5
3FD
100
AcDbEntity
  8
0
100
AcDbCircle
 62
7
  6
CONTINUOUS
 10
7.1010794479
 20
2.7013775814
 40
0.3875
100
AcDbArc
 50
205.4529421543
 51
206.5470578457
  0
ARC
  5
3FE
100
AcDbEntity
  8
0
100
AcDbCircle
 62
7
  6
CONTINUOUS
 10
7.1010794479
 20
2.7013775814
 40
0.3875
100
AcDbArc
 50
209.4529421543
 51
210.5470578457
  0
ARC
  5
3FF
100
AcDbEntity
  8
0
100
AcDbCircle
 62
7
  6
CONTINUOUS
 10
7.1010794479
 20
2.7013775814
 40
0.3875
100
AcDbArc
 50
213.4529421543
 51
214.5470578457
  0
ARC
  5
400
100
AcDbEntity
  8
0
100
AcDbCircle
 62
7
  6
CONTINUOUS
 10
7.1010794479
 20
2.7013775814
 40
0.3875
100
AcDbArc
 50
217.4529421543
 51
218.5470578457
  0
ARC
  5
401
100
AcDbEntity
  8
0
100
AcDbCircle
 62
7
  6
CONTINUOUS
 10
7.1010794479
 20
2.7013775814
 40
0.3875
100
AcDbArc
 50
221.4529421543
 51
222.5470578457
  0
ARC
  5
402
100
AcDbEntity
  8
0
100
AcDbCircle
 62
7
  6
CONTINUOUS
 10
7.1010794479
 20
2.7013775814
 40
0.3875
100
AcDbArc
 50
225.4529421543
 51
226.5470578457
  0
ARC
  5
403
100
AcDbEntity
  8
0
100
AcDbCircle
 62
7
  6
CONTINUOUS
 10
7.1010794479
 20
2.7013775814
 40
0.3875
100
AcDbArc
 50
229.4529421543
 51
230.5470578457
  0
ARC
  5
404
100
AcDbEntity
  8
0
100
AcDbCircle
 62
7
  6
CONTINUOUS
 10
7.1010794479
 20
2.7013775814
 40
0.3875
100
AcDbArc
 50
233.4529421543
 51
234.5470578457
  0
ARC
  5
405
100
AcDbEntity
  8
0
100
AcDbCircle
 62
7
  6
CONTINUOUS
 10
7.1010794479
 20
2.7013775814
 40
0.3875
100
AcDbArc
 50
237.4529421543
 51
238.5470578457
  0
ARC
  5
406
100
AcDbEntity
  8
0
100
AcDbCircle
 62
7
  6
CONTINUOUS
 10
7.1010794479
 20
2.7013775814
 40
0.3875
100
AcDbArc
 50
241.4529421543
 51
242.5470578457
  0
ARC
  5
407
100
AcDbEntity
  8
0
100
AcDbCircle
 62
7
  6
CONTINUOUS
 10
7.1010794479
 20
2.7013775814
 40
0.3875
100
AcDbArc
 50
245.4529421543
 51
246.5470578457
  0
ARC
  5
408
100
AcDbEntity
  8
0
100
AcDbCircle
 62
7
  6
CONTINUOUS
 10
7.1010794479
 20
2.7013775814
 40
0.3875
100
AcDbArc
 50
249.4529421543
 51
250.5470578457
  0
ARC
  5
409
100
AcDbEntity
  8
0
100
AcDbCircle
 62
7
  6
CONTINUOUS
 10
7.1010794479
 20
2.7013775814
 40
0.3875
100
AcDbArc
 50
253.4529421543
 51
254.5470578457
  0
ARC
  5
40A
100
AcDbEntity
  8
0
100
AcDbCircle
 62
7
  6
CONTINUOUS
 10
7.1010794479
 20
2.7013775814
 40
0.3875
100
AcDbArc
 50
257.4529421543
 51
258.5470578457
  0
ARC
  5
40B
100
AcDbEntity
  8
0
100
AcDbCircle
 62
7
  6
CONTINUOUS
 10
7.1010794479
 20
2.7013775814
 40
0.3875
100
AcDbArc
 50
261.4529421543
 51
262.5470578457
  0
ARC
  5
40C
100
AcDbEntity
  8
0
100
AcDbCircle
 62
7
  6
CONTINUOUS
 10
7.1010794479
 20
2.7013775814
 40
0.3875
100
AcDbArc
 50
265.4529421543
 51
266.5470578457
  0
ARC
  5
40D
100
AcDbEntity
  8
0
100
AcDbCircle
 62
7
  6
CONTINUOUS
 10
7.1010794479
 20
2.7013775814
 40
0.3875
100
AcDbArc
 50
269.4529421543
 51
270.5470578457
  0
ARC
  5
40E
100
AcDbEntity
  8
0
100
AcDbCircle
 62
7
  6
CONTINUOUS
 10
7.1010794479
 20
2.7013775814
 40
0.3875
100
AcDbArc
 50
273.4529421543
 51
274.5470578457
  0
ARC
  5
40F
100
AcDbEntity
  8
0
100
AcDbCircle
 62
7
  6
CONTINUOUS
 10
7.1010794479
 20
2.7013775814
 40
0.3875
100
AcDbArc
 50
277.4529421543
 51
278.5470578457
  0
ARC
  5
410
100
AcDbEntity
  8
0
100
AcDbCircle
 62
7
  6
CONTINUOUS
 10
7.1010794479
 20
2.7013775814
 40
0.3875
100
AcDbArc
 50
281.4529421543
 51
282.5470578457
  0
ARC
  5
411
100
AcDbEntity
  8
0
100
AcDbCircle
 62
7
  6
CONTINUOUS
 10
7.1010794479
 20
2.7013775814
 40
0.3875
100
AcDbArc
 50
285.4529421543
 51
286.5470578457
  0
ARC
  5
412
100
AcDbEntity
  8
0
100
AcDbCircle
 62
7
  6
CONTINUOUS
 10
7.1010794479
 20
2.7013775814
 40
0.3875
100
AcDbArc
 50
289.4529421543
 51
290.5470578457
  0
ARC
  5
413
100
AcDbEntity
  8
0
100
AcDbCircle
 62
7
  6
CONTINUOUS
 10
7.1010794479
 20
2.7013775814
 40
0.3875
100
AcDbArc
 50
293.4529421543
 51
294.5470578457
  0
ARC
  5
414
100
AcDbEntity
  8
0
100
AcDbCircle
 62
7
  6
CONTINUOUS
 10
7.1010794479
 20
2.7013775814
 40
0.3875
100
AcDbArc
 50
297.4529421543
 51
298.5470578457
  0
ARC
  5
415
100
AcDbEntity
  8
0
100
AcDbCircle
 62
7
  6
CONTINUOUS
 10
7.1010794479
 20
2.7013775814
 40
0.3875
100
AcDbArc
 50
301.4529421543
 51
302.5470578457
  0
ARC
  5
416
100
AcDbEntity
  8
0
100
AcDbCircle
 62
7
  6
CONTINUOUS
 10
7.1010794479
 20
2.7013775814
 40
0.3875
100
AcDbArc
 50
305.4529421543
 51
306.5470578457
  0
ARC
  5
417
100
AcDbEntity
  8
0
100
AcDbCircle
 62
7
  6
CONTINUOUS
 10
7.1010794479
 20
2.7013775814
 40
0.3875
100
AcDbArc
 50
309.4529421543
 51
310.5470578457
  0
ARC
  5
418
100
AcDbEntity
  8
0
100
AcDbCircle
 62
7
  6
CONTINUOUS
 10
7.1010794479
 20
2.7013775814
 40
0.3875
100
AcDbArc
 50
313.4529421543
 51
314.5470578457
  0
ARC
  5
419
100
AcDbEntity
  8
0
100
AcDbCircle
 62
7
  6
CONTINUOUS
 10
7.1010794479
 20
2.7013775814
 40
0.3875
100
AcDbArc
 50
317.4529421543
 51
318.5470578457
  0
ARC
  5
41A
100
AcDbEntity
  8
0
100
AcDbCircle
 62
7
  6
CONTINUOUS
 10
7.1010794479
 20
2.7013775814
 40
0.3875
100
AcDbArc
 50
321.4529421543
 51
322.5470578457
  0
ARC
  5
41B
100
AcDbEntity
  8
0
100
AcDbCircle
 62
7
  6
CONTINUOUS
 10
7.1010794479
 20
2.7013775814
 40
0.3875
100
AcDbArc
 50
325.4529421543
 51
326.5470578457
  0
ARC
  5
41C
100
AcDbEntity
  8
0
100
AcDbCircle
 62
7
  6
CONTINUOUS
 10
7.1010794479
 20
2.7013775814
 40
0.3875
100
AcDbArc
 50
329.4529421543
 51
330.5470578457
  0
ARC
  5
41D
100
AcDbEntity
  8
0
100
AcDbCircle
 62
7
  6
CONTINUOUS
 10
7.1010794479
 20
2.7013775814
 40
0.3875
100
AcDbArc
 50
333.4529421543
 51
334.5470578457
  0
ARC
  5
41E
100
AcDbEntity
  8
0
100
AcDbCircle
 62
7
  6
CONTINUOUS
 10
7.1010794479
 20
2.7013775814
 40
0.3875
100
AcDbArc
 50
337.4529421543
 51
338.5470578457
  0
ARC
  5
41F
100
AcDbEntity
  8
0
100
AcDbCircle
 62
7
  6
CONTINUOUS
 10
7.1010794479
 20
2.7013775814
 40
0.3875
100
AcDbArc
 50
341.4529421543
 51
342.5470578457
  0
ARC
  5
420
100
AcDbEntity
  8
0
100
AcDbCircle
 62
7
  6
CONTINUOUS
 10
7.1010794479
 20
2.7013775814
 40
0.3875
100
AcDbArc
 50
345.4529421543
 51
346.5470578457
  0
ARC
  5
421
100
AcDbEntity
  8
0
100
AcDbCircle
 62
7
  6
CONTINUOUS
 10
7.1010794479
 20
2.7013775814
 40
0.3875
100
AcDbArc
 50
349.4529421543
 51
350.5470578457
  0
ARC
  5
422
100
AcDbEntity
  8
0
100
AcDbCircle
 62
7
  6
CONTINUOUS
 10
7.1010794479
 20
2.7013775814
 40
0.3875
100
AcDbArc
 50
353.4529421543
 51
354.5470578457
  0
ARC
  5
423
100
AcDbEntity
  8
0
100
AcDbCircle
 62
7
  6
CONTINUOUS
 10
7.1010794479
 20
2.7013775814
 40
0.3875
100
AcDbArc
 50
357.4529421543
 51
358.5470578457
  0
ARC
  5
424
100
AcDbEntity
  8
0
100
AcDbCircle
 62
7
  6
CONTINUOUS
 10
7.1010794479
 20
2.7013775814
 40
0.3875
100
AcDbArc
 50
1.4529421543
 51
2.5470578457
  0
ARC
  5
425
100
AcDbEntity
  8
0
100
AcDbCircle
 62
7
  6
CONTINUOUS
 10
7.1010794479
 20
2.7013775814
 40
0.3875
100
AcDbArc
 50
5.4529421543
 51
6.5470578457
  0
ARC
  5
426
100
AcDbEntity
  8
0
100
AcDbCircle
 62
7
  6
CONTINUOUS
 10
7.1010794479
 20
2.7013775814
 40
0.3875
100
AcDbArc
 50
9.4529421543
 51
10.5470578457
  0
ARC
  5
427
100
AcDbEntity
  8
0
100
AcDbCircle
 62
7
  6
CONTINUOUS
 10
7.1010794479
 20
2.7013775814
 40
0.3875
100
AcDbArc
 50
13.4529421543
 51
14.5470578457
  0
ARC
  5
428
100
AcDbEntity
  8
0
100
AcDbCircle
 62
7
  6
CONTINUOUS
 10
7.1010794479
 20
2.7013775814
 40
0.3875
100
AcDbArc
 50
17.4529421543
 51
18.5470578457
  0
ARC
  5
429
100
AcDbEntity
  8
0
100
AcDbCircle
 62
7
  6
CONTINUOUS
 10
7.1010794479
 20
2.7013775814
 40
0.3875
100
AcDbArc
 50
21.4529421543
 51
22.5470578457
  0
ARC
  5
42A
100
AcDbEntity
  8
0
100
AcDbCircle
 62
7
  6
CONTINUOUS
 10
7.1010794479
 20
2.7013775814
 40
0.3875
100
AcDbArc
 50
25.4529421543
 51
26.5470578457
  0
ARC
  5
42B
100
AcDbEntity
  8
0
100
AcDbCircle
 62
7
  6
CONTINUOUS
 10
7.1010794479
 20
2.7013775814
 40
0.3875
100
AcDbArc
 50
29.4529421543
 51
30.5470578457
  0
ARC
  5
42C
100
AcDbEntity
  8
0
100
AcDbCircle
 62
7
  6
CONTINUOUS
 10
7.1010794479
 20
2.7013775814
 40
0.3875
100
AcDbArc
 50
33.4529421543
 51
34.5470578457
  0
ARC
  5
42D
100
AcDbEntity
  8
0
100
AcDbCircle
 62
7
  6
CONTINUOUS
 10
7.1010794479
 20
2.7013775814
 40
0.3875
100
AcDbArc
 50
37.4529421543
 51
38.5470578457
  0
ARC
  5
42E
100
AcDbEntity
  8
0
100
AcDbCircle
 62
7
  6
CONTINUOUS
 10
7.1010794479
 20
2.7013775814
 40
0.3875
100
AcDbArc
 50
41.4529421543
 51
42.5470578457
  0
ARC
  5
42F
100
AcDbEntity
  8
0
100
AcDbCircle
 62
7
  6
CONTINUOUS
 10
7.1010794479
 20
2.7013775814
 40
0.3875
100
AcDbArc
 50
45.4529421543
 51
46.5470578457
  0
ARC
  5
430
100
AcDbEntity
  8
0
100
AcDbCircle
 62
7
  6
CONTINUOUS
 10
7.1010794479
 20
2.7013775814
 40
0.3875
100
AcDbArc
 50
49.4529421543
 51
50.5470578457
  0
ARC
  5
431
100
AcDbEntity
  8
0
100
AcDbCircle
 62
7
  6
CONTINUOUS
 10
7.1010794479
 20
2.7013775814
 40
0.3875
100
AcDbArc
 50
53.4529421543
 51
54.5470578457
  0
ARC
  5
432
100
AcDbEntity
  8
0
100
AcDbCircle
 62
7
  6
CONTINUOUS
 10
7.1010794479
 20
2.7013775814
 40
0.3875
100
AcDbArc
 50
57.4529421543
 51
58.5470578457
  0
ARC
  5
433
100
AcDbEntity
  8
0
100
AcDbCircle
 62
7
  6
CONTINUOUS
 10
7.1010794479
 20
2.7013775814
 40
0.3875
100
AcDbArc
 50
61.4529421543
 51
62.5470578457
  0
ARC
  5
434
100
AcDbEntity
  8
0
100
AcDbCircle
 62
7
  6
CONTINUOUS
 10
7.1010794479
 20
2.7013775814
 40
0.3875
100
AcDbArc
 50
65.4529421543
 51
66.5470578457
  0
ARC
  5
435
100
AcDbEntity
  8
0
100
AcDbCircle
 62
7
  6
CONTINUOUS
 10
7.1010794479
 20
2.7013775814
 40
0.3875
100
AcDbArc
 50
69.4529421543
 51
70.5470578457
  0
ARC
  5
436
100
AcDbEntity
  8
0
100
AcDbCircle
 62
7
  6
CONTINUOUS
 10
7.1010794479
 20
2.7013775814
 40
0.3875
100
AcDbArc
 50
109.4529421543
 51
110.5470578457
  0
ARC
  5
437
100
AcDbEntity
  8
0
100
AcDbCircle
 62
7
  6
CONTINUOUS
 10
7.1010794479
 20
2.7013775814
 40
0.3875
100
AcDbArc
 50
113.4529421543
 51
114.5470578457
  0
ARC
  5
438
100
AcDbEntity
  8
0
100
AcDbCircle
 62
7
  6
CONTINUOUS
 10
7.1010794479
 20
2.7013775814
 40
0.3875
100
AcDbArc
 50
117.4529421543
 51
118.5470578457
  0
ARC
  5
439
100
AcDbEntity
  8
0
100
AcDbCircle
 62
7
  6
CONTINUOUS
 10
7.1010794479
 20
2.7013775814
 40
0.3875
100
AcDbArc
 50
121.4529421543
 51
122.5470578457
  0
ARC
  5
43A
100
AcDbEntity
  8
0
100
AcDbCircle
 62
7
  6
CONTINUOUS
 10
7.1010794479
 20
2.7013775814
 40
0.3875
100
AcDbArc
 50
125.4529421543
 51
126.5470578457
  0
ARC
  5
43B
100
AcDbEntity
  8
0
100
AcDbCircle
 62
7
  6
CONTINUOUS
 10
7.1010794479
 20
2.7013775814
 40
0.3875
100
AcDbArc
 50
129.4529421543
 51
130.5470578457
  0
ARC
  5
43C
100
AcDbEntity
  8
0
100
AcDbCircle
 62
7
  6
CONTINUOUS
 10
7.1010794479
 20
2.7013775814
 40
0.3875
100
AcDbArc
 50
133.4529421543
 51
134.5470578457
  0
ARC
  5
43D
100
AcDbEntity
  8
0
100
AcDbCircle
 62
7
  6
CONTINUOUS
 10
7.1010794479
 20
2.7013775814
 40
0.3875
100
AcDbArc
 50
137.4529421543
 51
138.5470578457
  0
ARC
  5
43E
100
AcDbEntity
  8
0
100
AcDbCircle
 62
7
  6
CONTINUOUS
 10
7.1010794479
 20
2.7013775814
 40
0.3875
100
AcDbArc
 50
141.4529421543
 51
142.5470578457
  0
ARC
  5
43F
100
AcDbEntity
  8
0
100
AcDbCircle
 62
7
  6
CONTINUOUS
 10
7.1010794479
 20
2.7013775814
 40
0.3875
100
AcDbArc
 50
145.4529421543
 51
146.5470578457
  0
ARC
  5
440
100
AcDbEntity
  8
0
100
AcDbCircle
 62
7
  6
CONTINUOUS
 10
7.1010794479
 20
2.7013775814
 40
0.3875
100
AcDbArc
 50
149.4529421543
 51
150.5470578457
  0
ARC
  5
441
100
AcDbEntity
  8
0
100
AcDbCircle
 62
7
  6
CONTINUOUS
 10
7.1010794479
 20
2.7013775814
 40
0.3875
100
AcDbArc
 50
153.4529421543
 51
154.5470578457
  0
ARC
  5
442
100
AcDbEntity
  8
0
100
AcDbCircle
 62
7
  6
CONTINUOUS
 10
7.1010794479
 20
2.7013775814
 40
0.3875
100
AcDbArc
 50
157.4529421543
 51
158.5470578457
  0
ARC
  5
443
100
AcDbEntity
  8
0
100
AcDbCircle
 62
7
  6
CONTINUOUS
 10
7.1010794479
 20
2.7013775814
 40
0.3875
100
AcDbArc
 50
161.4529421543
 51
162.5470578457
  0
ARC
  5
444
100
AcDbEntity
  8
0
100
AcDbCircle
 62
7
  6
CONTINUOUS
 10
7.1010794479
 20
2.7013775814
 40
0.3875
100
AcDbArc
 50
165.4529421543
 51
166.5470578457
  0
ARC
  5
445
100
AcDbEntity
  8
0
100
AcDbCircle
 62
7
  6
CONTINUOUS
 10
7.1010794479
 20
2.7013775814
 40
0.3875
100
AcDbArc
 50
169.4529421543
 51
170.5470578457
  0
ARC
  5
446
100
AcDbEntity
  8
0
100
AcDbCircle
 62
7
  6
CONTINUOUS
 10
7.1010794479
 20
2.7013775814
 40
0.3875
100
AcDbArc
 50
173.4529421543
 51
174.5470578457
  0
ARC
  5
447
100
AcDbEntity
  8
0
100
AcDbCircle
 62
7
  6
CONTINUOUS
 10
7.1010794479
 20
2.7013775814
 40
0.3625
100
AcDbArc
 50
105.6028939651
 51
74.3971060349
  0
ARC
  5
448
100
AcDbEntity
  8
0
100
AcDbCircle
 62
7
  6
CONTINUOUS
 10
7.1010794479
 20
2.7013775814
 40
0.2154421226
100
AcDbArc
 50
116.9084209337
 51
210.7192121792
  0
ARC
  5
449
100
AcDbEntity
  8
0
100
AcDbCircle
 62
7
  6
CONTINUOUS
 10
7.1010794479
 20
2.7013775814
 40
0.2154421226
100
AcDbArc
 50
329.2734234523
 51
63.0915870614
  0
ARC
  5
44A
100
AcDbEntity
  8
0
100
AcDbCircle
 62
7
  6
CONTINUOUS
 10
7.1010794479
 20
2.7013775814
 40
0.20792931
100
AcDbArc
 50
329.2794214949
 51
62.0347347495
  0
ARC
  5
44B
100
AcDbEntity
  8
0
100
AcDbCircle
 62
7
  6
CONTINUOUS
 10
7.1010794479
 20
2.7013775814
 40
0.20792931
100
AcDbArc
 50
117.9652481394
 51
210.7241739414
  0
ARC
  5
44C
100
AcDbEntity
  8
0
100
AcDbCircle
 62
7
  6
CONTINUOUS
 10
7.1010794479
 20
2.7013775814
 40
0.18375
100
AcDbArc
 50
122.0486246509
 51
57.9513753491
  0
ARC
  5
44D
100
AcDbEntity
  8
0
100
AcDbCircle
 62
7
  6
CONTINUOUS
 10
7.1010794479
 20
2.7076275814
 40
0.17875
100
AcDbArc
 50
123.0561239722
 51
127.6327732592
  0
ARC
  5
44E
100
AcDbEntity
  8
0
100
AcDbCircle
 62
7
  6
CONTINUOUS
 10
7.1010794479
 20
2.7076275814
 40
0.17875
100
AcDbArc
 50
52.3672241518
 51
56.9438760526
  0
ARC
  5
44F
100
AcDbEntity
  8
0
100
AcDbCircle
 62
7
  6
CONTINUOUS
 10
7.1010794479
 20
2.5351275814
 40
0.16875
100
AcDbArc
 50
180.0
 51
360.0
  0
ARC
  5
450
100
AcDbEntity
  8
0
100
AcDbCircle
 62
7
  6
CONTINUOUS
 10
7.1010794479
 20
2.7013775814
 40
0.15375
100
AcDbArc
 50
129.3575691709
 51
50.6424308291
  0
ARC
  5
451
100
AcDbEntity
  8
0
100
AcDbCircle
 62
7
  6
CONTINUOUS
 10
7.1010794479
 20
2.7013775814
 40
0.1075
100
AcDbArc
 50
155.096166802
 51
24.9038332338
  0
ARC
  5
452
100
AcDbEntity
  8
0
100
AcDbCircle
 62
7
  6
CONTINUOUS
 10
7.1010794479
 20
2.7013775814
 40
0.0975
100
AcDbArc
 50
180.0
 51
360.0
  0
ARC
  5
453
100
AcDbEntity
  8
0
100
AcDbCircle
 62
7
  6
CONTINUOUS
 10
7.2558862661
 20
3.0513775814
 40
0.0378068182
100
AcDbArc
 50
97.3044455606
 51
180.0
  0
ARC
  5
454
100
AcDbEntity
  8
0
100
AcDbCircle
 62
7
  6
CONTINUOUS
 10
7.2510794479
 20
3.1201275814
 40
0.03125
100
AcDbArc
 50
270.0
 51
90.0
  0
ARC
  5
455
100
AcDbEntity
  8
0
100
AcDbCircle
 62
7
  6
CONTINUOUS
 10
5.3409533411
 20
6.0226394402
 40
2.0451261068
100
AcDbArc
 50
0.0000006386
 51
171.2999993614
  0
ARC
  5
456
100
AcDbEntity
  8
0
100
AcDbCircle
 62
7
  6
CONTINUOUS
 10
5.3409533406
 20
6.0226394398
 40
1.4751261073
100
AcDbArc
 50
0.000000902
 51
169.2604013975
  0
ARC
  5
457
100
AcDbEntity
  8
0
100
AcDbCircle
 62
7
  6
CONTINUOUS
 10
4.1568861122
 20
6.2040526921
 40
0.2822097191
100
AcDbArc
 50
171.345251969
 51
182.0673165348
  0
ARC
  5
458
100
AcDbEntity
  8
0
100
AcDbCircle
 62
7
  6
CONTINUOUS
 10
7.6260794479
 20
4.0313775814
 40
0.05
100
AcDbArc
 50
180.0
 51
270.0
  0
ARC
  5
459
100
AcDbEntity
  8
0
100
AcDbCircle
 62
7
  6
CONTINUOUS
 10
6.5760794479
 20
4.0313775814
 40
0.05
100
AcDbArc
 50
270.0
 51
360.0
  0
ARC
  5
45A
100
AcDbEntity
  8
0
100
AcDbCircle
 62
7
  6
CONTINUOUS
 10
3.8598124089
 20
5.9963758637
 40
0.05
100
AcDbArc
 50
301.1903148561
 51
81.3
  0
ARC
  5
45B
100
AcDbEntity
  8
0
100
AcDbCircle
 62
7
  6
CONTINUOUS
 10
7.2623294479
 20
4.4713775814
 40
0.03
100
AcDbArc
 50
270.0
 51
90.0
  0
ARC
  5
45C
100
AcDbEntity
  8
0
100
AcDbCircle
 62
7
  6
CONTINUOUS
 10
6.9398294479
 20
4.4713775814
 40
0.03
100
AcDbArc
 50
90.0
 51
270.0
  0
ARC
  5
45D
100
AcDbEntity
  8
0
100
AcDbCircle
 62
7
  6
CONTINUOUS
 10
3.8178305941
 20
5.4196895651
 40
0.0197
100
AcDbArc
 50
122.3043144517
 51
177.0265405947
  0
ARC
  5
45E
100
AcDbEntity
  8
0
100
AcDbCircle
 62
7
  6
CONTINUOUS
 10
3.8328567484
 20
5.5247037843
 40
0.0197
100
AcDbArc
 50
171.3
 51
221.4096851439
  0
ARC
  5
45F
100
AcDbEntity
  8
0
100
AcDbCircle
 62
7
  6
CONTINUOUS
 10
3.8959088131
 20
5.9367508722
 40
0.0197
100
AcDbArc
 50
121.1903148554
 51
171.3
  0
ARC
  5
460
100
AcDbEntity
  8
0
100
AcDbCircle
 62
7
  6
CONTINUOUS
 10
6.6410794479
 20
3.7413775814
 40
0.015
100
AcDbArc
 50
90.0
 51
180.0
  0
ARC
  5
461
100
AcDbEntity
  8
0
100
AcDbCircle
 62
7
  6
CONTINUOUS
 10
7.5610794479
 20
3.7413775814
 40
0.015
100
AcDbArc
 50
0.0
 51
90.0
  0
ARC
  5
462
100
AcDbEntity
  8
0
100
AcDbCircle
 62
7
  6
CONTINUOUS
 10
68.8532411328
 20
-2.0600799201
 40
66.0795034611
100
AcDbArc
 50
173.129296361
 51
173.3268158024
  0
ARC
  5
463
100
AcDbEntity
  8
0
100
AcDbCircle
 62
7
  6
CONTINUOUS
 10
60.2574149194
 20
-0.7420800199
 40
57.4318302252
100
AcDbArc
 50
173.4106612828
 51
173.6257936463
  0
SPLINE
  5
464
100
AcDbEntity
  8
0
100
AcDbSpline
 62
7
  6
CONTINUOUS
 70
0
 71
3
 72
15
 73
11
 74
0
 42
0.0000001
 43
0.0000001
 44
0.0000000001
 40
0.0
 40
0.0
 40
0.0
 40
0.0
 40
0.194071858
 40
0.3806905105
 40
0.5528408892
 40
0.7041728696
 40
0.8290284013
 40
0.9224486587
 40
0.9803623857
 40
1.0
 40
1.0
 40
1.0
 40
1.0
 10
3.877890783
 20
6.2465194949
 30
0.0
 10
3.8784087721
 20
6.2499045688
 30
0.0
 10
3.8795713007
 20
6.2565232684
 30
0.0
 10
3.8816714687
 20
6.2660524081
 30
0.0
 10
3.8839607747
 20
6.2747596681
 30
0.0
 10
3.8862449059
 20
6.2823353658
 30
0.0
 10
3.8883148924
 20
6.2885208743
 30
0.0
 10
3.8899703287
 20
6.2931049231
 30
0.0
 10
3.891041362
 20
6.2959253597
 30
0.0
 10
3.8915385445
 20
6.2972002744
 30
0.0
 10
3.891665184
 20
6.2975228177
 30
0.0
  0
SPLINE
  5
465
100
AcDbEntity
  8
0
100
AcDbSpline
 62
7
  6
CONTINUOUS
 70
0
 71
3
 72
17
 73
13
 74
0
 42
0.0000001
 43
0.0000001
 44
0.0000000001
 40
0.0
 40
0.0
 40
0.0
 40
0.0
 40
0.1247148932
 40
0.2494606277
 40
0.311916307
 40
0.374392022
 40
0.4992966428
 40
0.6243050346
 40
0.6869093322
 40
0.7495395296
 40
0.8747372484
 40
1.0
 40
1.0
 40
1.0
 40
1.0
 10
3.0958420902
 20
5.8498150192
 30
0.0
 10
3.0961904994
 20
5.8509100282
 30
0.0
 10
3.0970780015
 20
5.8530444605
 30
0.0
 10
3.0986265743
 20
5.8554828031
 30
0.0
 10
3.1001000068
 20
5.8572528017
 30
0.0
 10
3.1017216819
 20
5.8588900715
 30
0.0
 10
3.1040067953
 20
5.8606652714
 30
0.0
 10
3.1065661576
 20
5.8620185034
 30
0.0
 10
3.108730617
 20
5.8628206003
 30
0.0
 10
3.1109589826
 20
5.863429695
 30
0.0
 10
3.1138328426
 20
5.8638195653
 30
0.0
 10
3.1161527825
 20
5.8637213339
 30
0.0
 10
3.1172967339
 20
5.8635682476
 30
0.0
  0
SPLINE
  5
466
100
AcDbEntity
  8
0
100
AcDbSpline
 62
7
  6
CONTINUOUS
 70
0
 71
3
 72
17
 73
13
 74
0
 42
0.0000001
 43
0.0000001
 44
0.0000000001
 40
0.0
 40
0.0
 40
0.0
 40
0.0
 40
0.1252399452
 40
0.2504480221
 40
0.3131029097
 40
0.3757320897
 40
0.5007562377
 40
0.6256631415
 40
0.6881471787
 40
0.7506079121
 40
0.8753250149
 40
1.0
 40
1.0
 40
1.0
 40
1.0
 10
2.9612870865
 20
5.3632398433
 30
0.0
 10
2.960061002
 20
5.3636399931
 30
0.0
 10
2.9576851675
 20
5.3646945667
 30
0.0
 10
2.9550364498
 20
5.3665708651
 30
0.0
 10
2.9531712645
 20
5.3683582635
 30
0.0
 10
2.9514930776
 20
5.3703196729
 30
0.0
 10
2.9497708927
 20
5.3730649604
 30
0.0
 10
2.9486153361
 20
5.3760906433
 30
0.0
 10
2.9480542346
 20
5.3786052925
 30
0.0
 10
2.9477387084
 20
5.3811604872
 30
0.0
 10
2.9478055654
 20
5.3843915491
 30
0.0
 10
2.9483508804
 20
5.3869201256
 30
0.0
 10
2.9487420204
 20
5.388143007
 30
0.0
  0
LINE
  5
467
100
AcDbEntity
  8
0
100
AcDbLine
 62
7
  6
CONTINUOUS
 10
3.0499624269
 20
5.3341210631
 11
2.9612870854
 21
5.363239842
  0
LINE
  5
468
100
AcDbEntity
  8
0
100
AcDbLine
 62
7
  6
CONTINUOUS
 10
3.1757215842
 20
5.9225029482
 11
3.1776064405
 21
5.9216148861
  0
LINE
  5
469
100
AcDbEntity
  8
0
100
AcDbLine
 62
7
  6
CONTINUOUS
 10
6.9176828835
 20
2.5308059516
 11
6.915867942
 21
2.591323021
  0
SPLINE
  5
46A
100
AcDbEntity
  8
0
100
AcDbSpline
 62
7
  6
CONTINUOUS
 70
0
 71
3
 72
30
 73
26
 74
0
 42
0.0000001
 43
0.0000001
 44
0.0000000001
 40
0.0
 40
0.0
 40
0.0
 40
0.0
 40
0.0321247909
 40
0.0642517854
 40
0.0963723319
 40
0.1284872408
 40
0.1926723151
 40
0.2568054
 40
0.2888546068
 40
0.320880819
 40
0.3528797198
 40
0.3848463367
 40
0.4486399902
 40
0.5122256125
 40
0.5755316849
 40
0.6070615956
 40
0.638485879
 40
0.6697891767
 40
0.7009548936
 40
0.762781075
 40
0.8238123129
 40
0.8838491529
 40
0.9134305307
 40
0.9426736961
 40
1.0
 40
1.0
 40
1.0
 40
1.0
 10
7.1010794479
 20
2.353286404
 30
0.0
 10
7.0980565796
 20
2.353286406
 30
0.0
 10
7.0920095687
 20
2.3534355594
 30
0.0
 10
7.0829624916
 20
2.3541057032
 30
0.0
 10
7.0739599389
 20
2.3552209496
 30
0.0
 10
7.0620512847
 20
2.3572963002
 30
0.0
 10
7.0473857179
 20
2.3609854274
 30
0.0
 10
7.0331603529
 20
2.3660980682
 30
0.0
 10
7.0221356056
 20
2.3710068909
 30
0.0
 10
7.0140644013
 20
2.3750875778
 30
0.0
 10
7.0062104222
 20
2.3795564908
 30
0.0
 10
6.9960630309
 20
2.3860101814
 30
0.0
 10
6.98401611
 20
2.3949817163
 30
0.0
 10
6.9707235415
 20
2.4070747436
 30
0.0
 10
6.9607108953
 20
2.4181537565
 30
0.0
 10
6.9534083052
 20
2.4275301305
 30
0.0
 10
6.9483017382
 20
2.43478638
 30
0.0
 10
6.943570629
 20
2.4422522734
 30
0.0
 10
6.9377927784
 20
2.4524255959
 30
0.0
 10
6.9315461858
 20
2.4655304432
 30
0.0
 10
6.9256425936
 20
2.4817221657
 30
0.0
 10
6.9220479365
 20
2.4954576125
 30
0.0
 10
6.9199743318
 20
2.5064518702
 30
0.0
 10
6.918441067
 20
2.5172760454
 30
0.0
 10
6.9178397539
 20
2.5254139608
 30
0.0
 10
6.9176828835
 20
2.5308059516
 30
0.0
  0
SPLINE
  5
46B
100
AcDbEntity
  8
0
100
AcDbSpline
 62
7
  6
CONTINUOUS
 70
0
 71
3
 72
13
 73
9
 74
0
 42
0.0000001
 43
0.0000001
 44
0.0000000001
 40
0.0
 40
0.0
 40
0.0
 40
0.0
 40
0.2571670725
 40
0.5118158593
 40
0.6371222936
 40
0.7604259218
 40
0.8814495275
 40
1.0
 40
1.0
 40
1.0
 40
1.0
 10
3.2060609922
 20
5.5113149165
 30
0.0
 10
3.2064260207
 20
5.512835865
 30
0.0
 10
3.2068510788
 20
5.5159435782
 30
0.0
 10
3.2066014156
 20
5.5198387932
 30
0.0
 10
3.2059316421
 20
5.5228305971
 30
0.0
 10
3.2052075412
 20
5.5249638885
 30
0.0
 10
3.2042693232
 20
5.5269665096
 30
0.0
 10
3.2035012086
 20
5.5282094834
 30
0.0
 10
3.2030855717
 20
5.5287986811
 30
0.0
  0
SPLINE
  5
46C
100
AcDbEntity
  8
0
100
AcDbSpline
 62
7
  6
CONTINUOUS
 70
0
 71
3
 72
11
 73
7
 74
0
 42
0.0000001
 43
0.0000001
 44
0.0000000001
 40
0.0
 40
0.0
 40
0.0
 40
0.0
 40
0.2507578912
 40
0.5036190289
 40
0.7545992313
 40
1.0
 40
1.0
 40
1.0
 40
1.0
 10
3.2037604466
 20
5.511317167
 30
0.0
 10
3.2039738294
 20
5.51274996
 30
0.0
 10
3.204126751
 20
5.5156752541
 30
0.0
 10
3.2035531901
 20
5.520020136
 30
0.0
 10
3.2022089634
 20
5.5241593435
 30
0.0
 10
3.2008161236
 20
5.5266904806
 30
0.0
 10
3.2000100555
 20
5.5278566622
 30
0.0
  0
SPLINE
  5
46D
100
AcDbEntity
  8
0
100
AcDbSpline
 62
7
  6
CONTINUOUS
 70
0
 71
3
 72
12
 73
8
 74
0
 42
0.0000001
 43
0.0000001
 44
0.0000000001
 40
0.0
 40
0.0
 40
0.0
 40
0.0
 40
0.2507500114
 40
0.5030588945
 40
0.6289111851
 40
0.7539543536
 40
1.0
 40
1.0
 40
1.0
 40
1.0
 10
3.2214166653
 20
5.618747915
 30
0.0
 10
3.2210801484
 20
5.617481364
 30
0.0
 10
3.2201851117
 20
5.6149939939
 30
0.0
 10
3.2185687856
 20
5.6121141883
 30
0.0
 10
3.2170045742
 20
5.6099964193
 30
0.0
 10
3.2152904509
 20
5.6080425506
 30
0.0
 10
3.213826905
 20
5.6067502978
 30
0.0
 10
3.212789906
 20
5.6059899083
 30
0.0
  0
SPLINE
  5
46E
100
AcDbEntity
  8
0
100
AcDbSpline
 62
7
  6
CONTINUOUS
 70
0
 71
3
 72
13
 73
9
 74
0
 42
0.0000001
 43
0.0000001
 44
0.0000000001
 40
0.0
 40
0.0
 40
0.0
 40
0.0
 40
0.2581002029
 40
0.3861371243
 40
0.5128519451
 40
0.7606129581
 40
0.8814664842
 40
1.0
 40
1.0
 40
1.0
 40
1.0
 10
3.2238576311
 20
5.617893685
 30
0.0
 10
3.223641224
 20
5.6164798167
 30
0.0
 10
3.2231234468
 20
5.6143872735
 30
0.0
 10
3.2220641015
 20
5.6117465457
 30
0.0
 10
3.2207881553
 20
5.6092676783
 30
0.0
 10
3.2191832755
 20
5.6070139673
 30
0.0
 10
3.2172935822
 20
5.6050807051
 30
0.0
 10
3.2162680363
 20
5.6042340238
 30
0.0
 10
3.2157388284
 20
5.6038448724
 30
0.0
  0
SPLINE
  5
46F
100
AcDbEntity
  8
0
100
AcDbSpline
 62
7
  6
CONTINUOUS
 70
0
 71
3
 72
23
 73
19
 74
0
 42
0.0000001
 43
0.0000001
 44
0.0000000001
 40
0.0
 40
0.0
 40
0.0
 40
0.0
 40
0.0658617617
 40
0.131951326
 40
0.1980585385
 40
0.2639893736
 40
0.3295473429
 40
0.394555806
 40
0.4588606833
 40
0.522339638
 40
0.5849083662
 40
0.6465263014
 40
0.707200646
 40
0.7669878407
 40
0.8259941062
 40
0.8843670402
 40
0.9423003345
 40
1.0
 40
1.0
 40
1.0
 40
1.0
 10
3.0479383743
 20
5.2518261993
 30
0.0
 10
3.0470217115
 20
5.2520262003
 30
0.0
 10
3.04520404
 20
5.2525192881
 30
0.0
 10
3.0425631959
 20
5.2535247489
 30
0.0
 10
3.0400329368
 20
5.2547856864
 30
0.0
 10
3.0376457419
 20
5.2562858504
 30
0.0
 10
3.0354318269
 20
5.2580064096
 30
0.0
 10
3.0334193711
 20
5.2599255372
 30
0.0
 10
3.0316340278
 20
5.2620190127
 30
0.0
 10
3.0300986275
 20
5.2642603688
 30
0.0
 10
3.028832908
 20
5.2666212617
 30
0.0
 10
3.0278532449
 20
5.2690717796
 30
0.0
 10
3.0271724698
 20
5.2715807954
 30
0.0
 10
3.0267996322
 20
5.2741163439
 30
0.0
 10
3.0267399594
 20
5.2766458956
 30
0.0
 10
3.0269945293
 20
5.2791370989
 30
0.0
 10
3.0275603134
 20
5.2815571472
 30
0.0
 10
3.028141049
 20
5.2831044552
 30
0.0
 10
3.0284791924
 20
5.2838536345
 30
0.0
  0
SPLINE
  5
470
100
AcDbEntity
  8
0
100
AcDbSpline
 62
7
  6
CONTINUOUS
 70
0
 71
3
 72
28
 73
24
 74
0
 42
0.0000001
 43
0.0000001
 44
0.0000000001
 40
0.0
 40
0.0
 40
0.0
 40
0.0
 40
0.1929368595
 40
0.3789246583
 40
0.5507195357
 40
0.6291745834
 40
0.7016317682
 40
0.7673877139
 40
0.8258091275
 40
0.8763398748
 40
0.8984957889
 40
0.9185112707
 40
0.9363416828
 40
0.9519546745
 40
0.9653249893
 40
0.9764413816
 40
0.9853182066
 40
0.9889332296
 40
0.9920166482
 40
0.9945955683
 40
0.9967174951
 40
0.9984685589
 40
1.0
 40
1.0
 40
1.0
 40
1.0
 10
3.0669993226
 20
5.3087550522
 30
0.0
 10
3.0654819452
 20
5.309387469
 30
0.0
 10
3.0625093254
 20
5.3106475821
 30
0.0
 10
3.0582122473
 20
5.3125328432
 30
0.0
 10
3.0548294056
 20
5.3140733134
 30
0.0
 10
3.0523423371
 20
5.3152458764
 30
0.0
 10
3.0506804643
 20
5.3160498475
 30
0.0
 10
3.0491809941
 20
5.3167973234
 30
0.0
 10
3.0478585964
 20
5.3174809152
 30
0.0
 10
3.0468759409
 20
5.3180124418
 30
0.0
 10
3.0461890044
 20
5.3184023573
 30
0.0
 10
3.045748483
 20
5.3186618404
 30
0.0
 10
3.0453606432
 20
5.3189007686
 30
0.0
 10
3.0450263928
 20
5.319118512
 30
0.0
 10
3.0447463897
 20
5.3193144781
 30
0.0
 10
3.0445212574
 20
5.319488194
 30
0.0
 10
3.0443703487
 20
5.3196216925
 30
0.0
 10
3.0442792475
 20
5.3197183252
 30
0.0
 10
3.0442296631
 20
5.3197800253
 30
0.0
 10
3.0441938825
 20
5.3198360881
 30
0.0
 10
3.0441718647
 20
5.3198868148
 30
0.0
 10
3.0441638241
 20
5.3199327887
 30
0.0
 10
3.0441690527
 20
5.3199611094
 30
0.0
 10
3.044174084
 20
5.3199731488
 30
0.0
  0
LINE
  5
471
100
AcDbEntity
  8
0
100
AcDbLine
 62
7
  6
CONTINUOUS
 10
3.1476148605
 20
5.5767413048
 11
3.1244918803
 21
5.5814800145
  0
SPLINE
  5
472
100
AcDbEntity
  8
0
100
AcDbSpline
 62
7
  6
CONTINUOUS
 70
0
 71
3
 72
27
 73
23
 74
0
 42
0.0000001
 43
0.0000001
 44
0.0000000001
 40
0.0
 40
0.0
 40
0.0
 40
0.0
 40
0.1934621904
 40
0.3796303988
 40
0.5513589963
 40
0.6297200307
 40
0.7020590995
 40
0.7676846658
 40
0.825974645
 40
0.8763834353
 40
0.8984851026
 40
0.9184524248
 40
0.9362420455
 40
0.9518229025
 40
0.9651712723
 40
0.9762778497
 40
0.9851597293
 40
0.9918772766
 40
0.9944783959
 40
0.9966308367
 40
0.9984216412
 40
1.0
 40
1.0
 40
1.0
 40
1.0
 10
3.1440950715
 20
5.5528743439
 30
0.0
 10
3.1425022175
 20
5.5532233304
 30
0.0
 10
3.1393807517
 20
5.5539274516
 30
0.0
 10
3.1348607657
 20
5.5550080692
 30
0.0
 10
3.1312968429
 20
5.5559140302
 30
0.0
 10
3.128672298
 20
5.5566194644
 30
0.0
 10
3.1269163993
 20
5.5571109386
 30
0.0
 10
3.1253289736
 20
5.5575762813
 30
0.0
 10
3.1239253408
 20
5.5580109295
 30
0.0
 10
3.1228785983
 20
5.5583574034
 30
0.0
 10
3.1221439239
 20
5.5586179175
 30
0.0
 10
3.1216712387
 20
5.5587944093
 30
0.0
 10
3.1212533467
 20
5.5589602739
 30
0.0
 10
3.1208911898
 20
5.5591150509
 30
0.0
 10
3.1205855853
 20
5.5592583085
 30
0.0
 10
3.1203369314
 20
5.5593896227
 30
0.0
 10
3.1201457307
 20
5.5595086188
 30
0.0
 10
3.1200244838
 20
5.5596039575
 30
0.0
 10
3.119959666
 20
5.5596760699
 30
0.0
 10
3.1199296702
 20
5.5597227597
 30
0.0
 10
3.1199141318
 20
5.5597672769
 30
0.0
 10
3.1199144476
 20
5.5597964655
 30
0.0
 10
3.1199172983
 20
5.55980946
 30
0.0
  0
SPLINE
  5
473
100
AcDbEntity
  8
0
100
AcDbSpline
 62
7
  6
CONTINUOUS
 70
0
 71
3
 72
29
 73
25
 74
0
 42
0.0000001
 43
0.0000001
 44
0.0000000001
 40
0.0
 40
0.0
 40
0.0
 40
0.0
 40
0.0573270481
 40
0.116137697
 40
0.1460265131
 40
0.1761917866
 40
0.2372240695
 40
0.2990512416
 40
0.3302175357
 40
0.3615213861
 40
0.4244581533
 40
0.4877653546
 40
0.551352126
 40
0.6151469027
 40
0.6471140785
 40
0.6791135424
 40
0.7111403197
 40
0.7431900909
 40
0.8073243046
 40
0.8715105067
 40
0.9036259805
 40
0.9357470905
 40
0.9678746456
 40
1.0
 40
1.0
 40
1.0
 40
1.0
 10
7.2844760123
 20
2.5308059516
 30
0.0
 10
7.2843191495
 20
2.5254139851
 30
0.0
 10
7.2835137875
 20
2.5144989876
 30
0.0
 10
7.2812706568
 20
2.5009226763
 30
0.0
 10
7.2786922384
 20
2.4900355496
 30
0.0
 10
7.2755521179
 20
2.4790793176
 30
0.0
 10
7.2706124845
 20
2.4655298739
 30
0.0
 10
7.2643663112
 20
2.4524256446
 30
0.0
 10
7.2585881479
 20
2.4422521885
 30
0.0
 10
7.2522698804
 20
2.4322812375
 30
0.0
 10
7.243431253
 20
2.4203481647
 30
0.0
 10
7.2314359222
 20
2.4070751576
 30
0.0
 10
7.2181426242
 20
2.3949816202
 30
0.0
 10
7.2060958656
 20
2.3860102241
 30
0.0
 10
7.1959484841
 20
2.3795564647
 30
0.0
 10
7.1880945095
 20
2.3750875527
 30
0.0
 10
7.1800233012
 20
2.3710068686
 30
0.0
 10
7.1689985493
 20
2.3660980548
 30
0.0
 10
7.15477318
 20
2.3609854227
 30
0.0
 10
7.1401076114
 20
2.3572962992
 30
0.0
 10
7.1281989566
 20
2.3552209493
 30
0.0
 10
7.1191964042
 20
2.3541057005
 30
0.0
 10
7.1101493269
 20
2.3534355587
 30
0.0
 10
7.1041023163
 20
2.3532864071
 30
0.0
 10
7.1010794479
 20
2.353286404
 30
0.0
  0
SPLINE
  5
474
100
AcDbEntity
  8
0
100
AcDbSpline
 62
7
  6
CONTINUOUS
 70
0
 71
3
 72
27
 73
23
 74
0
 42
0.0000001
 43
0.0000001
 44
0.0000000001
 40
0.0
 40
0.0
 40
0.0
 40
0.0
 40
0.1937612586
 40
0.3800472761
 40
0.5517620346
 40
0.6300826995
 40
0.7023673696
 40
0.7679303963
 40
0.8261552039
 40
0.8765012521
 40
0.8985739226
 40
0.918514536
 40
0.9362802608
 40
0.9518405107
 40
0.9651720707
 40
0.9762661903
 40
0.9851406203
 40
0.9918567245
 40
0.9944598674
 40
0.9966164554
 40
0.9984136232
 40
1.0
 40
1.0
 40
1.0
 40
1.0
 10
3.1543354143
 20
5.6045104499
 30
0.0
 10
3.1527383642
 20
5.6048030041
 30
0.0
 10
3.1496022981
 20
5.6053575135
 30
0.0
 10
3.1450393528
 20
5.6061040836
 30
0.0
 10
3.1414229168
 20
5.6066427978
 30
0.0
 10
3.1387462664
 20
5.6070040882
 30
0.0
 10
3.1369487028
 20
5.6072277337
 30
0.0
 10
3.135315856
 20
5.6074105146
 30
0.0
 10
3.1338633927
 20
5.6075507459
 30
0.0
 10
3.1327717731
 20
5.6076347225
 30
0.0
 10
3.1319990123
 20
5.6076776794
 30
0.0
 10
3.131498442
 20
5.6076971321
 30
0.0
 10
3.1310521315
 20
5.6077052673
 30
0.0
 10
3.1306611114
 20
5.607702146
 30
0.0
 10
3.1303262877
 20
5.6076878512
 30
0.0
 10
3.1300481796
 20
5.607662618
 30
0.0
 10
3.1298273833
 20
5.6076265986
 30
0.0
 10
3.1296797279
 20
5.6075854221
 30
0.0
 10
3.1295926746
 20
5.6075439282
 30
0.0
 10
3.1295472453
 20
5.6075124355
 30
0.0
 10
3.1295158965
 20
5.6074773782
 30
0.0
 10
3.1295049609
 20
5.6074503747
 30
0.0
 10
3.1295025647
 20
5.6074372994
 30
0.0
  0
LINE
  5
475
100
AcDbEntity
  8
0
100
AcDbLine
 62
7
  6
CONTINUOUS
 10
7.2862768067
 20
2.5912992162
 11
7.2844760123
 21
2.5308059516
  0
SPLINE
  5
476
100
AcDbEntity
  8
0
100
AcDbSpline
 62
7
  6
CONTINUOUS
 70
0
 71
3
 72
28
 73
24
 74
0
 42
0.0000001
 43
0.0000001
 44
0.0000000001
 40
0.0
 40
0.0
 40
0.0
 40
0.0
 40
0.1932129226
 40
0.3792896113
 40
0.5510402664
 40
0.6294407147
 40
0.7018307276
 40
0.7675134754
 40
0.8258618871
 40
0.8763257161
 40
0.8984522516
 40
0.918441992
 40
0.9362510488
 40
0.9518478433
 40
0.9652080583
 40
0.9763216698
 40
0.9852048049
 40
0.9888273398
 40
0.9919218787
 40
0.9945163091
 40
0.9966590907
 40
0.9984370046
 40
1.0
 40
1.0
 40
1.0
 40
1.0
 10
3.1776495245
 20
5.8525358682
 30
0.0
 10
3.1760128506
 20
5.8525469813
 30
0.0
 10
3.1727997781
 20
5.8525490558
 30
0.0
 10
3.1681321223
 20
5.8524926942
 30
0.0
 10
3.1644379186
 20
5.8523958253
 30
0.0
 10
3.1617077829
 20
5.8522872919
 30
0.0
 10
3.1598762849
 20
5.8521956984
 30
0.0
 10
3.1582155494
 20
5.8520924623
 30
0.0
 10
3.1567417262
 20
5.8519786567
 30
0.0
 10
3.1556375577
 20
5.8518720913
 30
0.0
 10
3.1548586522
 20
5.8517804637
 30
0.0
 10
3.1543555136
 20
5.8517128894
 30
0.0
 10
3.1539084945
 20
5.8516436082
 30
0.0
 10
3.1535186585
 20
5.8515728464
 30
0.0
 10
3.1531868251
 20
5.8515008922
 30
0.0
 10
3.1529137378
 20
5.8514279384
 30
0.0
 10
3.1527240956
 20
5.8513630954
 30
0.0
 10
3.1526034237
 20
5.8513089791
 30
0.0
 10
3.1525341684
 20
5.8512709919
 30
0.0
 10
3.1524797077
 20
5.8512327804
 30
0.0
 10
3.1524398972
 20
5.8511940803
 30
0.0
 10
3.1524147474
 20
5.8511542927
 30
0.0
 10
3.1524085646
 20
5.8511258495
 30
0.0
 10
3.1524084824
 20
5.8511126095
 30
0.0
  0
SPLINE
  5
477
100
AcDbEntity
  8
0
100
AcDbSpline
 62
7
  6
CONTINUOUS
 70
0
 71
3
 72
23
 73
19
 74
0
 42
0.0000001
 43
0.0000001
 44
0.0000000001
 40
0.0
 40
0.0
 40
0.0
 40
0.0
 40
0.064296776
 40
0.1286461358
 40
0.192945894
 40
0.2571111319
 40
0.3210538038
 40
0.384699019
 40
0.4479836983
 40
0.5108610402
 40
0.5733025215
 40
0.6352996705
 40
0.6968649539
 40
0.7580312581
 40
0.8188520441
 40
0.8793947064
 40
0.9397489427
 40
1.0
 40
1.0
 40
1.0
 40
1.0
 10
3.1805950874
 20
5.9161934055
 30
0.0
 10
3.1797002743
 20
5.9163109042
 30
0.0
 10
3.177896599
 20
5.9164548127
 30
0.0
 10
3.1751845604
 20
5.9163954615
 30
0.0
 10
3.1724940327
 20
5.9160618025
 30
0.0
 10
3.1698569294
 20
5.9154578288
 30
0.0
 10
3.1673039826
 20
5.9145904674
 30
0.0
 10
3.1648651435
 20
5.9134698655
 30
0.0
 10
3.1625690051
 20
5.9121090394
 30
0.0
 10
3.1604425343
 20
5.9105238502
 30
0.0
 10
3.1585107484
 20
5.9087327805
 30
0.0
 10
3.1567964097
 20
5.9067567569
 30
0.0
 10
3.1553197771
 20
5.9046189013
 30
0.0
 10
3.1540983084
 20
5.9023442706
 30
0.0
 10
3.1531465706
 20
5.8999596173
 30
0.0
 10
3.1524757765
 20
5.8974928632
 30
0.0
 10
3.1520940947
 20
5.8949735651
 30
0.0
 10
3.1520353257
 20
5.8932772418
 30
0.0
 10
3.1520550388
 20
5.8924317643
 30
0.0
  0
SPLINE
  5
478
100
AcDbEntity
  8
0
100
AcDbSpline
 62
7
  6
CONTINUOUS
 70
0
 71
3
 72
15
 73
11
 74
0
 42
0.0000001
 43
0.0000001
 44
0.0000000001
 40
0.0
 40
0.0
 40
0.0
 40
0.0
 40
0.2984558566
 40
0.4413641662
 40
0.5767714568
 40
0.7023672787
 40
0.8160134519
 40
0.9157810486
 40
0.9599323344
 40
1.0
 40
1.0
 40
1.0
 40
1.0
 10
3.2049715956
 20
5.8483550037
 30
0.0
 10
3.2092661948
 20
5.8478583635
 30
0.0
 10
3.2156233156
 20
5.8471753783
 30
0.0
 10
3.223941488
 20
5.8463940118
 30
0.0
 10
3.2297717614
 20
5.8459033793
 30
0.0
 10
3.2351843474
 20
5.8455075992
 30
0.0
 10
3.2400863175
 20
5.8452132637
 30
0.0
 10
3.2438138973
 20
5.8450496537
 30
0.0
 10
3.2464780933
 20
5.8449781868
 30
0.0
 10
3.2476979719
 20
5.8449616576
 30
0.0
 10
3.2482783565
 20
5.8449587764
 30
0.0
  0
SPLINE
  5
479
100
AcDbEntity
  8
0
100
AcDbSpline
 62
7
  6
CONTINUOUS
 70
0
 71
3
 72
16
 73
12
 74
0
 42
0.0000001
 43
0.0000001
 44
0.0000000001
 40
0.0
 40
0.0
 40
0.0
 40
0.0
 40
0.0422662235
 40
0.0883378392
 40
0.1909788949
 40
0.3061049989
 40
0.4317975436
 40
0.5660788827
 40
0.7069253286
 40
0.852265648
 40
1.0
 40
1.0
 40
1.0
 40
1.0
 10
3.2214166947
 20
5.6187480263
 30
0.0
 10
3.2208344876
 20
5.6189430474
 30
0.0
 10
3.2196201558
 20
5.6193581228
 30
0.0
 10
3.2170026581
 20
5.6202778243
 30
0.0
 10
3.2133990736
 20
5.6215836077
 30
0.0
 10
3.2087217442
 20
5.6233206677
 30
0.0
 10
3.2036233054
 20
5.6252438414
 30
0.0
 10
3.1981819793
 20
5.6273165503
 30
0.0
 10
3.1924790822
 20
5.6295043533
 30
0.0
 10
3.186597927
 20
5.6317730596
 30
0.0
 10
3.1826268841
 20
5.6333084011
 30
0.0
 10
3.1806282724
 20
5.6340903616
 30
0.0
  0
SPLINE
  5
47A
100
AcDbEntity
  8
0
100
AcDbSpline
 62
7
  6
CONTINUOUS
 70
0
 71
3
 72
23
 73
19
 74
0
 42
0.0000001
 43
0.0000001
 44
0.0000000001
 40
0.0
 40
0.0
 40
0.0
 40
0.0
 40
0.0620072789
 40
0.1240571233
 40
0.1861513597
 40
0.24830955
 40
0.3105384592
 40
0.3728462542
 40
0.4352376039
 40
0.4977145638
 40
0.5602764702
 40
0.6229199143
 40
0.6856388018
 40
0.7484244991
 40
0.8112671611
 40
0.874151339
 40
0.9370711336
 40
1.0
 40
1.0
 40
1.0
 40
1.0
 10
3.1776064405
 20
5.9216148861
 30
0.0
 10
3.1790865153
 20
5.9215822688
 30
0.0
 10
3.182052452
 20
5.9216526989
 30
0.0
 10
3.186473252
 20
5.9221641367
 30
0.0
 10
3.1908328611
 20
5.9230774711
 30
0.0
 10
3.1950952372
 20
5.924384966
 30
0.0
 10
3.1992259487
 20
5.9260761729
 30
0.0
 10
3.2031913448
 20
5.928137248
 30
0.0
 10
3.2069592186
 20
5.9305514333
 30
0.0
 10
3.2104989628
 20
5.9332990635
 30
0.0
 10
3.2137818341
 20
5.9363577838
 30
0.0
 10
3.2167811712
 20
5.9397027284
 30
0.0
 10
3.219472604
 20
5.9433067107
 30
0.0
 10
3.2218343068
 20
5.9471404518
 30
0.0
 10
3.2238470281
 20
5.9511727358
 30
0.0
 10
3.2254946687
 20
5.9553709832
 30
0.0
 10
3.2267634736
 20
5.9597005734
 30
0.0
 10
3.2273502745
 20
5.9626521386
 30
0.0
 10
3.227577534
 20
5.9641372887
 30
0.0
  0
SPLINE
  5
47B
100
AcDbEntity
  8
0
100
AcDbSpline
 62
7
  6
CONTINUOUS
 70
0
 71
3
 72
17
 73
13
 74
0
 42
0.0000001
 43
0.0000001
 44
0.0000000001
 40
0.0
 40
0.0
 40
0.0
 40
0.0
 40
0.0588158008
 40
0.093845165
 40
0.1332967803
 40
0.1774912428
 40
0.2266355074
 40
0.3402149188
 40
0.4745480123
 40
0.6295293111
 40
0.8048233193
 40
1.0
 40
1.0
 40
1.0
 40
1.0
 10
3.1776064928
 20
5.9216148849
 30
0.0
 10
3.1777267438
 20
5.9215844424
 30
0.0
 10
3.1779066387
 20
5.9214891601
 30
0.0
 10
3.178123932
 20
5.9213111017
 30
0.0
 10
3.1782996577
 20
5.9211320238
 30
0.0
 10
3.1784780799
 20
5.920915895
 30
0.0
 10
3.1787323848
 20
5.9205608912
 30
0.0
 10
3.1790527996
 20
5.9200213387
 30
0.0
 10
3.1794314603
 20
5.9192601368
 30
0.0
 10
3.1798189159
 20
5.9183596744
 30
0.0
 10
3.1802133089
 20
5.9173237752
 30
0.0
 10
3.1804666749
 20
5.9165845131
 30
0.0
 10
3.1805950618
 20
5.9161934128
 30
0.0
  0
SPLINE
  5
47C
100
AcDbEntity
  8
0
100
AcDbSpline
 62
7
  6
CONTINUOUS
 70
0
 71
3
 72
23
 73
19
 74
0
 42
0.0000001
 43
0.0000001
 44
0.0000000001
 40
0.0
 40
0.0
 40
0.0
 40
0.0
 40
0.0620687962
 40
0.1241795712
 40
0.1863368748
 40
0.2485544674
 40
0.3108376319
 40
0.3731919264
 40
0.435619595
 40
0.4981205712
 40
0.5606921974
 40
0.6233293857
 40
0.6860248635
 40
0.7487691332
 40
0.8115518913
 40
0.874358927
 40
0.9371816621
 40
1.0
 40
1.0
 40
1.0
 40
1.0
 10
3.0401671515
 20
5.2433731805
 30
0.0
 10
3.0416142334
 20
5.242868891
 30
0.0
 10
3.0444636231
 20
5.2417227454
 30
0.0
 10
3.0485572899
 20
5.239609413
 30
0.0
 10
3.0524379881
 20
5.2371190293
 30
0.0
 10
3.0560716122
 20
5.2342735645
 30
0.0
 10
3.0594268303
 20
5.2310974975
 30
0.0
 10
3.0624745718
 20
5.2276184433
 30
0.0
 10
3.0651884566
 20
5.2238665167
 30
0.0
 10
3.0675450027
 20
5.2198742354
 30
0.0
 10
3.069523818
 20
5.2156761779
 30
0.0
 10
3.0711077995
 20
5.2113087067
 30
0.0
 10
3.0722832469
 20
5.2068096455
 30
0.0
 10
3.0730400332
 20
5.2022179277
 30
0.0
 10
3.0733715659
 20
5.1975733672
 30
0.0
 10
3.0732750708
 20
5.1929159527
 30
0.0
 10
3.0727513467
 20
5.1882865961
 30
0.0
 10
3.0721201413
 20
5.1852442284
 30
0.0
 10
3.0717356242
 20
5.1837417105
 30
0.0
  0
LINE
  5
47D
100
AcDbEntity
  8
0
100
AcDbLine
 62
7
  6
CONTINUOUS
 10
3.0401671515
 20
5.2433731805
 11
3.0381665261
 21
5.2429902598
  0
SPLINE
  5
47E
100
AcDbEntity
  8
0
100
AcDbSpline
 62
7
  6
CONTINUOUS
 70
0
 71
3
 72
17
 73
13
 74
0
 42
0.0000001
 43
0.0000001
 44
0.0000000001
 40
0.0
 40
0.0
 40
0.0
 40
0.0
 40
0.152448178
 40
0.3022539089
 40
0.4466463463
 40
0.582942377
 40
0.7086179858
 40
0.8213516361
 40
0.8722064237
 40
0.9190699156
 40
0.9617359278
 40
1.0
 40
1.0
 40
1.0
 40
1.0
 10
3.0941451174
 20
5.3046011618
 30
0.0
 10
3.096316824
 20
5.3039346496
 30
0.0
 10
3.1006169523
 20
5.3025947112
 30
0.0
 10
3.1069538431
 20
5.3005594211
 30
0.0
 10
3.1130433293
 20
5.2985417655
 30
0.0
 10
3.1187720742
 20
5.2965795006
 30
0.0
 10
3.1240333425
 20
5.2947094
 30
0.0
 10
3.1280747831
 20
5.2932099685
 30
0.0
 10
3.1309997185
 20
5.2920787538
 30
0.0
 10
3.132942842
 20
5.2913037824
 30
0.0
 10
3.1347028086
 20
5.290576417
 30
0.0
 10
3.1358103274
 20
5.2900989928
 30
0.0
 10
3.1363316178
 20
5.2898679757
 30
0.0
  0
SPLINE
  5
47F
100
AcDbEntity
  8
0
100
AcDbSpline
 62
7
  6
CONTINUOUS
 70
0
 71
3
 72
19
 73
15
 74
0
 42
0.0000001
 43
0.0000001
 44
0.0000000001
 40
0.0
 40
0.0
 40
0.0
 40
0.0
 40
0.2008678635
 40
0.3817332723
 40
0.5415106183
 40
0.679245853
 40
0.7395650981
 40
0.7940413316
 40
0.842604086
 40
0.8852438971
 40
0.9220165926
 40
0.9530853748
 40
0.978819951
 40
1.0
 40
1.0
 40
1.0
 40
1.0
 10
3.0479383711
 20
5.2518262353
 30
0.0
 10
3.047493357
 20
5.2511858531
 30
0.0
 10
3.0466355853
 20
5.2499771547
 30
0.0
 10
3.0453768343
 20
5.2482930146
 30
0.0
 10
3.0442197119
 20
5.2468399505
 30
0.0
 10
3.0433119641
 20
5.2457875436
 30
0.0
 10
3.0426399311
 20
5.2450735122
 30
0.0
 10
3.0421894672
 20
5.2446268659
 30
0.0
 10
3.0417709381
 20
5.2442461547
 30
0.0
 10
3.0413853439
 20
5.2439323238
 30
0.0
 10
3.041033592
 20
5.2436860657
 30
0.0
 10
3.0407159173
 20
5.2435079457
 30
0.0
 10
3.0404323575
 20
5.2433984981
 30
0.0
 10
3.0402495227
 20
5.2433709402
 30
0.0
 10
3.0401673248
 20
5.2433731201
 30
0.0
  0
SPLINE
  5
480
100
AcDbEntity
  8
0
100
AcDbSpline
 62
7
  6
CONTINUOUS
 70
0
 71
3
 72
16
 73
12
 74
0
 42
0.0000001
 43
0.0000001
 44
0.0000000001
 40
0.0
 40
0.0
 40
0.0
 40
0.0
 40
0.1475876201
 40
0.2928711274
 40
0.4337405661
 40
0.5681095143
 40
0.6939260759
 40
0.8091626404
 40
0.9118281716
 40
0.9578482846
 40
1.0
 40
1.0
 40
1.0
 40
1.0
 10
3.1593321622
 20
5.5126851184
 30
0.0
 10
3.1615184775
 20
5.5126381347
 30
0.0
 10
3.1658567666
 20
5.512535373
 30
0.0
 10
3.1722816535
 20
5.5123796482
 30
0.0
 10
3.1785106383
 20
5.5122245065
 30
0.0
 10
3.1844510008
 20
5.5120661844
 30
0.0
 10
3.1900113633
 20
5.5119056896
 30
0.0
 10
3.19510143
 20
5.5117349267
 30
0.0
 10
3.1990088472
 20
5.5115763201
 30
0.0
 10
3.2018329715
 20
5.5114346267
 30
0.0
 10
3.2031371917
 20
5.511357827
 30
0.0
 10
3.2037604331
 20
5.5113171706
 30
0.0
  0
SPLINE
  5
481
100
AcDbEntity
  8
0
100
AcDbSpline
 62
7
  6
CONTINUOUS
 70
0
 71
3
 72
11
 73
7
 74
0
 42
0.0000001
 43
0.0000001
 44
0.0000000001
 40
0.0
 40
0.0
 40
0.0
 40
0.0
 40
0.2500175556
 40
0.5000023966
 40
0.7499809566
 40
1.0
 40
1.0
 40
1.0
 40
1.0
 10
3.1476148583
 20
5.5767413081
 30
0.0
 10
3.1472382124
 20
5.5747658405
 30
0.0
 10
3.1465293928
 20
5.5708065525
 30
0.0
 10
3.1455961476
 20
5.5648461585
 30
0.0
 10
3.1447841057
 20
5.5588680969
 30
0.0
 10
3.1443146495
 20
5.5548735724
 30
0.0
 10
3.1440950489
 20
5.5528745331
 30
0.0
  0
SPLINE
  5
482
100
AcDbEntity
  8
0
100
AcDbSpline
 62
7
  6
CONTINUOUS
 70
0
 71
3
 72
17
 73
13
 74
0
 42
0.0000001
 43
0.0000001
 44
0.0000000001
 40
0.0
 40
0.0
 40
0.0
 40
0.0
 40
0.1498685802
 40
0.2969997554
 40
0.4391879592
 40
0.5742184619
 40
0.6999015986
 40
0.758566208
 40
0.8140948629
 40
0.8662373897
 40
0.9147546573
 40
1.0
 40
1.0
 40
1.0
 40
1.0
 10
3.159332018
 20
5.5126850817
 30
0.0
 10
3.1613995344
 20
5.5133431137
 30
0.0
 10
3.1654870488
 20
5.5146779384
 30
0.0
 10
3.1715051578
 20
5.5167304292
 30
0.0
 10
3.1772902173
 20
5.518798852
 30
0.0
 10
3.1827531745
 20
5.520843859
 30
0.0
 10
3.1870601186
 20
5.5225263646
 30
0.0
 10
3.1902827734
 20
5.5238205262
 30
0.0
 10
3.1925121568
 20
5.5247309675
 30
0.0
 10
3.1946015344
 20
5.525595583
 30
0.0
 10
3.1970855998
 20
5.5266315302
 30
0.0
 10
3.1988710614
 20
5.527381399
 30
0.0
 10
3.2000100176
 20
5.5278566441
 30
0.0
  0
LINE
  5
483
100
AcDbEntity
  8
0
100
AcDbLine
 62
7
  6
CONTINUOUS
 10
3.2000100176
 20
5.5278566441
 11
3.2030853374
 21
5.5287988664
  0
SPLINE
  5
484
100
AcDbEntity
  8
0
100
AcDbSpline
 62
7
  6
CONTINUOUS
 70
0
 71
3
 72
9
 73
5
 74
0
 42
0.0000001
 43
0.0000001
 44
0.0000000001
 40
0.0
 40
0.0
 40
0.0
 40
0.0
 40
0.4745571638
 40
1.0
 40
1.0
 40
1.0
 40
1.0
 10
3.2157390043
 20
5.6038448409
 30
0.0
 10
3.2152279133
 20
5.6041149815
 30
0.0
 10
3.214195962
 20
5.6047712005
 30
0.0
 10
3.2132588143
 20
5.6055542506
 30
0.0
 10
3.2127898094
 20
5.6059898372
 30
0.0
  0
SPLINE
  5
485
100
AcDbEntity
  8
0
100
AcDbSpline
 62
7
  6
CONTINUOUS
 70
0
 71
3
 72
15
 73
11
 74
0
 42
0.0000001
 43
0.0000001
 44
0.0000000001
 40
0.0
 40
0.0
 40
0.0
 40
0.0
 40
0.0858183202
 40
0.186728572
 40
0.3009461274
 40
0.426508977
 40
0.5613482878
 40
0.7033290899
 40
0.8502732306
 40
1.0
 40
1.0
 40
1.0
 40
1.0
 10
3.2127898094
 20
5.6059898372
 30
0.0
 10
3.2118945676
 20
5.6068216786
 30
0.0
 10
3.2099515876
 20
5.6086369524
 30
0.0
 10
3.2068145235
 20
5.6115565911
 30
0.0
 10
3.2032375564
 20
5.6148341663
 30
0.0
 10
3.1992670141
 20
5.6183970198
 30
0.0
 10
3.194956158
 20
5.6221719953
 30
0.0
 10
3.1903664078
 20
5.6260899649
 30
0.0
 10
3.185564008
 20
5.6300844603
 30
0.0
 10
3.1822902177
 20
5.6327547583
 30
0.0
 10
3.1806282741
 20
5.6340903659
 30
0.0
  0
SPLINE
  5
486
100
AcDbEntity
  8
0
100
AcDbSpline
 62
7
  6
CONTINUOUS
 70
0
 71
3
 72
11
 73
7
 74
0
 42
0.0000001
 43
0.0000001
 44
0.0000000001
 40
0.0
 40
0.0
 40
0.0
 40
0.0
 40
0.2500047555
 40
0.4999769022
 40
0.7499662399
 40
1.0
 40
1.0
 40
1.0
 40
1.0
 10
3.1543353033
 20
5.6045105506
 30
0.0
 10
3.1536668016
 20
5.6022240812
 30
0.0
 10
3.15236893
 20
5.5976398521
 30
0.0
 10
3.1505723996
 20
5.5907225451
 30
0.0
 10
3.1489520651
 20
5.5837614671
 30
0.0
 10
3.147994262
 20
5.5790935503
 30
0.0
 10
3.1475463763
 20
5.5767535606
 30
0.0
  0
LINE
  5
487
100
AcDbEntity
  8
0
100
AcDbLine
 62
7
  6
CONTINUOUS
 10
2.9532638966
 20
5.3380591445
 11
2.9612870867
 21
5.3632398432
  0
SPLINE
  5
488
100
AcDbEntity
  8
0
100
AcDbSpline
 62
7
  6
CONTINUOUS
 70
0
 71
3
 72
13
 73
9
 74
0
 42
0.0000001
 43
0.0000001
 44
0.0000000001
 40
0.0
 40
0.0
 40
0.0
 40
0.0
 40
0.2648932281
 40
0.5175000568
 40
0.6402593613
 40
0.7612086208
 40
0.8809364442
 40
1.0
 40
1.0
 40
1.0
 40
1.0
 10
3.0348800972
 20
5.7549000304
 30
0.0
 10
3.0344895907
 20
5.7557188543
 30
0.0
 10
3.0338486055
 20
5.7573810954
 30
0.0
 10
3.033427403
 20
5.7595464502
 30
0.0
 10
3.0333471361
 20
5.761246678
 30
0.0
 10
3.03341165
 20
5.7624918375
 30
0.0
 10
3.0336002258
 20
5.763711381
 30
0.0
 10
3.0338081595
 20
5.7645040778
 30
0.0
 10
3.0339319485
 20
5.7648925884
 30
0.0
  0
SPLINE
  5
489
100
AcDbEntity
  8
0
100
AcDbSpline
 62
7
  6
CONTINUOUS
 70
0
 71
3
 72
28
 73
24
 74
0
 42
0.0000001
 43
0.0000001
 44
0.0000000001
 40
0.0
 40
0.0
 40
0.0
 40
0.0
 40
0.0021448025
 40
0.0044230286
 40
0.0069338763
 40
0.0097563174
 40
0.016551365
 40
0.0251434909
 40
0.0357283083
 40
0.0484425593
 40
0.0633934524
 40
0.0806722651
 40
0.1003440618
 40
0.1223991056
 40
0.1735274821
 40
0.2336919031
 40
0.3021493781
 40
0.3779767909
 40
0.4599277947
 40
0.5466285091
 40
0.6365304898
 40
0.8200279745
 40
1.0
 40
1.0
 40
1.0
 40
1.0
 10
2.9217228999
 20
5.3997571452
 30
0.0
 10
2.9217164492
 20
5.3997369039
 30
0.0
 10
2.9217081751
 20
5.3996934025
 30
0.0
 10
2.921710816
 20
5.3996242942
 30
0.0
 10
2.9217281428
 20
5.3995505226
 30
0.0
 10
2.9217737121
 20
5.3994389562
 30
0.0
 10
2.9218734677
 20
5.3992870058
 30
0.0
 10
2.9220457958
 20
5.3990953802
 30
0.0
 10
2.922280291
 20
5.3988830801
 30
0.0
 10
2.9225791354
 20
5.3986498431
 30
0.0
 10
2.9229446108
 20
5.3983953648
 30
0.0
 10
2.9233786276
 20
5.3981196233
 30
0.0
 10
2.9238822798
 20
5.3978229385
 30
0.0
 10
2.9246871069
 20
5.3973776083
 30
0.0
 10
2.925864389
 20
5.3967780093
 30
0.0
 10
2.9274757585
 20
5.3960203232
 30
0.0
 10
2.9293288084
 20
5.3952031285
 30
0.0
 10
2.9313967256
 20
5.394339571
 30
0.0
 10
2.933646166
 20
5.3934426571
 30
0.0
 10
2.9360382053
 20
5.3925277058
 30
0.0
 10
2.9393850428
 20
5.3912943151
 30
0.0
 10
2.9436243976
 20
5.3898121663
 30
0.0
 10
2.9470439872
 20
5.3886856265
 30
0.0
 10
2.9487420207
 20
5.3881430077
 30
0.0
  0
SPLINE
  5
48A
100
AcDbEntity
  8
0
100
AcDbSpline
 62
7
  6
CONTINUOUS
 70
0
 71
3
 72
28
 73
24
 74
0
 42
0.0000001
 43
0.0000001
 44
0.0000000001
 40
0.0
 40
0.0
 40
0.0
 40
0.0
 40
0.0021415272
 40
0.0044166307
 40
0.0069246107
 40
0.0097444746
 40
0.0165351999
 40
0.0251239185
 40
0.0357060544
 40
0.0484182296
 40
0.0633675849
 40
0.0806453634
 40
0.1003164836
 40
0.1223710771
 40
0.1734993156
 40
0.2336644872
 40
0.3021234632
 40
0.3779530535
 40
0.4599067383
 40
0.5466105502
 40
0.6365158664
 40
0.820020587
 40
1.0
 40
1.0
 40
1.0
 40
1.0
 10
3.0670858146
 20
5.8559771035
 30
0.0
 10
3.067092254
 20
5.8559973134
 30
0.0
 10
3.0671106544
 20
5.8560375197
 30
0.0
 10
3.0671527622
 20
5.8560922633
 30
0.0
 10
3.0672095442
 20
5.8561423129
 30
0.0
 10
3.0673112227
 20
5.8562068152
 30
0.0
 10
3.0674804464
 20
5.856272869
 30
0.0
 10
3.0677317953
 20
5.8563292761
 30
0.0
 10
3.068045814
 20
5.8563665823
 30
0.0
 10
3.0684244346
 20
5.8563837394
 30
0.0
 10
3.0688696955
 20
5.8563796749
 30
0.0
 10
3.0693831673
 20
5.8563533022
 30
0.0
 10
3.069965556
 20
5.8563037291
 30
0.0
 10
3.0708795791
 20
5.8562010905
 30
0.0
 10
3.0721866291
 20
5.8560087606
 30
0.0
 10
3.0739391926
 20
5.8556942235
 30
0.0
 10
3.0759233237
 20
5.8552884346
 30
0.0
 10
3.0781095482
 20
5.85479619
 30
0.0
 10
3.0804631451
 20
5.8542261746
 30
0.0
 10
3.082943503
 20
5.8535884155
 30
0.0
 10
3.0863868793
 20
5.8526580097
 30
0.0
 10
3.0907021808
 20
5.8514142237
 30
0.0
 10
3.0941431411
 20
5.8503547645
 30
0.0
 10
3.09584209
 20
5.8498150185
 30
0.0
  0
SPLINE
  5
48B
100
AcDbEntity
  8
0
100
AcDbSpline
 62
7
  6
CONTINUOUS
 70
0
 71
3
 72
34
 73
30
 74
0
 42
0.0000001
 43
0.0000001
 44
0.0000000001
 40
0.0
 40
0.0
 40
0.0
 40
0.0
 40
0.0001319649
 40
0.000359274
 40
0.0011803056
 40
0.002521715
 40
0.0043974865
 40
0.0068168633
 40
0.0097877423
 40
0.0133174948
 40
0.0174132452
 40
0.027330596
 40
0.0395950404
 40
0.0542612111
 40
0.0713834914
 40
0.0909946234
 40
0.1130417878
 40
0.1374508746
 40
0.1641477349
 40
0.1930581952
 40
0.224108066
 40
0.2923292183
 40
0.3680878064
 40
0.4501426018
 40
0.5371231419
 40
0.6276589144
 40
0.7204115449
 40
0.8141711517
 40
1.0
 40
1.0
 40
1.0
 40
1.0
 10
3.1205466513
 20
5.8898087073
 30
0.0
 10
3.1205478042
 20
5.8898085517
 30
0.0
 10
3.1205503025
 20
5.8898059608
 30
0.0
 10
3.1205533873
 20
5.8897961368
 30
0.0
 10
3.1205558131
 20
5.8897749511
 30
0.0
 10
3.1205568342
 20
5.8897394691
 30
0.0
 10
3.1205561927
 20
5.8896897232
 30
0.0
 10
3.1205537131
 20
5.889625733
 30
0.0
 10
3.1205493538
 20
5.8895472089
 30
0.0
 10
3.1205430605
 20
5.8894540087
 30
0.0
 10
3.1205312621
 20
5.8892998062
 30
0.0
 10
3.1205111147
 20
5.889069027
 30
0.0
 10
3.1204800828
 20
5.8887456738
 30
0.0
 10
3.1204405672
 20
5.8883593352
 30
0.0
 10
3.120392352
 20
5.8879087889
 30
0.0
 10
3.1203353235
 20
5.8873937503
 30
0.0
 10
3.1202695773
 20
5.8868150496
 30
0.0
 10
3.1201953005
 20
5.8861744532
 30
0.0
 10
3.1201127072
 20
5.8854739132
 30
0.0
 10
3.1200220127
 20
5.8847153815
 30
0.0
 10
3.1198862473
 20
5.8835935715
 30
0.0
 10
3.119697866
 20
5.8820621237
 30
0.0
 10
3.1194505043
 20
5.8800849084
 30
0.0
 10
3.1191791212
 20
5.8779440372
 30
0.0
 10
3.1188882478
 20
5.875674327
 30
0.0
 10
3.1185825352
 20
5.8733114414
 30
0.0
 10
3.1182664561
 20
5.8708896389
 30
0.0
 10
3.1178384503
 20
5.8676352572
 30
0.0
 10
3.1175138238
 20
5.8651919904
 30
0.0
 10
3.1172967341
 20
5.8635682476
 30
0.0
  0
SPLINE
  5
48C
100
AcDbEntity
  8
0
100
AcDbSpline
 62
7
  6
CONTINUOUS
 70
0
 71
3
 72
13
 73
9
 74
0
 42
0.0000001
 43
0.0000001
 44
0.0000000001
 40
0.0
 40
0.0
 40
0.0
 40
0.0
 40
0.2648932281
 40
0.5175000568
 40
0.6402593613
 40
0.7612086208
 40
0.8809364442
 40
1.0
 40
1.0
 40
1.0
 40
1.0
 10
3.0616149567
 20
5.8388071041
 30
0.0
 10
3.0608227285
 20
5.8383651286
 30
0.0
 10
3.0593382609
 20
5.8373801092
 30
0.0
 10
3.0577420036
 20
5.8358575667
 30
0.0
 10
3.0566929212
 20
5.8345171774
 30
0.0
 10
3.056025197
 20
5.8334642155
 30
0.0
 10
3.0554734857
 20
5.8323603759
 30
0.0
 10
3.0551845023
 20
5.8315935036
 30
0.0
 10
3.0550607132
 20
5.8312049929
 30
0.0
  0
SPLINE
  5
48D
100
AcDbEntity
  8
0
100
AcDbSpline
 62
7
  6
CONTINUOUS
 70
0
 71
3
 72
21
 73
17
 74
0
 42
0.0000001
 43
0.0000001
 44
0.0000000001
 40
0.0
 40
0.0
 40
0.0
 40
0.0
 40
0.0425866041
 40
0.0887431159
 40
0.1382128705
 40
0.1907706311
 40
0.2462053293
 40
0.3043244143
 40
0.3649590882
 40
0.4279614118
 40
0.4932001485
 40
0.5605545997
 40
0.7010372779
 40
0.7739187161
 40
0.848262201
 40
1.0
 40
1.0
 40
1.0
 40
1.0
 10
3.1805950875
 20
5.9161933903
 30
0.0
 10
3.1813405081
 20
5.9154506969
 30
0.0
 10
3.1828426955
 20
5.9138512676
 30
0.0
 10
3.1850427343
 20
5.9112375107
 30
0.0
 10
3.1872620124
 20
5.9083236012
 30
0.0
 10
3.1894779595
 20
5.9051241262
 30
0.0
 10
3.1916671484
 20
5.9016508176
 30
0.0
 10
3.1938045528
 20
5.8979135741
 30
0.0
 10
3.195863185
 20
5.8939205985
 30
0.0
 10
3.1978134589
 20
5.8896790153
 30
0.0
 10
3.1996235998
 20
5.8851956695
 30
0.0
 10
3.2018348018
 20
5.8788188008
 30
0.0
 10
3.2035662324
 20
5.8720831765
 30
0.0
 10
3.2046982569
 20
5.8650603947
 30
0.0
 10
3.2053836545
 20
5.8577015051
 30
0.0
 10
3.2053073471
 20
5.8520891755
 30
0.0
 10
3.2049715956
 20
5.8483550038
 30
0.0
  0
SPLINE
  5
48E
100
AcDbEntity
  8
0
100
AcDbSpline
 62
7
  6
CONTINUOUS
 70
0
 71
3
 72
10
 73
6
 74
0
 42
0.0000001
 43
0.0000001
 44
0.0000000001
 40
0.0
 40
0.0
 40
0.0
 40
0.0
 40
0.2499901645
 40
0.6249693044
 40
1.0
 40
1.0
 40
1.0
 40
1.0
 10
3.1543349378
 20
5.6045099103
 30
0.0
 10
3.1551232933
 20
5.6059369777
 30
0.0
 10
3.1571963646
 20
5.6094489587
 30
0.0
 10
3.1608977738
 20
5.6148272578
 30
0.0
 10
3.1639929755
 20
5.6186227668
 30
0.0
 10
3.1656144333
 20
5.6204538546
 30
0.0
  0
SPLINE
  5
48F
100
AcDbEntity
  8
0
100
AcDbSpline
 62
7
  6
CONTINUOUS
 70
0
 71
3
 72
9
 73
5
 74
0
 42
0.0000001
 43
0.0000001
 44
0.0000000001
 40
0.0
 40
0.0
 40
0.0
 40
0.0
 40
0.4999377392
 40
1.0
 40
1.0
 40
1.0
 40
1.0
 10
3.1656144333
 20
5.6204538546
 30
0.0
 10
3.167858632
 20
5.6229876774
 30
0.0
 10
3.1726362152
 20
5.6278064152
 30
0.0
 10
3.1778961563
 20
5.6320908693
 30
0.0
 10
3.1806282691
 20
5.6340903577
 30
0.0
  0
SPLINE
  5
490
100
AcDbEntity
  8
0
100
AcDbSpline
 62
7
  6
CONTINUOUS
 70
0
 71
3
 72
9
 73
5
 74
0
 42
0.0000001
 43
0.0000001
 44
0.0000000001
 40
0.0
 40
0.0
 40
0.0
 40
0.0
 40
0.500058775
 40
1.0
 40
1.0
 40
1.0
 40
1.0
 10
3.1593320601
 20
5.5126847968
 30
0.0
 10
3.1574625248
 20
5.5154320833
 30
0.0
 10
3.1540062521
 20
5.5211236729
 30
0.0
 10
3.1511712611
 20
5.5271502738
 30
0.0
 10
3.1499257567
 20
5.5302302532
 30
0.0
  0
SPLINE
  5
491
100
AcDbEntity
  8
0
100
AcDbSpline
 62
7
  6
CONTINUOUS
 70
0
 71
3
 72
19
 73
15
 74
0
 42
0.0000001
 43
0.0000001
 44
0.0000000001
 40
0.0
 40
0.0
 40
0.0
 40
0.0
 40
0.1440606034
 40
0.2849444874
 40
0.3537567122
 40
0.4212864579
 40
0.5520278057
 40
0.6150466782
 40
0.676341668
 40
0.7932464451
 40
0.848583785
 40
0.9016174473
 40
0.9521630951
 40
1.0
 40
1.0
 40
1.0
 40
1.0
 10
3.0941451174
 20
5.3046011618
 30
0.0
 10
3.0928274129
 20
5.3014486007
 30
0.0
 10
3.0898520931
 20
5.2953623965
 30
0.0
 10
3.0854156307
 20
5.288226007
 30
0.0
 10
3.0815724077
 20
5.2828886085
 30
0.0
 10
3.0776600988
 20
5.277904515
 30
0.0
 10
3.0735565243
 20
5.2732517135
 30
0.0
 10
3.0693238461
 20
5.2689284578
 30
0.0
 10
3.0651897617
 20
5.2649722492
 30
0.0
 10
3.06101253
 20
5.2613282811
 30
0.0
 10
3.0568275043
 20
5.2580054151
 30
0.0
 10
3.0538051517
 20
5.2557521237
 30
0.0
 10
3.0508592968
 20
5.2536969571
 30
0.0
 10
3.0489016142
 20
5.2524260604
 30
0.0
 10
3.0479385225
 20
5.2518262347
 30
0.0
  0
SPLINE
  5
492
100
AcDbEntity
  8
0
100
AcDbSpline
 62
7
  6
CONTINUOUS
 70
0
 71
3
 72
11
 73
7
 74
0
 42
0.0000001
 43
0.0000001
 44
0.0000000001
 40
0.0
 40
0.0
 40
0.0
 40
0.0
 40
0.2516327468
 40
0.5022162655
 40
0.7517072298
 40
1.0
 40
1.0
 40
1.0
 40
1.0
 10
3.1986756785
 20
5.5931355604
 30
0.0
 10
3.1998967337
 20
5.594318309
 30
0.0
 10
3.2024761977
 20
5.5965357495
 30
0.0
 10
3.2066682077
 20
5.5994168796
 30
0.0
 10
3.211098835
 20
5.6018669243
 30
0.0
 10
3.2141789218
 20
5.6032281933
 30
0.0
 10
3.2157388495
 20
5.6038448692
 30
0.0
  0
SPLINE
  5
493
100
AcDbEntity
  8
0
100
AcDbSpline
 62
7
  6
CONTINUOUS
 70
0
 71
3
 72
14
 73
10
 74
0
 42
0.0000001
 43
0.0000001
 44
0.0000000001
 40
0.0
 40
0.0
 40
0.0
 40
0.0
 40
0.1246879494
 40
0.2496387863
 40
0.3747702382
 40
0.500000492
 40
0.625241887
 40
0.7504008513
 40
1.0
 40
1.0
 40
1.0
 40
1.0
 10
3.1871425914
 20
5.5700686782
 30
0.0
 10
3.1872552975
 20
5.5711566657
 30
0.0
 10
3.1875807573
 20
5.5733259424
 30
0.0
 10
3.1883665575
 20
5.5765228612
 30
0.0
 10
3.1894454532
 20
5.5796384659
 30
0.0
 10
3.1908050791
 20
5.5826446259
 30
0.0
 10
3.1924269562
 20
5.5855182109
 30
0.0
 10
3.1949078905
 20
5.5891401833
 30
0.0
 10
3.1971030421
 20
5.5916120563
 30
0.0
 10
3.1986756785
 20
5.5931355604
 30
0.0
  0
SPLINE
  5
494
100
AcDbEntity
  8
0
100
AcDbSpline
 62
7
  6
CONTINUOUS
 70
0
 71
3
 72
15
 73
11
 74
0
 42
0.0000001
 43
0.0000001
 44
0.0000000001
 40
0.0
 40
0.0
 40
0.0
 40
0.0
 40
0.1248853569
 40
0.2499758081
 40
0.3751646149
 40
0.5003938571
 40
0.6255749251
 40
0.7506147658
 40
0.8754580527
 40
1.0
 40
1.0
 40
1.0
 40
1.0
 10
3.1901566752
 20
5.5448960969
 30
0.0
 10
3.1896820272
 20
5.5458627179
 30
0.0
 10
3.188804973
 20
5.5478345375
 30
0.0
 10
3.1877303532
 20
5.5508895343
 30
0.0
 10
3.1869144039
 20
5.5540270889
 30
0.0
 10
3.1863722044
 20
5.557224329
 30
0.0
 10
3.186115769
 20
5.5604559527
 30
0.0
 10
3.1861513274
 20
5.5636943663
 30
0.0
 10
3.1864796225
 20
5.5669104913
 30
0.0
 10
3.1868907371
 20
5.5690247206
 30
0.0
 10
3.1871425914
 20
5.5700686782
 30
0.0
  0
SPLINE
  5
495
100
AcDbEntity
  8
0
100
AcDbSpline
 62
7
  6
CONTINUOUS
 70
0
 71
3
 72
11
 73
7
 74
0
 42
0.0000001
 43
0.0000001
 44
0.0000000001
 40
0.0
 40
0.0
 40
0.0
 40
0.0
 40
0.2482883185
 40
0.4977733505
 40
0.748381517
 40
1.0
 40
1.0
 40
1.0
 40
1.0
 10
3.2030855311
 20
5.5287986873
 30
0.0
 10
3.2017701712
 20
5.5299073366
 30
0.0
 10
3.1992245839
 20
5.5322418154
 30
0.0
 10
3.1957397307
 20
5.5360923209
 30
0.0
 10
3.1926557194
 20
5.540301127
 30
0.0
 10
3.1909250785
 20
5.5433312499
 30
0.0
 10
3.1901566752
 20
5.5448960969
 30
0.0
  0
SPLINE
  5
496
100
AcDbEntity
  8
0
100
AcDbSpline
 62
7
  6
CONTINUOUS
 70
0
 71
3
 72
35
 73
31
 74
0
 42
0.0000001
 43
0.0000001
 44
0.0000000001
 40
0.0
 40
0.0
 40
0.0
 40
0.0
 40
0.0039551353
 40
0.0081920116
 40
0.0127845279
 40
0.0177876762
 40
0.0232410162
 40
0.0291726342
 40
0.0356020451
 40
0.0425404221
 40
0.0499926662
 40
0.0579600578
 40
0.0754276888
 40
0.0949027551
 40
0.1163208482
 40
0.1396054699
 40
0.1646676879
 40
0.1914123053
 40
0.2197512365
 40
0.2495975595
 40
0.2808595021
 40
0.3472754768
 40
0.4183619964
 40
0.4935175582
 40
0.5721805681
 40
0.6538304906
 40
0.737948906
 40
0.8240280017
 40
0.9115559851
 40
1.0
 40
1.0
 40
1.0
 40
1.0
 10
3.227577534
 20
5.9641372887
 30
0.0
 10
3.2277394607
 20
5.9641124695
 30
0.0
 10
3.2280707809
 20
5.9640316608
 30
0.0
 10
3.2285623048
 20
5.9638305917
 30
0.0
 10
3.2290622344
 20
5.9635480929
 30
0.0
 10
3.2295703788
 20
5.9631854761
 30
0.0
 10
3.2300866363
 20
5.9627436458
 30
0.0
 10
3.2306106591
 20
5.962223398
 30
0.0
 10
3.2311419368
 20
5.9616255464
 30
0.0
 10
3.2316799467
 20
5.9609511757
 30
0.0
 10
3.2322241295
 20
5.9602015474
 30
0.0
 10
3.2329803573
 20
5.9590682417
 30
0.0
 10
3.2339303395
 20
5.9574674552
 30
0.0
 10
3.2350516373
 20
5.9553250634
 30
0.0
 10
3.2361801548
 20
5.9529175156
 30
0.0
 10
3.2373088048
 20
5.9502568497
 30
0.0
 10
3.2384310769
 20
5.9473556713
 30
0.0
 10
3.2395407562
 20
5.9442266564
 30
0.0
 10
3.24063038
 20
5.9408815763
 30
0.0
 10
3.2416926197
 20
5.9373319496
 30
0.0
 10
3.2430923973
 20
5.9322384978
 30
0.0
 10
3.2447240863
 20
5.9254392554
 30
0.0
 10
3.2464308008
 20
5.9167957884
 30
0.0
 10
3.2478711872
 20
5.9075899887
 30
0.0
 10
3.2489953277
 20
5.8978994888
 30
0.0
 10
3.2497521196
 20
5.8878008411
 30
0.0
 10
3.2500998396
 20
5.8773723298
 30
0.0
 10
3.2500015235
 20
5.8666946379
 30
0.0
 10
3.249423957
 20
5.8558527957
 30
0.0
 10
3.2487165801
 20
5.8485957331
 30
0.0
 10
3.2482783566
 20
5.8449587767
 30
0.0
  0
SPLINE
  5
497
100
AcDbEntity
  8
0
100
AcDbSpline
 62
7
  6
CONTINUOUS
 70
0
 71
3
 72
9
 73
5
 74
0
 42
0.0000001
 43
0.0000001
 44
0.0000000001
 40
0.0
 40
0.0
 40
0.0
 40
0.0
 40
0.4965753501
 40
1.0
 40
1.0
 40
1.0
 40
1.0
 10
3.2238576311
 20
5.617893685
 30
0.0
 10
3.2234325597
 20
5.6179587158
 30
0.0
 10
3.2225856095
 20
5.6181632947
 30
0.0
 10
3.2217929752
 20
5.6185278803
 30
0.0
 10
3.221416695
 20
5.6187480261
 30
0.0
  0
LINE
  5
498
100
AcDbEntity
  8
0
100
AcDbLine
 62
7
  6
CONTINUOUS
 10
3.2037604467
 20
5.511317167
 11
3.2060609922
 21
5.5113149165
  0
SPLINE
  5
499
100
AcDbEntity
  8
0
100
AcDbSpline
 62
7
  6
CONTINUOUS
 70
0
 71
3
 72
34
 73
30
 74
0
 42
0.0000001
 43
0.0000001
 44
0.0000000001
 40
0.0
 40
0.0
 40
0.0
 40
0.0
 40
0.0881355925
 40
0.175398473
 40
0.2612748096
 40
0.3452598301
 40
0.4268661026
 40
0.5055888169
 40
0.5809010223
 40
0.6522433461
 40
0.7189927588
 40
0.7504423039
 40
0.7804873763
 40
0.8090303979
 40
0.8359766046
 40
0.8612314894
 40
0.8846934601
 40
0.9062635323
 40
0.925852761
 40
0.9433826325
 40
0.9513561356
 40
0.9587943035
 40
0.9656952759
 40
0.9720603101
 40
0.9778961153
 40
0.9832175748
 40
0.98804783
 40
0.9924213693
 40
1.0
 40
1.0
 40
1.0
 40
1.0
 10
3.1363316177
 20
5.2898679755
 30
0.0
 10
3.1352623031
 20
5.2862992956
 30
0.0
 10
3.1329862422
 20
5.279240768
 30
0.0
 10
3.1291825827
 20
5.2688696994
 30
0.0
 10
3.1250488843
 20
5.2588151187
 30
0.0
 10
3.1206424661
 20
5.2491395153
 30
0.0
 10
3.1160290756
 20
5.2398978868
 30
0.0
 10
3.1112731194
 20
5.2311440478
 30
0.0
 10
3.1064424952
 20
5.22293093
 30
0.0
 10
3.1016091191
 20
5.2153126958
 30
0.0
 10
3.0975617167
 20
5.2093966095
 30
0.0
 10
3.0943768117
 20
5.2050097583
 30
0.0
 10
3.0920816841
 20
5.2019735135
 30
0.0
 10
3.089842055
 20
5.1991348866
 30
0.0
 10
3.0876683789
 20
5.1965031836
 30
0.0
 10
3.0855715793
 20
5.1940877246
 30
0.0
 10
3.0835620311
 20
5.1918988737
 30
0.0
 10
3.0816502201
 20
5.1899471409
 30
0.0
 10
3.07984696
 20
5.1882425261
 30
0.0
 10
3.0784009677
 20
5.1869990935
 30
0.0
 10
3.0773035428
 20
5.1861416846
 30
0.0
 10
3.076540108
 20
5.1855875061
 30
0.0
 10
3.0758111817
 20
5.1851026729
 30
0.0
 10
3.0751178004
 20
5.1846882629
 30
0.0
 10
3.0744607916
 20
5.1843452194
 30
0.0
 10
3.0738411582
 20
5.1840741906
 30
0.0
 10
3.0732588242
 20
5.183875775
 30
0.0
 10
3.0725675552
 20
5.1837165942
 30
0.0
 10
3.0720522982
 20
5.183693357
 30
0.0
 10
3.0717356242
 20
5.1837417105
 30
0.0
  0
SPLINE
  5
49A
100
AcDbEntity
  8
0
100
AcDbSpline
 62
7
  6
CONTINUOUS
 70
0
 71
3
 72
21
 73
17
 74
0
 42
0.0000001
 43
0.0000001
 44
0.0000000001
 40
0.0
 40
0.0
 40
0.0
 40
0.0
 40
0.0717382215
 40
0.1460534673
 40
0.2986669504
 40
0.4503809663
 40
0.5235858298
 40
0.5938333914
 40
0.6603621086
 40
0.7225417694
 40
0.779918562
 40
0.8322739489
 40
0.8797033091
 40
0.9227073544
 40
0.9623009957
 40
1.0
 40
1.0
 40
1.0
 40
1.0
 10
6.9176828835
 20
2.5308059516
 30
0.0
 10
6.9180701108
 20
2.5307067819
 30
0.0
 10
6.9188664341
 20
2.530534895
 30
0.0
 10
6.9205143717
 20
2.5302959784
 30
0.0
 10
6.9226277593
 20
2.5301971699
 30
0.0
 10
6.9247313319
 20
2.5303570952
 30
0.0
 10
6.9263517979
 20
2.5306447695
 30
0.0
 10
6.9274874195
 20
2.5309309025
 30
0.0
 10
6.9285391961
 20
2.5312851511
 30
0.0
 10
6.9294903027
 20
2.531701899
 30
0.0
 10
6.9303256346
 20
2.5321746672
 30
0.0
 10
6.9310320851
 20
2.5326964905
 30
0.0
 10
6.9315983772
 20
2.5332602489
 30
0.0
 10
6.9320146889
 20
2.5338591159
 30
0.0
 10
6.9322709846
 20
2.5344849544
 30
0.0
 10
6.9323294479
 20
2.5349175231
 30
0.0
 10
6.9323294479
 20
2.5351275814
 30
0.0
  0
SPLINE
  5
49B
100
AcDbEntity
  8
0
100
AcDbSpline
 62
7
  6
CONTINUOUS
 70
0
 71
3
 72
21
 73
17
 74
0
 42
0.0000001
 43
0.0000001
 44
0.0000000001
 40
0.0
 40
0.0
 40
0.0
 40
0.0
 40
0.0717382243
 40
0.1460534771
 40
0.2986669832
 40
0.4503810282
 40
0.523585906
 40
0.5938334805
 40
0.6603622079
 40
0.7225418752
 40
0.7799186691
 40
0.8322740509
 40
0.8797033984
 40
0.9227074223
 40
0.9623010334
 40
1.0
 40
1.0
 40
1.0
 40
1.0
 10
7.2844760123
 20
2.5308059516
 30
0.0
 10
7.2840887849
 20
2.5307067822
 30
0.0
 10
7.2832924617
 20
2.5305348958
 30
0.0
 10
7.281644524
 20
2.53029598
 30
0.0
 10
7.2795311364
 20
2.5301971724
 30
0.0
 10
7.2774275639
 20
2.5303570983
 30
0.0
 10
7.275807098
 20
2.5306447729
 30
0.0
 10
7.2746714763
 20
2.5309309059
 30
0.0
 10
7.2736196997
 20
2.5312851544
 30
0.0
 10
7.2726685932
 20
2.5317019022
 30
0.0
 10
7.2718332613
 20
2.5321746701
 30
0.0
 10
7.2711268107
 20
2.532696493
 30
0.0
 10
7.2705605186
 20
2.5332602509
 30
0.0
 10
7.2701442069
 20
2.5338591173
 30
0.0
 10
7.2698879112
 20
2.5344849551
 30
0.0
 10
7.2698294479
 20
2.5349175233
 30
0.0
 10
7.2698294479
 20
2.5351275814
 30
0.0
  0
SPLINE
  5
49C
100
AcDbEntity
  8
0
100
AcDbSpline
 62
7
  6
CONTINUOUS
 70
0
 71
3
 72
24
 73
20
 74
0
 42
0.0000001
 43
0.0000001
 44
0.0000000001
 40
0.0
 40
0.0
 40
0.0
 40
0.0
 40
0.0191212979
 40
0.038538699
 40
0.0791407403
 40
0.1235727408
 40
0.1728733069
 40
0.2274662094
 40
0.2872993299
 40
0.3519612516
 40
0.4207770962
 40
0.4928806921
 40
0.5672711622
 40
0.6428609878
 40
0.7185184812
 40
0.7931118494
 40
0.8655417918
 40
0.9348052716
 40
1.0
 40
1.0
 40
1.0
 40
1.0
 10
7.2698294479
 20
2.5951559478
 30
0.0
 10
7.2698294479
 20
2.5950365463
 30
0.0
 10
7.2698466479
 20
2.5947955495
 30
0.0
 10
7.2699500792
 20
2.5943109312
 30
0.0
 10
7.2702161603
 20
2.5937070574
 30
0.0
 10
7.2707243812
 20
2.5930325177
 30
0.0
 10
7.271412054
 20
2.5924056045
 30
0.0
 10
7.272265039
 20
2.5918363405
 30
0.0
 10
7.2732668663
 20
2.5913340674
 30
0.0
 10
7.2743983231
 20
2.590908026
 30
0.0
 10
7.2756374042
 20
2.5905663864
 30
0.0
 10
7.2769597508
 20
2.5903158853
 30
0.0
 10
7.2783391821
 20
2.5901615002
 30
0.0
 10
7.2797482784
 20
2.5901063075
 30
0.0
 10
7.2811590029
 20
2.5901514149
 30
0.0
 10
7.2825432257
 20
2.5902959891
 30
0.0
 10
7.2838735364
 20
2.5905370814
 30
0.0
 10
7.2851233155
 20
2.5908698715
 30
0.0
 10
7.2859134944
 20
2.591158294
 30
0.0
 10
7.2862879663
 20
2.5913179933
 30
0.0
  0
SPLINE
  5
49D
100
AcDbEntity
  8
0
100
AcDbSpline
 62
7
  6
CONTINUOUS
 70
0
 71
3
 72
30
 73
26
 74
0
 42
0.0000001
 43
0.0000001
 44
0.0000000001
 40
0.0
 40
0.0
 40
0.0
 40
0.0
 40
0.0325005304
 40
0.06568383
 40
0.0997943593
 40
0.1347669145
 40
0.170527938
 40
0.2069982703
 40
0.2815465402
 40
0.3193295069
 40
0.3572382001
 40
0.3951243009
 40
0.4328540325
 40
0.4702944763
 40
0.5073051373
 40
0.5794774804
 40
0.6483511088
 40
0.713030032
 40
0.7728235418
 40
0.8273569443
 40
0.8766810398
 40
0.9212242137
 40
0.9420030172
 40
0.9620348549
 40
1.0
 40
1.0
 40
1.0
 40
1.0
 10
6.9158709297
 20
2.5913179934
 30
0.0
 10
6.9160517395
 20
2.5912259512
 30
0.0
 10
6.9164294237
 20
2.5910638365
 30
0.0
 10
6.9170205309
 20
2.5908663397
 30
0.0
 10
6.9176346532
 20
2.5906910779
 30
0.0
 10
6.9182725484
 20
2.5905433447
 30
0.0
 10
6.9189309484
 20
2.5904223583
 30
0.0
 10
6.9198376368
 20
2.5902891611
 30
0.0
 10
6.9207627188
 20
2.5901975604
 30
0.0
 10
6.9216993511
 20
2.5901469262
 30
0.0
 10
6.9224083517
 20
2.5901315526
 30
0.0
 10
6.9231171485
 20
2.5901415758
 30
0.0
 10
6.9238220559
 20
2.5901801608
 30
0.0
 10
6.924519435
 20
2.5902460985
 30
0.0
 10
6.9254268879
 20
2.5903671405
 30
0.0
 10
6.9265197441
 20
2.5905767013
 30
0.0
 10
6.9277588834
 20
2.5909197814
 30
0.0
 10
6.9288904917
 20
2.5913448819
 30
0.0
 10
6.9298928479
 20
2.5918440143
 30
0.0
 10
6.9307470395
 20
2.5924103545
 30
0.0
 10
6.9314348656
 20
2.5930372533
 30
0.0
 10
6.931867528
 20
2.5936145548
 30
0.0
 10
6.9321087453
 20
2.5940911803
 30
0.0
 10
6.9322743612
 20
2.5945550431
 30
0.0
 10
6.9323294479
 20
2.5949189452
 30
0.0
 10
6.9323294479
 20
2.5951559478
 30
0.0
  0
ENDSEC
  0
SECTION
  2
OBJECTS
  0
DICTIONARY
  5
C
100
AcDbDictionary
280
0
281
1
  3
ACAD_GROUP
350
D
  3
ACAD_MLINESTYLE
350
17
  3
ACAD_LAYOUT
350
1A
  3
ACAD_PLOTSETTINGS
350
19
  3
ACAD_PLOTSTYLENAME
350
E
  0
DICTIONARY
  5
D
102
{ACAD_REACTORS
330
C
102
}
100
AcDbDictionary
280
0
281
1
  0
ACDBDICTIONARYWDFLT
  5
E
102
{ACAD_REACTORS
330
C
102
}
100
AcDbDictionary
281
1
  3
Normal
350
F
100
AcDbDictionaryWithDefault
340
F
  0
DICTIONARY
  5
17
102
{ACAD_REACTORS
330
C
102
}
100
AcDbDictionary
280
0
281
1
  3
Standard
350
18
  0
DICTIONARY
  5
19
102
{ACAD_REACTORS
330
C
102
}
100
AcDbDictionary
281
1
  0
DICTIONARY
  5
1A
102
{ACAD_REACTORS
330
C
102
}
100
AcDbDictionary
281
1
  3
Model
350
49E
  3
Layout1
350
49F
  0
ACDBPLACEHOLDER
  5
F
102
{ACAD_REACTORS
330
E
102
}
  0
MLINESTYLE
  5
18
102
{ACAD_REACTORS
330
17
102
}
100
AcDbMlineStyle
  2
STANDARD
 70
0
  3

 62
256
 51
90.0
 52
90.0
 71
2
 49
0.5
 62
256
  6
BYLAYER
 49
-0.5
 62
256
  6
BYLAYER
  0
LAYOUT
  5
49E
102
{ACAD_REACTORS
330
1A
102
}
100
AcDbPlotSettings
  1

  2
none_device
  4
ANSI_A_(11.00_x_8.50_Inches)
  6

 40
0.0
 41
0.0
 42
0.0
 43
0.0
 44
279.4
 45
215.9
 46
0.0
 47
0.0
 48
0.0
 49
0.0
140
0.0
141
0.0
142
1.0
143
1.0
 70
1024
 72
0
 73
0
 74
0
  7

 75
0
147
1.0
148
0.0
149
0.0
100
AcDbLayout
  1
Model
 70
0
 71
0
 10
0.0
 20
0.0
 11
11.0
 21
8.5
 12
0.0
 22
0.0
 32
0.0
 14
0.0
 24
0.0
 34
0.0
 15
0.0
 25
0.0
 35
0.0
146
0.0
 13
0.0
 23
0.0
 33
0.0
 16
1.0
 26
0.0
 36
0.0
 17
0.0
 27
1.0
 37
0.0
 76
0
330
202
345
0
346
0
  0
LAYOUT
  5
49F
102
{ACAD_REACTORS
330
1A
102
}
100
AcDbPlotSettings
  1

  2
none_device
  4
ANSI_A_(11.00_x_8.50_Inches)
  6

 40
0.0
 41
0.0
 42
0.0
 43
0.0
 44
279.4
 45
215.9
 46
0.0
 47
0.0
 48
0.0
 49
0.0
140
0.0
141
0.0
142
1.0
143
1.0
 70
0
 72
0
 73
0
 74
0
  7

 75
0
147
1.0
148
0.0
149
0.0
100
AcDbLayout
  1
Layout1
 70
0
 71
1
 10
0.0
 20
0.0
 11
11.0
 21
8.5
 12
0.0
 22
0.0
 32
0.0
 14
0.0
 24
0.0
 34
0.0
 15
0.0
 25
0.0
 35
0.0
146
0.0
 13
0.0
 23
0.0
 33
0.0
 16
1.0
 26
0.0
 36
0.0
 17
0.0
 27
1.0
 37
0.0
 76
0
330
203
345
0
346
0
  0
ENDSEC
  0
EOF
