999
DXF file: E:\BT Custom\CADOUTPUT\_FRONT.dxf
999
Pro/ENGINEER 2018400 by Parametric Technology Corporation
  0
SECTION
  2
HEADER
  9
$ACADVER
  1
AC1018
  9
$DWGCODEPAGE
  3
ANSI_1252
  9
$EXTMAX
 10
22.0
 20
17.0
 30
0.0
  9
$EXTMIN
 10
0.0
 20
0.0
 30
0.0
  9
$LIMMIN
 10
0.0
 20
0.0
  9
$LIMMAX
 10
22.0
 20
17.0
  9
$VIEWCTR
 10
11.0
 20
8.5
  9
$VIEWSIZE
 40
17.0
  9
$CLAYER
  8
0
  9
$LTSCALE
 40
1.21
  9
$CELTYPE
  6
BYLAYER
  9
$DIMSCALE
 40
1.0
  9
$DIMASZ
 40
0.1
  9
$DIMEXO
 40
0.0625
  9
$DIMDLI
 40
0.836
  9
$DIMEXE
 40
0.125
  9
$DIMCEN
 40
0.198
  9
$DIMLFAC
 40
1.0
  9
$DIMBLK
  1
_FILLED
  9
$DIMALT
 70
1
  9
$DIMALTD
 70
2
  9
$DIMALTTD
 70
2
  9
$DIMALTF
 40
25.4
  9
$DIMTXT
 40
0.08
  9
$DIMTOL
 70
1
  9
$DIMLIM
 70
0
  9
$DIMTFAC
 40
1.0
  9
$DIMTP
 40
0.001
  9
$DIMTM
 40
0.001
  9
$DIMGAP
 40
0.09
  9
$DIMDSEP
 70
46
  9
$AUNITS
 70
0
  9
$PDMODE
 70
3
  9
$PDSIZE
 40
0.06
  9
$HANDSEED
  5
38E
  9
$TILEMODE
 70
1
  9
$MEASUREMENT
 70
0
  9
$INSUNITS
 70
1
  0
ENDSEC
  0
SECTION
  2
CLASSES
  0
CLASS
  1
ACDBDICTIONARYWDFLT
  2
AcDbDictionaryWithDefault
  3
AutoCAD 2000
 90
0
 91
1
280
0
281
0
  0
CLASS
  1
ACDBPLACEHOLDER
  2
AcDbPlaceHolder
  3
AutoCAD 2000
 90
0
 91
1
280
0
281
0
  0
CLASS
  1
LAYOUT
  2
AcDbLayout
  3
AutoCAD 2000
 90
0
 91
0
280
0
281
0
  0
ENDSEC
  0
SECTION
  2
TABLES
  0
TABLE
  2
VPORT
  5
8
100
AcDbSymbolTable
 70
2
  0
VPORT
  5
1F4
100
AcDbSymbolTableRecord
100
AcDbViewportTableRecord
  2
*ACTIVE
 70
0
 10
0.0
 20
0.0
 11
1.0
 21
1.0
 12
11.0
 22
8.5
 13
0.0
 23
0.0
 14
1.0
 24
1.0
 15
0.0
 25
0.0
 16
0.0
 26
0.0
 36
1.0
 17
0.0
 27
0.0
 37
0.0
 40
17.0
 41
1.2941176471
 42
50.0
 43
0.0
 44
0.0
 50
0.0
 51
0.0
 71
0
 72
100
 73
1
 74
1
 75
0
 76
0
 77
0
 78
0
  0
ENDTAB
  0
TABLE
  2
LTYPE
  5
5
100
AcDbSymbolTable
 70
6
  0
LTYPE
  5
14
100
AcDbSymbolTableRecord
100
AcDbLinetypeTableRecord
  2
BYBLOCK
 70
0
  3

 72
65
 73
0
 40
0.0
  0
LTYPE
  5
15
100
AcDbSymbolTableRecord
100
AcDbLinetypeTableRecord
  2
BYLAYER
 70
0
  3

 72
65
 73
0
 40
0.0
  0
LTYPE
  5
16
100
AcDbSymbolTableRecord
100
AcDbLinetypeTableRecord
  2
CONTINUOUS
 70
64
  3
Solid line
 72
65
 73
0
 40
0.0
  0
LTYPE
  5
1F5
100
AcDbSymbolTableRecord
100
AcDbLinetypeTableRecord
  2
CENTER
 70
64
  3
____ _ ____ _ ____ _ ____ _ ____ _ ____ _ ____
 72
65
 73
4
 40
0.6
 49
0.375
 74
0
 49
-0.075
 74
0
 49
0.075
 74
0
 49
-0.075
 74
0
  0
LTYPE
  5
1F6
100
AcDbSymbolTableRecord
100
AcDbLinetypeTableRecord
  2
HIDDEN
 70
64
  3
- - - - - - - - - - - - - - - - - - - -
 72
65
 73
2
 40
0.2
 49
0.1
 74
0
 49
-0.1
 74
0
  0
LTYPE
  5
1F7
100
AcDbSymbolTableRecord
100
AcDbLinetypeTableRecord
  2
PHANTOM
 70
64
  3
_____ _ _ _____ _ _ _____ _ _ _____
 72
65
 73
6
 40
0.8
 49
0.45
 74
0
 49
-0.05
 74
0
 49
0.1
 74
0
 49
-0.05
 74
0
 49
0.1
 74
0
 49
-0.05
 74
0
  0
LTYPE
  5
1F8
100
AcDbSymbolTableRecord
100
AcDbLinetypeTableRecord
  2
DOT
 70
64
  3
. . . . . . . . . . . . . . . . . . . .
 72
65
 73
2
 40
0.2
 49
0.1
 74
0
 49
-0.1
 74
0
  0
LTYPE
  5
1F9
100
AcDbSymbolTableRecord
100
AcDbLinetypeTableRecord
  2
DASHED
 70
64
  3
- - - - - - - - - - - - - - - - - - - -
 72
65
 73
2
 40
0.2
 49
0.1
 74
0
 49
-0.1
 74
0
  0
ENDTAB
  0
TABLE
  2
LAYER
  5
2
100
AcDbSymbolTable
 70
36
  0
LAYER
  5
10
100
AcDbSymbolTableRecord
100
AcDbLayerTableRecord
  2
0
 70
0
 62
7
  6
CONTINUOUS
370
-3
390
F
  0
LAYER
  5
1FA
100
AcDbSymbolTableRecord
100
AcDbLayerTableRecord
  2
DEFAULT_1
 70
0
 62
7
  6
CENTER
370
-3
390
F
  0
LAYER
  5
1FB
100
AcDbSymbolTableRecord
100
AcDbLayerTableRecord
  2
DEFAULT_2
 70
0
 62
8
  6
HIDDEN
370
-3
390
F
  0
LAYER
  5
1FC
100
AcDbSymbolTableRecord
100
AcDbLayerTableRecord
  2
DEFAULT_3
 70
0
 62
7
  6
PHANTOM
370
-3
390
F
  0
LAYER
  5
1FD
100
AcDbSymbolTableRecord
100
AcDbLayerTableRecord
  2
ALL_FEATURES
 70
0
 62
7
  6
CONTINUOUS
370
-3
390
F
  0
LAYER
  5
1FE
100
AcDbSymbolTableRecord
100
AcDbLayerTableRecord
  2
AXES_FEATURES
 70
0
 62
7
  6
CONTINUOUS
370
-3
390
F
  0
LAYER
  5
1FF
100
AcDbSymbolTableRecord
100
AcDbLayerTableRecord
  2
DEFAULT_COORDINATE_SYSTEM
 70
0
 62
7
  6
CONTINUOUS
370
-3
390
F
  0
LAYER
  5
200
100
AcDbSymbolTableRecord
100
AcDbLayerTableRecord
  2
DEFAULT_DATUM_AXES
 70
0
 62
7
  6
CONTINUOUS
370
-3
390
F
  0
LAYER
  5
201
100
AcDbSymbolTableRecord
100
AcDbLayerTableRecord
  2
DEFAULT_DATUM_PLANES
 70
0
 62
7
  6
CONTINUOUS
370
-3
390
F
  0
LAYER
  5
202
100
AcDbSymbolTableRecord
100
AcDbLayerTableRecord
  2
DIMENSIONS
 70
0
 62
7
  6
CONTINUOUS
370
-3
390
F
  0
ENDTAB
  0
TABLE
  2
STYLE
  5
3
100
AcDbSymbolTable
 70
1
  0
STYLE
  5
11
100
AcDbSymbolTableRecord
100
AcDbTextStyleTableRecord
  2
STANDARD
 70
0
 40
0.0
 41
0.8
 50
0.0
 71
0
 42
0.2
  3
txt
  4

  0
STYLE
  5
203
100
AcDbSymbolTableRecord
100
AcDbTextStyleTableRecord
  2
TEXTSTYLE_1
 70
0
 40
0.0
 41
0.8
 50
0.0
 71
0
 42
0.2
  3
gdt
  4

  0
ENDTAB
  0
TABLE
  2
VIEW
  5
6
100
AcDbSymbolTable
 70
0
  0
ENDTAB
  0
TABLE
  2
UCS
  5
7
100
AcDbSymbolTable
 70
0
  0
ENDTAB
  0
TABLE
  2
APPID
  5
9
100
AcDbSymbolTable
 70
1
  0
APPID
  5
204
100
AcDbSymbolTableRecord
100
AcDbRegAppTableRecord
  2
ACAD
 70
0
  0
ENDTAB
  0
TABLE
  2
BLOCK_RECORD
  5
1
100
AcDbSymbolTable
 70
0
  0
BLOCK_RECORD
  5
205
100
AcDbSymbolTableRecord
100
AcDbBlockTableRecord
  2
*Model_Space
  0
BLOCK_RECORD
  5
206
100
AcDbSymbolTableRecord
100
AcDbBlockTableRecord
  2
*Paper_Space
  0
BLOCK_RECORD
  5
207
100
AcDbSymbolTableRecord
100
AcDbBlockTableRecord
  2
_FILLED
  0
ENDTAB
  0
TABLE
  2
DIMSTYLE
  5
A
100
AcDbSymbolTable
 70
1
100
AcDbDimStyleTable
 71
0
  0
DIMSTYLE
105
208
100
AcDbSymbolTableRecord
100
AcDbDimStyleTableRecord
  2
STANDARD
 70
0
  3

  4

 40
1.0
 41
0.1
 42
0.0625
 43
0.38
 44
0.125
 45
0.0
 46
0.0
 47
0.001
 48
0.001
140
0.08
141
0.09
142
0.0
143
25.4
144
1.0
145
0.0
146
1.0
147
0.09
 71
1.0
 72
0.0
 73
1
 74
1
 75
0
 76
0
 77
0
 78
4
 79
1
170
1
171
2
172
0
173
0
174
0
175
0
176
0
177
0
178
0
270
2
179
3
271
3
272
3
273
2
274
2
275
0
280
0
281
0
282
0
283
1
284
4
285
0
286
0
287
3
288
0
340
11
278
46
341
207
342
207
343
207
344
207
  0
ENDTAB
  0
ENDSEC
  0
SECTION
  2
BLOCKS
  0
BLOCK
  5
20
100
AcDbEntity
  8
0
100
AcDbBlockBegin
  2
*Model_Space
 70
0
 10
0.0
 20
0.0
 30
0.0
  3
*Model_Space
  1

  0
ENDBLK
  5
21
100
AcDbEntity
  8
0
100
AcDbBlockEnd
  0
BLOCK
  5
1C
100
AcDbEntity
  8
0
100
AcDbBlockBegin
  2
*Paper_Space
 70
0
 10
0.0
 20
0.0
 30
0.0
  3
*Paper_Space
  1

  0
ENDBLK
  5
1D
100
AcDbEntity
  8
0
100
AcDbBlockEnd
  0
BLOCK
  5
209
100
AcDbEntity
  8
0
100
AcDbBlockBegin
  2
_FILLED
 70
64
 10
0.0
 20
0.0
  3
_FILLED
  1

  0
SOLID
  5
20A
100
AcDbEntity
  8
0
  6
BYBLOCK
 62
0
100
AcDbTrace
 10
0.0
 20
0.0
 11
-1.0
 21
0.2
 12
-1.0
 22
-0.2
 13
-1.0
 23
-0.2
  0
ENDBLK
  5
20B
100
AcDbEntity
  8
0
  6
BYBLOCK
 62
0
100
AcDbBlockEnd
  0
ENDSEC
  0
SECTION
  2
ENTITIES
  0
LINE
  5
20C
100
AcDbEntity
  8
0
100
AcDbLine
 62
7
  6
CONTINUOUS
 10
10.6981923427
 20
4.4818268426
 11
12.6981923427
 21
4.4818268426
  0
LINE
  5
20D
100
AcDbEntity
  8
0
100
AcDbLine
 62
7
  6
CONTINUOUS
 10
12.6981923427
 20
4.5618268426
 11
10.6981923427
 21
4.5618268426
  0
LINE
  5
20E
100
AcDbEntity
  8
0
100
AcDbLine
 62
7
  6
CONTINUOUS
 10
10.7461923427
 20
4.6098268426
 11
12.6501923427
 21
4.6098268426
  0
LINE
  5
20F
100
AcDbEntity
  8
0
100
AcDbLine
 62
7
  6
CONTINUOUS
 10
12.6979923227
 20
4.8668268426
 11
10.6983923627
 21
4.8668268426
  0
LINE
  5
210
100
AcDbEntity
  8
0
100
AcDbLine
 62
7
  6
CONTINUOUS
 10
10.6983923627
 20
4.9268268426
 11
12.6979923227
 21
4.9268268426
  0
LINE
  5
211
100
AcDbEntity
  8
0
100
AcDbLine
 62
7
  6
CONTINUOUS
 10
12.5601924688
 20
4.9818268426
 11
10.8361922167
 21
4.9818268426
  0
LINE
  5
212
100
AcDbEntity
  8
0
100
AcDbLine
 62
7
  6
CONTINUOUS
 10
10.4971923427
 20
5.7978268426
 11
10.5971923427
 21
5.7978268426
  0
LINE
  5
213
100
AcDbEntity
  8
0
100
AcDbLine
 62
7
  6
CONTINUOUS
 10
10.4571923427
 20
5.8428268426
 11
10.4971923427
 21
5.8428268426
  0
LINE
  5
214
100
AcDbEntity
  8
0
100
AcDbLine
 62
7
  6
CONTINUOUS
 10
10.9024181695
 20
5.9078268426
 11
10.5971923427
 21
5.9078268426
  0
LINE
  5
215
100
AcDbEntity
  8
0
100
AcDbLine
 62
7
  6
CONTINUOUS
 10
9.9971923427
 20
5.9230589124
 11
10.0571923427
 21
5.9230589124
  0
LINE
  5
216
100
AcDbEntity
  8
0
100
AcDbLine
 62
7
  6
CONTINUOUS
 10
9.9971923427
 20
5.9235594112
 11
10.0571923427
 21
5.9235594112
  0
LINE
  5
217
100
AcDbEntity
  8
0
100
AcDbLine
 62
7
  6
CONTINUOUS
 10
9.9971923427
 20
5.9261336311
 11
10.0571923427
 21
5.9261336311
  0
LINE
  5
218
100
AcDbEntity
  8
0
100
AcDbLine
 62
7
  6
CONTINUOUS
 10
9.9971923427
 20
5.9276313186
 11
10.0571923427
 21
5.9276313186
  0
LINE
  5
219
100
AcDbEntity
  8
0
100
AcDbLine
 62
7
  6
CONTINUOUS
 10
9.9971923427
 20
5.9327601669
 11
10.0571923427
 21
5.9327601669
  0
LINE
  5
21A
100
AcDbEntity
  8
0
100
AcDbLine
 62
7
  6
CONTINUOUS
 10
9.9971923427
 20
5.9352436448
 11
10.0571923427
 21
5.9352436448
  0
LINE
  5
21B
100
AcDbEntity
  8
0
100
AcDbLine
 62
7
  6
CONTINUOUS
 10
9.9971923427
 20
5.942888088
 11
10.0571923427
 21
5.942888088
  0
LINE
  5
21C
100
AcDbEntity
  8
0
100
AcDbLine
 62
7
  6
CONTINUOUS
 10
9.9971923427
 20
5.9463384555
 11
10.0571923427
 21
5.9463384555
  0
LINE
  5
21D
100
AcDbEntity
  8
0
100
AcDbLine
 62
7
  6
CONTINUOUS
 10
9.9971923427
 20
5.9564403147
 11
10.0571923427
 21
5.9564403147
  0
LINE
  5
21E
100
AcDbEntity
  8
0
100
AcDbLine
 62
7
  6
CONTINUOUS
 10
9.9971923427
 20
5.9608313123
 11
10.0571923427
 21
5.9608313123
  0
LINE
  5
21F
100
AcDbEntity
  8
0
100
AcDbLine
 62
7
  6
CONTINUOUS
 10
9.9971923427
 20
5.9733137063
 11
10.0571923427
 21
5.9733137063
  0
LINE
  5
220
100
AcDbEntity
  8
0
100
AcDbLine
 62
7
  6
CONTINUOUS
 10
9.9971923427
 20
5.9775063108
 11
9.2747873142
 21
5.9775063108
  0
LINE
  5
221
100
AcDbEntity
  8
0
100
AcDbLine
 62
7
  6
CONTINUOUS
 10
9.9971923427
 20
5.978611916
 11
10.0571923427
 21
5.978611916
  0
LINE
  5
222
100
AcDbEntity
  8
0
100
AcDbLine
 62
7
  6
CONTINUOUS
 10
9.9971923427
 20
5.9933798462
 11
10.0571923427
 21
5.9933798462
  0
LINE
  5
223
100
AcDbEntity
  8
0
100
AcDbLine
 62
7
  6
CONTINUOUS
 10
9.9971923427
 20
5.9995449454
 11
10.0571923427
 21
5.9995449454
  0
LINE
  5
224
100
AcDbEntity
  8
0
100
AcDbLine
 62
7
  6
CONTINUOUS
 10
9.9971923427
 20
6.016486019
 11
10.0571923427
 21
6.016486019
  0
LINE
  5
225
100
AcDbEntity
  8
0
100
AcDbLine
 62
7
  6
CONTINUOUS
 10
9.9971923427
 20
6.0234710875
 11
10.0571923427
 21
6.0234710875
  0
LINE
  5
226
100
AcDbEntity
  8
0
100
AcDbLine
 62
7
  6
CONTINUOUS
 10
9.9971923427
 20
6.0424563726
 11
10.0571923427
 21
6.0424563726
  0
LINE
  5
227
100
AcDbEntity
  8
0
100
AcDbLine
 62
7
  6
CONTINUOUS
 10
9.9971923427
 20
6.0502082499
 11
10.0571923427
 21
6.0502082499
  0
LINE
  5
228
100
AcDbEntity
  8
0
100
AcDbLine
 62
7
  6
CONTINUOUS
 10
9.9971923427
 20
6.0710932571
 11
10.0571923427
 21
6.0710932571
  0
LINE
  5
229
100
AcDbEntity
  8
0
100
AcDbLine
 62
7
  6
CONTINUOUS
 10
9.9971923427
 20
6.0795529467
 11
10.0571923427
 21
6.0795529467
  0
LINE
  5
22A
100
AcDbEntity
  8
0
100
AcDbLine
 62
7
  6
CONTINUOUS
 10
9.9971923427
 20
6.1003584801
 11
10.0571923427
 21
6.1003584801
  0
LINE
  5
22B
100
AcDbEntity
  8
0
100
AcDbLine
 62
7
  6
CONTINUOUS
 10
9.9971923427
 20
6.1021787285
 11
10.0571923427
 21
6.1021787285
  0
LINE
  5
22C
100
AcDbEntity
  8
0
100
AcDbLine
 62
7
  6
CONTINUOUS
 10
9.9971923427
 20
6.111281847
 11
10.0571923427
 21
6.111281847
  0
LINE
  5
22D
100
AcDbEntity
  8
0
100
AcDbLine
 62
7
  6
CONTINUOUS
 10
9.9971923427
 20
6.131849564
 11
10.0571923427
 21
6.131849564
  0
LINE
  5
22E
100
AcDbEntity
  8
0
100
AcDbLine
 62
7
  6
CONTINUOUS
 10
9.9971923427
 20
6.1354762074
 11
10.0571923427
 21
6.1354762074
  0
LINE
  5
22F
100
AcDbEntity
  8
0
100
AcDbLine
 62
7
  6
CONTINUOUS
 10
9.9971923427
 20
6.1451534747
 11
10.0571923427
 21
6.1451534747
  0
LINE
  5
230
100
AcDbEntity
  8
0
100
AcDbLine
 62
7
  6
CONTINUOUS
 10
9.9971923427
 20
6.1653268426
 11
10.0571923427
 21
6.1653268426
  0
LINE
  5
231
100
AcDbEntity
  8
0
100
AcDbLine
 62
7
  6
CONTINUOUS
 10
9.9971923427
 20
6.1707322802
 11
10.0571923427
 21
6.1707322802
  0
LINE
  5
232
100
AcDbEntity
  8
0
100
AcDbLine
 62
7
  6
CONTINUOUS
 10
9.9971923427
 20
6.1809100463
 11
10.0571923427
 21
6.1809100463
  0
LINE
  5
233
100
AcDbEntity
  8
0
100
AcDbLine
 62
7
  6
CONTINUOUS
 10
9.9971923427
 20
6.2005355335
 11
10.0571923427
 21
6.2005355335
  0
LINE
  5
234
100
AcDbEntity
  8
0
100
AcDbLine
 62
7
  6
CONTINUOUS
 10
9.9971923427
 20
6.2076786266
 11
10.0571923427
 21
6.2076786266
  0
LINE
  5
235
100
AcDbEntity
  8
0
100
AcDbLine
 62
7
  6
CONTINUOUS
 10
9.9971923427
 20
6.2182794327
 11
10.0571923427
 21
6.2182794327
  0
LINE
  5
236
100
AcDbEntity
  8
0
100
AcDbLine
 62
7
  6
CONTINUOUS
 10
9.9971923427
 20
6.2372076773
 11
10.0571923427
 21
6.2372076773
  0
LINE
  5
237
100
AcDbEntity
  8
0
100
AcDbLine
 62
7
  6
CONTINUOUS
 10
9.9971923427
 20
6.2460340628
 11
10.0571923427
 21
6.2460340628
  0
LINE
  5
238
100
AcDbEntity
  8
0
100
AcDbLine
 62
7
  6
CONTINUOUS
 10
9.9971923427
 20
6.2569772303
 11
10.0571923427
 21
6.2569772303
  0
LINE
  5
239
100
AcDbEntity
  8
0
100
AcDbLine
 62
7
  6
CONTINUOUS
 10
9.9971923427
 20
6.275064177
 11
10.0571923427
 21
6.275064177
  0
LINE
  5
23A
100
AcDbEntity
  8
0
100
AcDbLine
 62
7
  6
CONTINUOUS
 10
9.9971923427
 20
6.2855066806
 11
10.0571923427
 21
6.2855066806
  0
LINE
  5
23B
100
AcDbEntity
  8
0
100
AcDbLine
 62
7
  6
CONTINUOUS
 10
9.9971923427
 20
6.2967089254
 11
10.0571923427
 21
6.2967089254
  0
LINE
  5
23C
100
AcDbEntity
  8
0
100
AcDbLine
 62
7
  6
CONTINUOUS
 10
9.9971923427
 20
6.3138169217
 11
10.0571923427
 21
6.3138169217
  0
LINE
  5
23D
100
AcDbEntity
  8
0
100
AcDbLine
 62
7
  6
CONTINUOUS
 10
9.9971923427
 20
6.3257960697
 11
10.0571923427
 21
6.3257960697
  0
LINE
  5
23E
100
AcDbEntity
  8
0
100
AcDbLine
 62
7
  6
CONTINUOUS
 10
9.9971923427
 20
6.3371721359
 11
10.0571923427
 21
6.3371721359
  0
LINE
  5
23F
100
AcDbEntity
  8
0
100
AcDbLine
 62
7
  6
CONTINUOUS
 10
9.9971923427
 20
6.3531709796
 11
10.0571923427
 21
6.3531709796
  0
LINE
  5
240
100
AcDbEntity
  8
0
100
AcDbLine
 62
7
  6
CONTINUOUS
 10
9.9971923427
 20
6.3665956034
 11
10.0571923427
 21
6.3665956034
  0
LINE
  5
241
100
AcDbEntity
  8
0
100
AcDbLine
 62
7
  6
CONTINUOUS
 10
9.9971923427
 20
6.3780589124
 11
10.0571923427
 21
6.3780589124
  0
LINE
  5
242
100
AcDbEntity
  8
0
100
AcDbLine
 62
7
  6
CONTINUOUS
 10
9.9971923427
 20
6.3928268426
 11
10.0571923427
 21
6.3928268426
  0
LINE
  5
243
100
AcDbEntity
  8
0
100
AcDbLine
 62
7
  6
CONTINUOUS
 10
9.9971923427
 20
6.4075947727
 11
10.0571923427
 21
6.4075947727
  0
LINE
  5
244
100
AcDbEntity
  8
0
100
AcDbLine
 62
7
  6
CONTINUOUS
 10
9.9971923427
 20
6.4190580817
 11
10.0571923427
 21
6.4190580817
  0
LINE
  5
245
100
AcDbEntity
  8
0
100
AcDbLine
 62
7
  6
CONTINUOUS
 10
9.9971923427
 20
6.4324827055
 11
10.0571923427
 21
6.4324827055
  0
LINE
  5
246
100
AcDbEntity
  8
0
100
AcDbLine
 62
7
  6
CONTINUOUS
 10
9.9971923427
 20
6.4484815492
 11
10.0571923427
 21
6.4484815492
  0
LINE
  5
247
100
AcDbEntity
  8
0
100
AcDbLine
 62
7
  6
CONTINUOUS
 10
9.9971923427
 20
6.4598576154
 11
10.0571923427
 21
6.4598576154
  0
LINE
  5
248
100
AcDbEntity
  8
0
100
AcDbLine
 62
7
  6
CONTINUOUS
 10
9.9971923427
 20
6.4718367634
 11
10.0571923427
 21
6.4718367634
  0
LINE
  5
249
100
AcDbEntity
  8
0
100
AcDbLine
 62
7
  6
CONTINUOUS
 10
9.9971923427
 20
6.4889447597
 11
10.0571923427
 21
6.4889447597
  0
LINE
  5
24A
100
AcDbEntity
  8
0
100
AcDbLine
 62
7
  6
CONTINUOUS
 10
9.9971923427
 20
6.5001470045
 11
10.0571923427
 21
6.5001470045
  0
LINE
  5
24B
100
AcDbEntity
  8
0
100
AcDbLine
 62
7
  6
CONTINUOUS
 10
9.9971923427
 20
6.5105895081
 11
10.0571923427
 21
6.5105895081
  0
LINE
  5
24C
100
AcDbEntity
  8
0
100
AcDbLine
 62
7
  6
CONTINUOUS
 10
9.9971923427
 20
6.5286764548
 11
10.0571923427
 21
6.5286764548
  0
LINE
  5
24D
100
AcDbEntity
  8
0
100
AcDbLine
 62
7
  6
CONTINUOUS
 10
9.9971923427
 20
6.5396196223
 11
10.0571923427
 21
6.5396196223
  0
LINE
  5
24E
100
AcDbEntity
  8
0
100
AcDbLine
 62
7
  6
CONTINUOUS
 10
9.9971923427
 20
6.5484460078
 11
10.0571923427
 21
6.5484460078
  0
LINE
  5
24F
100
AcDbEntity
  8
0
100
AcDbLine
 62
7
  6
CONTINUOUS
 10
9.9971923427
 20
6.5673742524
 11
10.0571923427
 21
6.5673742524
  0
LINE
  5
250
100
AcDbEntity
  8
0
100
AcDbLine
 62
7
  6
CONTINUOUS
 10
9.9971923427
 20
6.5779750585
 11
10.0571923427
 21
6.5779750585
  0
LINE
  5
251
100
AcDbEntity
  8
0
100
AcDbLine
 62
7
  6
CONTINUOUS
 10
9.9971923427
 20
6.5851181516
 11
10.0571923427
 21
6.5851181516
  0
LINE
  5
252
100
AcDbEntity
  8
0
100
AcDbLine
 62
7
  6
CONTINUOUS
 10
9.9971923427
 20
6.6047436388
 11
10.0571923427
 21
6.6047436388
  0
LINE
  5
253
100
AcDbEntity
  8
0
100
AcDbLine
 62
7
  6
CONTINUOUS
 10
9.9971923427
 20
6.6149214049
 11
10.0571923427
 21
6.6149214049
  0
LINE
  5
254
100
AcDbEntity
  8
0
100
AcDbLine
 62
7
  6
CONTINUOUS
 10
9.9971923427
 20
6.6203268426
 11
10.0571923427
 21
6.6203268426
  0
LINE
  5
255
100
AcDbEntity
  8
0
100
AcDbLine
 62
7
  6
CONTINUOUS
 10
9.9971923427
 20
6.6405002104
 11
10.0571923427
 21
6.6405002104
  0
LINE
  5
256
100
AcDbEntity
  8
0
100
AcDbLine
 62
7
  6
CONTINUOUS
 10
9.9971923427
 20
6.6501774777
 11
10.0571923427
 21
6.6501774777
  0
LINE
  5
257
100
AcDbEntity
  8
0
100
AcDbLine
 62
7
  6
CONTINUOUS
 10
9.9971923427
 20
6.6538041211
 11
10.0571923427
 21
6.6538041211
  0
LINE
  5
258
100
AcDbEntity
  8
0
100
AcDbLine
 62
7
  6
CONTINUOUS
 10
9.9971923427
 20
6.6743718381
 11
10.0571923427
 21
6.6743718381
  0
LINE
  5
259
100
AcDbEntity
  8
0
100
AcDbLine
 62
7
  6
CONTINUOUS
 10
9.9971923427
 20
6.6834749566
 11
10.0571923427
 21
6.6834749566
  0
LINE
  5
25A
100
AcDbEntity
  8
0
100
AcDbLine
 62
7
  6
CONTINUOUS
 10
9.9971923427
 20
6.685295205
 11
10.0571923427
 21
6.685295205
  0
LINE
  5
25B
100
AcDbEntity
  8
0
100
AcDbLine
 62
7
  6
CONTINUOUS
 10
9.9971923427
 20
6.7061007384
 11
10.0571923427
 21
6.7061007384
  0
LINE
  5
25C
100
AcDbEntity
  8
0
100
AcDbLine
 62
7
  6
CONTINUOUS
 10
9.9971923427
 20
6.714560428
 11
10.0571923427
 21
6.714560428
  0
LINE
  5
25D
100
AcDbEntity
  8
0
100
AcDbLine
 62
7
  6
CONTINUOUS
 10
9.9971923427
 20
6.7354454352
 11
10.0571923427
 21
6.7354454352
  0
LINE
  5
25E
100
AcDbEntity
  8
0
100
AcDbLine
 62
7
  6
CONTINUOUS
 10
9.9971923427
 20
6.7431973125
 11
10.0571923427
 21
6.7431973125
  0
LINE
  5
25F
100
AcDbEntity
  8
0
100
AcDbLine
 62
7
  6
CONTINUOUS
 10
9.9971923427
 20
6.7621825976
 11
10.0571923427
 21
6.7621825976
  0
LINE
  5
260
100
AcDbEntity
  8
0
100
AcDbLine
 62
7
  6
CONTINUOUS
 10
9.9971923427
 20
6.7691676661
 11
10.0571923427
 21
6.7691676661
  0
LINE
  5
261
100
AcDbEntity
  8
0
100
AcDbLine
 62
7
  6
CONTINUOUS
 10
9.4883714255
 20
6.7738268426
 11
9.6230132599
 21
6.7738268426
  0
LINE
  5
262
100
AcDbEntity
  8
0
100
AcDbLine
 62
7
  6
CONTINUOUS
 10
9.9971923427
 20
6.7861087397
 11
10.0571923427
 21
6.7861087397
  0
LINE
  5
263
100
AcDbEntity
  8
0
100
AcDbLine
 62
7
  6
CONTINUOUS
 10
9.9971923427
 20
6.7922738389
 11
10.0571923427
 21
6.7922738389
  0
LINE
  5
264
100
AcDbEntity
  8
0
100
AcDbLine
 62
7
  6
CONTINUOUS
 10
9.7266923427
 20
6.8058268426
 11
9.3846923427
 21
6.8058268426
  0
LINE
  5
265
100
AcDbEntity
  8
0
100
AcDbLine
 62
7
  6
CONTINUOUS
 10
9.9971923427
 20
6.8070417691
 11
10.0571923427
 21
6.8070417691
  0
LINE
  5
266
100
AcDbEntity
  8
0
100
AcDbLine
 62
7
  6
CONTINUOUS
 10
9.9971923427
 20
6.8081473743
 11
9.7341923427
 21
6.8081473743
  0
LINE
  5
267
100
AcDbEntity
  8
0
100
AcDbLine
 62
7
  6
CONTINUOUS
 10
9.3771923427
 20
6.8081473743
 11
9.2747873142
 21
6.8081473743
  0
LINE
  5
268
100
AcDbEntity
  8
0
100
AcDbLine
 62
7
  6
CONTINUOUS
 10
9.9971923427
 20
6.8123399788
 11
10.0571923427
 21
6.8123399788
  0
LINE
  5
269
100
AcDbEntity
  8
0
100
AcDbLine
 62
7
  6
CONTINUOUS
 10
9.9971923427
 20
6.8248223728
 11
10.0571923427
 21
6.8248223728
  0
LINE
  5
26A
100
AcDbEntity
  8
0
100
AcDbLine
 62
7
  6
CONTINUOUS
 10
9.9971923427
 20
6.8292133704
 11
10.0571923427
 21
6.8292133704
  0
LINE
  5
26B
100
AcDbEntity
  8
0
100
AcDbLine
 62
7
  6
CONTINUOUS
 10
9.9971923427
 20
6.8393152296
 11
10.0571923427
 21
6.8393152296
  0
LINE
  5
26C
100
AcDbEntity
  8
0
100
AcDbLine
 62
7
  6
CONTINUOUS
 10
9.9971923427
 20
6.8427655971
 11
10.0571923427
 21
6.8427655971
  0
LINE
  5
26D
100
AcDbEntity
  8
0
100
AcDbLine
 62
7
  6
CONTINUOUS
 10
9.9971923427
 20
6.8504100403
 11
10.0571923427
 21
6.8504100403
  0
LINE
  5
26E
100
AcDbEntity
  8
0
100
AcDbLine
 62
7
  6
CONTINUOUS
 10
9.9971923427
 20
6.8528935182
 11
10.0571923427
 21
6.8528935182
  0
LINE
  5
26F
100
AcDbEntity
  8
0
100
AcDbLine
 62
7
  6
CONTINUOUS
 10
9.9971923427
 20
6.8580223665
 11
10.0571923427
 21
6.8580223665
  0
LINE
  5
270
100
AcDbEntity
  8
0
100
AcDbLine
 62
7
  6
CONTINUOUS
 10
9.9971923427
 20
6.859520054
 11
10.0571923427
 21
6.859520054
  0
LINE
  5
271
100
AcDbEntity
  8
0
100
AcDbLine
 62
7
  6
CONTINUOUS
 10
9.9971923427
 20
6.8620942739
 11
10.0571923427
 21
6.8620942739
  0
LINE
  5
272
100
AcDbEntity
  8
0
100
AcDbLine
 62
7
  6
CONTINUOUS
 10
9.9971923427
 20
6.8625947727
 11
10.0571923427
 21
6.8625947727
  0
LINE
  5
273
100
AcDbEntity
  8
0
100
AcDbLine
 62
7
  6
CONTINUOUS
 10
10.9024181698
 20
6.8778268426
 11
10.5971923427
 21
6.8778268426
  0
LINE
  5
274
100
AcDbEntity
  8
0
100
AcDbLine
 62
7
  6
CONTINUOUS
 10
10.4571923427
 20
6.9428268426
 11
10.4971923427
 21
6.9428268426
  0
LINE
  5
275
100
AcDbEntity
  8
0
100
AcDbLine
 62
7
  6
CONTINUOUS
 10
10.4971923427
 20
6.9878268426
 11
10.5971923427
 21
6.9878268426
  0
LINE
  5
276
100
AcDbEntity
  8
0
100
AcDbLine
 62
7
  6
CONTINUOUS
 10
9.8056923427
 20
7.0058268426
 11
9.3056923427
 21
7.0058268426
  0
LINE
  5
277
100
AcDbEntity
  8
0
100
AcDbLine
 62
7
  6
CONTINUOUS
 10
9.8056923427
 20
7.1078268426
 11
9.3056923427
 21
7.1078268426
  0
LINE
  5
278
100
AcDbEntity
  8
0
100
AcDbLine
 62
7
  6
CONTINUOUS
 10
12.6501923427
 20
4.6098268426
 11
12.6981923427
 21
4.5618268426
  0
LINE
  5
279
100
AcDbEntity
  8
0
100
AcDbLine
 62
7
  6
CONTINUOUS
 10
9.1771923427
 20
5.9928268426
 11
9.1771923427
 21
6.7928268426
  0
LINE
  5
27A
100
AcDbEntity
  8
0
100
AcDbLine
 62
7
  6
CONTINUOUS
 10
9.2747873142
 20
5.9775063108
 11
9.2747873142
 21
6.8081473743
  0
LINE
  5
27B
100
AcDbEntity
  8
0
100
AcDbLine
 62
7
  6
CONTINUOUS
 10
10.8681923427
 20
7.3218268426
 11
12.5281923427
 21
7.3218268426
  0
LINE
  5
27C
100
AcDbEntity
  8
0
100
AcDbLine
 62
7
  6
CONTINUOUS
 10
10.8331923427
 20
7.3568268426
 11
12.5631923427
 21
7.3568268426
  0
LINE
  5
27D
100
AcDbEntity
  8
0
100
AcDbLine
 62
7
  6
CONTINUOUS
 10
10.7831928184
 20
7.3868268426
 11
12.6131918671
 21
7.3868268426
  0
LINE
  5
27E
100
AcDbEntity
  8
0
100
AcDbLine
 62
7
  6
CONTINUOUS
 10
10.7831928184
 20
7.6118268426
 11
12.6131918671
 21
7.6118268426
  0
LINE
  5
27F
100
AcDbEntity
  8
0
100
AcDbLine
 62
7
  6
CONTINUOUS
 10
9.3216923427
 20
8.9058268426
 11
9.3216923427
 21
7.1078268426
  0
LINE
  5
280
100
AcDbEntity
  8
0
100
AcDbLine
 62
7
  6
CONTINUOUS
 10
9.3846923427
 20
7.0058268426
 11
9.3846923427
 21
6.8058268426
  0
LINE
  5
281
100
AcDbEntity
  8
0
100
AcDbLine
 62
7
  6
CONTINUOUS
 10
9.3881923427
 20
6.8035416362
 11
9.3881923427
 21
6.8058268426
  0
LINE
  5
282
100
AcDbEntity
  8
0
100
AcDbLine
 62
7
  6
CONTINUOUS
 10
10.8331923427
 20
7.6418268426
 11
12.5631923427
 21
7.6418268426
  0
LINE
  5
283
100
AcDbEntity
  8
0
100
AcDbLine
 62
7
  6
CONTINUOUS
 10
12.4981924966
 20
7.7068268426
 11
10.8981921889
 21
7.7068268426
  0
LINE
  5
284
100
AcDbEntity
  8
0
100
AcDbLine
 62
7
  6
CONTINUOUS
 10
10.8331923427
 20
7.3568268426
 11
10.8681923427
 21
7.3218268426
  0
LINE
  5
285
100
AcDbEntity
  8
0
100
AcDbLine
 62
7
  6
CONTINUOUS
 10
9.7231923427
 20
6.8035416693
 11
9.7231923427
 21
6.8058268426
  0
LINE
  5
286
100
AcDbEntity
  8
0
100
AcDbLine
 62
7
  6
CONTINUOUS
 10
9.7266923427
 20
7.0058268426
 11
9.7266923427
 21
6.8058268426
  0
LINE
  5
287
100
AcDbEntity
  8
0
100
AcDbLine
 62
7
  6
CONTINUOUS
 10
9.7896923427
 20
8.9058268426
 11
9.7896923427
 21
7.1078268426
  0
LINE
  5
288
100
AcDbEntity
  8
0
100
AcDbLine
 62
7
  6
CONTINUOUS
 10
9.9971923427
 20
5.9230589124
 11
9.9971923427
 21
6.8625947727
  0
LINE
  5
289
100
AcDbEntity
  8
0
100
AcDbLine
 62
7
  6
CONTINUOUS
 10
10.0571923427
 20
6.8625947727
 11
10.0571923427
 21
5.9230589124
  0
LINE
  5
28A
100
AcDbEntity
  8
0
100
AcDbLine
 62
7
  6
CONTINUOUS
 10
12.0125038842
 20
11.4981290263
 11
12.0160967387
 21
11.5020204469
  0
LINE
  5
28B
100
AcDbEntity
  8
0
100
AcDbLine
 62
9
  6
CONTINUOUS
 10
12.0125038842
 20
11.4981290263
 11
12.0125009149
 21
11.4981259039
  0
LINE
  5
28C
100
AcDbEntity
  8
0
100
AcDbLine
 62
7
  6
CONTINUOUS
 10
10.4571923427
 20
6.9428268426
 11
10.4571923427
 21
5.8428268426
  0
LINE
  5
28D
100
AcDbEntity
  8
0
100
AcDbLine
 62
7
  6
CONTINUOUS
 10
10.4971923427
 20
6.9878268426
 11
10.4971923427
 21
5.7978268426
  0
LINE
  5
28E
100
AcDbEntity
  8
0
100
AcDbLine
 62
7
  6
CONTINUOUS
 10
10.5971923427
 20
6.9878268426
 11
10.5971923427
 21
5.7978268426
  0
LINE
  5
28F
100
AcDbEntity
  8
0
100
AcDbLine
 62
7
  6
CONTINUOUS
 10
11.9859121161
 20
11.1831506764
 11
11.9858085931
 21
11.183046237
  0
LINE
  5
290
100
AcDbEntity
  8
0
100
AcDbLine
 62
7
  6
CONTINUOUS
 10
9.8056923427
 20
8.9058268426
 11
9.3056923427
 21
8.9058268426
  0
LINE
  5
291
100
AcDbEntity
  8
0
100
AcDbLine
 62
7
  6
CONTINUOUS
 10
10.6981923427
 20
4.5618268426
 11
10.6981923427
 21
4.4818268426
  0
LINE
  5
292
100
AcDbEntity
  8
0
100
AcDbLine
 62
7
  6
CONTINUOUS
 10
10.6983923627
 20
4.9268268426
 11
10.6983923627
 21
4.8668268426
  0
LINE
  5
293
100
AcDbEntity
  8
0
100
AcDbLine
 62
7
  6
CONTINUOUS
 10
10.6987158347
 20
4.9268268426
 11
10.6987158347
 21
4.8668268426
  0
LINE
  5
294
100
AcDbEntity
  8
0
100
AcDbLine
 62
7
  6
CONTINUOUS
 10
10.700809273
 20
4.9268268426
 11
10.700809273
 21
4.8668268426
  0
LINE
  5
295
100
AcDbEntity
  8
0
100
AcDbLine
 62
7
  6
CONTINUOUS
 10
10.7017788024
 20
4.9268268426
 11
10.7017788024
 21
4.8668268426
  0
LINE
  5
296
100
AcDbEntity
  8
0
100
AcDbLine
 62
7
  6
CONTINUOUS
 10
10.7059599409
 20
4.9268268426
 11
10.7059599409
 21
4.8668268426
  0
LINE
  5
297
100
AcDbEntity
  8
0
100
AcDbLine
 62
7
  6
CONTINUOUS
 10
10.7075728703
 20
4.9268268426
 11
10.7075728703
 21
4.8668268426
  0
LINE
  5
298
100
AcDbEntity
  8
0
100
AcDbLine
 62
7
  6
CONTINUOUS
 10
10.7138302489
 20
4.9268268426
 11
10.7138302489
 21
4.8668268426
  0
LINE
  5
299
100
AcDbEntity
  8
0
100
AcDbLine
 62
7
  6
CONTINUOUS
 10
10.7160821573
 20
4.9268268426
 11
10.7160821573
 21
4.8668268426
  0
LINE
  5
29A
100
AcDbEntity
  8
0
100
AcDbLine
 62
7
  6
CONTINUOUS
 10
10.7243986249
 20
4.9268268426
 11
10.7243986249
 21
4.8668268426
  0
LINE
  5
29B
100
AcDbEntity
  8
0
100
AcDbLine
 62
7
  6
CONTINUOUS
 10
10.72728334
 20
4.9268268426
 11
10.72728334
 21
4.8668268426
  0
LINE
  5
29C
100
AcDbEntity
  8
0
100
AcDbLine
 62
7
  6
CONTINUOUS
 10
10.7376361018
 20
4.9268268426
 11
10.7376361018
 21
4.8668268426
  0
LINE
  5
29D
100
AcDbEntity
  8
0
100
AcDbLine
 62
7
  6
CONTINUOUS
 10
10.7411457169
 20
4.9268268426
 11
10.7411457169
 21
4.8668268426
  0
LINE
  5
29E
100
AcDbEntity
  8
0
100
AcDbLine
 62
7
  6
CONTINUOUS
 10
10.7461923427
 20
4.8668268426
 11
10.7461923427
 21
4.6098268426
  0
LINE
  5
29F
100
AcDbEntity
  8
0
100
AcDbLine
 62
7
  6
CONTINUOUS
 10
10.7535063967
 20
4.9268268426
 11
10.7535063967
 21
4.8668268426
  0
LINE
  5
2A0
100
AcDbEntity
  8
0
100
AcDbLine
 62
7
  6
CONTINUOUS
 10
10.757631292
 20
4.9268268426
 11
10.757631292
 21
4.8668268426
  0
LINE
  5
2A1
100
AcDbEntity
  8
0
100
AcDbLine
 62
7
  6
CONTINUOUS
 10
10.77196601
 20
4.9268268426
 11
10.77196601
 21
4.8668268426
  0
LINE
  5
2A2
100
AcDbEntity
  8
0
100
AcDbLine
 62
7
  6
CONTINUOUS
 10
10.7766948796
 20
4.9268268426
 11
10.7766948796
 21
4.8668268426
  0
LINE
  5
2A3
100
AcDbEntity
  8
0
100
AcDbLine
 62
7
  6
CONTINUOUS
 10
10.7831923427
 20
7.6118268426
 11
10.7831923427
 21
7.3868268426
  0
LINE
  5
2A4
100
AcDbEntity
  8
0
100
AcDbLine
 62
7
  6
CONTINUOUS
 10
10.7929643453
 20
4.9268268426
 11
10.7929643453
 21
4.8668268426
  0
LINE
  5
2A5
100
AcDbEntity
  8
0
100
AcDbLine
 62
7
  6
CONTINUOUS
 10
10.7982842277
 20
4.9268268426
 11
10.7982842277
 21
4.8668268426
  0
LINE
  5
2A6
100
AcDbEntity
  8
0
100
AcDbLine
 62
7
  6
CONTINUOUS
 10
10.8164438477
 20
4.9268268426
 11
10.8164438477
 21
4.8668268426
  0
LINE
  5
2A7
100
AcDbEntity
  8
0
100
AcDbLine
 62
7
  6
CONTINUOUS
 10
10.8223401614
 20
4.9268268426
 11
10.8223401614
 21
4.8668268426
  0
LINE
  5
2A8
100
AcDbEntity
  8
0
100
AcDbLine
 62
7
  6
CONTINUOUS
 10
10.8331923427
 20
7.6418268426
 11
10.8331923427
 21
7.6118268426
  0
LINE
  5
2A9
100
AcDbEntity
  8
0
100
AcDbLine
 62
7
  6
CONTINUOUS
 10
10.8331923427
 20
7.3868268426
 11
10.8331923427
 21
7.3568268426
  0
LINE
  5
2AA
100
AcDbEntity
  8
0
100
AcDbLine
 62
7
  6
CONTINUOUS
 10
10.8423401614
 20
4.9268268426
 11
10.8423401614
 21
4.8668268426
  0
LINE
  5
2AB
100
AcDbEntity
  8
0
100
AcDbLine
 62
7
  6
CONTINUOUS
 10
10.848796745
 20
4.9268268426
 11
10.848796745
 21
4.8668268426
  0
LINE
  5
2AC
100
AcDbEntity
  8
0
100
AcDbLine
 62
7
  6
CONTINUOUS
 10
10.8705823064
 20
4.9268268426
 11
10.8705823064
 21
4.8668268426
  0
LINE
  5
2AD
100
AcDbEntity
  8
0
100
AcDbLine
 62
7
  6
CONTINUOUS
 10
10.8775814629
 20
4.9268268426
 11
10.8775814629
 21
4.8668268426
  0
LINE
  5
2AE
100
AcDbEntity
  8
0
100
AcDbLine
 62
7
  6
CONTINUOUS
 10
10.8931923427
 20
4.9818268426
 11
10.8931923427
 21
5.8928268426
  0
LINE
  5
2AF
100
AcDbEntity
  8
0
100
AcDbLine
 62
7
  6
CONTINUOUS
 10
10.8931923427
 20
6.8928268426
 11
10.8931923427
 21
7.3218268426
  0
LINE
  5
2B0
100
AcDbEntity
  8
0
100
AcDbLine
 62
7
  6
CONTINUOUS
 10
10.901092873
 20
4.9268268426
 11
10.901092873
 21
4.8668268426
  0
LINE
  5
2B1
100
AcDbEntity
  8
0
100
AcDbLine
 62
7
  6
CONTINUOUS
 10
10.9086154182
 20
4.9268268426
 11
10.9086154182
 21
4.8668268426
  0
LINE
  5
2B2
100
AcDbEntity
  8
0
100
AcDbLine
 62
7
  6
CONTINUOUS
 10
10.9337882338
 20
4.9268268426
 11
10.9337882338
 21
4.8668268426
  0
LINE
  5
2B3
100
AcDbEntity
  8
0
100
AcDbLine
 62
7
  6
CONTINUOUS
 10
10.941813549
 20
4.9268268426
 11
10.941813549
 21
4.8668268426
  0
LINE
  5
2B4
100
AcDbEntity
  8
0
100
AcDbLine
 62
7
  6
CONTINUOUS
 10
10.9685787732
 20
4.9268268426
 11
10.9685787732
 21
4.8668268426
  0
LINE
  5
2B5
100
AcDbEntity
  8
0
100
AcDbLine
 62
7
  6
CONTINUOUS
 10
10.9770848614
 20
4.9268268426
 11
10.9770848614
 21
4.8668268426
  0
LINE
  5
2B6
100
AcDbEntity
  8
0
100
AcDbLine
 62
7
  6
CONTINUOUS
 10
11.3536657231
 20
11.5915307827
 11
11.3533819504
 21
11.5900522273
  0
LINE
  5
2B7
100
AcDbEntity
  8
0
100
AcDbLine
 62
7
  6
CONTINUOUS
 10
9.8056923427
 20
9.0058268426
 11
9.3056923427
 21
9.0058268426
  0
LINE
  5
2B8
100
AcDbEntity
  8
0
100
AcDbLine
 62
7
  6
CONTINUOUS
 10
11.0053691327
 20
4.9268268426
 11
11.0053691327
 21
4.8668268426
  0
LINE
  5
2B9
100
AcDbEntity
  8
0
100
AcDbLine
 62
7
  6
CONTINUOUS
 10
11.0143326794
 20
4.9268268426
 11
11.0143326794
 21
4.8668268426
  0
LINE
  5
2BA
100
AcDbEntity
  8
0
100
AcDbLine
 62
7
  6
CONTINUOUS
 10
11.042578188
 20
4.9268268426
 11
11.042578188
 21
4.8668268426
  0
LINE
  5
2BB
100
AcDbEntity
  8
0
100
AcDbLine
 62
7
  6
CONTINUOUS
 10
11.0440584724
 20
4.9268268426
 11
11.0440584724
 21
4.8668268426
  0
LINE
  5
2BC
100
AcDbEntity
  8
0
100
AcDbLine
 62
7
  6
CONTINUOUS
 10
11.0534549091
 20
4.9268268426
 11
11.0534549091
 21
4.8668268426
  0
LINE
  5
2BD
100
AcDbEntity
  8
0
100
AcDbLine
 62
7
  6
CONTINUOUS
 10
11.0815842362
 20
4.9268268426
 11
11.0815842362
 21
4.8668268426
  0
LINE
  5
2BE
100
AcDbEntity
  8
0
100
AcDbLine
 62
7
  6
CONTINUOUS
 10
11.0845407476
 20
4.9268268426
 11
11.0845407476
 21
4.8668268426
  0
LINE
  5
2BF
100
AcDbEntity
  8
0
100
AcDbLine
 62
7
  6
CONTINUOUS
 10
11.0943443194
 20
4.9268268426
 11
11.0943443194
 21
4.8668268426
  0
LINE
  5
2C0
100
AcDbEntity
  8
0
100
AcDbLine
 62
7
  6
CONTINUOUS
 10
11.1222803643
 20
4.9268268426
 11
11.1222803643
 21
4.8668268426
  0
LINE
  5
2C1
100
AcDbEntity
  8
0
100
AcDbLine
 62
7
  6
CONTINUOUS
 10
11.1267049991
 20
4.9268268426
 11
11.1267049991
 21
4.8668268426
  0
LINE
  5
2C2
100
AcDbEntity
  8
0
100
AcDbLine
 62
7
  6
CONTINUOUS
 10
11.1368888351
 20
4.9268268426
 11
11.1368888351
 21
4.8668268426
  0
LINE
  5
2C3
100
AcDbEntity
  8
0
100
AcDbLine
 62
7
  6
CONTINUOUS
 10
11.1645550271
 20
4.9268268426
 11
11.1645550271
 21
4.8668268426
  0
LINE
  5
2C4
100
AcDbEntity
  8
0
100
AcDbLine
 62
7
  6
CONTINUOUS
 10
11.1704356578
 20
4.9268268426
 11
11.1704356578
 21
4.8668268426
  0
LINE
  5
2C5
100
AcDbEntity
  8
0
100
AcDbLine
 62
7
  6
CONTINUOUS
 10
11.1809718447
 20
4.9268268426
 11
11.1809718447
 21
4.8668268426
  0
LINE
  5
2C6
100
AcDbEntity
  8
0
100
AcDbLine
 62
7
  6
CONTINUOUS
 10
11.2082923527
 20
4.9268268426
 11
11.2082923527
 21
4.8668268426
  0
LINE
  5
2C7
100
AcDbEntity
  8
0
100
AcDbLine
 62
7
  6
CONTINUOUS
 10
11.2156128608
 20
4.9268268426
 11
11.2156128608
 21
4.8668268426
  0
LINE
  5
2C8
100
AcDbEntity
  8
0
100
AcDbLine
 62
7
  6
CONTINUOUS
 10
11.2264725197
 20
4.9268268426
 11
11.2264725197
 21
4.8668268426
  0
LINE
  5
2C9
100
AcDbEntity
  8
0
100
AcDbLine
 62
7
  6
CONTINUOUS
 10
11.2533724602
 20
4.9268268426
 11
11.2533724602
 21
4.8668268426
  0
LINE
  5
2CA
100
AcDbEntity
  8
0
100
AcDbLine
 62
7
  6
CONTINUOUS
 10
11.2621127807
 20
4.9268268426
 11
11.2621127807
 21
4.8668268426
  0
LINE
  5
2CB
100
AcDbEntity
  8
0
100
AcDbLine
 62
7
  6
CONTINUOUS
 10
11.273266146
 20
4.9268268426
 11
11.273266146
 21
4.8668268426
  0
LINE
  5
2CC
100
AcDbEntity
  8
0
100
AcDbLine
 62
7
  6
CONTINUOUS
 10
11.299671788
 20
4.9268268426
 11
11.299671788
 21
4.8668268426
  0
LINE
  5
2CD
100
AcDbEntity
  8
0
100
AcDbLine
 62
7
  6
CONTINUOUS
 10
11.3098079643
 20
4.9268268426
 11
11.3098079643
 21
4.8668268426
  0
LINE
  5
2CE
100
AcDbEntity
  8
0
100
AcDbLine
 62
7
  6
CONTINUOUS
 10
11.3212244654
 20
4.9268268426
 11
11.3212244654
 21
4.8668268426
  0
LINE
  5
2CF
100
AcDbEntity
  8
0
100
AcDbLine
 62
9
  6
CONTINUOUS
 10
11.4096791912
 20
11.4395117987
 11
11.4093997968
 21
11.4438555351
  0
LINE
  5
2D0
100
AcDbEntity
  8
0
100
AcDbLine
 62
7
  6
CONTINUOUS
 10
11.3470634329
 20
4.9268268426
 11
11.3470634329
 21
4.8668268426
  0
LINE
  5
2D1
100
AcDbEntity
  8
0
100
AcDbLine
 62
7
  6
CONTINUOUS
 10
11.3585676825
 20
4.9268268426
 11
11.3585676825
 21
4.8668268426
  0
LINE
  5
2D2
100
AcDbEntity
  8
0
100
AcDbLine
 62
7
  6
CONTINUOUS
 10
11.3702160276
 20
4.9268268426
 11
11.3702160276
 21
4.8668268426
  0
LINE
  5
2D3
100
AcDbEntity
  8
0
100
AcDbLine
 62
7
  6
CONTINUOUS
 10
11.3954174978
 20
4.9268268426
 11
11.3954174978
 21
4.8668268426
  0
LINE
  5
2D4
100
AcDbEntity
  8
0
100
AcDbLine
 62
7
  6
CONTINUOUS
 10
11.4082582883
 20
4.9268268426
 11
11.4082582883
 21
4.8668268426
  0
LINE
  5
2D5
100
AcDbEntity
  8
0
100
AcDbLine
 62
7
  6
CONTINUOUS
 10
11.4201065501
 20
4.9268268426
 11
11.4201065501
 21
4.8668268426
  0
LINE
  5
2D6
100
AcDbEntity
  8
0
100
AcDbLine
 62
7
  6
CONTINUOUS
 10
11.4446014475
 20
4.9268268426
 11
11.4446014475
 21
4.8668268426
  0
LINE
  5
2D7
100
AcDbEntity
  8
0
100
AcDbLine
 62
7
  6
CONTINUOUS
 10
11.4481923427
 20
13.8038223149
 11
11.4481923427
 21
11.6816850095
  0
LINE
  5
2D8
100
AcDbEntity
  8
0
100
AcDbLine
 62
7
  6
CONTINUOUS
 10
11.4481923427
 20
7.7068268426
 11
11.4481923427
 21
11.1561999238
  0
LINE
  5
2D9
100
AcDbEntity
  8
0
100
AcDbLine
 62
7
  6
CONTINUOUS
 10
11.4587435831
 20
4.9268268426
 11
11.4587435831
 21
4.8668268426
  0
LINE
  5
2DA
100
AcDbEntity
  8
0
100
AcDbLine
 62
7
  6
CONTINUOUS
 10
11.4707592864
 20
4.9268268426
 11
11.4707592864
 21
4.8668268426
  0
LINE
  5
2DB
100
AcDbEntity
  8
0
100
AcDbLine
 62
7
  6
CONTINUOUS
 10
11.4944804722
 20
4.9268268426
 11
11.4944804722
 21
4.8668268426
  0
LINE
  5
2DC
100
AcDbEntity
  8
0
100
AcDbLine
 62
7
  6
CONTINUOUS
 10
11.5098851904
 20
4.9268268426
 11
11.5098851904
 21
4.8668268426
  0
LINE
  5
2DD
100
AcDbEntity
  8
0
100
AcDbLine
 62
7
  6
CONTINUOUS
 10
11.5220354009
 20
4.9268268426
 11
11.5220354009
 21
4.8668268426
  0
LINE
  5
2DE
100
AcDbEntity
  8
0
100
AcDbLine
 62
7
  6
CONTINUOUS
 10
11.544917857
 20
4.9268268426
 11
11.544917857
 21
4.8668268426
  0
LINE
  5
2DF
100
AcDbEntity
  8
0
100
AcDbLine
 62
7
  6
CONTINUOUS
 10
11.5615429345
 20
4.9268268426
 11
11.5615429345
 21
4.8668268426
  0
LINE
  5
2E0
100
AcDbEntity
  8
0
100
AcDbLine
 62
7
  6
CONTINUOUS
 10
11.5737943493
 20
4.9268268426
 11
11.5737943493
 21
4.8668268426
  0
LINE
  5
2E1
100
AcDbEntity
  8
0
100
AcDbLine
 62
7
  6
CONTINUOUS
 10
11.5957753565
 20
4.9268268426
 11
11.5957753565
 21
4.8668268426
  0
LINE
  5
2E2
100
AcDbEntity
  8
0
100
AcDbLine
 62
7
  6
CONTINUOUS
 10
11.6135752252
 20
4.9268268426
 11
11.6135752252
 21
4.8668268426
  0
LINE
  5
2E3
100
AcDbEntity
  8
0
100
AcDbLine
 62
7
  6
CONTINUOUS
 10
11.625894264
 20
4.9268268426
 11
11.625894264
 21
4.8668268426
  0
LINE
  5
2E4
100
AcDbEntity
  8
0
100
AcDbLine
 62
7
  6
CONTINUOUS
 10
11.6469135739
 20
4.9268268426
 11
11.6469135739
 21
4.8668268426
  0
LINE
  5
2E5
100
AcDbEntity
  8
0
100
AcDbLine
 62
7
  6
CONTINUOUS
 10
11.4142812855
 20
11.3368655659
 11
11.4147649521
 21
11.3601024235
  0
LINE
  5
2E6
100
AcDbEntity
  8
0
100
AcDbLine
 62
7
  6
CONTINUOUS
 10
11.6658394454
 20
4.9268268426
 11
11.6658394454
 21
4.8668268426
  0
LINE
  5
2E7
100
AcDbEntity
  8
0
100
AcDbLine
 62
7
  6
CONTINUOUS
 10
11.6781923427
 20
4.9268268426
 11
11.6781923427
 21
4.8668268426
  0
LINE
  5
2E8
100
AcDbEntity
  8
0
100
AcDbLine
 62
7
  6
CONTINUOUS
 10
11.6981923427
 20
4.9268268426
 11
11.6981923427
 21
4.8668268426
  0
LINE
  5
2E9
100
AcDbEntity
  8
0
100
AcDbLine
 62
7
  6
CONTINUOUS
 10
11.7181923427
 20
4.9268268426
 11
11.7181923427
 21
4.8668268426
  0
LINE
  5
2EA
100
AcDbEntity
  8
0
100
AcDbLine
 62
7
  6
CONTINUOUS
 10
11.73054524
 20
4.9268268426
 11
11.73054524
 21
4.8668268426
  0
LINE
  5
2EB
100
AcDbEntity
  8
0
100
AcDbLine
 62
7
  6
CONTINUOUS
 10
11.7494711116
 20
4.9268268426
 11
11.7494711116
 21
4.8668268426
  0
LINE
  5
2EC
100
AcDbEntity
  8
0
100
AcDbLine
 62
7
  6
CONTINUOUS
 10
11.7704904214
 20
4.9268268426
 11
11.7704904214
 21
4.8668268426
  0
LINE
  5
2ED
100
AcDbEntity
  8
0
100
AcDbLine
 62
7
  6
CONTINUOUS
 10
11.7828094603
 20
4.9268268426
 11
11.7828094603
 21
4.8668268426
  0
LINE
  5
2EE
100
AcDbEntity
  8
0
100
AcDbLine
 62
7
  6
CONTINUOUS
 10
11.800609329
 20
4.9268268426
 11
11.800609329
 21
4.8668268426
  0
LINE
  5
2EF
100
AcDbEntity
  8
0
100
AcDbLine
 62
7
  6
CONTINUOUS
 10
11.8225903361
 20
4.9268268426
 11
11.8225903361
 21
4.8668268426
  0
LINE
  5
2F0
100
AcDbEntity
  8
0
100
AcDbLine
 62
7
  6
CONTINUOUS
 10
11.8348417509
 20
4.9268268426
 11
11.8348417509
 21
4.8668268426
  0
LINE
  5
2F1
100
AcDbEntity
  8
0
100
AcDbLine
 62
7
  6
CONTINUOUS
 10
11.8514668285
 20
4.9268268426
 11
11.8514668285
 21
4.8668268426
  0
LINE
  5
2F2
100
AcDbEntity
  8
0
100
AcDbLine
 62
7
  6
CONTINUOUS
 10
11.8743492846
 20
4.9268268426
 11
11.8743492846
 21
4.8668268426
  0
LINE
  5
2F3
100
AcDbEntity
  8
0
100
AcDbLine
 62
7
  6
CONTINUOUS
 10
11.886499495
 20
4.9268268426
 11
11.886499495
 21
4.8668268426
  0
LINE
  5
2F4
100
AcDbEntity
  8
0
100
AcDbLine
 62
7
  6
CONTINUOUS
 10
11.9019042132
 20
4.9268268426
 11
11.9019042132
 21
4.8668268426
  0
LINE
  5
2F5
100
AcDbEntity
  8
0
100
AcDbLine
 62
7
  6
CONTINUOUS
 10
11.9256253991
 20
4.9268268426
 11
11.9256253991
 21
4.8668268426
  0
LINE
  5
2F6
100
AcDbEntity
  8
0
100
AcDbLine
 62
7
  6
CONTINUOUS
 10
11.9376411023
 20
4.9268268426
 11
11.9376411023
 21
4.8668268426
  0
LINE
  5
2F7
100
AcDbEntity
  8
0
100
AcDbLine
 62
7
  6
CONTINUOUS
 10
11.9481923427
 20
13.8038223149
 11
11.9481923427
 21
11.6817100747
  0
LINE
  5
2F8
100
AcDbEntity
  8
0
100
AcDbLine
 62
7
  6
CONTINUOUS
 10
11.9481923427
 20
7.7068268426
 11
11.9481923427
 21
11.1562050612
  0
LINE
  5
2F9
100
AcDbEntity
  8
0
100
AcDbLine
 62
7
  6
CONTINUOUS
 10
11.951783238
 20
4.9268268426
 11
11.951783238
 21
4.8668268426
  0
LINE
  5
2FA
100
AcDbEntity
  8
0
100
AcDbLine
 62
7
  6
CONTINUOUS
 10
11.9762781354
 20
4.9268268426
 11
11.9762781354
 21
4.8668268426
  0
LINE
  5
2FB
100
AcDbEntity
  8
0
100
AcDbLine
 62
7
  6
CONTINUOUS
 10
11.9881263972
 20
4.9268268426
 11
11.9881263972
 21
4.8668268426
  0
LINE
  5
2FC
100
AcDbEntity
  8
0
100
AcDbLine
 62
7
  6
CONTINUOUS
 10
12.0009671876
 20
4.9268268426
 11
12.0009671876
 21
4.8668268426
  0
LINE
  5
2FD
100
AcDbEntity
  8
0
100
AcDbLine
 62
9
  6
CONTINUOUS
 10
11.9869848887
 20
11.4438555351
 11
11.9867054924
 21
11.4395117838
  0
LINE
  5
2FE
100
AcDbEntity
  8
0
100
AcDbLine
 62
7
  6
CONTINUOUS
 10
11.9816197334
 20
11.3601024235
 11
11.9821034006
 21
11.3368655517
  0
LINE
  5
2FF
100
AcDbEntity
  8
0
100
AcDbLine
 62
7
  6
CONTINUOUS
 10
12.0261686579
 20
4.9268268426
 11
12.0261686579
 21
4.8668268426
  0
LINE
  5
300
100
AcDbEntity
  8
0
100
AcDbLine
 62
7
  6
CONTINUOUS
 10
12.037817003
 20
4.9268268426
 11
12.037817003
 21
4.8668268426
  0
LINE
  5
301
100
AcDbEntity
  8
0
100
AcDbLine
 62
7
  6
CONTINUOUS
 10
12.0493212525
 20
4.9268268426
 11
12.0493212525
 21
4.8668268426
  0
LINE
  5
302
100
AcDbEntity
  8
0
100
AcDbLine
 62
7
  6
CONTINUOUS
 10
12.0751602201
 20
4.9268268426
 11
12.0751602201
 21
4.8668268426
  0
LINE
  5
303
100
AcDbEntity
  8
0
100
AcDbLine
 62
7
  6
CONTINUOUS
 10
12.0865767212
 20
4.9268268426
 11
12.0865767212
 21
4.8668268426
  0
LINE
  5
304
100
AcDbEntity
  8
0
100
AcDbLine
 62
7
  6
CONTINUOUS
 10
12.0967128975
 20
4.9268268426
 11
12.0967128975
 21
4.8668268426
  0
LINE
  5
305
100
AcDbEntity
  8
0
100
AcDbLine
 62
7
  6
CONTINUOUS
 10
12.1231185395
 20
4.9268268426
 11
12.1231185395
 21
4.8668268426
  0
LINE
  5
306
100
AcDbEntity
  8
0
100
AcDbLine
 62
7
  6
CONTINUOUS
 10
12.1342719048
 20
4.9268268426
 11
12.1342719048
 21
4.8668268426
  0
LINE
  5
307
100
AcDbEntity
  8
0
100
AcDbLine
 62
7
  6
CONTINUOUS
 10
12.1430122253
 20
4.9268268426
 11
12.1430122253
 21
4.8668268426
  0
LINE
  5
308
100
AcDbEntity
  8
0
100
AcDbLine
 62
7
  6
CONTINUOUS
 10
12.1699121658
 20
4.9268268426
 11
12.1699121658
 21
4.8668268426
  0
LINE
  5
309
100
AcDbEntity
  8
0
100
AcDbLine
 62
7
  6
CONTINUOUS
 10
12.1807718247
 20
4.9268268426
 11
12.1807718247
 21
4.8668268426
  0
LINE
  5
30A
100
AcDbEntity
  8
0
100
AcDbLine
 62
7
  6
CONTINUOUS
 10
12.1880923327
 20
4.9268268426
 11
12.1880923327
 21
4.8668268426
  0
LINE
  5
30B
100
AcDbEntity
  8
0
100
AcDbLine
 62
7
  6
CONTINUOUS
 10
12.2154128408
 20
4.9268268426
 11
12.2154128408
 21
4.8668268426
  0
LINE
  5
30C
100
AcDbEntity
  8
0
100
AcDbLine
 62
7
  6
CONTINUOUS
 10
12.2259490277
 20
4.9268268426
 11
12.2259490277
 21
4.8668268426
  0
LINE
  5
30D
100
AcDbEntity
  8
0
100
AcDbLine
 62
7
  6
CONTINUOUS
 10
12.2318296584
 20
4.9268268426
 11
12.2318296584
 21
4.8668268426
  0
LINE
  5
30E
100
AcDbEntity
  8
0
100
AcDbLine
 62
7
  6
CONTINUOUS
 10
12.2594958504
 20
4.9268268426
 11
12.2594958504
 21
4.8668268426
  0
LINE
  5
30F
100
AcDbEntity
  8
0
100
AcDbLine
 62
7
  6
CONTINUOUS
 10
12.2696796863
 20
4.9268268426
 11
12.2696796863
 21
4.8668268426
  0
LINE
  5
310
100
AcDbEntity
  8
0
100
AcDbLine
 62
7
  6
CONTINUOUS
 10
12.2741043212
 20
4.9268268426
 11
12.2741043212
 21
4.8668268426
  0
LINE
  5
311
100
AcDbEntity
  8
0
100
AcDbLine
 62
7
  6
CONTINUOUS
 10
12.3020403661
 20
4.9268268426
 11
12.3020403661
 21
4.8668268426
  0
LINE
  5
312
100
AcDbEntity
  8
0
100
AcDbLine
 62
7
  6
CONTINUOUS
 10
12.3118439379
 20
4.9268268426
 11
12.3118439379
 21
4.8668268426
  0
LINE
  5
313
100
AcDbEntity
  8
0
100
AcDbLine
 62
7
  6
CONTINUOUS
 10
12.3148004493
 20
4.9268268426
 11
12.3148004493
 21
4.8668268426
  0
LINE
  5
314
100
AcDbEntity
  8
0
100
AcDbLine
 62
7
  6
CONTINUOUS
 10
12.3429297763
 20
4.9268268426
 11
12.3429297763
 21
4.8668268426
  0
LINE
  5
315
100
AcDbEntity
  8
0
100
AcDbLine
 62
7
  6
CONTINUOUS
 10
12.3523262131
 20
4.9268268426
 11
12.3523262131
 21
4.8668268426
  0
LINE
  5
316
100
AcDbEntity
  8
0
100
AcDbLine
 62
7
  6
CONTINUOUS
 10
12.3538064975
 20
4.9268268426
 11
12.3538064975
 21
4.8668268426
  0
LINE
  5
317
100
AcDbEntity
  8
0
100
AcDbLine
 62
7
  6
CONTINUOUS
 10
12.3820520061
 20
4.9268268426
 11
12.3820520061
 21
4.8668268426
  0
LINE
  5
318
100
AcDbEntity
  8
0
100
AcDbLine
 62
7
  6
CONTINUOUS
 10
12.3910155528
 20
4.9268268426
 11
12.3910155528
 21
4.8668268426
  0
LINE
  5
319
100
AcDbEntity
  8
0
100
AcDbLine
 62
7
  6
CONTINUOUS
 10
12.419299824
 20
4.9268268426
 11
12.419299824
 21
4.8668268426
  0
LINE
  5
31A
100
AcDbEntity
  8
0
100
AcDbLine
 62
7
  6
CONTINUOUS
 10
12.4278059123
 20
4.9268268426
 11
12.4278059123
 21
4.8668268426
  0
LINE
  5
31B
100
AcDbEntity
  8
0
100
AcDbLine
 62
7
  6
CONTINUOUS
 10
12.4545711365
 20
4.9268268426
 11
12.4545711365
 21
4.8668268426
  0
LINE
  5
31C
100
AcDbEntity
  8
0
100
AcDbLine
 62
7
  6
CONTINUOUS
 10
12.4625964516
 20
4.9268268426
 11
12.4625964516
 21
4.8668268426
  0
LINE
  5
31D
100
AcDbEntity
  8
0
100
AcDbLine
 62
7
  6
CONTINUOUS
 10
12.4877692673
 20
4.9268268426
 11
12.4877692673
 21
4.8668268426
  0
LINE
  5
31E
100
AcDbEntity
  8
0
100
AcDbLine
 62
7
  6
CONTINUOUS
 10
12.4952918125
 20
4.9268268426
 11
12.4952918125
 21
4.8668268426
  0
LINE
  5
31F
100
AcDbEntity
  8
0
100
AcDbLine
 62
7
  6
CONTINUOUS
 10
12.5031923427
 20
4.9818268426
 11
12.5031923427
 21
7.3218268426
  0
LINE
  5
320
100
AcDbEntity
  8
0
100
AcDbLine
 62
7
  6
CONTINUOUS
 10
12.5188032226
 20
4.9268268426
 11
12.5188032226
 21
4.8668268426
  0
LINE
  5
321
100
AcDbEntity
  8
0
100
AcDbLine
 62
7
  6
CONTINUOUS
 10
12.5258023791
 20
4.9268268426
 11
12.5258023791
 21
4.8668268426
  0
LINE
  5
322
100
AcDbEntity
  8
0
100
AcDbLine
 62
7
  6
CONTINUOUS
 10
12.5475879405
 20
4.9268268426
 11
12.5475879405
 21
4.8668268426
  0
LINE
  5
323
100
AcDbEntity
  8
0
100
AcDbLine
 62
7
  6
CONTINUOUS
 10
12.5540445241
 20
4.9268268426
 11
12.5540445241
 21
4.8668268426
  0
LINE
  5
324
100
AcDbEntity
  8
0
100
AcDbLine
 62
7
  6
CONTINUOUS
 10
12.5631923427
 20
7.6418268426
 11
12.5631923427
 21
7.6118268426
  0
LINE
  5
325
100
AcDbEntity
  8
0
100
AcDbLine
 62
7
  6
CONTINUOUS
 10
12.5631923427
 20
7.3868268426
 11
12.5631923427
 21
7.3568268426
  0
LINE
  5
326
100
AcDbEntity
  8
0
100
AcDbLine
 62
7
  6
CONTINUOUS
 10
12.5740445241
 20
4.9268268426
 11
12.5740445241
 21
4.8668268426
  0
LINE
  5
327
100
AcDbEntity
  8
0
100
AcDbLine
 62
7
  6
CONTINUOUS
 10
12.5799408378
 20
4.9268268426
 11
12.5799408378
 21
4.8668268426
  0
LINE
  5
328
100
AcDbEntity
  8
0
100
AcDbLine
 62
7
  6
CONTINUOUS
 10
12.5981004578
 20
4.9268268426
 11
12.5981004578
 21
4.8668268426
  0
LINE
  5
329
100
AcDbEntity
  8
0
100
AcDbLine
 62
7
  6
CONTINUOUS
 10
12.6034203402
 20
4.9268268426
 11
12.6034203402
 21
4.8668268426
  0
LINE
  5
32A
100
AcDbEntity
  8
0
100
AcDbLine
 62
7
  6
CONTINUOUS
 10
12.6131923427
 20
7.6118268426
 11
12.6131923427
 21
7.3868268426
  0
LINE
  5
32B
100
AcDbEntity
  8
0
100
AcDbLine
 62
7
  6
CONTINUOUS
 10
12.6196898059
 20
4.9268268426
 11
12.6196898059
 21
4.8668268426
  0
LINE
  5
32C
100
AcDbEntity
  8
0
100
AcDbLine
 62
7
  6
CONTINUOUS
 10
12.6244186755
 20
4.9268268426
 11
12.6244186755
 21
4.8668268426
  0
LINE
  5
32D
100
AcDbEntity
  8
0
100
AcDbLine
 62
7
  6
CONTINUOUS
 10
12.6387533935
 20
4.9268268426
 11
12.6387533935
 21
4.8668268426
  0
LINE
  5
32E
100
AcDbEntity
  8
0
100
AcDbLine
 62
7
  6
CONTINUOUS
 10
12.6428782888
 20
4.9268268426
 11
12.6428782888
 21
4.8668268426
  0
LINE
  5
32F
100
AcDbEntity
  8
0
100
AcDbLine
 62
7
  6
CONTINUOUS
 10
12.6501923427
 20
4.8668268426
 11
12.6501923427
 21
4.6098268426
  0
LINE
  5
330
100
AcDbEntity
  8
0
100
AcDbLine
 62
7
  6
CONTINUOUS
 10
12.6552389686
 20
4.9268268426
 11
12.6552389686
 21
4.8668268426
  0
LINE
  5
331
100
AcDbEntity
  8
0
100
AcDbLine
 62
7
  6
CONTINUOUS
 10
12.6587485836
 20
4.9268268426
 11
12.6587485836
 21
4.8668268426
  0
LINE
  5
332
100
AcDbEntity
  8
0
100
AcDbLine
 62
7
  6
CONTINUOUS
 10
12.6691013454
 20
4.9268268426
 11
12.6691013454
 21
4.8668268426
  0
LINE
  5
333
100
AcDbEntity
  8
0
100
AcDbLine
 62
7
  6
CONTINUOUS
 10
12.6719860606
 20
4.9268268426
 11
12.6719860606
 21
4.8668268426
  0
LINE
  5
334
100
AcDbEntity
  8
0
100
AcDbLine
 62
7
  6
CONTINUOUS
 10
12.6803025282
 20
4.9268268426
 11
12.6803025282
 21
4.8668268426
  0
LINE
  5
335
100
AcDbEntity
  8
0
100
AcDbLine
 62
7
  6
CONTINUOUS
 10
12.6825544366
 20
4.9268268426
 11
12.6825544366
 21
4.8668268426
  0
LINE
  5
336
100
AcDbEntity
  8
0
100
AcDbLine
 62
7
  6
CONTINUOUS
 10
11.410576039
 20
11.1830462908
 11
11.4104744469
 21
11.183148779
  0
LINE
  5
337
100
AcDbEntity
  8
0
100
AcDbLine
 62
7
  6
CONTINUOUS
 10
12.0430027351
 20
11.5900522273
 11
12.0427190245
 21
11.5915304703
  0
LINE
  5
338
100
AcDbEntity
  8
0
100
AcDbLine
 62
7
  6
CONTINUOUS
 10
12.6888118152
 20
4.9268268426
 11
12.6888118152
 21
4.8668268426
  0
LINE
  5
339
100
AcDbEntity
  8
0
100
AcDbLine
 62
7
  6
CONTINUOUS
 10
12.6904247446
 20
4.9268268426
 11
12.6904247446
 21
4.8668268426
  0
LINE
  5
33A
100
AcDbEntity
  8
0
100
AcDbLine
 62
7
  6
CONTINUOUS
 10
12.6946058831
 20
4.9268268426
 11
12.6946058831
 21
4.8668268426
  0
LINE
  5
33B
100
AcDbEntity
  8
0
100
AcDbLine
 62
7
  6
CONTINUOUS
 10
12.6955754125
 20
4.9268268426
 11
12.6955754125
 21
4.8668268426
  0
LINE
  5
33C
100
AcDbEntity
  8
0
100
AcDbLine
 62
7
  6
CONTINUOUS
 10
12.6976688507
 20
4.9268268426
 11
12.6976688507
 21
4.8668268426
  0
LINE
  5
33D
100
AcDbEntity
  8
0
100
AcDbLine
 62
7
  6
CONTINUOUS
 10
12.6979923227
 20
4.9268268426
 11
12.6979923227
 21
4.8668268426
  0
LINE
  5
33E
100
AcDbEntity
  8
0
100
AcDbLine
 62
7
  6
CONTINUOUS
 10
12.6981923427
 20
4.5618268426
 11
12.6981923427
 21
4.4818268426
  0
LINE
  5
33F
100
AcDbEntity
  8
0
100
AcDbLine
 62
9
  6
CONTINUOUS
 10
11.3838837465
 20
11.4981259293
 11
11.3838767118
 21
11.498133327
  0
LINE
  5
340
100
AcDbEntity
  8
0
100
AcDbLine
 62
7
  6
CONTINUOUS
 10
11.3802879469
 20
11.5020204469
 11
11.3838767118
 21
11.498133327
  0
LINE
  5
341
100
AcDbEntity
  8
0
100
AcDbLine
 62
7
  6
CONTINUOUS
 10
12.5631923427
 20
7.3568268426
 11
12.5281923427
 21
7.3218268426
  0
LINE
  5
342
100
AcDbEntity
  8
0
100
AcDbLine
 62
7
  6
CONTINUOUS
 10
10.7461923427
 20
4.6098268426
 11
10.6981923427
 21
4.5618268426
  0
ARC
  5
343
100
AcDbEntity
  8
0
100
AcDbCircle
 62
7
  6
CONTINUOUS
 10
10.0571923427
 20
7.6522316045
 40
0.8144047619
100
AcDbArc
 50
270.0
 51
299.4166077994
  0
ARC
  5
344
100
AcDbEntity
  8
0
100
AcDbCircle
 62
7
  6
CONTINUOUS
 10
10.0571923427
 20
5.1334220806
 40
0.8144047619
100
AcDbArc
 50
60.5833922006
 51
90.0
  0
ARC
  5
345
100
AcDbEntity
  8
0
100
AcDbCircle
 62
7
  6
CONTINUOUS
 10
12.6037931026
 20
11.3601229035
 40
0.6221733715
100
AcDbArc
 50
172.6691275554
 51
180.0018859127
  0
ARC
  5
346
100
AcDbEntity
  8
0
100
AcDbCircle
 62
7
  6
CONTINUOUS
 10
10.7925917608
 20
11.3601228893
 40
0.6221731935
100
AcDbArc
 50
359.9981153885
 51
7.3308758387
  0
ARC
  5
347
100
AcDbEntity
  8
0
100
AcDbCircle
 62
7
  6
CONTINUOUS
 10
11.6981923427
 20
13.8038268426
 40
0.25
100
AcDbArc
 50
0.0
 51
180.0
  0
ARC
  5
348
100
AcDbEntity
  8
0
100
AcDbCircle
 62
7
  6
CONTINUOUS
 10
11.2877470474
 20
11.4238186369
 40
0.1229378828
100
AcDbArc
 50
7.3338173584
 51
9.3666028289
  0
ARC
  5
349
100
AcDbEntity
  8
0
100
AcDbCircle
 62
7
  6
CONTINUOUS
 10
12.1085388565
 20
11.4238325223
 40
0.1228381368
100
AcDbArc
 50
170.6329217054
 51
172.6667248072
  0
ARC
  5
34A
100
AcDbEntity
  8
0
100
AcDbCircle
 62
7
  6
CONTINUOUS
 10
11.948021215
 20
11.5724516529
 40
0.0965985097
100
AcDbArc
 50
0.0106259761
 51
10.4990644188
  0
ARC
  5
34B
100
AcDbEntity
  8
0
100
AcDbCircle
 62
7
  6
CONTINUOUS
 10
11.4483630748
 20
11.5724516833
 40
0.0965981139
100
AcDbArc
 50
169.5009896952
 51
179.9893919673
  0
ARC
  5
34C
100
AcDbEntity
  8
0
100
AcDbCircle
 62
9
  6
CONTINUOUS
 10
11.4435230277
 20
11.5548890011
 40
0.082334012
100
AcDbArc
 50
219.8580763149
 51
223.5774509296
  0
ARC
  5
34D
100
AcDbEntity
  8
0
100
AcDbCircle
 62
9
  6
CONTINUOUS
 10
11.9542864967
 20
11.5536186263
 40
0.0804261146
100
AcDbArc
 50
316.3742404321
 51
320.1824497453
  0
ARC
  5
34E
100
AcDbEntity
  8
0
100
AcDbCircle
 62
7
  6
CONTINUOUS
 10
11.9361375884
 20
11.2444029268
 40
0.0770549647
100
AcDbArc
 50
0.0154494211
 51
11.1123128212
  0
ARC
  5
34F
100
AcDbEntity
  8
0
100
AcDbCircle
 62
7
  6
CONTINUOUS
 10
11.4601127416
 20
11.2444164863
 40
0.0769202878
100
AcDbArc
 50
168.8783212241
 51
179.9946236961
  0
ARC
  5
350
100
AcDbEntity
  8
0
100
AcDbCircle
 62
7
  6
CONTINUOUS
 10
11.3306571992
 20
11.4476439563
 40
0.0733586936
100
AcDbArc
 50
39.6508760076
 51
43.4832901204
  0
ARC
  5
351
100
AcDbEntity
  8
0
100
AcDbCircle
 62
9
  6
CONTINUOUS
 10
11.9567867278
 20
11.5381455723
 40
0.0682699055
100
AcDbArc
 50
320.2104920331
 51
324.357363869
  0
ARC
  5
352
100
AcDbEntity
  8
0
100
AcDbCircle
 62
7
  6
CONTINUOUS
 10
10.8331923427
 20
7.7068268426
 40
0.065
100
AcDbArc
 50
270.0
 51
360.0
  0
ARC
  5
353
100
AcDbEntity
  8
0
100
AcDbCircle
 62
7
  6
CONTINUOUS
 10
12.5631923427
 20
7.7068268426
 40
0.065
100
AcDbArc
 50
180.0
 51
270.0
  0
ARC
  5
354
100
AcDbEntity
  8
0
100
AcDbCircle
 62
7
  6
CONTINUOUS
 10
12.6151923427
 20
4.9818268426
 40
0.055
100
AcDbArc
 50
180.0
 51
267.6282196135
  0
ARC
  5
355
100
AcDbEntity
  8
0
100
AcDbCircle
 62
7
  6
CONTINUOUS
 10
10.7811923427
 20
4.9818268426
 40
0.055
100
AcDbArc
 50
272.3717803865
 51
360.0
  0
ARC
  5
356
100
AcDbEntity
  8
0
100
AcDbCircle
 62
7
  6
CONTINUOUS
 10
9.8056923427
 20
7.0568268426
 40
0.051
100
AcDbArc
 50
270.0
 51
90.0
  0
ARC
  5
357
100
AcDbEntity
  8
0
100
AcDbCircle
 62
7
  6
CONTINUOUS
 10
9.3056923427
 20
7.0568268426
 40
0.051
100
AcDbArc
 50
90.0
 51
270.0
  0
ARC
  5
358
100
AcDbEntity
  8
0
100
AcDbCircle
 62
7
  6
CONTINUOUS
 10
9.2271923427
 20
5.9928268426
 40
0.05
100
AcDbArc
 50
180.0
 51
342.1569487527
  0
ARC
  5
359
100
AcDbEntity
  8
0
100
AcDbCircle
 62
7
  6
CONTINUOUS
 10
9.2271923427
 20
6.7928268426
 40
0.05
100
AcDbArc
 50
17.8430512473
 51
180.0
  0
ARC
  5
35A
100
AcDbEntity
  8
0
100
AcDbCircle
 62
7
  6
CONTINUOUS
 10
9.8056923427
 20
8.9558268426
 40
0.05
100
AcDbArc
 50
270.0
 51
90.0
  0
ARC
  5
35B
100
AcDbEntity
  8
0
100
AcDbCircle
 62
7
  6
CONTINUOUS
 10
9.3056923427
 20
8.9558268426
 40
0.05
100
AcDbArc
 50
90.0
 51
270.0
  0
ARC
  5
35C
100
AcDbEntity
  8
0
100
AcDbCircle
 62
9
  6
CONTINUOUS
 10
11.3953747003
 20
11.5822797516
 40
0.0427060019
100
AcDbArc
 50
167.5107080544
 51
169.5126928701
  0
ARC
  5
35D
100
AcDbEntity
  8
0
100
AcDbCircle
 62
9
  6
CONTINUOUS
 10
12.0011404816
 20
11.5823062735
 40
0.042572858
100
AcDbArc
 50
10.4842699531
 51
12.4924236234
  0
SPLINE
  5
35E
100
AcDbEntity
  8
0
100
AcDbSpline
 62
7
  6
CONTINUOUS
 70
0
 71
3
 72
13
 73
9
 74
0
 42
0.0000001
 43
0.0000001
 44
0.0000000001
 40
0.0
 40
0.0
 40
0.0
 40
0.0
 40
0.0740752109
 40
0.2841254112
 40
0.4317329354
 40
0.6026858886
 40
0.7933206784
 40
1.0
 40
1.0
 40
1.0
 40
1.0
 10
9.7341923427
 20
6.8081473743
 30
0.0
 10
9.7315471959
 20
6.8070105379
 30
0.0
 10
9.7213720679
 20
6.8027163674
 30
0.0
 10
9.7057403473
 20
6.7965980665
 30
0.0
 10
9.68633994
 20
6.7898222253
 30
0.0
 10
9.6674291415
 20
6.7839641606
 30
0.0
 10
9.6460563014
 20
6.7783580855
 30
0.0
 10
9.6309241367
 20
6.7752246575
 30
0.0
 10
9.6230132599
 20
6.7738268426
 30
0.0
  0
SPLINE
  5
35F
100
AcDbEntity
  8
0
100
AcDbSpline
 62
7
  6
CONTINUOUS
 70
0
 71
3
 72
43
 73
39
 74
0
 42
0.0000001
 43
0.0000001
 44
0.0000000001
 40
0.0
 40
0.0
 40
0.0
 40
0.0
 40
0.0110980551
 40
0.0431374871
 40
0.0660819715
 40
0.0930397521
 40
0.1235605157
 40
0.1572250137
 40
0.1936553016
 40
0.2325155259
 40
0.2735046037
 40
0.3163415212
 40
0.3383679455
 40
0.3607493436
 40
0.3834458217
 40
0.4064140745
 40
0.4296068419
 40
0.4529727198
 40
0.4764564825
 40
0.5000000015
 40
0.5235435198
 40
0.5470272827
 40
0.5703931606
 40
0.5935859272
 40
0.6165541802
 40
0.6392506586
 40
0.6616320564
 40
0.6836584811
 40
0.7264953977
 40
0.7674844756
 40
0.8063446989
 40
0.8427749867
 40
0.8764394844
 40
0.9069602478
 40
0.9339180285
 40
0.9568625129
 40
0.988901945
 40
1.0
 40
1.0
 40
1.0
 40
1.0
 10
10.8931923427
 20
6.8928268426
 30
0.0
 10
10.8952864659
 20
6.8894552796
 30
0.0
 10
10.9033898888
 20
6.8763274561
 30
0.0
 10
10.9155781805
 20
6.8560783258
 30
0.0
 10
10.9302942249
 20
6.8307354328
 30
0.0
 10
10.9443542465
 20
6.8056428357
 30
0.0
 10
10.9597388227
 20
6.776903538
 30
0.0
 10
10.975967509
 20
6.7447831819
 30
0.0
 10
10.9925355879
 20
6.7095082212
 30
0.0
 10
11.0089055346
 20
6.671269641
 30
0.0
 10
11.0244964441
 20
6.6302415777
 30
0.0
 10
11.0362019212
 20
6.5942197732
 30
0.0
 10
11.0445756277
 20
6.5641588462
 30
0.0
 10
11.0503033702
 20
6.5408495288
 30
0.0
 10
11.0553338613
 20
6.5170350405
 30
0.0
 10
11.059584704
 20
6.49277382
 30
0.0
 10
11.0629804168
 20
6.4681359882
 30
0.0
 10
11.0654564447
 20
6.4432030627
 30
0.0
 10
11.0669630646
 20
6.4180668285
 30
0.0
 10
11.067468858
 20
6.3928268412
 30
0.0
 10
11.0669630645
 20
6.3675868538
 30
0.0
 10
11.0654564445
 20
6.3424506198
 30
0.0
 10
11.0629804165
 20
6.3175176945
 30
0.0
 10
11.0595847038
 20
6.2928798629
 30
0.0
 10
11.0553338608
 20
6.2686186426
 30
0.0
 10
11.0503033698
 20
6.2448041543
 30
0.0
 10
11.0445756271
 20
6.2214948368
 30
0.0
 10
11.0362019206
 20
6.19143391
 30
0.0
 10
11.0244964435
 20
6.1554121056
 30
0.0
 10
11.0089055341
 20
6.1143840429
 30
0.0
 10
10.9925355876
 20
6.0761454631
 30
0.0
 10
10.9759675088
 20
6.0408705029
 30
0.0
 10
10.9597388226
 20
6.0087501469
 30
0.0
 10
10.9443542465
 20
5.9800108493
 30
0.0
 10
10.9302942249
 20
5.9549182523
 30
0.0
 10
10.9155781804
 20
5.9295753592
 30
0.0
 10
10.9033898888
 20
5.909326229
 30
0.0
 10
10.8952864659
 20
5.8961984055
 30
0.0
 10
10.8931923427
 20
5.8928268426
 30
0.0
  0
SPLINE
  5
360
100
AcDbEntity
  8
0
100
AcDbSpline
 62
7
  6
CONTINUOUS
 70
0
 71
3
 72
14
 73
10
 74
0
 42
0.0000001
 43
0.0000001
 44
0.0000000001
 40
0.0
 40
0.0
 40
0.0
 40
0.0
 40
0.0840840924
 40
0.1835391621
 40
0.2965716117
 40
0.4212798467
 40
0.5557668192
 40
0.6982045402
 40
1.0
 40
1.0
 40
1.0
 40
1.0
 10
12.0092450835
 20
11.4944545992
 30
0.0
 10
12.008246299
 20
11.4932523968
 30
0.0
 10
12.0061501512
 20
11.4905576363
 30
0.0
 10
12.0030332255
 20
11.4860066002
 30
0.0
 10
11.9998221101
 20
11.4806186749
 30
0.0
 10
11.9966715825
 20
11.474453049
 30
0.0
 10
11.9937234314
 20
11.4675874753
 30
0.0
 10
11.9901591129
 20
11.4574317292
 30
0.0
 10
11.9882517516
 20
11.449360544
 30
0.0
 10
11.9873386625
 20
11.4438255418
 30
0.0
  0
SPLINE
  5
361
100
AcDbEntity
  8
0
100
AcDbSpline
 62
7
  6
CONTINUOUS
 70
0
 71
3
 72
14
 73
10
 74
0
 42
0.0000001
 43
0.0000001
 44
0.0000000001
 40
0.0
 40
0.0
 40
0.0
 40
0.0
 40
0.3017856152
 40
0.4442246052
 40
0.578714149
 40
0.7034245796
 40
0.816459002
 40
0.91591501
 40
1.0
 40
1.0
 40
1.0
 40
1.0
 10
11.4090458234
 20
11.4438268843
 30
0.0
 10
11.4081327427
 20
11.4493615812
 30
0.0
 10
11.4062253513
 20
11.4574324097
 30
0.0
 10
11.4026611386
 20
11.4675878303
 30
0.0
 10
11.3997129777
 20
11.4744533488
 30
0.0
 10
11.3965624558
 20
11.4806189522
 30
0.0
 10
11.3933513349
 20
11.4860068305
 30
0.0
 10
11.3902343893
 20
11.4905577951
 30
0.0
 10
11.3881382714
 20
11.4932525298
 30
0.0
 10
11.3871394921
 20
11.4944547148
 30
0.0
  0
SPLINE
  5
362
100
AcDbEntity
  8
0
100
AcDbSpline
 62
7
  6
CONTINUOUS
 70
0
 71
3
 72
19
 73
15
 74
0
 42
0.0000001
 43
0.0000001
 44
0.0000000001
 40
0.0
 40
0.0
 40
0.0
 40
0.0
 40
0.1225686026
 40
0.2451907721
 40
0.3683973626
 40
0.4925810106
 40
0.5551304718
 40
0.6179828983
 40
0.6811275117
 40
0.7445393051
 40
0.8081890682
 40
0.8720253457
 40
0.9359519088
 40
1.0
 40
1.0
 40
1.0
 40
1.0
 10
11.985930681
 20
11.1831694124
 30
0.0
 10
11.98790807
 20
11.1851677459
 30
0.0
 10
11.9917244919
 20
11.1893065435
 30
0.0
 10
11.9969578408
 20
11.1959521725
 30
0.0
 10
12.001626987
 20
11.2030522539
 30
0.0
 10
12.004970758
 20
11.2093394819
 30
0.0
 10
12.0072745637
 20
11.2145823633
 30
0.0
 10
12.008808663
 20
11.2186279107
 30
0.0
 10
12.0101321908
 20
11.2227679507
 30
0.0
 10
12.0112334196
 20
11.226991625
 30
0.0
 10
12.0121019397
 20
11.2312854826
 30
0.0
 10
12.0127287044
 20
11.2356332647
 30
0.0
 10
12.0131079608
 20
11.2400186589
 30
0.0
 10
12.013192358
 20
11.2429546626
 30
0.0
 10
12.013192358
 20
11.2444237041
 30
0.0
  0
SPLINE
  5
363
100
AcDbEntity
  8
0
100
AcDbSpline
 62
7
  6
CONTINUOUS
 70
0
 71
3
 72
15
 73
11
 74
0
 42
0.0000001
 43
0.0000001
 44
0.0000000001
 40
0.0
 40
0.0
 40
0.0
 40
0.0
 40
0.1450503007
 40
0.2827510496
 40
0.4137238713
 40
0.538738973
 40
0.6587238555
 40
0.7747607094
 40
0.8880775303
 40
1.0
 40
1.0
 40
1.0
 40
1.0
 10
11.4104744482
 20
11.1831487792
 30
0.0
 10
11.409184779
 20
11.1844520519
 30
0.0
 10
11.4067526264
 20
11.1870757517
 30
0.0
 10
11.4034893009
 20
11.1911689542
 30
0.0
 10
11.4007149821
 20
11.1953078595
 30
0.0
 10
11.3984353942
 20
11.1994861436
 30
0.0
 10
11.396655645
 20
11.2036973288
 30
0.0
 10
11.3953803267
 20
11.2079345806
 30
0.0
 10
11.3946134096
 20
11.2121891986
 30
0.0
 10
11.3944423999
 20
11.2150391968
 30
0.0
 10
11.3944423999
 20
11.2164539556
 30
0.0
  0
SPLINE
  5
364
100
AcDbEntity
  8
0
100
AcDbSpline
 62
7
  6
CONTINUOUS
 70
0
 71
3
 72
19
 73
15
 74
0
 42
0.0000001
 43
0.0000001
 44
0.0000000001
 40
0.0
 40
0.0
 40
0.0
 40
0.0
 40
0.0640487001
 40
0.1279737181
 40
0.1918098351
 40
0.2554599222
 40
0.3188716373
 40
0.3820159416
 40
0.4448686898
 40
0.5074179949
 40
0.6316018217
 40
0.7548086262
 40
0.8774309531
 40
1.0
 40
1.0
 40
1.0
 40
1.0
 10
11.3831923275
 20
11.2444237041
 30
0.0
 10
11.3831923275
 20
11.2429545719
 30
0.0
 10
11.3832767259
 20
11.2400184357
 30
0.0
 10
11.3836560321
 20
11.2356328396
 30
0.0
 10
11.3842828543
 20
11.2312848659
 30
0.0
 10
11.3851514553
 20
11.2269907889
 30
0.0
 10
11.3862527848
 20
11.2227669057
 30
0.0
 10
11.3875764676
 20
11.2186266784
 30
0.0
 10
11.3891106868
 20
11.214580938
 30
0.0
 10
11.391414749
 20
11.2093378327
 30
0.0
 10
11.3947588245
 20
11.2030503395
 30
0.0
 10
11.3994284065
 20
11.1959499956
 30
0.0
 10
11.4046622213
 20
11.189304148
 30
0.0
 10
11.4084789507
 20
11.1851652139
 30
0.0
 10
11.4104565096
 20
11.1831668275
 30
0.0
  0
SPLINE
  5
365
100
AcDbEntity
  8
0
100
AcDbSpline
 62
7
  6
CONTINUOUS
 70
0
 71
3
 72
18
 73
14
 74
0
 42
0.0000001
 43
0.0000001
 44
0.0000000001
 40
0.0
 40
0.0
 40
0.0
 40
0.0
 40
0.1208380928
 40
0.2426661557
 40
0.3657741933
 40
0.4903028499
 40
0.616226675
 40
0.6796788393
 40
0.7433980629
 40
0.80734619
 40
0.8714700822
 40
0.9356833553
 40
1.0
 40
1.0
 40
1.0
 40
1.0
 10
12.0160934028
 20
11.5020167019
 30
0.0
 10
12.0181833229
 20
11.5043488226
 30
0.0
 10
12.0222167547
 20
11.5091823164
 30
0.0
 10
12.0277215755
 20
11.5169109702
 30
0.0
 10
12.0326205131
 20
11.5251513247
 30
0.0
 10
12.0368200912
 20
11.5338882867
 30
0.0
 10
12.0396485646
 20
11.5415302357
 30
0.0
 10
12.0414696354
 20
11.5478336919
 30
0.0
 10
12.0426060457
 20
11.5526566913
 30
0.0
 10
12.0435001042
 20
11.5575480814
 30
0.0
 10
12.0441441058
 20
11.5624916526
 30
0.0
 10
12.0445331621
 20
11.567471258
 30
0.0
 10
12.044619723
 20
11.5708027901
 30
0.0
 10
12.044619723
 20
11.5724695679
 30
0.0
  0
SPLINE
  5
366
100
AcDbEntity
  8
0
100
AcDbSpline
 62
7
  6
CONTINUOUS
 70
0
 71
3
 72
19
 73
15
 74
0
 42
0.0000001
 43
0.0000001
 44
0.0000000001
 40
0.0
 40
0.0
 40
0.0
 40
0.0
 40
0.064314392
 40
0.1285233376
 40
0.1926443586
 40
0.2565901602
 40
0.3203067279
 40
0.383756199
 40
0.4469009037
 40
0.5097119166
 40
0.6342367787
 40
0.7573414808
 40
0.8791659239
 40
1.0
 40
1.0
 40
1.0
 40
1.0
 10
11.3517649625
 20
11.5724695679
 30
0.0
 10
11.3517649625
 20
11.5708029559
 30
0.0
 10
11.3518514965
 20
11.567471809
 30
0.0
 10
11.3522404802
 20
11.5624927654
 30
0.0
 10
11.3528843323
 20
11.5575497542
 30
0.0
 10
11.353778206
 20
11.5526588413
 30
0.0
 10
11.3549143251
 20
11.5478363906
 30
0.0
 10
11.3562835954
 20
11.5430966039
 30
0.0
 10
11.3578754293
 20
11.5384516444
 30
0.0
 10
11.3602720418
 20
11.5324172702
 30
0.0
 10
11.3637618786
 20
11.5251555077
 30
0.0
 10
11.3686598102
 20
11.5169161137
 30
0.0
 10
11.3741637549
 20
11.5091877982
 30
0.0
 10
11.3781964624
 20
11.5043545162
 30
0.0
 10
11.3802860766
 20
11.5020225321
 30
0.0
  0
LINE
  5
367
100
AcDbEntity
  8
0
100
AcDbLine
 62
7
  6
CONTINUOUS
 10
12.0125003465
 20
11.498125347
 11
12.009245185
 21
11.4944547196
  0
SPLINE
  5
368
100
AcDbEntity
  8
0
100
AcDbSpline
 62
7
  6
CONTINUOUS
 70
0
 71
3
 72
15
 73
11
 74
0
 42
0.0000001
 43
0.0000001
 44
0.0000000001
 40
0.0
 40
0.0
 40
0.0
 40
0.0
 40
0.1119237085
 40
0.2252416219
 40
0.3412792861
 40
0.4612645859
 40
0.5862796272
 40
0.7172518538
 40
0.8549514405
 40
1.0
 40
1.0
 40
1.0
 40
1.0
 10
12.0019422856
 20
11.2164539556
 30
0.0
 10
12.0019422856
 20
11.2150392806
 30
0.0
 10
12.0017712964
 20
11.2121894537
 30
0.0
 10
12.0010044709
 20
11.2079350887
 30
0.0
 10
11.9997293045
 20
11.2036980866
 30
0.0
 10
11.9979497662
 20
11.199487146
 30
0.0
 10
11.9956704473
 20
11.1953091005
 30
0.0
 10
11.9928964544
 20
11.1911704267
 30
0.0
 10
11.9896335103
 20
11.1870774479
 30
0.0
 10
11.9872016364
 20
11.1844538829
 30
0.0
 10
11.9859121148
 20
11.1831506765
 30
0.0
  0
SPLINE
  5
369
100
AcDbEntity
  8
0
100
AcDbSpline
 62
7
  6
CONTINUOUS
 70
0
 71
3
 72
53
 73
49
 74
0
 42
0.0000001
 43
0.0000001
 44
0.0000000001
 40
0.0
 40
0.0
 40
0.0
 40
0.0
 40
0.0225844695
 40
0.0341758366
 40
0.0460121868
 40
0.0581235852
 40
0.0705350179
 40
0.0832669957
 40
0.0963350947
 40
0.1097507056
 40
0.1235212935
 40
0.13765061
 40
0.1521392822
 40
0.1669849959
 40
0.1821827496
 40
0.1977252573
 40
0.2136031066
 40
0.2463163125
 40
0.2802137695
 40
0.3151630033
 40
0.3510137743
 40
0.3876017231
 40
0.4247516715
 40
0.4622805741
 40
0.5000002182
 40
0.5377198601
 40
0.5752487554
 40
0.6123986946
 40
0.6489866265
 40
0.6848373813
 40
0.7197865898
 40
0.7536840201
 40
0.7863971991
 40
0.8022750308
 40
0.8178175163
 40
0.8330152577
 40
0.8478609534
 40
0.862349598
 40
0.8764789003
 40
0.8902494675
 40
0.9036650482
 40
0.9167331332
 40
0.9294650818
 40
0.941876473
 40
0.9539878745
 40
0.9658241865
 40
0.977415371
 40
1.0
 40
1.0
 40
1.0
 40
1.0
 10
11.4105945069
 20
11.1830276681
 30
0.0
 10
11.4138096381
 20
11.1797897126
 30
0.0
 10
11.4189820591
 20
11.1751868416
 30
0.0
 10
11.426376559
 20
11.1695497123
 30
0.0
 10
11.4322858245
 20
11.1654656452
 30
0.0
 10
11.4385038086
 20
11.1615501666
 30
0.0
 10
11.4450274022
 20
11.1577915531
 30
0.0
 10
11.4518532876
 20
11.154181064
 30
0.0
 10
11.4589783611
 20
11.1507121401
 30
0.0
 10
11.4663988379
 20
11.1473798801
 30
0.0
 10
11.474110302
 20
11.1441810089
 30
0.0
 10
11.4821074977
 20
11.1411135209
 30
0.0
 10
11.4903842347
 20
11.1381763557
 30
0.0
 10
11.4989334283
 20
11.1353692993
 30
0.0
 10
11.5077470687
 20
11.132692771
 30
0.0
 10
11.5168162927
 20
11.1301476144
 30
0.0
 10
11.529360937
 20
11.1268987756
 30
0.0
 10
11.545613726
 20
11.1231905155
 30
0.0
 10
11.5657711584
 20
11.1193324836
 30
0.0
 10
11.5866701018
 20
11.1160378008
 30
0.0
 10
11.6081996009
 20
11.1133204567
 30
0.0
 10
11.6302419177
 20
11.1111929441
 30
0.0
 10
11.6526736351
 20
11.109665571
 30
0.0
 10
11.6753672285
 20
11.1087460119
 30
0.0
 10
11.6981924368
 20
11.1084389578
 30
0.0
 10
11.7210176436
 20
11.1087460163
 30
0.0
 10
11.7437112329
 20
11.1096655822
 30
0.0
 10
11.7661429435
 20
11.1111929572
 30
0.0
 10
11.788185251
 20
11.1133204765
 30
0.0
 10
11.809714738
 20
11.116037822
 30
0.0
 10
11.8306136669
 20
11.1193325082
 30
0.0
 10
11.8507710827
 20
11.1231905419
 30
0.0
 10
11.8670238572
 20
11.1268988014
 30
0.0
 10
11.8795684874
 20
11.1301476404
 30
0.0
 10
11.888637701
 20
11.1326927952
 30
0.0
 10
11.8974513307
 20
11.1353693224
 30
0.0
 10
11.906000512
 20
11.1381763783
 30
0.0
 10
11.9142772384
 20
11.1411135377
 30
0.0
 10
11.9222744212
 20
11.1441810241
 30
0.0
 10
11.9299858713
 20
11.1473798944
 30
0.0
 10
11.9374063393
 20
11.150712142
 30
0.0
 10
11.9445313962
 20
11.1541810665
 30
0.0
 10
11.9513572656
 20
11.1577915486
 30
0.0
 10
11.9578808548
 20
11.1615501427
 30
0.0
 10
11.9640988156
 20
11.1654656295
 30
0.0
 10
11.9700080514
 20
11.1695496612
 30
0.0
 10
11.9774025572
 20
11.175186763
 30
0.0
 10
11.9825749677
 20
11.1797896393
 30
0.0
 10
11.9857901252
 20
11.1830276143
 30
0.0
  0
SPLINE
  5
36A
100
AcDbEntity
  8
0
100
AcDbSpline
 62
7
  6
CONTINUOUS
 70
0
 71
3
 72
59
 73
55
 74
0
 42
0.0000001
 43
0.0000001
 44
0.0000000001
 40
0.0
 40
0.0
 40
0.0
 40
0.0
 40
0.0060190908
 40
0.0120302452
 40
0.0180484154
 40
0.0240830706
 40
0.0362166852
 40
0.0484700049
 40
0.0608889769
 40
0.0735125151
 40
0.0863738692
 40
0.0995017646
 40
0.1129192402
 40
0.1266443154
 40
0.1406902447
 40
0.155065768
 40
0.1697757093
 40
0.1848212207
 40
0.2002001065
 40
0.2159072672
 40
0.2319349606
 40
0.2482730237
 40
0.2818278067
 40
0.3164532024
 40
0.3520046794
 40
0.3883185741
 40
0.4252165341
 40
0.4625096179
 40
0.5000019589
 40
0.5374942948
 40
0.5747873659
 40
0.6116853016
 40
0.6479991656
 40
0.6835506027
 40
0.7181759499
 40
0.7517306782
 40
0.7680687179
 40
0.784096365
 40
0.7998034934
 40
0.8151823588
 40
0.8302278223
 40
0.8449377163
 40
0.8593132189
 40
0.873359101
 40
0.8870841166
 40
0.9005015649
 40
0.9136294147
 40
0.9264907173
 40
0.9391141552
 40
0.9515331413
 40
0.9637864898
 40
0.9759194767
 40
0.9879720027
 40
1.0
 40
1.0
 40
1.0
 40
1.0
 10
12.0222647488
 20
11.6320317193
 30
0.0
 10
12.021364915
 20
11.6330832826
 30
0.0
 10
12.019530682
 20
11.6351547122
 30
0.0
 10
12.0166787142
 20
11.6381703823
 30
0.0
 10
12.0137312542
 20
11.6410978894
 30
0.0
 10
12.0096696326
 20
11.644897815
 30
0.0
 10
12.004357724
 20
11.6494550987
 30
0.0
 10
11.9976511598
 20
11.6546225892
 30
0.0
 10
11.9906121005
 20
11.6595262972
 30
0.0
 10
11.9832459871
 20
11.6641894721
 30
0.0
 10
11.9755562631
 20
11.6686319437
 30
0.0
 10
11.9675451859
 20
11.6728699245
 30
0.0
 10
11.9592144152
 20
11.6769160254
 30
0.0
 10
11.9505662152
 20
11.6807802184
 30
0.0
 10
11.9416035874
 20
11.6844698327
 30
0.0
 10
11.93233061
 20
11.6879900816
 30
0.0
 10
11.9227526384
 20
11.6913445702
 30
0.0
 10
11.9128762979
 20
11.6945354735
 30
0.0
 10
11.9027095152
 20
11.6975638542
 30
0.0
 10
11.8922615065
 20
11.7004299426
 30
0.0
 10
11.8815426516
 20
11.703133336
 30
0.0
 10
11.8667743065
 20
11.7065498146
 30
0.0
 10
11.8477188042
 20
11.7103898101
 30
0.0
 10
11.8241832621
 20
11.71428713
 30
0.0
 10
11.7999046092
 20
11.7174997554
 30
0.0
 10
11.7750188447
 20
11.7200143219
 30
0.0
 10
11.7496702687
 20
11.7218193299
 30
0.0
 10
11.7240096693
 20
11.7229059822
 30
0.0
 10
11.6981920126
 20
11.7232688195
 30
0.0
 10
11.672374359
 20
11.7229059636
 30
0.0
 10
11.6467137701
 20
11.7218192933
 30
0.0
 10
11.6213652109
 20
11.7200142677
 30
0.0
 10
11.59647947
 20
11.7174996845
 30
0.0
 10
11.5722008466
 20
11.7142870446
 30
0.0
 10
11.5486653404
 20
11.7103897098
 30
0.0
 10
11.5296098695
 20
11.7065497062
 30
0.0
 10
11.5148415556
 20
11.7031332194
 30
0.0
 10
11.5041227256
 20
11.7004298234
 30
0.0
 10
11.4936747409
 20
11.6975637333
 30
0.0
 10
11.4835079842
 20
11.6945353461
 30
0.0
 10
11.4736316721
 20
11.6913444416
 30
0.0
 10
11.4640537262
 20
11.6879899603
 30
0.0
 10
11.4547807797
 20
11.6844697042
 30
0.0
 10
11.4458181857
 20
11.6807800857
 30
0.0
 10
11.4371700079
 20
11.676915918
 30
0.0
 10
11.428839277
 20
11.6728698046
 30
0.0
 10
11.4208282327
 20
11.6686318229
 30
0.0
 10
11.4131385396
 20
11.6641893924
 30
0.0
 10
11.4057724611
 20
11.6595262062
 30
0.0
 10
11.3987334394
 20
11.6546225182
 30
0.0
 10
11.3920269119
 20
11.6494550263
 30
0.0
 10
11.3856646139
 20
11.6439966002
 30
0.0
 10
11.3796621553
 20
11.6382187179
 30
0.0
 10
11.3759180817
 20
11.6341330665
 30
0.0
 10
11.3741199367
 20
11.6320317193
 30
0.0
  0
SPLINE
  5
36B
100
AcDbEntity
  8
0
100
AcDbSpline
 62
7
  6
CONTINUOUS
 70
0
 71
3
 72
14
 73
10
 74
0
 42
0.0000001
 43
0.0000001
 44
0.0000000001
 40
0.0
 40
0.0
 40
0.0
 40
0.0
 40
0.2484660031
 40
0.3727083296
 40
0.4972059972
 40
0.6221170915
 40
0.7475634368
 40
0.8734902728
 40
1.0
 40
1.0
 40
1.0
 40
1.0
 10
11.3740677684
 20
11.6319707564
 30
0.0
 10
11.3716044719
 20
11.6290879582
 30
0.0
 10
11.3681247894
 20
11.6245697687
 30
0.0
 10
11.3640302109
 20
11.6181773868
 30
0.0
 10
11.361251175
 20
11.6131935259
 30
0.0
 10
11.3587905454
 20
11.6080245059
 30
0.0
 10
11.3566765663
 20
11.6026802525
 30
0.0
 10
11.3549351743
 20
11.5971776285
 30
0.0
 10
11.3540425694
 20
11.5934257009
 30
0.0
 10
11.3536659908
 20
11.5915320972
 30
0.0
  0
SPLINE
  5
36C
100
AcDbEntity
  8
0
100
AcDbSpline
 62
7
  6
CONTINUOUS
 70
0
 71
3
 72
14
 73
10
 74
0
 42
0.0000001
 43
0.0000001
 44
0.0000000001
 40
0.0
 40
0.0
 40
0.0
 40
0.0
 40
0.1265126698
 40
0.2524330307
 40
0.3778824849
 40
0.5027934147
 40
0.6272903056
 40
0.7515338525
 40
1.0
 40
1.0
 40
1.0
 40
1.0
 10
12.0427186948
 20
11.5915320972
 30
0.0
 10
12.0423420976
 20
11.5934257942
 30
0.0
 10
12.0414495076
 20
11.5971777747
 30
0.0
 10
12.0397079853
 20
11.6026805074
 30
0.0
 10
12.0375940114
 20
11.6080248645
 30
0.0
 10
12.035133255
 20
11.6131940279
 30
0.0
 10
12.0323541018
 20
11.6181779971
 30
0.0
 10
12.0282593765
 20
11.624570531
 30
0.0
 10
12.024779527
 20
11.629088805
 30
0.0
 10
12.0223161499
 20
11.6319716669
 30
0.0
  0
SPLINE
  5
36D
100
AcDbEntity
  8
0
100
AcDbSpline
 62
7
  6
CONTINUOUS
 70
0
 71
3
 72
16
 73
12
 74
0
 42
0.0000001
 43
0.0000001
 44
0.0000000001
 40
0.0
 40
0.0
 40
0.0
 40
0.0
 40
0.0817364336
 40
0.1801987016
 40
0.2933622304
 40
0.4189960801
 40
0.5547677519
 40
0.6257492736
 40
0.6984155513
 40
0.8475004384
 40
1.0
 40
1.0
 40
1.0
 40
1.0
 10
11.4012415771
 20
11.2965555152
 30
0.0
 10
11.4019297118
 20
11.2975016602
 30
0.0
 10
11.4033728567
 20
11.2996419903
 30
0.0
 10
11.4054851366
 20
11.3032746294
 30
0.0
 10
11.407617507
 20
11.3076100797
 30
0.0
 10
11.4096327797
 20
11.3125833072
 30
0.0
 10
11.411089428
 20
11.3171175206
 30
0.0
 10
11.4120979307
 20
11.3209885575
 30
0.0
 10
11.412997552
 20
11.3250817871
 30
0.0
 10
11.4138431259
 20
11.3303770273
 30
0.0
 10
11.4141904518
 20
11.3346848342
 30
0.0
 10
11.4142812864
 20
11.3368657244
 30
0.0
  0
SPLINE
  5
36E
100
AcDbEntity
  8
0
100
AcDbSpline
 62
7
  6
CONTINUOUS
 70
0
 71
3
 72
16
 73
12
 74
0
 42
0.0000001
 43
0.0000001
 44
0.0000000001
 40
0.0
 40
0.0
 40
0.0
 40
0.0
 40
0.1525050173
 40
0.301575566
 40
0.3742448771
 40
0.4452284098
 40
0.5809982217
 40
0.7066330207
 40
0.8197981138
 40
0.9182617745
 40
1.0
 40
1.0
 40
1.0
 40
1.0
 10
11.9821033991
 20
11.3368657244
 30
0.0
 10
11.982194236
 20
11.3346847778
 30
0.0
 10
11.9825414773
 20
11.33037713
 30
0.0
 10
11.9833871979
 20
11.3250820561
 30
0.0
 10
11.9842866374
 20
11.3209889663
 30
0.0
 10
11.9852951583
 20
11.3171179268
 30
0.0
 10
11.9867517508
 20
11.3125837307
 30
0.0
 10
11.9887669654
 20
11.307610527
 30
0.0
 10
11.9908992935
 20
11.3032750457
 30
0.0
 10
11.9930115876
 20
11.2996423864
 30
0.0
 10
11.9944546982
 20
11.297502008
 30
0.0
 10
11.9951428506
 20
11.2965558586
 30
0.0
  0
SPLINE
  5
36F
100
AcDbEntity
  8
0
100
AcDbSpline
 62
7
  6
CONTINUOUS
 70
0
 71
3
 72
13
 73
9
 74
0
 42
0.0000001
 43
0.0000001
 44
0.0000000001
 40
0.0
 40
0.0
 40
0.0
 40
0.0
 40
0.2452788122
 40
0.4936587653
 40
0.6191314425
 40
0.74541074
 40
0.8723590707
 40
1.0
 40
1.0
 40
1.0
 40
1.0
 10
11.4012429373
 20
11.2965573779
 30
0.0
 10
11.3992640316
 20
11.2938365875
 30
0.0
 10
11.395535758
 20
11.2881696654
 30
0.0
 10
11.3916073994
 20
11.2806215573
 30
0.0
 10
11.3889483003
 20
11.2742945404
 30
0.0
 10
11.3872089877
 20
11.2693968312
 30
0.0
 10
11.3857483681
 20
11.2643780868
 30
0.0
 10
11.384973233
 20
11.2609705971
 30
0.0
 10
11.3846365589
 20
11.2592525016
 30
0.0
  0
SPLINE
  5
370
100
AcDbEntity
  8
0
100
AcDbSpline
 62
7
  6
CONTINUOUS
 70
0
 71
3
 72
13
 73
9
 74
0
 42
0.0000001
 43
0.0000001
 44
0.0000000001
 40
0.0
 40
0.0
 40
0.0
 40
0.0
 40
0.1276478682
 40
0.254585207
 40
0.3808672158
 40
0.5063405319
 40
0.7547193467
 40
1.0
 40
1.0
 40
1.0
 40
1.0
 10
12.0117481266
 20
11.2592525016
 30
0.0
 10
12.0114114341
 20
11.2609706911
 30
0.0
 10
12.010636343
 20
11.2643781364
 30
0.0
 10
12.0091756511
 20
11.2693968419
 30
0.0
 10
12.0074364199
 20
11.2742944694
 30
0.0
 10
12.0047773097
 20
11.2806215182
 30
0.0
 10
12.0008489377
 20
11.2881696436
 30
0.0
 10
11.9971206482
 20
11.2938365686
 30
0.0
 10
11.995141737
 20
11.2965573876
 30
0.0
  0
SPLINE
  5
371
100
AcDbEntity
  8
0
100
AcDbSpline
 62
7
  6
CONTINUOUS
 70
0
 71
3
 72
13
 73
9
 74
0
 42
0.0000001
 43
0.0000001
 44
0.0000000001
 40
0.0
 40
0.0
 40
0.0
 40
0.0
 40
0.2066793105
 40
0.3973140969
 40
0.5682670236
 40
0.7158745444
 40
0.9259247642
 40
1.0
 40
1.0
 40
1.0
 40
1.0
 10
9.4883714255
 20
6.7738268426
 30
0.0
 10
9.4804605492
 20
6.7752246574
 30
0.0
 10
9.465328385
 20
6.7783580852
 30
0.0
 10
9.4439555465
 20
6.7839641599
 30
0.0
 10
9.4250447492
 20
6.7898222241
 30
0.0
 10
9.4056443422
 20
6.796598065
 30
0.0
 10
9.39001262
 20
6.8027163664
 30
0.0
 10
9.3798374905
 20
6.8070105375
 30
0.0
 10
9.3771923427
 20
6.8081473743
 30
0.0
  0
SPLINE
  5
372
100
AcDbEntity
  8
0
100
AcDbSpline
 62
9
  6
CONTINUOUS
 70
0
 71
3
 72
9
 73
5
 74
0
 42
0.0000001
 43
0.0000001
 44
0.0000000001
 40
0.0
 40
0.0
 40
0.0
 40
0.0
 40
0.258927613
 40
1.0
 40
1.0
 40
1.0
 40
1.0
 10
11.3871395032
 20
11.4944547197
 30
0.0
 10
11.3865857266
 20
11.4951212749
 30
0.0
 10
11.3844925214
 20
11.4977327005
 30
0.0
 10
11.382588541
 20
11.5004984937
 30
0.0
 10
11.3813203403
 20
11.5026299737
 30
0.0
  0
SPLINE
  5
373
100
AcDbEntity
  8
0
100
AcDbSpline
 62
9
  6
CONTINUOUS
 70
0
 71
3
 72
14
 73
10
 74
0
 42
0.0000001
 43
0.0000001
 44
0.0000000001
 40
0.0
 40
0.0
 40
0.0
 40
0.0
 40
0.2646151067
 40
0.3921336627
 40
0.5169983476
 40
0.6396910781
 40
0.7607332503
 40
0.8806610571
 40
1.0
 40
1.0
 40
1.0
 40
1.0
 10
11.3813203403
 20
11.5026299737
 30
0.0
 10
11.3802709517
 20
11.5043936935
 30
0.0
 10
11.3788571274
 20
11.507097286
 30
0.0
 10
11.3773449495
 20
11.5108132112
 30
0.0
 10
11.3764268317
 20
11.5135759633
 30
0.0
 10
11.3757120177
 20
11.5163462633
 30
0.0
 10
11.3752008897
 20
11.5191225262
 30
0.0
 10
11.3748939261
 20
11.5219024461
 30
0.0
 10
11.3748256742
 20
11.5237588715
 30
0.0
 10
11.3748258053
 20
11.5246844383
 30
0.0
  0
SPLINE
  5
374
100
AcDbEntity
  8
0
100
AcDbSpline
 62
9
  6
CONTINUOUS
 70
0
 71
3
 72
14
 73
10
 74
0
 42
0.0000001
 43
0.0000001
 44
0.0000000001
 40
0.0
 40
0.0
 40
0.0
 40
0.0
 40
0.1193368277
 40
0.2392627385
 40
0.3603034437
 40
0.4829953481
 40
0.60786003
 40
0.7353795561
 40
1.0
 40
1.0
 40
1.0
 40
1.0
 10
12.0215588803
 20
11.5246844383
 30
0.0
 10
12.0215590114
 20
11.5237586805
 30
0.0
 10
12.0214907311
 20
11.5219018701
 30
0.0
 10
12.0211836405
 20
11.5191213756
 30
0.0
 10
12.0206723011
 20
11.5163445407
 30
0.0
 10
12.0199571918
 20
11.5135736724
 30
0.0
 10
12.0190386951
 20
11.5108103569
 30
0.0
 10
12.017525888
 20
11.5070936638
 30
0.0
 10
12.0161114865
 20
11.5043895435
 30
0.0
 10
12.0150616776
 20
11.5026254906
 30
0.0
  0
LINE
  5
375
100
AcDbEntity
  8
0
100
AcDbLine
 62
9
  6
CONTINUOUS
 10
12.0150616776
 20
11.5026254906
 11
12.0122674513
 21
11.4983627956
  0
SPLINE
  5
376
100
AcDbEntity
  8
0
100
AcDbSpline
 62
9
  6
CONTINUOUS
 70
0
 71
3
 72
15
 73
11
 74
0
 42
0.0000001
 43
0.0000001
 44
0.0000000001
 40
0.0
 40
0.0
 40
0.0
 40
0.0
 40
0.114985302
 40
0.2310127184
 40
0.34907739
 40
0.470128291
 40
0.5950278028
 40
0.7245436158
 40
0.8593446808
 40
1.0
 40
1.0
 40
1.0
 40
1.0
 10
12.0287102493
 20
11.5330926893
 30
0.0
 10
12.0287102493
 20
11.531783971
 30
0.0
 10
12.0285761895
 20
11.5291527541
 30
0.0
 10
12.0279744117
 20
11.5252191937
 30
0.0
 10
12.0269728366
 20
11.521296614
 30
0.0
 10
12.0255735296
 20
11.5173908783
 30
0.0
 10
12.0237790495
 20
11.513506714
 30
0.0
 10
12.021592273
 20
11.5096487255
 30
0.0
 10
12.0190165892
 20
11.50582148
 30
0.0
 10
12.0170854172
 20
11.5033481888
 30
0.0
 10
12.0160607832
 20
11.5021181657
 30
0.0
  0
SPLINE
  5
377
100
AcDbEntity
  8
0
100
AcDbSpline
 62
9
  6
CONTINUOUS
 70
0
 71
3
 72
15
 73
11
 74
0
 42
0.0000001
 43
0.0000001
 44
0.0000000001
 40
0.0
 40
0.0
 40
0.0
 40
0.0
 40
0.1137597412
 40
0.2287000716
 40
0.34594749
 40
0.4665635822
 40
0.5915012624
 40
0.7215965231
 40
0.8575641319
 40
1.0
 40
1.0
 40
1.0
 40
1.0
 10
12.0306923429
 20
11.5353442417
 30
0.0
 10
12.0306923429
 20
11.5339333375
 30
0.0
 10
12.0305372718
 20
11.5310945153
 30
0.0
 10
12.029841415
 20
11.5268528804
 30
0.0
 10
12.0286836308
 20
11.5226251539
 30
0.0
 10
12.0270667721
 20
11.518418578
 30
0.0
 10
12.0249942475
 20
11.514238952
 30
0.0
 10
12.0224699246
 20
11.5100918445
 30
0.0
 10
12.0194982443
 20
11.5059827243
 30
0.0
 10
12.0172756578
 20
11.5033360734
 30
0.0
 10
12.0160967343
 20
11.5020204472
 30
0.0
  0
SPLINE
  5
378
100
AcDbEntity
  8
0
100
AcDbSpline
 62
9
  6
CONTINUOUS
 70
0
 71
3
 72
73
 73
69
 74
0
 42
0.0000001
 43
0.0000001
 44
0.0000000001
 40
0.0
 40
0.0
 40
0.0
 40
0.0
 40
0.0037551325
 40
0.0075275668
 40
0.0113336842
 40
0.0151896768
 40
0.019111135
 40
0.0231126479
 40
0.0314051718
 40
0.0401659428
 40
0.0494711891
 40
0.059379794
 40
0.0699352705
 40
0.0811679459
 40
0.0930970321
 40
0.105732421
 40
0.119076175
 40
0.1331237381
 40
0.1478649105
 40
0.1632846331
 40
0.1793636251
 40
0.1960789052
 40
0.2134042251
 40
0.2313104352
 40
0.2497657987
 40
0.268736267
 40
0.2881857238
 40
0.3080762071
 40
0.3283681129
 40
0.349020386
 40
0.3699906994
 40
0.3912356265
 40
0.412710807
 40
0.4561691943
 40
0.5
 40
0.5438308057
 40
0.587289193
 40
0.6087643735
 40
0.6300093006
 40
0.650979614
 40
0.6716318871
 40
0.6919237929
 40
0.7118142762
 40
0.731263733
 40
0.7502342013
 40
0.7686895648
 40
0.7865957749
 40
0.8039210948
 40
0.8206363749
 40
0.8367153669
 40
0.8521350895
 40
0.8668762619
 40
0.880923825
 40
0.894267579
 40
0.9069029679
 40
0.9188320541
 40
0.9300647295
 40
0.940620206
 40
0.9505288109
 40
0.9598340572
 40
0.9685948282
 40
0.9768873521
 40
0.980888865
 40
0.9848103232
 40
0.9886663158
 40
0.9924724332
 40
0.9962448675
 40
1.0
 40
1.0
 40
1.0
 40
1.0
 10
12.0019422856
 20
11.2164539556
 30
0.0
 10
12.0019422856
 20
11.217304318
 30
0.0
 10
12.0018809443
 20
11.2190095885
 30
0.0
 10
12.0016053257
 20
11.2215633676
 30
0.0
 10
12.0011461617
 20
11.2241138985
 30
0.0
 10
12.0005039018
 20
11.226659262
 30
0.0
 10
11.9996789894
 20
11.2291979702
 30
0.0
 10
11.9983206779
 20
11.2326118834
 30
0.0
 10
11.9961452192
 20
11.2368683576
 30
0.0
 10
11.992847911
 20
11.2418566196
 30
0.0
 10
11.9888430767
 20
11.2467770034
 30
0.0
 10
11.9841417323
 20
11.2516189712
 30
0.0
 10
11.978755472
 20
11.2563728278
 30
0.0
 10
11.9726971417
 20
11.2610284236
 30
0.0
 10
11.9659809586
 20
11.2655755466
 30
0.0
 10
11.9586226563
 20
11.270003916
 30
0.0
 10
11.9506395181
 20
11.2743033163
 30
0.0
 10
11.9420503739
 20
11.2784636799
 30
0.0
 10
11.9328755665
 20
11.2824751645
 30
0.0
 10
11.9231369034
 20
11.2863282127
 30
0.0
 10
11.9128575987
 20
11.2900136001
 30
0.0
 10
11.902062211
 20
11.2935224748
 30
0.0
 10
11.8907765768
 20
11.2968463897
 30
0.0
 10
11.8790277426
 20
11.2999773315
 30
0.0
 10
11.8668438943
 20
11.3029077442
 30
0.0
 10
11.854254285
 20
11.3056305514
 30
0.0
 10
11.8412891608
 20
11.3081391748
 30
0.0
 10
11.8279796846
 20
11.3104275524
 30
0.0
 10
11.8143578605
 20
11.3124901526
 30
0.0
 10
11.8004564489
 20
11.3143219915
 30
0.0
 10
11.7863089066
 20
11.3159186335
 30
0.0
 10
11.7719492273
 20
11.3172762465
 30
0.0
 10
11.7524901543
 20
11.3187690313
 30
0.0
 10
11.7278862048
 20
11.3200117927
 30
0.0
 10
11.6981923428
 20
11.3205086378
 30
0.0
 10
11.6684984807
 20
11.3200117927
 30
0.0
 10
11.6438945312
 20
11.3187690313
 30
0.0
 10
11.6244354582
 20
11.3172762465
 30
0.0
 10
11.6100757789
 20
11.3159186335
 30
0.0
 10
11.5959282366
 20
11.3143219915
 30
0.0
 10
11.582026825
 20
11.3124901526
 30
0.0
 10
11.5684050009
 20
11.3104275524
 30
0.0
 10
11.5550955248
 20
11.3081391748
 30
0.0
 10
11.5421304005
 20
11.3056305514
 30
0.0
 10
11.5295407912
 20
11.3029077442
 30
0.0
 10
11.5173569429
 20
11.2999773315
 30
0.0
 10
11.5056081088
 20
11.2968463897
 30
0.0
 10
11.4943224745
 20
11.2935224748
 30
0.0
 10
11.4835270868
 20
11.2900136001
 30
0.0
 10
11.4732477821
 20
11.2863282127
 30
0.0
 10
11.463509119
 20
11.2824751645
 30
0.0
 10
11.4543343116
 20
11.2784636799
 30
0.0
 10
11.4457451674
 20
11.2743033163
 30
0.0
 10
11.4377620292
 20
11.270003916
 30
0.0
 10
11.4304037269
 20
11.2655755466
 30
0.0
 10
11.4236875438
 20
11.2610284236
 30
0.0
 10
11.4176292136
 20
11.2563728278
 30
0.0
 10
11.4122429532
 20
11.2516189712
 30
0.0
 10
11.4075416088
 20
11.2467770034
 30
0.0
 10
11.4035367745
 20
11.2418566196
 30
0.0
 10
11.4002394663
 20
11.2368683576
 30
0.0
 10
11.3980640076
 20
11.2326118834
 30
0.0
 10
11.3967056961
 20
11.2291979702
 30
0.0
 10
11.3958807837
 20
11.226659262
 30
0.0
 10
11.3952385238
 20
11.2241138985
 30
0.0
 10
11.3947793599
 20
11.2215633676
 30
0.0
 10
11.3945037412
 20
11.2190095885
 30
0.0
 10
11.3944423999
 20
11.217304318
 30
0.0
 10
11.3944423999
 20
11.2164539556
 30
0.0
  0
SPLINE
  5
379
100
AcDbEntity
  8
0
100
AcDbSpline
 62
9
  6
CONTINUOUS
 70
0
 71
3
 72
73
 73
69
 74
0
 42
0.0000001
 43
0.0000001
 44
0.0000000001
 40
0.0
 40
0.0
 40
0.0
 40
0.0
 40
0.0037551232
 40
0.0075275604
 40
0.0113336862
 40
0.0151896806
 40
0.0191111346
 40
0.0231126469
 40
0.0314051726
 40
0.0401659429
 40
0.0494711888
 40
0.0593797928
 40
0.0699352684
 40
0.0811679432
 40
0.0930970295
 40
0.1057324197
 40
0.119076176
 40
0.1331237411
 40
0.1478649143
 40
0.1632846367
 40
0.1793636275
 40
0.1960789059
 40
0.2134042239
 40
0.2313104323
 40
0.249765795
 40
0.2687362635
 40
0.2881857216
 40
0.3080762069
 40
0.3283681145
 40
0.3490203885
 40
0.3699907018
 40
0.391235628
 40
0.4127108075
 40
0.4561691936
 40
0.5
 40
0.5438308064
 40
0.5872891925
 40
0.608764372
 40
0.6300092982
 40
0.6509796115
 40
0.6716318855
 40
0.6919237931
 40
0.7118142784
 40
0.7312637365
 40
0.750234205
 40
0.7686895677
 40
0.7865957761
 40
0.8039210941
 40
0.8206363725
 40
0.8367153633
 40
0.8521350857
 40
0.8668762589
 40
0.880923824
 40
0.8942675803
 40
0.9069029705
 40
0.9188320568
 40
0.9300647316
 40
0.9406202072
 40
0.9505288112
 40
0.9598340571
 40
0.9685948274
 40
0.9768873531
 40
0.9808888654
 40
0.9848103194
 40
0.9886663138
 40
0.9924724396
 40
0.9962448768
 40
1.0
 40
1.0
 40
1.0
 40
1.0
 10
11.9869848887
 20
11.4438555351
 30
0.0
 10
11.9869848887
 20
11.4446640216
 30
0.0
 10
11.9869265672
 20
11.4462853189
 30
0.0
 10
11.9866645209
 20
11.4487133441
 30
0.0
 10
11.9862279688
 20
11.4511382836
 30
0.0
 10
11.9856173337
 20
11.4535583081
 30
0.0
 10
11.9848330438
 20
11.4559720039
 30
0.0
 10
11.9835416151
 20
11.4592178055
 30
0.0
 10
11.981473284
 20
11.4632646816
 30
0.0
 10
11.9783383424
 20
11.468007309
 30
0.0
 10
11.9745307172
 20
11.4726854011
 30
0.0
 10
11.9700608793
 20
11.4772889386
 30
0.0
 10
11.9649398526
 20
11.4818087038
 30
0.0
 10
11.95917985
 20
11.4862350468
 30
0.0
 10
11.9527943882
 20
11.4905582584
 30
0.0
 10
11.9457984258
 20
11.4947685637
 30
0.0
 10
11.9382083954
 20
11.4988562503
 30
0.0
 10
11.9300422003
 20
11.5028117467
 30
0.0
 10
11.9213191824
 20
11.5066256957
 30
0.0
 10
11.9120600752
 20
11.5102890103
 30
0.0
 10
11.9022869497
 20
11.5137929204
 30
0.0
 10
11.8920231548
 20
11.5171290098
 30
0.0
 10
11.8812932544
 20
11.5202892476
 30
0.0
 10
11.870122963
 20
11.5232660147
 30
0.0
 10
11.8585390781
 20
11.5260521273
 30
0.0
 10
11.8465694121
 20
11.5286408569
 30
0.0
 10
11.8342427217
 20
11.5310259491
 30
0.0
 10
11.8215886358
 20
11.5332016403
 30
0.0
 10
11.8086375828
 20
11.5351626719
 30
0.0
 10
11.7954207103
 20
11.5369043056
 30
0.0
 10
11.7819698279
 20
11.5384223247
 30
0.0
 10
11.7683172551
 20
11.5397130857
 30
0.0
 10
11.7498163956
 20
11.541132363
 30
0.0
 10
11.7264240058
 20
11.5423139297
 30
0.0
 10
11.6981923428
 20
11.5427863106
 30
0.0
 10
11.6699606797
 20
11.5423139297
 30
0.0
 10
11.6465682899
 20
11.541132363
 30
0.0
 10
11.6280674304
 20
11.5397130857
 30
0.0
 10
11.6144148576
 20
11.5384223247
 30
0.0
 10
11.6009639752
 20
11.5369043056
 30
0.0
 10
11.5877471027
 20
11.5351626719
 30
0.0
 10
11.5747960497
 20
11.5332016403
 30
0.0
 10
11.5621419638
 20
11.5310259491
 30
0.0
 10
11.5498152734
 20
11.5286408569
 30
0.0
 10
11.5378456074
 20
11.5260521273
 30
0.0
 10
11.5262617226
 20
11.5232660147
 30
0.0
 10
11.5150914311
 20
11.5202892476
 30
0.0
 10
11.5043615308
 20
11.5171290098
 30
0.0
 10
11.4940977358
 20
11.5137929204
 30
0.0
 10
11.4843246103
 20
11.5102890103
 30
0.0
 10
11.4750655031
 20
11.5066256957
 30
0.0
 10
11.4663424852
 20
11.5028117467
 30
0.0
 10
11.4581762902
 20
11.4988562503
 30
0.0
 10
11.4505862597
 20
11.4947685637
 30
0.0
 10
11.4435902973
 20
11.4905582584
 30
0.0
 10
11.4372048355
 20
11.4862350468
 30
0.0
 10
11.4314448329
 20
11.4818087038
 30
0.0
 10
11.4263238062
 20
11.4772889386
 30
0.0
 10
11.4218539683
 20
11.4726854011
 30
0.0
 10
11.4180463431
 20
11.468007309
 30
0.0
 10
11.4149114015
 20
11.4632646816
 30
0.0
 10
11.4128430704
 20
11.4592178055
 30
0.0
 10
11.4115516418
 20
11.4559720039
 30
0.0
 10
11.4107673518
 20
11.4535583081
 30
0.0
 10
11.4101567167
 20
11.4511382836
 30
0.0
 10
11.4097201646
 20
11.4487133441
 30
0.0
 10
11.4094581183
 20
11.4462853189
 30
0.0
 10
11.4093997968
 20
11.4446640216
 30
0.0
 10
11.4093997968
 20
11.4438555351
 30
0.0
  0
SPLINE
  5
37A
100
AcDbEntity
  8
0
100
AcDbSpline
 62
9
  6
CONTINUOUS
 70
0
 71
3
 72
59
 73
55
 74
0
 42
0.0000001
 43
0.0000001
 44
0.0000000001
 40
0.0
 40
0.0
 40
0.0
 40
0.0
 40
0.0088025363
 40
0.0180733972
 40
0.0278345538
 40
0.038101886
 40
0.048886006
 40
0.0601929721
 40
0.0720248925
 40
0.0843804216
 40
0.0972552007
 40
0.1106422259
 40
0.1245321468
 40
0.1389135074
 40
0.1537729632
 40
0.1690954791
 40
0.1848644888
 40
0.2010620269
 40
0.2176688459
 40
0.2346645428
 40
0.2520276608
 40
0.2697357779
 40
0.3060917506
 40
0.3435382194
 40
0.381869212
 40
0.4208706015
 40
0.4603222431
 40
0.5
 40
0.5396777569
 40
0.5791293985
 40
0.618130788
 40
0.6564617806
 40
0.6939082494
 40
0.7302642221
 40
0.7479723392
 40
0.7653354572
 40
0.7823311541
 40
0.7989379731
 40
0.8151355112
 40
0.8309045209
 40
0.8462270368
 40
0.8610864926
 40
0.8754678532
 40
0.8893577741
 40
0.9027447993
 40
0.9156195784
 40
0.9279751075
 40
0.9398070279
 40
0.951113994
 40
0.961898114
 40
0.9721654462
 40
0.9819266028
 40
0.9911974637
 40
1.0
 40
1.0
 40
1.0
 40
1.0
 10
12.0222647428
 20
11.6320317187
 30
0.0
 10
12.0209610621
 20
11.6335552232
 30
0.0
 10
12.0181656387
 20
11.6365831515
 30
0.0
 10
12.0135627042
 20
11.6409494299
 30
0.0
 10
12.00845217
 20
11.6452477997
 30
0.0
 10
12.0028425041
 20
11.6494714573
 30
0.0
 10
11.9967425175
 20
11.6536140693
 30
0.0
 10
11.9901619017
 20
11.6576691932
 30
0.0
 10
11.9831110889
 20
11.6616304833
 30
0.0
 10
11.9756013003
 20
11.6654916848
 30
0.0
 10
11.9676445119
 20
11.6692466615
 30
0.0
 10
11.9592534357
 20
11.6728894132
 30
0.0
 10
11.9504415002
 20
11.6764140936
 30
0.0
 10
11.941222834
 20
11.6798150361
 30
0.0
 10
11.9316122405
 20
11.6830867662
 30
0.0
 10
11.9216251648
 20
11.6862240057
 30
0.0
 10
11.911277668
 20
11.6892216858
 30
0.0
 10
11.9005864046
 20
11.6920749585
 30
0.0
 10
11.8895685935
 20
11.6947792174
 30
0.0
 10
11.8782419957
 20
11.6973300815
 30
0.0
 10
11.866624836
 20
11.6997234509
 30
0.0
 10
11.8506328815
 20
11.7027256049
 30
0.0
 10
11.8300494623
 20
11.7060464589
 30
0.0
 10
11.8047122838
 20
11.7093147865
 30
0.0
 10
11.7786887023
 20
11.7118791505
 30
0.0
 10
11.7521465141
 20
11.7137228816
 30
0.0
 10
11.7252566329
 20
11.7148339372
 30
0.0
 10
11.6981923428
 20
11.715205104
 30
0.0
 10
11.6711280526
 20
11.7148339372
 30
0.0
 10
11.6442381714
 20
11.7137228816
 30
0.0
 10
11.6176959832
 20
11.7118791505
 30
0.0
 10
11.5916724017
 20
11.7093147865
 30
0.0
 10
11.5663352233
 20
11.7060464589
 30
0.0
 10
11.545751804
 20
11.7027256049
 30
0.0
 10
11.5297598495
 20
11.6997234509
 30
0.0
 10
11.5181426898
 20
11.6973300815
 30
0.0
 10
11.506816092
 20
11.6947792174
 30
0.0
 10
11.4957982809
 20
11.6920749585
 30
0.0
 10
11.4851070175
 20
11.6892216858
 30
0.0
 10
11.4747595207
 20
11.6862240057
 30
0.0
 10
11.464772445
 20
11.6830867662
 30
0.0
 10
11.4551618515
 20
11.6798150361
 30
0.0
 10
11.4459431853
 20
11.6764140936
 30
0.0
 10
11.4371312498
 20
11.6728894132
 30
0.0
 10
11.4287401736
 20
11.6692466615
 30
0.0
 10
11.4207833852
 20
11.6654916848
 30
0.0
 10
11.4132735966
 20
11.6616304833
 30
0.0
 10
11.4062227838
 20
11.6576691932
 30
0.0
 10
11.399642168
 20
11.6536140693
 30
0.0
 10
11.3935421815
 20
11.6494714573
 30
0.0
 10
11.3879325155
 20
11.6452477997
 30
0.0
 10
11.3828219813
 20
11.6409494299
 30
0.0
 10
11.3782190469
 20
11.6365831515
 30
0.0
 10
11.3754236234
 20
11.6335552232
 30
0.0
 10
11.3741199427
 20
11.6320317187
 30
0.0
  0
SPLINE
  5
37B
100
AcDbEntity
  8
0
100
AcDbSpline
 62
9
  6
CONTINUOUS
 70
0
 71
3
 72
71
 73
67
 74
0
 42
0.0000001
 43
0.0000001
 44
0.0000000001
 40
0.0
 40
0.0
 40
0.0
 40
0.0
 40
0.0037540639
 40
0.0075653968
 40
0.0114473333
 40
0.015412277
 40
0.023633074
 40
0.0323114146
 40
0.04151174
 40
0.0512839653
 40
0.0616651578
 40
0.0726813316
 40
0.0843491246
 40
0.0966772538
 40
0.1096677318
 40
0.1233168639
 40
0.1376160576
 40
0.1525524802
 40
0.1681095964
 40
0.1842676136
 40
0.2010038516
 40
0.2182930568
 40
0.236107672
 40
0.2544180721
 40
0.2731927739
 40
0.2923986257
 40
0.3120009804
 40
0.3319638572
 40
0.3522500935
 40
0.3728214909
 40
0.3936389534
 40
0.4146626229
 40
0.4571647026
 40
0.5
 40
0.5428352974
 40
0.5853373771
 40
0.6063610466
 40
0.6271785091
 40
0.6477499065
 40
0.6680361428
 40
0.6879990196
 40
0.7076013743
 40
0.7268072261
 40
0.7455819279
 40
0.763892328
 40
0.7817069432
 40
0.7989961484
 40
0.8157323864
 40
0.8318904036
 40
0.8474475198
 40
0.8623839424
 40
0.8766831361
 40
0.8903322682
 40
0.9033227462
 40
0.9156508754
 40
0.9273186684
 40
0.9383348422
 40
0.9487160347
 40
0.95848826
 40
0.9676885854
 40
0.976366926
 40
0.984587723
 40
0.9885526667
 40
0.9924346032
 40
0.9962459361
 40
1.0
 40
1.0
 40
1.0
 40
1.0
 10
12.0427186962
 20
11.5915320972
 30
0.0
 10
12.0425341212
 20
11.592460216
 30
0.0
 10
12.0420995172
 20
11.5943187263
 30
0.0
 10
12.041261689
 20
11.5970818803
 30
0.0
 10
12.0402342446
 20
11.5998371771
 30
0.0
 10
12.0385930427
 20
11.6035422087
 30
0.0
 10
12.0360466169
 20
11.6081572313
 30
0.0
 10
12.0322832374
 20
11.6135657658
 30
0.0
 10
12.0277855718
 20
11.618902071
 30
0.0
 10
12.0225646728
 20
11.6241555359
 30
0.0
 10
12.0166322009
 20
11.6293163257
 30
0.0
 10
12.0100010959
 20
11.6343742087
 30
0.0
 10
12.0026856285
 20
11.6393189275
 30
0.0
 10
11.9947015248
 20
11.6441401874
 30
0.0
 10
11.986065987
 20
11.6488277737
 30
0.0
 10
11.9767976891
 20
11.6533716215
 30
0.0
 10
11.9669167459
 20
11.6577618837
 30
0.0
 10
11.9564446712
 20
11.6619889842
 30
0.0
 10
11.945404326
 20
11.6660436613
 30
0.0
 10
11.9338198624
 20
11.6699170032
 30
0.0
 10
11.9217166642
 20
11.673600478
 30
0.0
 10
11.9091212855
 20
11.6770859603
 30
0.0
 10
11.896061388
 20
11.6803657535
 30
0.0
 10
11.8825656757
 20
11.6834326101
 30
0.0
 10
11.8686638283
 20
11.6862797502
 30
0.0
 10
11.8543864338
 20
11.6889008774
 30
0.0
 10
11.8397649179
 20
11.691290194
 30
0.0
 10
11.824831475
 20
11.6934424146
 30
0.0
 10
11.8096189899
 20
11.6953527803
 30
0.0
 10
11.7941609842
 20
11.6970170584
 30
0.0
 10
11.778491463
 20
11.6984315933
 30
0.0
 10
11.7572869723
 20
11.69998592
 30
0.0
 10
11.730502365
 20
11.7012800308
 30
0.0
 10
11.6981923428
 20
11.7017974256
 30
0.0
 10
11.6658823205
 20
11.7012800308
 30
0.0
 10
11.6390977132
 20
11.69998592
 30
0.0
 10
11.6178932225
 20
11.6984315933
 30
0.0
 10
11.6022237013
 20
11.6970170584
 30
0.0
 10
11.5867656956
 20
11.6953527803
 30
0.0
 10
11.5715532105
 20
11.6934424146
 30
0.0
 10
11.5566197676
 20
11.691290194
 30
0.0
 10
11.5419982517
 20
11.6889008774
 30
0.0
 10
11.5277208572
 20
11.6862797502
 30
0.0
 10
11.5138190099
 20
11.6834326101
 30
0.0
 10
11.5003232975
 20
11.6803657535
 30
0.0
 10
11.4872634
 20
11.6770859603
 30
0.0
 10
11.4746680213
 20
11.673600478
 30
0.0
 10
11.4625648231
 20
11.6699170032
 30
0.0
 10
11.4509803595
 20
11.6660436613
 30
0.0
 10
11.4399400144
 20
11.6619889842
 30
0.0
 10
11.4294679396
 20
11.6577618837
 30
0.0
 10
11.4195869965
 20
11.6533716215
 30
0.0
 10
11.4103186985
 20
11.6488277737
 30
0.0
 10
11.4016831607
 20
11.6441401874
 30
0.0
 10
11.393699057
 20
11.6393189275
 30
0.0
 10
11.3863835896
 20
11.6343742087
 30
0.0
 10
11.3797524847
 20
11.6293163257
 30
0.0
 10
11.3738200128
 20
11.6241555359
 30
0.0
 10
11.3685991138
 20
11.618902071
 30
0.0
 10
11.3641014481
 20
11.6135657658
 30
0.0
 10
11.3603380686
 20
11.6081572313
 30
0.0
 10
11.3577916428
 20
11.6035422087
 30
0.0
 10
11.356150441
 20
11.5998371771
 30
0.0
 10
11.3551229966
 20
11.5970818803
 30
0.0
 10
11.3542851683
 20
11.5943187263
 30
0.0
 10
11.3538505643
 20
11.592460216
 30
0.0
 10
11.3536659893
 20
11.5915320972
 30
0.0
  0
SPLINE
  5
37C
100
AcDbEntity
  8
0
100
AcDbSpline
 62
9
  6
CONTINUOUS
 70
0
 71
3
 72
67
 73
63
 74
0
 42
0.0000001
 43
0.0000001
 44
0.0000000001
 40
0.0
 40
0.0
 40
0.0
 40
0.0
 40
0.0037533098
 40
0.00756337
 40
0.015402862
 40
0.0236184545
 40
0.0322906746
 40
0.0414843575
 40
0.0512497484
 40
0.0616241846
 40
0.0726338945
 40
0.0842956829
 40
0.0966183944
 40
0.1096041372
 40
0.1232492845
 40
0.1375452883
 40
0.1524793443
 40
0.1680349323
 40
0.1841922625
 40
0.2009286474
 40
0.2182188171
 40
0.2360351901
 40
0.2543481096
 40
0.2731260535
 40
0.2923358251
 40
0.3119427289
 40
0.3319107322
 40
0.352202618
 40
0.3727801297
 40
0.4146331473
 40
0.4571496968
 40
0.5000000142
 40
0.5428503315
 40
0.5853668804
 40
0.6272198971
 40
0.6477974083
 40
0.6680892935
 40
0.6880572962
 40
0.7076641992
 40
0.7268739699
 40
0.7456519129
 40
0.7639648315
 40
0.7817812034
 40
0.799071372
 40
0.8158077558
 40
0.8319650848
 40
0.8475206715
 40
0.8624547262
 40
0.8767507288
 40
0.8903958747
 40
0.9033816161
 40
0.9157043263
 40
0.9273661133
 40
0.938375822
 40
0.9487502569
 40
0.9585156466
 40
0.9677093284
 40
0.9763815474
 40
0.9845971391
 40
0.9924366305
 40
0.9962466904
 40
1.0
 40
1.0
 40
1.0
 40
1.0
 10
12.0117479783
 20
11.2592532671
 30
0.0
 10
12.01158234
 20
11.2600984475
 30
0.0
 10
12.0111914056
 20
11.2617909529
 30
0.0
 10
12.0101741605
 20
11.2651778974
 30
0.0
 10
12.0084501671
 20
11.2694109836
 30
0.0
 10
12.0057139141
 20
11.2743941918
 30
0.0
 10
12.0022991917
 20
11.2793210779
 30
0.0
 10
11.998215394
 20
11.2841816761
 30
0.0
 10
11.9934723234
 20
11.2889671252
 30
0.0
 10
11.9880806732
 20
11.2936682242
 30
0.0
 10
11.9820521993
 20
11.2982757165
 30
0.0
 10
11.9753998993
 20
11.3027802305
 30
0.0
 10
11.9681380893
 20
11.3071723854
 30
0.0
 10
11.9602824345
 20
11.3114428636
 30
0.0
 10
11.9518499434
 20
11.3155824861
 30
0.0
 10
11.9428589416
 20
11.3195822722
 30
0.0
 10
11.9333290304
 20
11.323433487
 30
0.0
 10
11.9232810404
 20
11.3271276816
 30
0.0
 10
11.9127369801
 20
11.3306567261
 30
0.0
 10
11.9017199826
 20
11.3340128369
 30
0.0
 10
11.8902542498
 20
11.3371886006
 30
0.0
 10
11.8783649943
 20
11.3401769952
 30
0.0
 10
11.8660783812
 20
11.3429714078
 30
0.0
 10
11.8534214669
 20
11.3455656533
 30
0.0
 10
11.8404221381
 20
11.3479539874
 30
0.0
 10
11.8271090427
 20
11.3501311229
 30
0.0
 10
11.8135115427
 20
11.3520922304
 30
0.0
 10
11.7996595792
 20
11.3538329945
 30
0.0
 10
11.7807859701
 20
11.3558663544
 30
0.0
 10
11.7567788027
 20
11.3578239454
 30
0.0
 10
11.7276151707
 20
11.3592340626
 30
0.0
 10
11.6981923278
 20
11.3597054892
 30
0.0
 10
11.6687694851
 20
11.3592340616
 30
0.0
 10
11.6396058534
 20
11.3578239435
 30
0.0
 10
11.6155986865
 20
11.3558663517
 30
0.0
 10
11.5967250779
 20
11.3538329912
 30
0.0
 10
11.5828731149
 20
11.3520922266
 30
0.0
 10
11.5692756155
 20
11.3501311187
 30
0.0
 10
11.5559625207
 20
11.3479539828
 30
0.0
 10
11.5429631926
 20
11.3455656483
 30
0.0
 10
11.530306279
 20
11.3429714024
 30
0.0
 10
11.5180196666
 20
11.3401769894
 30
0.0
 10
11.506130412
 20
11.3371885944
 30
0.0
 10
11.49466468
 20
11.3340128302
 30
0.0
 10
11.4836476836
 20
11.3306567191
 30
0.0
 10
11.4731036243
 20
11.3271276743
 30
0.0
 10
11.4630556352
 20
11.3234334793
 30
0.0
 10
11.4535257251
 20
11.3195822642
 30
0.0
 10
11.4445347244
 20
11.3155824779
 30
0.0
 10
11.4361022345
 20
11.3114428551
 30
0.0
 10
11.4282465808
 20
11.3071723766
 30
0.0
 10
11.420984772
 20
11.3027802215
 30
0.0
 10
11.4143324734
 20
11.2982757072
 30
0.0
 10
11.4083040008
 20
11.2936682147
 30
0.0
 10
11.4029123518
 20
11.2889671156
 30
0.0
 10
11.3981692825
 20
11.2841816663
 30
0.0
 10
11.3940854862
 20
11.279321068
 30
0.0
 10
11.3906707651
 20
11.2743941817
 30
0.0
 10
11.3879345135
 20
11.2694109735
 30
0.0
 10
11.3862105213
 20
11.2651778872
 30
0.0
 10
11.3851932772
 20
11.2617909426
 30
0.0
 10
11.3848023433
 20
11.2600984373
 30
0.0
 10
11.3846367052
 20
11.2592532569
 30
0.0
  0
SPLINE
  5
37D
100
AcDbEntity
  8
0
100
AcDbSpline
 62
9
  6
CONTINUOUS
 70
0
 71
3
 72
71
 73
67
 74
0
 42
0.0000001
 43
0.0000001
 44
0.0000000001
 40
0.0
 40
0.0
 40
0.0
 40
0.0
 40
0.0037609589
 40
0.0075831477
 40
0.0114794705
 40
0.0154618171
 40
0.0237247525
 40
0.0324521419
 40
0.0417054051
 40
0.0515319253
 40
0.0619667091
 40
0.0730341369
 40
0.0847495772
 40
0.0971207787
 40
0.1101490325
 40
0.1238301222
 40
0.1381550983
 40
0.1531109068
 40
0.1686809035
 40
0.18484528
 40
0.2015814216
 40
0.2188642094
 40
0.2366662807
 40
0.254958258
 40
0.273708952
 40
0.2928855455
 40
0.3124537625
 40
0.3323780244
 40
0.3526215991
 40
0.3731467422
 40
0.3939148332
 40
0.4148865068
 40
0.4572787821
 40
0.5000000007
 40
0.5427212193
 40
0.5851134946
 40
0.6060851682
 40
0.6268532591
 40
0.6473784022
 40
0.6676219768
 40
0.6875462388
 40
0.7071144556
 40
0.7262910491
 40
0.7450417431
 40
0.7633337204
 40
0.7811357916
 40
0.7984185793
 40
0.8151547209
 40
0.8313190974
 40
0.846889094
 40
0.8618449024
 40
0.8761698784
 40
0.8898509681
 40
0.9028792218
 40
0.9152504233
 40
0.9269658635
 40
0.9380332912
 40
0.948468075
 40
0.9582945951
 40
0.9675478582
 40
0.9762752476
 40
0.9845381829
 40
0.9885205296
 40
0.9924168523
 40
0.9962390411
 40
1.0
 40
1.0
 40
1.0
 40
1.0
 10
12.0427054109
 20
11.5915152303
 30
0.0
 10
12.0425008145
 20
11.5924390451
 30
0.0
 10
12.0420266852
 20
11.5942886258
 30
0.0
 10
12.0411323346
 20
11.5970365815
 30
0.0
 10
12.0400504428
 20
11.5997763156
 30
0.0
 10
12.038338069
 20
11.6034607974
 30
0.0
 10
12.0357081899
 20
11.6080480573
 30
0.0
 10
12.0318552576
 20
11.6134216624
 30
0.0
 10
12.0272766038
 20
11.6187223753
 30
0.0
 10
12.0219832377
 20
11.6239397398
 30
0.0
 10
12.0159867865
 20
11.629064027
 30
0.0
 10
12.0093001691
 20
11.6340851295
 30
0.0
 10
12.0019376243
 20
11.6389929256
 30
0.0
 10
11.9939148246
 20
11.6437772707
 30
0.0
 10
11.9852488901
 20
11.6484281104
 30
0.0
 10
11.9759583804
 20
11.6529355463
 30
0.0
 10
11.9660632634
 20
11.6572899007
 30
0.0
 10
11.9555848718
 20
11.6614817662
 30
0.0
 10
11.944545854
 20
11.665502048
 30
0.0
 10
11.9329701186
 20
11.669341998
 30
0.0
 10
11.9208827763
 20
11.6729932431
 30
0.0
 10
11.9083100799
 20
11.6764478103
 30
0.0
 10
11.8952793624
 20
11.679698149
 30
0.0
 10
11.8818189737
 20
11.6827371498
 30
0.0
 10
11.8679582159
 20
11.6855581632
 30
0.0
 10
11.8537272763
 20
11.6881550142
 30
0.0
 10
11.8391571599
 20
11.6905220177
 30
0.0
 10
11.8242796214
 20
11.6926539906
 30
0.0
 10
11.8091270887
 20
11.6945462674
 30
0.0
 10
11.7937326113
 20
11.6961946982
 30
0.0
 10
11.7781297097
 20
11.6975956995
 30
0.0
 10
11.757018615
 20
11.6991350407
 30
0.0
 10
11.730354862
 20
11.7004166871
 30
0.0
 10
11.698192342
 20
11.7009291009
 30
0.0
 10
11.666029822
 20
11.7004166871
 30
0.0
 10
11.639366069
 20
11.6991350406
 30
0.0
 10
11.6182549743
 20
11.6975956994
 30
0.0
 10
11.6026520727
 20
11.6961946981
 30
0.0
 10
11.5872575954
 20
11.6945462672
 30
0.0
 10
11.5721050627
 20
11.6926539904
 30
0.0
 10
11.5572275241
 20
11.6905220174
 30
0.0
 10
11.5426574078
 20
11.6881550139
 30
0.0
 10
11.5284264683
 20
11.6855581629
 30
0.0
 10
11.5145657104
 20
11.6827371496
 30
0.0
 10
11.5011053218
 20
11.6796981486
 30
0.0
 10
11.4880746043
 20
11.67644781
 30
0.0
 10
11.475501908
 20
11.6729932427
 30
0.0
 10
11.4634145658
 20
11.6693419976
 30
0.0
 10
11.4518388304
 20
11.6655020476
 30
0.0
 10
11.4407998126
 20
11.6614817658
 30
0.0
 10
11.4303214211
 20
11.6572899003
 30
0.0
 10
11.4204263041
 20
11.6529355458
 30
0.0
 10
11.4111357946
 20
11.64842811
 30
0.0
 10
11.4024698601
 20
11.6437772703
 30
0.0
 10
11.3944470604
 20
11.6389929251
 30
0.0
 10
11.3870845157
 20
11.634085129
 30
0.0
 10
11.3803978983
 20
11.6290640265
 30
0.0
 10
11.3744014473
 20
11.6239397393
 30
0.0
 10
11.3691080812
 20
11.6187223748
 30
0.0
 10
11.3645294275
 20
11.6134216619
 30
0.0
 10
11.3606764953
 20
11.6080480568
 30
0.0
 10
11.3580466162
 20
11.6034607968
 30
0.0
 10
11.3563342425
 20
11.5997763151
 30
0.0
 10
11.3552523508
 20
11.597036581
 30
0.0
 10
11.3543580002
 20
11.5942886253
 30
0.0
 10
11.3538838709
 20
11.5924390445
 30
0.0
 10
11.3536792745
 20
11.5915152298
 30
0.0
  0
SPLINE
  5
37E
100
AcDbEntity
  8
0
100
AcDbSpline
 62
9
  6
CONTINUOUS
 70
0
 71
3
 72
39
 73
35
 74
0
 42
0.0000001
 43
0.0000001
 44
0.0000000001
 40
0.0
 40
0.0
 40
0.0
 40
0.0
 40
0.0876620552
 40
0.1745789891
 40
0.260016119
 40
0.3019568867
 40
0.3432615741
 40
0.3838455223
 40
0.4236266207
 40
0.462525663
 40
0.5004667262
 40
0.5373775784
 40
0.5731901218
 40
0.6078408814
 40
0.6412715545
 40
0.6734296414
 40
0.7042691821
 40
0.733751619
 40
0.7618468374
 40
0.7885344381
 40
0.8138053079
 40
0.8376635688
 40
0.8601290004
 40
0.8812400231
 40
0.9010572952
 40
0.9196678441
 40
0.9371894463
 40
0.9537745356
 40
0.9617775823
 40
0.9696205677
 40
0.9773326402
 40
0.9849447695
 40
0.9924893934
 40
1.0
 40
1.0
 40
1.0
 40
1.0
 10
11.6981923427
 20
12.4088772009
 30
0.0
 10
11.690023081
 20
12.4088772009
 30
0.0
 10
11.67375262
 20
12.4086049944
 30
0.0
 10
11.6495481573
 20
12.4073822586
 30
0.0
 10
11.6296455398
 20
12.4056848975
 30
0.0
 10
11.6140243577
 20
12.4039220166
 30
0.0
 10
11.60258284
 20
12.4024143145
 30
0.0
 10
11.5913714662
 20
12.400716705
 30
0.0
 10
11.5804171615
 20
12.3988332647
 30
0.0
 10
11.5697462762
 20
12.3967685536
 30
0.0
 10
11.5593844558
 20
12.3945275595
 30
0.0
 10
11.5493565949
 20
12.392115697
 30
0.0
 10
11.5396867697
 20
12.3895387903
 30
0.0
 10
11.5303981793
 20
12.3868030578
 30
0.0
 10
11.5215130847
 20
12.3839150949
 30
0.0
 10
11.5130527516
 20
12.3808818528
 30
0.0
 10
11.5050373918
 20
12.377710618
 30
0.0
 10
11.4974861106
 20
12.3744089832
 30
0.0
 10
11.4904168555
 20
12.3709848149
 30
0.0
 10
11.483846369
 20
12.3674462137
 30
0.0
 10
11.4777901494
 20
12.3638014654
 30
0.0
 10
11.4722624226
 20
12.3600589775
 30
0.0
 10
11.4672761396
 20
12.3562272114
 30
0.0
 10
11.4628430029
 20
12.3523145711
 30
0.0
 10
11.4589735852
 20
12.3483294108
 30
0.0
 10
11.4556774265
 20
12.3442797111
 30
0.0
 10
11.4529635942
 20
12.3401741451
 30
0.0
 10
11.4511730981
 20
12.3366708738
 30
0.0
 10
11.4500551314
 20
12.3338610714
 30
0.0
 10
11.4493762014
 20
12.331771586
 30
0.0
 10
11.4488475942
 20
12.3296766387
 30
0.0
 10
11.4484696801
 20
12.3275774686
 30
0.0
 10
11.4482428229
 20
12.3254756012
 30
0.0
 10
11.4481923427
 20
12.3240720814
 30
0.0
 10
11.4481923427
 20
12.323372165
 30
0.0
  0
SPLINE
  5
37F
100
AcDbEntity
  8
0
100
AcDbSpline
 62
9
  6
CONTINUOUS
 70
0
 71
3
 72
69
 73
65
 74
0
 42
0.0000001
 43
0.0000001
 44
0.0000000001
 40
0.0
 40
0.0
 40
0.0
 40
0.0
 40
0.0037452996
 40
0.0075169286
 40
0.0113307924
 40
0.0152024474
 40
0.0231731508
 40
0.0315386726
 40
0.0403868112
 40
0.049787686
 40
0.0597950398
 40
0.0704482244
 40
0.0817742958
 40
0.0937899492
 40
0.10650318
 40
0.1199146564
 40
0.1340188337
 40
0.1488048508
 40
0.1642572568
 40
0.1803566018
 40
0.1970799224
 40
0.2144011468
 40
0.2322914375
 40
0.2507194878
 40
0.2696517809
 40
0.2890528224
 40
0.3088853504
 40
0.3291105294
 40
0.3496881326
 40
0.3705767147
 40
0.4131142869
 40
0.456375149
 40
0.5
 40
0.543624851
 40
0.5868857131
 40
0.6294232853
 40
0.6503118674
 40
0.6708894706
 40
0.6911146496
 40
0.7109471776
 40
0.7303482191
 40
0.7492805122
 40
0.7677085625
 40
0.7855988532
 40
0.8029200776
 40
0.8196433982
 40
0.8357427432
 40
0.8511951492
 40
0.8659811663
 40
0.8800853436
 40
0.89349682
 40
0.9062100508
 40
0.9182257042
 40
0.9295517756
 40
0.9402049602
 40
0.950212314
 40
0.9596131888
 40
0.9684613274
 40
0.9768268492
 40
0.9847975526
 40
0.9886692076
 40
0.9924830714
 40
0.9962547004
 40
1.0
 40
1.0
 40
1.0
 40
1.0
 10
11.9821033854
 20
11.3368657241
 30
0.0
 10
11.9820705307
 20
11.3376544018
 30
0.0
 10
11.9819481689
 20
11.3392355165
 30
0.0
 10
11.9815965124
 20
11.3415994193
 30
0.0
 10
11.9810765311
 20
11.3439594937
 30
0.0
 10
11.9801508357
 20
11.347128891
 30
0.0
 10
11.9785550369
 20
11.3510909546
 30
0.0
 10
11.9759932583
 20
11.3557522176
 30
0.0
 10
11.9727749974
 20
11.3603582501
 30
0.0
 10
11.9689097967
 20
11.3648992188
 30
0.0
 10
11.9644075888
 20
11.3693663569
 30
0.0
 10
11.9592792059
 20
11.3737505335
 30
0.0
 10
11.9535365836
 20
11.3780425339
 30
0.0
 10
11.9471929518
 20
11.382233016
 30
0.0
 10
11.9402629131
 20
11.3863126275
 30
0.0
 10
11.9327624705
 20
11.390272088
 30
0.0
 10
11.9247090159
 20
11.394102269
 30
0.0
 10
11.9161212975
 20
11.3977942572
 30
0.0
 10
11.9070193746
 20
11.4013394058
 30
0.0
 10
11.8974245646
 20
11.4047293747
 30
0.0
 10
11.8873593867
 20
11.407956165
 30
0.0
 10
11.8768475027
 20
11.4110121472
 30
0.0
 10
11.8659136558
 20
11.4138900857
 30
0.0
 10
11.8545836079
 20
11.41658316
 30
0.0
 10
11.842884074
 20
11.419084984
 30
0.0
 10
11.830842658
 20
11.4213896219
 30
0.0
 10
11.8184877798
 20
11.4234916066
 30
0.0
 10
11.8058486242
 20
11.4253859423
 30
0.0
 10
11.7929550016
 20
11.4270681631
 30
0.0
 10
11.7753590395
 20
11.4290346755
 30
0.0
 10
11.752948395
 20
11.4309280607
 30
0.0
 10
11.7257001461
 20
11.4322919865
 30
0.0
 10
11.6981923428
 20
11.4327480687
 30
0.0
 10
11.6706845395
 20
11.4322919865
 30
0.0
 10
11.6434362905
 20
11.4309280607
 30
0.0
 10
11.621025646
 20
11.4290346755
 30
0.0
 10
11.6034296839
 20
11.4270681631
 30
0.0
 10
11.5905360613
 20
11.4253859423
 30
0.0
 10
11.5778969057
 20
11.4234916066
 30
0.0
 10
11.5655420275
 20
11.4213896219
 30
0.0
 10
11.5535006115
 20
11.419084984
 30
0.0
 10
11.5418010776
 20
11.41658316
 30
0.0
 10
11.5304710297
 20
11.4138900857
 30
0.0
 10
11.5195371828
 20
11.4110121472
 30
0.0
 10
11.5090252988
 20
11.407956165
 30
0.0
 10
11.4989601209
 20
11.4047293747
 30
0.0
 10
11.4893653109
 20
11.4013394058
 30
0.0
 10
11.480263388
 20
11.3977942572
 30
0.0
 10
11.4716756696
 20
11.394102269
 30
0.0
 10
11.463622215
 20
11.390272088
 30
0.0
 10
11.4561217725
 20
11.3863126275
 30
0.0
 10
11.4491917337
 20
11.382233016
 30
0.0
 10
11.4428481019
 20
11.3780425339
 30
0.0
 10
11.4371054796
 20
11.3737505335
 30
0.0
 10
11.4319770967
 20
11.3693663569
 30
0.0
 10
11.4274748889
 20
11.3648992188
 30
0.0
 10
11.4236096882
 20
11.3603582501
 30
0.0
 10
11.4203914272
 20
11.3557522176
 30
0.0
 10
11.4178296486
 20
11.3510909546
 30
0.0
 10
11.4162338498
 20
11.347128891
 30
0.0
 10
11.4153081544
 20
11.3439594937
 30
0.0
 10
11.4147881731
 20
11.3415994193
 30
0.0
 10
11.4144365167
 20
11.3392355165
 30
0.0
 10
11.4143141548
 20
11.3376544018
 30
0.0
 10
11.4142813001
 20
11.3368657241
 30
0.0
  0
SPLINE
  5
380
100
AcDbEntity
  8
0
100
AcDbSpline
 62
9
  6
CONTINUOUS
 70
0
 71
3
 72
71
 73
67
 74
0
 42
0.0000001
 43
0.0000001
 44
0.0000000001
 40
0.0
 40
0.0
 40
0.0
 40
0.0
 40
0.0037551231
 40
0.0075275684
 40
0.0113337081
 40
0.0151897138
 40
0.0191111757
 40
0.0231126994
 40
0.0314052534
 40
0.0401660529
 40
0.04947133
 40
0.0593799659
 40
0.0699354748
 40
0.081168186
 40
0.0930973137
 40
0.1057327487
 40
0.1190765511
 40
0.1331241633
 40
0.1478653844
 40
0.1632851564
 40
0.1793641994
 40
0.1960795332
 40
0.2134049104
 40
0.231311182
 40
0.2497666107
 40
0.2687371462
 40
0.2881866714
 40
0.3080772237
 40
0.3283691992
 40
0.3490215425
 40
0.3699919268
 40
0.4127105048
 40
0.4561690429
 40
0.5
 40
0.5438309571
 40
0.5872894952
 40
0.6300080732
 40
0.6509784575
 40
0.6716308008
 40
0.6919227763
 40
0.7118133286
 40
0.7312628538
 40
0.7502333893
 40
0.768688818
 40
0.7865950896
 40
0.8039204668
 40
0.8206358006
 40
0.8367148436
 40
0.8521346156
 40
0.8668758367
 40
0.8809234489
 40
0.8942672513
 40
0.9069026863
 40
0.918831814
 40
0.9300645252
 40
0.9406200341
 40
0.95052867
 40
0.9598339471
 40
0.9685947466
 40
0.9768873006
 40
0.9808888243
 40
0.9848102862
 40
0.9886662919
 40
0.9924724316
 40
0.9962448769
 40
1.0
 40
1.0
 40
1.0
 40
1.0
 10
11.9681923423
 20
11.2051379463
 30
0.0
 10
11.9681923423
 20
11.2058938197
 30
0.0
 10
11.9681378156
 20
11.2074096112
 30
0.0
 10
11.9678928223
 20
11.2096796347
 30
0.0
 10
11.9674846798
 20
11.2119467759
 30
0.0
 10
11.9669137806
 20
11.2142093213
 30
0.0
 10
11.9661805293
 20
11.2164659502
 30
0.0
 10
11.964973136
 20
11.2195005362
 30
0.0
 10
11.9630394007
 20
11.223284072
 30
0.0
 10
11.9601084593
 20
11.2277180838
 30
0.0
 10
11.9565486092
 20
11.2320917607
 30
0.0
 10
11.9523696381
 20
11.2363957338
 30
0.0
 10
11.9475818528
 20
11.2406213857
 30
0.0
 10
11.9421966706
 20
11.2447596945
 30
0.0
 10
11.9362267281
 20
11.2488015824
 30
0.0
 10
11.9296860116
 20
11.2527379113
 30
0.0
 10
11.9225898853
 20
11.2565596011
 30
0.0
 10
11.914955088
 20
11.260257703
 30
0.0
 10
11.9067997027
 20
11.2638234684
 30
0.0
 10
11.8981431133
 20
11.2672484019
 30
0.0
 10
11.889005954
 20
11.2705243039
 30
0.0
 10
11.8794100538
 20
11.2736433057
 30
0.0
 10
11.8693783779
 20
11.2765978987
 30
0.0
 10
11.858934967
 20
11.2793809591
 30
0.0
 10
11.8481048759
 20
11.2819857707
 30
0.0
 10
11.8369141078
 20
11.2844060438
 30
0.0
 10
11.8253895492
 20
11.286635931
 30
0.0
 10
11.8135588984
 20
11.2886700457
 30
0.0
 10
11.8014506135
 20
11.290503464
 30
0.0
 10
11.7890937758
 20
11.2921317838
 30
0.0
 10
11.7722228893
 20
11.294035698
 30
0.0
 10
11.7507281051
 20
11.2958688515
 30
0.0
 10
11.7245870307
 20
11.2971893995
 30
0.0
 10
11.6981923428
 20
11.2976310013
 30
0.0
 10
11.6717976549
 20
11.2971893995
 30
0.0
 10
11.6456565805
 20
11.2958688515
 30
0.0
 10
11.6241617963
 20
11.294035698
 30
0.0
 10
11.6072909097
 20
11.2921317838
 30
0.0
 10
11.5949340721
 20
11.290503464
 30
0.0
 10
11.5828257872
 20
11.2886700457
 30
0.0
 10
11.5709951363
 20
11.286635931
 30
0.0
 10
11.5594705778
 20
11.2844060438
 30
0.0
 10
11.5482798096
 20
11.2819857707
 30
0.0
 10
11.5374497185
 20
11.2793809591
 30
0.0
 10
11.5270063077
 20
11.2765978987
 30
0.0
 10
11.5169746317
 20
11.2736433057
 30
0.0
 10
11.5073787315
 20
11.2705243039
 30
0.0
 10
11.4982415722
 20
11.2672484019
 30
0.0
 10
11.4895849828
 20
11.2638234684
 30
0.0
 10
11.4814295975
 20
11.260257703
 30
0.0
 10
11.4737948003
 20
11.2565596011
 30
0.0
 10
11.466698674
 20
11.2527379113
 30
0.0
 10
11.4601579574
 20
11.2488015824
 30
0.0
 10
11.4541880149
 20
11.2447596945
 30
0.0
 10
11.4488028327
 20
11.2406213857
 30
0.0
 10
11.4440150474
 20
11.2363957338
 30
0.0
 10
11.4398360763
 20
11.2320917607
 30
0.0
 10
11.4362762262
 20
11.2277180838
 30
0.0
 10
11.4333452848
 20
11.223284072
 30
0.0
 10
11.4314115495
 20
11.2195005362
 30
0.0
 10
11.4302041562
 20
11.2164659502
 30
0.0
 10
11.4294709049
 20
11.2142093213
 30
0.0
 10
11.4289000057
 20
11.2119467759
 30
0.0
 10
11.4284918632
 20
11.2096796347
 30
0.0
 10
11.4282468699
 20
11.2074096112
 30
0.0
 10
11.4281923432
 20
11.2058938197
 30
0.0
 10
11.4281923432
 20
11.2051379463
 30
0.0
  0
SPLINE
  5
381
100
AcDbEntity
  8
0
100
AcDbSpline
 62
9
  6
CONTINUOUS
 70
0
 71
3
 72
73
 73
69
 74
0
 42
0.0000001
 43
0.0000001
 44
0.0000000001
 40
0.0
 40
0.0
 40
0.0
 40
0.0
 40
0.0037551232
 40
0.0075275604
 40
0.0113336862
 40
0.0151896806
 40
0.0191111346
 40
0.0231126469
 40
0.0314051726
 40
0.0401659429
 40
0.0494711888
 40
0.0593797928
 40
0.0699352684
 40
0.0811679432
 40
0.0930970295
 40
0.1057324197
 40
0.119076176
 40
0.1331237411
 40
0.1478649143
 40
0.1632846367
 40
0.1793636275
 40
0.1960789059
 40
0.2134042239
 40
0.2313104323
 40
0.249765795
 40
0.2687362635
 40
0.2881857216
 40
0.3080762069
 40
0.3283681145
 40
0.3490203885
 40
0.3699907018
 40
0.391235628
 40
0.4127108075
 40
0.4561691936
 40
0.5
 40
0.5438308064
 40
0.5872891925
 40
0.608764372
 40
0.6300092982
 40
0.6509796115
 40
0.6716318855
 40
0.6919237931
 40
0.7118142784
 40
0.7312637365
 40
0.750234205
 40
0.7686895677
 40
0.7865957761
 40
0.8039210941
 40
0.8206363725
 40
0.8367153633
 40
0.8521350857
 40
0.8668762589
 40
0.880923824
 40
0.8942675803
 40
0.9069029705
 40
0.9188320568
 40
0.9300647316
 40
0.9406202072
 40
0.9505288112
 40
0.9598340571
 40
0.9685948274
 40
0.9768873531
 40
0.9808888654
 40
0.9848103194
 40
0.9886663138
 40
0.9924724396
 40
0.9962448768
 40
1.0
 40
1.0
 40
1.0
 40
1.0
 10
11.9835114903
 20
11.2065290927
 30
0.0
 10
11.9835114903
 20
11.2073278553
 30
0.0
 10
11.9834538702
 20
11.2089296528
 30
0.0
 10
11.9831949756
 20
11.2113284753
 30
0.0
 10
11.982763674
 20
11.2137242493
 30
0.0
 10
11.9821603832
 20
11.2161151674
 30
0.0
 10
11.9813855262
 20
11.218499833
 30
0.0
 10
11.98010963
 20
11.2217065963
 30
0.0
 10
11.9780661754
 20
11.2257047994
 30
0.0
 10
11.9749689387
 20
11.2303903856
 30
0.0
 10
11.971207109
 20
11.2350122129
 30
0.0
 10
11.9667910312
 20
11.2395603822
 30
0.0
 10
11.9617315967
 20
11.2440257868
 30
0.0
 10
11.9560408715
 20
11.2483988928
 30
0.0
 10
11.9497322096
 20
11.2526701078
 30
0.0
 10
11.9428203899
 20
11.2568297744
 30
0.0
 10
11.9353216471
 20
11.2608682971
 30
0.0
 10
11.9272536694
 20
11.2647762195
 30
0.0
 10
11.918635566
 20
11.2685442969
 30
0.0
 10
11.909487821
 20
11.2721635517
 30
0.0
 10
11.8998322399
 20
11.2756253191
 30
0.0
 10
11.8896918908
 20
11.2789212844
 30
0.0
 10
11.8790910423
 20
11.282043513
 30
0.0
 10
11.8680550995
 20
11.2849844776
 30
0.0
 10
11.8566105377
 20
11.2877370807
 30
0.0
 10
11.8447848346
 20
11.2902946749
 30
0.0
 10
11.8326064012
 20
11.2926510808
 30
0.0
 10
11.8201045099
 20
11.2948006044
 30
0.0
 10
11.8073092233
 20
11.29673805
 30
0.0
 10
11.7942513143
 20
11.2984587365
 30
0.0
 10
11.7809622098
 20
11.2999584979
 30
0.0
 10
11.7674738408
 20
11.3012337345
 30
0.0
 10
11.7491954969
 20
11.3026359417
 30
0.0
 10
11.7260844547
 20
11.3038032974
 30
0.0
 10
11.6981923428
 20
11.3042699968
 30
0.0
 10
11.6703002308
 20
11.3038032974
 30
0.0
 10
11.6471891886
 20
11.3026359417
 30
0.0
 10
11.6289108447
 20
11.3012337345
 30
0.0
 10
11.6154224757
 20
11.2999584979
 30
0.0
 10
11.6021333712
 20
11.2984587365
 30
0.0
 10
11.5890754623
 20
11.29673805
 30
0.0
 10
11.5762801756
 20
11.2948006044
 30
0.0
 10
11.5637782843
 20
11.2926510808
 30
0.0
 10
11.5515998509
 20
11.2902946749
 30
0.0
 10
11.5397741478
 20
11.2877370807
 30
0.0
 10
11.528329586
 20
11.2849844776
 30
0.0
 10
11.5172936432
 20
11.282043513
 30
0.0
 10
11.5066927947
 20
11.2789212844
 30
0.0
 10
11.4965524456
 20
11.2756253191
 30
0.0
 10
11.4868968645
 20
11.2721635517
 30
0.0
 10
11.4777491195
 20
11.2685442969
 30
0.0
 10
11.4691310161
 20
11.2647762195
 30
0.0
 10
11.4610630384
 20
11.2608682971
 30
0.0
 10
11.4535642956
 20
11.2568297744
 30
0.0
 10
11.4466524759
 20
11.2526701078
 30
0.0
 10
11.440343814
 20
11.2483988928
 30
0.0
 10
11.4346530888
 20
11.2440257868
 30
0.0
 10
11.4295936543
 20
11.2395603822
 30
0.0
 10
11.4251775765
 20
11.2350122129
 30
0.0
 10
11.4214157469
 20
11.2303903856
 30
0.0
 10
11.4183185101
 20
11.2257047994
 30
0.0
 10
11.4162750555
 20
11.2217065963
 30
0.0
 10
11.4149991593
 20
11.218499833
 30
0.0
 10
11.4142243023
 20
11.2161151674
 30
0.0
 10
11.4136210115
 20
11.2137242493
 30
0.0
 10
11.4131897099
 20
11.2113284753
 30
0.0
 10
11.4129308153
 20
11.2089296528
 30
0.0
 10
11.4128731952
 20
11.2073278553
 30
0.0
 10
11.4128731952
 20
11.2065290927
 30
0.0
  0
SPLINE
  5
382
100
AcDbEntity
  8
0
100
AcDbSpline
 62
9
  6
CONTINUOUS
 70
0
 71
3
 72
15
 73
11
 74
0
 42
0.0000001
 43
0.0000001
 44
0.0000000001
 40
0.0
 40
0.0
 40
0.0
 40
0.0
 40
0.14243471
 40
0.2784015564
 40
0.4084964355
 40
0.5334340871
 40
0.6540504609
 40
0.7712984128
 40
0.886239455
 40
1.0
 40
1.0
 40
1.0
 40
1.0
 10
11.380286699
 20
11.5020218446
 30
0.0
 10
11.3791078745
 20
11.5033374207
 30
0.0
 10
11.376885475
 20
11.50598397
 30
0.0
 10
11.3739140494
 20
11.5100929235
 30
0.0
 10
11.3713899437
 20
11.5142398595
 30
0.0
 10
11.3693175982
 20
11.5184193097
 30
0.0
 10
11.3677008797
 20
11.5226257062
 30
0.0
 10
11.3665431963
 20
11.5268532503
 30
0.0
 10
11.3658474002
 20
11.5310947009
 30
0.0
 10
11.3656923426
 20
11.5339333986
 30
0.0
 10
11.3656923426
 20
11.5353442417
 30
0.0
  0
SPLINE
  5
383
100
AcDbEntity
  8
0
100
AcDbSpline
 62
9
  6
CONTINUOUS
 70
0
 71
3
 72
73
 73
69
 74
0
 42
0.0000001
 43
0.0000001
 44
0.0000000001
 40
0.0
 40
0.0
 40
0.0
 40
0.0
 40
0.0037551232
 40
0.0075275604
 40
0.0113336862
 40
0.0151896806
 40
0.0191111346
 40
0.0231126469
 40
0.0314051726
 40
0.0401659429
 40
0.0494711888
 40
0.0593797928
 40
0.0699352684
 40
0.0811679432
 40
0.0930970295
 40
0.1057324197
 40
0.119076176
 40
0.1331237411
 40
0.1478649143
 40
0.1632846367
 40
0.1793636275
 40
0.1960789059
 40
0.2134042239
 40
0.2313104323
 40
0.249765795
 40
0.2687362635
 40
0.2881857216
 40
0.3080762069
 40
0.3283681145
 40
0.3490203885
 40
0.3699907018
 40
0.391235628
 40
0.4127108075
 40
0.4561691936
 40
0.5
 40
0.5438308064
 40
0.5872891925
 40
0.608764372
 40
0.6300092982
 40
0.6509796115
 40
0.6716318855
 40
0.6919237931
 40
0.7118142784
 40
0.7312637365
 40
0.750234205
 40
0.7686895677
 40
0.7865957761
 40
0.8039210941
 40
0.8206363725
 40
0.8367153633
 40
0.8521350857
 40
0.8668762589
 40
0.880923824
 40
0.8942675803
 40
0.9069029705
 40
0.9188320568
 40
0.9300647316
 40
0.9406202072
 40
0.9505288112
 40
0.9598340571
 40
0.9685948274
 40
0.9768873531
 40
0.9808888654
 40
0.9848103194
 40
0.9886663138
 40
0.9924724396
 40
0.9962448768
 40
1.0
 40
1.0
 40
1.0
 40
1.0
 10
11.9816197315
 20
11.3601024244
 30
0.0
 10
11.9816197315
 20
11.360895891
 30
0.0
 10
11.9815624934
 20
11.362487068
 30
0.0
 10
11.9813053154
 20
11.3648699855
 30
0.0
 10
11.9808768735
 20
11.3672498748
 30
0.0
 10
11.9802775827
 20
11.3696249403
 30
0.0
 10
11.9795078632
 20
11.3719937948
 30
0.0
 10
11.9782404266
 20
11.3751792962
 30
0.0
 10
11.9762105208
 20
11.3791509899
 30
0.0
 10
11.9731338197
 20
11.3838055092
 30
0.0
 10
11.9693969322
 20
11.3883966923
 30
0.0
 10
11.9650101345
 20
11.3929147057
 30
0.0
 10
11.9599842457
 20
11.3973505032
 30
0.0
 10
11.9543312518
 20
11.4016946141
 30
0.0
 10
11.9480644185
 20
11.4059375095
 30
0.0
 10
11.9411984263
 20
11.4100695962
 30
0.0
 10
11.9337494026
 20
11.4140813422
 30
0.0
 10
11.9257349183
 20
11.4179633538
 30
0.0
 10
11.9171739557
 20
11.4217064476
 30
0.0
 10
11.9080868632
 20
11.4253017055
 30
0.0
 10
11.8984953018
 20
11.4287405204
 30
0.0
 10
11.8884221865
 20
11.4320146323
 30
0.0
 10
11.8778916251
 20
11.4351161595
 30
0.0
 10
11.8669288541
 20
11.4380376246
 30
0.0
 10
11.8555601735
 20
11.440771977
 30
0.0
 10
11.8438128787
 20
11.4433126135
 30
0.0
 10
11.8317151922
 20
11.4456533957
 30
0.0
 10
11.8192961925
 20
11.4477886672
 30
0.0
 10
11.8065857428
 20
11.4497132669
 30
0.0
 10
11.793614412
 20
11.4514225448
 30
0.0
 10
11.7804134187
 20
11.4529123622
 30
0.0
 10
11.7670144819
 20
11.4541791436
 30
0.0
 10
11.7488573294
 20
11.4555720537
 30
0.0
 10
11.725899521
 20
11.4567316695
 30
0.0
 10
11.6981923428
 20
11.4571952745
 30
0.0
 10
11.6704851645
 20
11.4567316695
 30
0.0
 10
11.6475273561
 20
11.4555720537
 30
0.0
 10
11.6293702036
 20
11.4541791436
 30
0.0
 10
11.6159712668
 20
11.4529123622
 30
0.0
 10
11.6027702735
 20
11.4514225448
 30
0.0
 10
11.5897989427
 20
11.4497132669
 30
0.0
 10
11.577088493
 20
11.4477886672
 30
0.0
 10
11.5646694933
 20
11.4456533957
 30
0.0
 10
11.5525718068
 20
11.4433126135
 30
0.0
 10
11.540824512
 20
11.440771977
 30
0.0
 10
11.5294558314
 20
11.4380376246
 30
0.0
 10
11.5184930604
 20
11.4351161595
 30
0.0
 10
11.507962499
 20
11.4320146323
 30
0.0
 10
11.4978893837
 20
11.4287405204
 30
0.0
 10
11.4882978223
 20
11.4253017055
 30
0.0
 10
11.4792107298
 20
11.4217064476
 30
0.0
 10
11.4706497672
 20
11.4179633538
 30
0.0
 10
11.4626352829
 20
11.4140813422
 30
0.0
 10
11.4551862592
 20
11.4100695962
 30
0.0
 10
11.448320267
 20
11.4059375095
 30
0.0
 10
11.4420534337
 20
11.4016946141
 30
0.0
 10
11.4364004398
 20
11.3973505032
 30
0.0
 10
11.431374551
 20
11.3929147057
 30
0.0
 10
11.4269877533
 20
11.3883966923
 30
0.0
 10
11.4232508658
 20
11.3838055092
 30
0.0
 10
11.4201741647
 20
11.3791509899
 30
0.0
 10
11.4181442589
 20
11.3751792962
 30
0.0
 10
11.4168768223
 20
11.3719937948
 30
0.0
 10
11.4161071028
 20
11.3696249403
 30
0.0
 10
11.415507812
 20
11.3672498748
 30
0.0
 10
11.4150793701
 20
11.3648699855
 30
0.0
 10
11.4148221921
 20
11.362487068
 30
0.0
 10
11.414764954
 20
11.360895891
 30
0.0
 10
11.414764954
 20
11.3601024244
 30
0.0
  0
SPLINE
  5
384
100
AcDbEntity
  8
0
100
AcDbSpline
 62
9
  6
CONTINUOUS
 70
0
 71
3
 72
59
 73
55
 74
0
 42
0.0000001
 43
0.0000001
 44
0.0000000001
 40
0.0
 40
0.0
 40
0.0
 40
0.0
 40
0.0084839484
 40
0.0174283152
 40
0.0268641169
 40
0.0368146538
 40
0.0472965151
 40
0.0583205116
 40
0.0698924787
 40
0.0820139533
 40
0.0946827291
 40
0.1078933437
 40
0.12163748
 40
0.1359042948
 40
0.1506806857
 40
0.1659515227
 40
0.1816998629
 40
0.1979071249
 40
0.2145532381
 40
0.2316167671
 40
0.2490750435
 40
0.2669042823
 40
0.3035741734
 40
0.3414189112
 40
0.3802174902
 40
0.4197395176
 40
0.4597476576
 40
0.4999999957
 40
0.5402523339
 40
0.5802604741
 40
0.6197825016
 40
0.6585810809
 40
0.6964258191
 40
0.7330957107
 40
0.7509249498
 40
0.7683832264
 40
0.7854467557
 40
0.8020928692
 40
0.8183001316
 40
0.8340484721
 40
0.8493193095
 40
0.8640957007
 40
0.8783625158
 40
0.8921066525
 40
0.9053172675
 40
0.9179860437
 40
0.9301075187
 40
0.9416794862
 40
0.9527034831
 40
0.9631853448
 40
0.9731358821
 40
0.9825716841
 40
0.9915160512
 40
1.0
 40
1.0
 40
1.0
 40
1.0
 10
11.9951421385
 20
11.2965568214
 30
0.0
 10
11.9940944658
 20
11.2979972514
 30
0.0
 10
11.991813813
 20
11.3008644223
 30
0.0
 10
11.9879758255
 20
11.3050031703
 30
0.0
 10
11.9836413556
 20
11.3090822508
 30
0.0
 10
11.9788181852
 20
11.313094858
 30
0.0
 10
11.9735144035
 20
11.3170347498
 30
0.0
 10
11.9677389823
 20
11.3208955017
 30
0.0
 10
11.9615016455
 20
11.3246707677
 30
0.0
 10
11.9548129231
 20
11.3283542475
 30
0.0
 10
11.9476841398
 20
11.3319397506
 30
0.0
 10
11.940127396
 20
11.3354212064
 30
0.0
 10
11.9321555439
 20
11.3387926898
 30
0.0
 10
11.9237821656
 20
11.3420484385
 30
0.0
 10
11.9150215538
 20
11.3451828753
 30
0.0
 10
11.9058886858
 20
11.3481906264
 30
0.0
 10
11.8963991894
 20
11.3510665243
 30
0.0
 10
11.8865693145
 20
11.3538056216
 30
0.0
 10
11.8764159027
 20
11.3564032016
 30
0.0
 10
11.8659563728
 20
11.3588547871
 30
0.0
 10
11.8552086405
 20
11.3611561872
 30
0.0
 10
11.8403800057
 20
11.3640460826
 30
0.0
 10
11.821254429
 20
11.3672438424
 30
0.0
 10
11.7976704047
 20
11.3703915055
 30
0.0
 10
11.7734040698
 20
11.3728626225
 30
0.0
 10
11.7486219618
 20
11.3746400601
 30
0.0
 10
11.7234939333
 20
11.3757114878
 30
0.0
 10
11.6981923473
 20
11.3760694512
 30
0.0
 10
11.6728907613
 20
11.3757114881
 30
0.0
 10
11.6477627328
 20
11.3746400606
 30
0.0
 10
11.6229806245
 20
11.3728626233
 30
0.0
 10
11.5987142894
 20
11.3703915065
 30
0.0
 10
11.5751302649
 20
11.3672438437
 30
0.0
 10
11.556004688
 20
11.364046084
 30
0.0
 10
11.5411760528
 20
11.3611561888
 30
0.0
 10
11.5304283204
 20
11.3588547889
 30
0.0
 10
11.5199687902
 20
11.3564032034
 30
0.0
 10
11.5098153782
 20
11.3538056235
 30
0.0
 10
11.499985503
 20
11.3510665264
 30
0.0
 10
11.4904960065
 20
11.3481906286
 30
0.0
 10
11.4813631382
 20
11.3451828775
 30
0.0
 10
11.4726025261
 20
11.3420484408
 30
0.0
 10
11.4642291475
 20
11.3387926921
 30
0.0
 10
11.4562572951
 20
11.3354212089
 30
0.0
 10
11.448700551
 20
11.3319397532
 30
0.0
 10
11.4415717674
 20
11.3283542502
 30
0.0
 10
11.4348830447
 20
11.3246707704
 30
0.0
 10
11.4286457076
 20
11.3208955045
 30
0.0
 10
11.422870286
 20
11.3170347526
 30
0.0
 10
11.4175665039
 20
11.3130948609
 30
0.0
 10
11.4127433332
 20
11.3090822537
 30
0.0
 10
11.408408863
 20
11.3050031732
 30
0.0
 10
11.4045708751
 20
11.3008644253
 30
0.0
 10
11.402290222
 20
11.2979972544
 30
0.0
 10
11.4012425492
 20
11.2965568244
 30
0.0
  0
SPLINE
  5
385
100
AcDbEntity
  8
0
100
AcDbSpline
 62
9
  6
CONTINUOUS
 70
0
 71
3
 72
73
 73
69
 74
0
 42
0.0000001
 43
0.0000001
 44
0.0000000001
 40
0.0
 40
0.0
 40
0.0
 40
0.0
 40
0.003755363
 40
0.0075276123
 40
0.0113336459
 40
0.0151896742
 40
0.0191111579
 40
0.0231126651
 40
0.0314051829
 40
0.0401659553
 40
0.0494712009
 40
0.0593798057
 40
0.0699352819
 40
0.0811679569
 40
0.0930970428
 40
0.1057324314
 40
0.119076185
 40
0.1331237478
 40
0.1478649198
 40
0.163284642
 40
0.1793636336
 40
0.1960789133
 40
0.2134042327
 40
0.2313104423
 40
0.2497658053
 40
0.2687362731
 40
0.2881857294
 40
0.3080762121
 40
0.3283681175
 40
0.34902039
 40
0.3699907028
 40
0.3912356293
 40
0.4127108093
 40
0.4561691955
 40
0.5
 40
0.5438308045
 40
0.5872891907
 40
0.6087643707
 40
0.6300092972
 40
0.65097961
 40
0.6716318825
 40
0.6919237879
 40
0.7118142706
 40
0.7312637269
 40
0.7502341947
 40
0.7686895577
 40
0.7865957673
 40
0.8039210867
 40
0.8206363664
 40
0.836715358
 40
0.8521350802
 40
0.8668762522
 40
0.880923815
 40
0.8942675686
 40
0.9069029572
 40
0.9188320431
 40
0.9300647181
 40
0.9406201943
 40
0.9505287991
 40
0.9598340447
 40
0.9685948171
 40
0.9768873349
 40
0.9808888421
 40
0.9848103258
 40
0.9886663541
 40
0.9924723877
 40
0.996244637
 40
1.0
 40
1.0
 40
1.0
 40
1.0
 10
12.0215588803
 20
11.5246844383
 30
0.0
 10
12.0215590084
 20
11.525589774
 30
0.0
 10
12.0214937732
 20
11.527405196
 30
0.0
 10
12.0212001504
 20
11.5301238711
 30
0.0
 10
12.0207112768
 20
11.5328390468
 30
0.0
 10
12.0200275987
 20
11.5355488021
 30
0.0
 10
12.0191494376
 20
11.5382514875
 30
0.0
 10
12.0177033818
 20
11.5418858711
 30
0.0
 10
12.0153874273
 20
11.5464172292
 30
0.0
 10
12.011877181
 20
11.5517276436
 30
0.0
 10
12.0076137054
 20
11.5569657903
 30
0.0
 10
12.0026087431
 20
11.5621204603
 30
0.0
 10
11.99687463
 20
11.5671813271
 30
0.0
 10
11.9904250445
 20
11.572137588
 30
0.0
 10
11.9832751208
 20
11.5769783705
 30
0.0
 10
11.9754416091
 20
11.5816927301
 30
0.0
 10
11.9669429087
 20
11.5862697917
 30
0.0
 10
11.9577990656
 20
11.5906988374
 30
0.0
 10
11.9480317364
 20
11.5949693892
 30
0.0
 10
11.9376641368
 20
11.5990712727
 30
0.0
 10
11.9267209803
 20
11.6029946676
 30
0.0
 10
11.9152284114
 20
11.6067301502
 30
0.0
 10
11.9032139352
 20
11.6102687282
 30
0.0
 10
11.8907063449
 20
11.6136018706
 30
0.0
 10
11.8777356467
 20
11.6167215335
 30
0.0
 10
11.8643329829
 20
11.6196201833
 30
0.0
 10
11.8505305528
 20
11.6222908172
 30
0.0
 10
11.8363615321
 20
11.6247269813
 30
0.0
 10
11.8218599917
 20
11.6269227871
 30
0.0
 10
11.8070608075
 20
11.6288729287
 30
0.0
 10
11.7919995972
 20
11.6305726842
 30
0.0
 10
11.7767125498
 20
11.6320179737
 30
0.0
 10
11.7559967827
 20
11.6336071646
 30
0.0
 10
11.7298038759
 20
11.6349301853
 30
0.0
 10
11.6981923428
 20
11.6354591173
 30
0.0
 10
11.6665808097
 20
11.6349301853
 30
0.0
 10
11.6403879029
 20
11.6336071646
 30
0.0
 10
11.6196721357
 20
11.6320179737
 30
0.0
 10
11.6043850883
 20
11.6305726842
 30
0.0
 10
11.589323878
 20
11.6288729287
 30
0.0
 10
11.5745246939
 20
11.6269227871
 30
0.0
 10
11.5600231534
 20
11.6247269813
 30
0.0
 10
11.5458541327
 20
11.6222908172
 30
0.0
 10
11.5320517026
 20
11.6196201833
 30
0.0
 10
11.5186490388
 20
11.6167215335
 30
0.0
 10
11.5056783406
 20
11.6136018706
 30
0.0
 10
11.4931707504
 20
11.6102687282
 30
0.0
 10
11.4811562742
 20
11.6067301502
 30
0.0
 10
11.4696637052
 20
11.6029946676
 30
0.0
 10
11.4587205487
 20
11.5990712727
 30
0.0
 10
11.4483529491
 20
11.5949693892
 30
0.0
 10
11.4385856199
 20
11.5906988374
 30
0.0
 10
11.4294417768
 20
11.5862697917
 30
0.0
 10
11.4209430764
 20
11.5816927301
 30
0.0
 10
11.4131095647
 20
11.5769783705
 30
0.0
 10
11.4059596411
 20
11.572137588
 30
0.0
 10
11.3995100556
 20
11.5671813271
 30
0.0
 10
11.3937759424
 20
11.5621204603
 30
0.0
 10
11.3887709801
 20
11.5569657903
 30
0.0
 10
11.3845075045
 20
11.5517276436
 30
0.0
 10
11.3809972582
 20
11.5464172292
 30
0.0
 10
11.3786813037
 20
11.5418858711
 30
0.0
 10
11.3772352479
 20
11.5382514875
 30
0.0
 10
11.3763570868
 20
11.5355488021
 30
0.0
 10
11.3756734087
 20
11.5328390468
 30
0.0
 10
11.3751845352
 20
11.5301238711
 30
0.0
 10
11.3748909123
 20
11.527405196
 30
0.0
 10
11.3748256771
 20
11.525589774
 30
0.0
 10
11.3748258053
 20
11.5246844383
 30
0.0
  0
SPLINE
  5
386
100
AcDbEntity
  8
0
100
AcDbSpline
 62
9
  6
CONTINUOUS
 70
0
 71
3
 72
73
 73
69
 74
0
 42
0.0000001
 43
0.0000001
 44
0.0000000001
 40
0.0
 40
0.0
 40
0.0
 40
0.0
 40
0.0037551412
 40
0.0075275725
 40
0.0113336821
 40
0.0151896735
 40
0.0191111355
 40
0.0231126488
 40
0.0314051708
 40
0.0401659425
 40
0.0494711889
 40
0.0593797944
 40
0.0699352716
 40
0.0811679478
 40
0.0930970349
 40
0.1057324242
 40
0.1190761781
 40
0.1331237403
 40
0.1478649109
 40
0.1632846316
 40
0.1793636221
 40
0.1960789016
 40
0.2134042216
 40
0.2313104325
 40
0.2497657973
 40
0.2687362669
 40
0.288185725
 40
0.3080762093
 40
0.3283681156
 40
0.3490203886
 40
0.3699907013
 40
0.3912356273
 40
0.4127108069
 40
0.4561691935
 40
0.5
 40
0.5438308065
 40
0.5872891931
 40
0.6087643727
 40
0.6300092987
 40
0.6509796114
 40
0.6716318844
 40
0.6919237907
 40
0.711814275
 40
0.7312637331
 40
0.7502342027
 40
0.7686895675
 40
0.7865957784
 40
0.8039210984
 40
0.8206363779
 40
0.8367153684
 40
0.8521350891
 40
0.8668762597
 40
0.8809238219
 40
0.8942675758
 40
0.9069029651
 40
0.9188320522
 40
0.9300647284
 40
0.9406202056
 40
0.9505288111
 40
0.9598340575
 40
0.9685948292
 40
0.9768873512
 40
0.9808888645
 40
0.9848103265
 40
0.9886663179
 40
0.9924724275
 40
0.9962448588
 40
1.0
 40
1.0
 40
1.0
 40
1.0
 10
12.0287102493
 20
11.5330926893
 30
0.0
 10
12.0287102493
 20
11.5340179921
 30
0.0
 10
12.0286435034
 20
11.5358735409
 30
0.0
 10
12.0283435954
 20
11.5386523714
 30
0.0
 10
12.0278439663
 20
11.5414276644
 30
0.0
 10
12.0271451087
 20
11.5441973371
 30
0.0
 10
12.0262474996
 20
11.5469597693
 30
0.0
 10
12.0247694902
 20
11.5506745356
 30
0.0
 10
12.0224023169
 20
11.5553061104
 30
0.0
 10
12.0188144349
 20
11.5607339634
 30
0.0
 10
12.0144566737
 20
11.5660879558
 30
0.0
 10
12.0093410228
 20
11.5713566221
 30
0.0
 10
12.0034800973
 20
11.5765294121
 30
0.0
 10
11.9968878758
 20
11.5815952821
 30
0.0
 10
11.9895798282
 20
11.5865431201
 30
0.0
 10
11.9815730751
 20
11.5913617392
 30
0.0
 10
11.9728864229
 20
11.5960400241
 30
0.0
 10
11.9635403613
 20
11.6005670199
 30
0.0
 10
11.9535570255
 20
11.604932017
 30
0.0
 10
11.9429601442
 20
11.6091246158
 30
0.0
 10
11.9317749771
 20
11.6131347786
 30
0.0
 10
11.9200282464
 20
11.6169528731
 30
0.0
 10
11.9077480656
 20
11.6205697082
 30
0.0
 10
11.8949638647
 20
11.623976564
 30
0.0
 10
11.8817063139
 20
11.627165219
 30
0.0
 10
11.8680072441
 20
11.630127973
 30
0.0
 10
11.8538995672
 20
11.6328576681
 30
0.0
 10
11.8394171927
 20
11.6353477083
 30
0.0
 10
11.8245949449
 20
11.6375920745
 30
0.0
 10
11.8094684714
 20
11.6395853438
 30
0.0
 10
11.7940741774
 20
11.6413226901
 30
0.0
 10
11.7784490521
 20
11.6427999433
 30
0.0
 10
11.7572751489
 20
11.644424281
 30
0.0
 10
11.7305029767
 20
11.6457765625
 30
0.0
 10
11.6981923428
 20
11.6463171931
 30
0.0
 10
11.6658817088
 20
11.6457765625
 30
0.0
 10
11.6391095366
 20
11.644424281
 30
0.0
 10
11.6179356335
 20
11.6427999433
 30
0.0
 10
11.6023105081
 20
11.6413226901
 30
0.0
 10
11.5869162141
 20
11.6395853438
 30
0.0
 10
11.5717897406
 20
11.6375920745
 30
0.0
 10
11.5569674929
 20
11.6353477083
 30
0.0
 10
11.5424851183
 20
11.6328576681
 30
0.0
 10
11.5283774414
 20
11.630127973
 30
0.0
 10
11.5146783716
 20
11.627165219
 30
0.0
 10
11.5014208208
 20
11.623976564
 30
0.0
 10
11.4886366199
 20
11.6205697082
 30
0.0
 10
11.4763564391
 20
11.6169528731
 30
0.0
 10
11.4646097084
 20
11.6131347786
 30
0.0
 10
11.4534245413
 20
11.6091246158
 30
0.0
 10
11.4428276601
 20
11.604932017
 30
0.0
 10
11.4328443242
 20
11.6005670199
 30
0.0
 10
11.4234982626
 20
11.5960400241
 30
0.0
 10
11.4148116104
 20
11.5913617392
 30
0.0
 10
11.4068048573
 20
11.5865431201
 30
0.0
 10
11.3994968097
 20
11.5815952821
 30
0.0
 10
11.3929045882
 20
11.5765294121
 30
0.0
 10
11.3870436627
 20
11.5713566221
 30
0.0
 10
11.3819280118
 20
11.5660879558
 30
0.0
 10
11.3775702506
 20
11.5607339634
 30
0.0
 10
11.3739823686
 20
11.5553061104
 30
0.0
 10
11.3716151953
 20
11.5506745356
 30
0.0
 10
11.3701371859
 20
11.5469597693
 30
0.0
 10
11.3692395768
 20
11.5441973371
 30
0.0
 10
11.3685407192
 20
11.5414276644
 30
0.0
 10
11.3680410901
 20
11.5386523714
 30
0.0
 10
11.3677411821
 20
11.5358735409
 30
0.0
 10
11.3676744362
 20
11.5340179921
 30
0.0
 10
11.3676744362
 20
11.5330926893
 30
0.0
  0
SPLINE
  5
387
100
AcDbEntity
  8
0
100
AcDbSpline
 62
9
  6
CONTINUOUS
 70
0
 71
3
 72
75
 73
71
 74
0
 42
0.0000001
 43
0.0000001
 44
0.0000000001
 40
0.0
 40
0.0
 40
0.0
 40
0.0
 40
0.0037551292
 40
0.0075275485
 40
0.011333646
 40
0.0151896251
 40
0.0191110746
 40
0.0231125752
 40
0.0314050708
 40
0.0401658146
 40
0.0494710314
 40
0.0593796053
 40
0.069935049
 40
0.0811676894
 40
0.0930967385
 40
0.1057320876
 40
0.119075799
 40
0.1331233165
 40
0.1478644401
 40
0.1632841117
 40
0.1793630511
 40
0.1960782773
 40
0.2134035423
 40
0.2313096961
 40
0.2497650021
 40
0.2687354114
 40
0.2881848076
 40
0.3080752285
 40
0.3283670703
 40
0.3490192775
 40
0.3699895234
 40
0.3912343819
 40
0.4127094931
 40
0.4343697254
 40
0.456169333
 40
0.5
 40
0.543830667
 40
0.5656302746
 40
0.5872905069
 40
0.6087656181
 40
0.6300104766
 40
0.6509807225
 40
0.6716329297
 40
0.6919247715
 40
0.7118151924
 40
0.7312645886
 40
0.7502349979
 40
0.7686903039
 40
0.7865964577
 40
0.8039217227
 40
0.8206369489
 40
0.8367158883
 40
0.8521355599
 40
0.8668766835
 40
0.880924201
 40
0.8942679124
 40
0.9069032615
 40
0.9188323106
 40
0.930064951
 40
0.9406203947
 40
0.9505289686
 40
0.9598341854
 40
0.9685949292
 40
0.9768874248
 40
0.9808889254
 40
0.9848103749
 40
0.988666354
 40
0.9924724515
 40
0.9962448708
 40
1.0
 40
1.0
 40
1.0
 40
1.0
 10
12.0306923429
 20
11.5353442417
 30
0.0
 10
12.0306923429
 20
11.5362750935
 30
0.0
 10
12.0306251966
 20
11.5381417699
 30
0.0
 10
12.0303234901
 20
11.5409372648
 30
0.0
 10
12.0298208648
 20
11.5437292011
 30
0.0
 10
12.0291178162
 20
11.5465154834
 30
0.0
 10
12.0282148242
 20
11.5492944817
 30
0.0
 10
12.0267279513
 20
11.5530315251
 30
0.0
 10
12.0243465822
 20
11.5576908752
 30
0.0
 10
12.0207371839
 20
11.5631512787
 30
0.0
 10
12.0163532895
 20
11.5685373786
 30
0.0
 10
12.0112069604
 20
11.5738376407
 30
0.0
 10
12.0053108874
 20
11.5790414516
 30
0.0
 10
11.9986791327
 20
11.5841377013
 30
0.0
 10
11.9913272593
 20
11.5891152111
 30
0.0
 10
11.9832724902
 20
11.5939627272
 30
0.0
 10
11.9745337448
 20
11.5986690674
 30
0.0
 10
11.9651316354
 20
11.6032232113
 30
0.0
 10
11.9550884302
 20
11.6076143851
 30
0.0
 10
11.9444280002
 20
11.6118321265
 30
0.0
 10
11.9331757564
 20
11.615866338
 30
0.0
 10
11.9213585813
 20
11.6197073294
 30
0.0
 10
11.9090047571
 20
11.6233458543
 30
0.0
 10
11.8961438903
 20
11.6267731409
 30
0.0
 10
11.8828068348
 20
11.629980918
 30
0.0
 10
11.8690256126
 20
11.6329614394
 30
0.0
 10
11.8548333329
 20
11.6357075044
 30
0.0
 10
11.8402641087
 20
11.638212477
 30
0.0
 10
11.8253529723
 20
11.6404703029
 30
0.0
 10
11.8101357885
 20
11.6424755245
 30
0.0
 10
11.7946491678
 20
11.6442232942
 30
0.0
 10
11.7789303709
 20
11.6457093887
 30
0.0
 10
11.7630172397
 20
11.646930209
 30
0.0
 10
11.7469480233
 20
11.6478828288
 30
0.0
 10
11.7253280522
 20
11.6487937961
 30
0.0
 10
11.6981923428
 20
11.6492476881
 30
0.0
 10
11.6710566333
 20
11.6487937961
 30
0.0
 10
11.6494366622
 20
11.6478828288
 30
0.0
 10
11.6333674458
 20
11.646930209
 30
0.0
 10
11.6174543146
 20
11.6457093887
 30
0.0
 10
11.6017355178
 20
11.6442232942
 30
0.0
 10
11.586248897
 20
11.6424755245
 30
0.0
 10
11.5710317132
 20
11.6404703029
 30
0.0
 10
11.5561205769
 20
11.638212477
 30
0.0
 10
11.5415513526
 20
11.6357075044
 30
0.0
 10
11.5273590729
 20
11.6329614394
 30
0.0
 10
11.5135778508
 20
11.629980918
 30
0.0
 10
11.5002407953
 20
11.6267731409
 30
0.0
 10
11.4873799284
 20
11.6233458543
 30
0.0
 10
11.4750261042
 20
11.6197073294
 30
0.0
 10
11.4632089292
 20
11.615866338
 30
0.0
 10
11.4519566853
 20
11.6118321265
 30
0.0
 10
11.4412962553
 20
11.6076143851
 30
0.0
 10
11.4312530501
 20
11.6032232113
 30
0.0
 10
11.4218509407
 20
11.5986690674
 30
0.0
 10
11.4131121954
 20
11.5939627272
 30
0.0
 10
11.4050574262
 20
11.5891152111
 30
0.0
 10
11.3977055528
 20
11.5841377013
 30
0.0
 10
11.3910737982
 20
11.5790414516
 30
0.0
 10
11.3851777251
 20
11.5738376407
 30
0.0
 10
11.380031396
 20
11.5685373786
 30
0.0
 10
11.3756475016
 20
11.5631512787
 30
0.0
 10
11.3720381033
 20
11.5576908752
 30
0.0
 10
11.3696567343
 20
11.5530315251
 30
0.0
 10
11.3681698613
 20
11.5492944817
 30
0.0
 10
11.3672668693
 20
11.5465154834
 30
0.0
 10
11.3665638207
 20
11.5437292011
 30
0.0
 10
11.3660611954
 20
11.5409372648
 30
0.0
 10
11.3657594889
 20
11.5381417699
 30
0.0
 10
11.3656923426
 20
11.5362750935
 30
0.0
 10
11.3656923426
 20
11.5353442417
 30
0.0
  0
SPLINE
  5
388
100
AcDbEntity
  8
0
100
AcDbSpline
 62
9
  6
CONTINUOUS
 70
0
 71
3
 72
15
 73
11
 74
0
 42
0.0000001
 43
0.0000001
 44
0.0000000001
 40
0.0
 40
0.0
 40
0.0
 40
0.0
 40
0.1406520792
 40
0.2754510312
 40
0.4049658032
 40
0.529865256
 40
0.6509169515
 40
0.768983105
 40
0.8850124861
 40
1.0
 40
1.0
 40
1.0
 40
1.0
 10
11.3803206161
 20
11.5021221109
 30
0.0
 10
11.379296243
 20
11.5033519901
 30
0.0
 10
11.3773655636
 20
11.5058249901
 30
0.0
 10
11.3747905487
 20
11.5096517619
 30
0.0
 10
11.3726043422
 20
11.5135092645
 30
0.0
 10
11.3708103314
 20
11.5173929325
 30
0.0
 10
11.3694113914
 20
11.521298163
 30
0.0
 10
11.3684100798
 20
11.5252202304
 30
0.0
 10
11.3678084606
 20
11.5291532739
 30
0.0
 10
11.3676744362
 20
11.5317841424
 30
0.0
 10
11.3676744362
 20
11.5330926893
 30
0.0
  0
SPLINE
  5
389
100
AcDbEntity
  8
0
100
AcDbSpline
 62
9
  6
CONTINUOUS
 70
0
 71
3
 72
71
 73
67
 74
0
 42
0.0000001
 43
0.0000001
 44
0.0000000001
 40
0.0
 40
0.0
 40
0.0
 40
0.0
 40
0.0037551231
 40
0.0075275684
 40
0.0113337081
 40
0.0151897138
 40
0.0191111757
 40
0.0231126994
 40
0.0314052534
 40
0.0401660529
 40
0.04947133
 40
0.0593799659
 40
0.0699354748
 40
0.081168186
 40
0.0930973137
 40
0.1057327487
 40
0.1190765511
 40
0.1331241633
 40
0.1478653844
 40
0.1632851564
 40
0.1793641994
 40
0.1960795332
 40
0.2134049104
 40
0.231311182
 40
0.2497666107
 40
0.2687371462
 40
0.2881866714
 40
0.3080772237
 40
0.3283691992
 40
0.3490215425
 40
0.3699919268
 40
0.4127105048
 40
0.4561690429
 40
0.5
 40
0.5438309571
 40
0.5872894952
 40
0.6300080732
 40
0.6509784575
 40
0.6716308008
 40
0.6919227763
 40
0.7118133286
 40
0.7312628538
 40
0.7502333893
 40
0.768688818
 40
0.7865950896
 40
0.8039204668
 40
0.8206358006
 40
0.8367148436
 40
0.8521346156
 40
0.8668758367
 40
0.8809234489
 40
0.8942672513
 40
0.9069026863
 40
0.918831814
 40
0.9300645252
 40
0.9406200341
 40
0.95052867
 40
0.9598339471
 40
0.9685947466
 40
0.9768873006
 40
0.9808888243
 40
0.9848102862
 40
0.9886662919
 40
0.9924724316
 40
0.9962448769
 40
1.0
 40
1.0
 40
1.0
 40
1.0
 10
11.9681923423
 20
11.2051379463
 30
0.0
 10
11.9681923423
 20
11.2043820729
 30
0.0
 10
11.9681378156
 20
11.2028662814
 30
0.0
 10
11.9678928223
 20
11.2005962579
 30
0.0
 10
11.9674846798
 20
11.1983291167
 30
0.0
 10
11.9669137806
 20
11.1960665712
 30
0.0
 10
11.9661805293
 20
11.1938099424
 30
0.0
 10
11.964973136
 20
11.1907753564
 30
0.0
 10
11.9630394007
 20
11.1869918206
 30
0.0
 10
11.9601084593
 20
11.1825578087
 30
0.0
 10
11.9565486092
 20
11.1781841319
 30
0.0
 10
11.9523696381
 20
11.1738801588
 30
0.0
 10
11.9475818528
 20
11.1696545069
 30
0.0
 10
11.9421966706
 20
11.1655161981
 30
0.0
 10
11.9362267281
 20
11.1614743102
 30
0.0
 10
11.9296860116
 20
11.1575379813
 30
0.0
 10
11.9225898853
 20
11.1537162915
 30
0.0
 10
11.914955088
 20
11.1500181896
 30
0.0
 10
11.9067997027
 20
11.1464524242
 30
0.0
 10
11.8981431133
 20
11.1430274907
 30
0.0
 10
11.889005954
 20
11.1397515887
 30
0.0
 10
11.8794100538
 20
11.1366325869
 30
0.0
 10
11.8693783779
 20
11.1336779939
 30
0.0
 10
11.858934967
 20
11.1308949335
 30
0.0
 10
11.8481048759
 20
11.1282901219
 30
0.0
 10
11.8369141078
 20
11.1258698488
 30
0.0
 10
11.8253895492
 20
11.1236399616
 30
0.0
 10
11.8135588984
 20
11.1216058468
 30
0.0
 10
11.8014506135
 20
11.1197724286
 30
0.0
 10
11.7890937758
 20
11.1181441088
 30
0.0
 10
11.7722228893
 20
11.1162401946
 30
0.0
 10
11.7507281051
 20
11.1144070411
 30
0.0
 10
11.7245870307
 20
11.1130864931
 30
0.0
 10
11.6981923428
 20
11.1126448913
 30
0.0
 10
11.6717976549
 20
11.1130864931
 30
0.0
 10
11.6456565805
 20
11.1144070411
 30
0.0
 10
11.6241617963
 20
11.1162401946
 30
0.0
 10
11.6072909097
 20
11.1181441088
 30
0.0
 10
11.5949340721
 20
11.1197724286
 30
0.0
 10
11.5828257872
 20
11.1216058468
 30
0.0
 10
11.5709951363
 20
11.1236399616
 30
0.0
 10
11.5594705778
 20
11.1258698488
 30
0.0
 10
11.5482798096
 20
11.1282901219
 30
0.0
 10
11.5374497185
 20
11.1308949335
 30
0.0
 10
11.5270063077
 20
11.1336779939
 30
0.0
 10
11.5169746317
 20
11.1366325869
 30
0.0
 10
11.5073787315
 20
11.1397515887
 30
0.0
 10
11.4982415722
 20
11.1430274907
 30
0.0
 10
11.4895849828
 20
11.1464524242
 30
0.0
 10
11.4814295975
 20
11.1500181896
 30
0.0
 10
11.4737948003
 20
11.1537162915
 30
0.0
 10
11.466698674
 20
11.1575379813
 30
0.0
 10
11.4601579574
 20
11.1614743102
 30
0.0
 10
11.4541880149
 20
11.1655161981
 30
0.0
 10
11.4488028327
 20
11.1696545069
 30
0.0
 10
11.4440150474
 20
11.1738801588
 30
0.0
 10
11.4398360763
 20
11.1781841319
 30
0.0
 10
11.4362762262
 20
11.1825578087
 30
0.0
 10
11.4333452848
 20
11.1869918206
 30
0.0
 10
11.4314115495
 20
11.1907753564
 30
0.0
 10
11.4302041562
 20
11.1938099424
 30
0.0
 10
11.4294709049
 20
11.1960665712
 30
0.0
 10
11.4289000057
 20
11.1983291167
 30
0.0
 10
11.4284918632
 20
11.2005962579
 30
0.0
 10
11.4282468699
 20
11.2028662814
 30
0.0
 10
11.4281923432
 20
11.2043820729
 30
0.0
 10
11.4281923432
 20
11.2051379463
 30
0.0
  0
SPLINE
  5
38A
100
AcDbEntity
  8
0
100
AcDbSpline
 62
9
  6
CONTINUOUS
 70
0
 71
3
 72
73
 73
69
 74
0
 42
0.0000001
 43
0.0000001
 44
0.0000000001
 40
0.0
 40
0.0
 40
0.0
 40
0.0
 40
0.0037551232
 40
0.0075275604
 40
0.0113336862
 40
0.0151896806
 40
0.0191111346
 40
0.0231126469
 40
0.0314051726
 40
0.0401659429
 40
0.0494711888
 40
0.0593797928
 40
0.0699352684
 40
0.0811679432
 40
0.0930970295
 40
0.1057324197
 40
0.119076176
 40
0.1331237411
 40
0.1478649143
 40
0.1632846367
 40
0.1793636275
 40
0.1960789059
 40
0.2134042239
 40
0.2313104323
 40
0.249765795
 40
0.2687362635
 40
0.2881857216
 40
0.3080762069
 40
0.3283681145
 40
0.3490203885
 40
0.3699907018
 40
0.391235628
 40
0.4127108075
 40
0.4561691936
 40
0.5
 40
0.5438308064
 40
0.5872891925
 40
0.608764372
 40
0.6300092982
 40
0.6509796115
 40
0.6716318855
 40
0.6919237931
 40
0.7118142784
 40
0.7312637365
 40
0.750234205
 40
0.7686895677
 40
0.7865957761
 40
0.8039210941
 40
0.8206363725
 40
0.8367153633
 40
0.8521350857
 40
0.8668762589
 40
0.880923824
 40
0.8942675803
 40
0.9069029705
 40
0.9188320568
 40
0.9300647316
 40
0.9406202072
 40
0.9505288112
 40
0.9598340571
 40
0.9685948274
 40
0.9768873531
 40
0.9808888654
 40
0.9848103194
 40
0.9886663138
 40
0.9924724396
 40
0.9962448768
 40
1.0
 40
1.0
 40
1.0
 40
1.0
 10
11.9835114903
 20
11.2065290927
 30
0.0
 10
11.9835114903
 20
11.2057303302
 30
0.0
 10
11.9834538702
 20
11.2041285327
 30
0.0
 10
11.9831949756
 20
11.2017297102
 30
0.0
 10
11.982763674
 20
11.1993339361
 30
0.0
 10
11.9821603832
 20
11.1969430181
 30
0.0
 10
11.9813855262
 20
11.1945583525
 30
0.0
 10
11.98010963
 20
11.1913515892
 30
0.0
 10
11.9780661754
 20
11.1873533861
 30
0.0
 10
11.9749689387
 20
11.1826677998
 30
0.0
 10
11.971207109
 20
11.1780459725
 30
0.0
 10
11.9667910312
 20
11.1734978032
 30
0.0
 10
11.9617315967
 20
11.1690323987
 30
0.0
 10
11.9560408715
 20
11.1646592927
 30
0.0
 10
11.9497322096
 20
11.1603880777
 30
0.0
 10
11.9428203899
 20
11.1562284111
 30
0.0
 10
11.9353216471
 20
11.1521898884
 30
0.0
 10
11.9272536694
 20
11.1482819659
 30
0.0
 10
11.918635566
 20
11.1445138886
 30
0.0
 10
11.909487821
 20
11.1408946338
 30
0.0
 10
11.8998322399
 20
11.1374328663
 30
0.0
 10
11.8896918908
 20
11.1341369011
 30
0.0
 10
11.8790910423
 20
11.1310146725
 30
0.0
 10
11.8680550995
 20
11.1280737078
 30
0.0
 10
11.8566105377
 20
11.1253211047
 30
0.0
 10
11.8447848346
 20
11.1227635106
 30
0.0
 10
11.8326064012
 20
11.1204071046
 30
0.0
 10
11.8201045099
 20
11.1182575811
 30
0.0
 10
11.8073092233
 20
11.1163201355
 30
0.0
 10
11.7942513143
 20
11.1145994489
 30
0.0
 10
11.7809622098
 20
11.1130996876
 30
0.0
 10
11.7674738408
 20
11.1118244509
 30
0.0
 10
11.7491954969
 20
11.1104222437
 30
0.0
 10
11.7260844547
 20
11.1092548881
 30
0.0
 10
11.6981923428
 20
11.1087881887
 30
0.0
 10
11.6703002308
 20
11.1092548881
 30
0.0
 10
11.6471891886
 20
11.1104222437
 30
0.0
 10
11.6289108447
 20
11.1118244509
 30
0.0
 10
11.6154224757
 20
11.1130996876
 30
0.0
 10
11.6021333712
 20
11.1145994489
 30
0.0
 10
11.5890754623
 20
11.1163201355
 30
0.0
 10
11.5762801756
 20
11.1182575811
 30
0.0
 10
11.5637782843
 20
11.1204071046
 30
0.0
 10
11.5515998509
 20
11.1227635106
 30
0.0
 10
11.5397741478
 20
11.1253211047
 30
0.0
 10
11.528329586
 20
11.1280737078
 30
0.0
 10
11.5172936432
 20
11.1310146725
 30
0.0
 10
11.5066927947
 20
11.1341369011
 30
0.0
 10
11.4965524456
 20
11.1374328663
 30
0.0
 10
11.4868968645
 20
11.1408946338
 30
0.0
 10
11.4777491195
 20
11.1445138886
 30
0.0
 10
11.4691310161
 20
11.1482819659
 30
0.0
 10
11.4610630384
 20
11.1521898884
 30
0.0
 10
11.4535642956
 20
11.1562284111
 30
0.0
 10
11.4466524759
 20
11.1603880777
 30
0.0
 10
11.440343814
 20
11.1646592927
 30
0.0
 10
11.4346530888
 20
11.1690323987
 30
0.0
 10
11.4295936543
 20
11.1734978032
 30
0.0
 10
11.4251775765
 20
11.1780459725
 30
0.0
 10
11.4214157469
 20
11.1826677998
 30
0.0
 10
11.4183185101
 20
11.1873533861
 30
0.0
 10
11.4162750555
 20
11.1913515892
 30
0.0
 10
11.4149991593
 20
11.1945583525
 30
0.0
 10
11.4142243023
 20
11.1969430181
 30
0.0
 10
11.4136210115
 20
11.1993339361
 30
0.0
 10
11.4131897099
 20
11.2017297102
 30
0.0
 10
11.4129308153
 20
11.2041285327
 30
0.0
 10
11.4128731952
 20
11.2057303302
 30
0.0
 10
11.4128731952
 20
11.2065290927
 30
0.0
  0
SPLINE
  5
38B
100
AcDbEntity
  8
0
100
AcDbSpline
 62
9
  6
CONTINUOUS
 70
0
 71
3
 72
39
 73
35
 74
0
 42
0.0000001
 43
0.0000001
 44
0.0000000001
 40
0.0
 40
0.0
 40
0.0
 40
0.0
 40
0.0075106066
 40
0.0150552305
 40
0.0226673598
 40
0.0303794323
 40
0.0382224177
 40
0.0462254644
 40
0.0628105537
 40
0.0803321559
 40
0.0989427048
 40
0.1187599769
 40
0.1398709996
 40
0.1623364312
 40
0.1861946921
 40
0.2114655619
 40
0.2381531626
 40
0.266248381
 40
0.2957308179
 40
0.3265703586
 40
0.3587284455
 40
0.3921591186
 40
0.4268098782
 40
0.4626224216
 40
0.4995332738
 40
0.537474337
 40
0.5763733793
 40
0.6161544777
 40
0.6567384259
 40
0.6980431133
 40
0.739983881
 40
0.8254210109
 40
0.9123379448
 40
1.0
 40
1.0
 40
1.0
 40
1.0
 10
11.9481923427
 20
12.323372165
 30
0.0
 10
11.9481923427
 20
12.3240720814
 30
0.0
 10
11.9481418626
 20
12.3254756012
 30
0.0
 10
11.9479150053
 20
12.3275774686
 30
0.0
 10
11.9475370913
 20
12.3296766387
 30
0.0
 10
11.9470084841
 20
12.331771586
 30
0.0
 10
11.9463295541
 20
12.3338610714
 30
0.0
 10
11.9452115874
 20
12.3366708738
 30
0.0
 10
11.9434210913
 20
12.3401741451
 30
0.0
 10
11.9407072589
 20
12.3442797111
 30
0.0
 10
11.9374111003
 20
12.3483294108
 30
0.0
 10
11.9335416826
 20
12.3523145711
 30
0.0
 10
11.9291085459
 20
12.3562272114
 30
0.0
 10
11.9241222628
 20
12.3600589775
 30
0.0
 10
11.918594536
 20
12.3638014654
 30
0.0
 10
11.9125383165
 20
12.3674462137
 30
0.0
 10
11.90596783
 20
12.3709848149
 30
0.0
 10
11.8988985748
 20
12.3744089832
 30
0.0
 10
11.8913472937
 20
12.377710618
 30
0.0
 10
11.8833319339
 20
12.3808818528
 30
0.0
 10
11.8748716007
 20
12.3839150949
 30
0.0
 10
11.8659865062
 20
12.3868030578
 30
0.0
 10
11.8566979157
 20
12.3895387903
 30
0.0
 10
11.8470280906
 20
12.392115697
 30
0.0
 10
11.8370002296
 20
12.3945275595
 30
0.0
 10
11.8266384093
 20
12.3967685536
 30
0.0
 10
11.815967524
 20
12.3988332647
 30
0.0
 10
11.8050132193
 20
12.400716705
 30
0.0
 10
11.7938018455
 20
12.4024143145
 30
0.0
 10
11.7823603278
 20
12.4039220166
 30
0.0
 10
11.7667391457
 20
12.4056848975
 30
0.0
 10
11.7468365282
 20
12.4073822586
 30
0.0
 10
11.7226320655
 20
12.4086049944
 30
0.0
 10
11.7063616045
 20
12.4088772009
 30
0.0
 10
11.6981923427
 20
12.4088772009
 30
0.0
  0
ENDSEC
  0
SECTION
  2
OBJECTS
  0
DICTIONARY
  5
C
100
AcDbDictionary
280
0
281
1
  3
ACAD_GROUP
350
D
  3
ACAD_MLINESTYLE
350
17
  3
ACAD_LAYOUT
350
1A
  3
ACAD_PLOTSETTINGS
350
19
  3
ACAD_PLOTSTYLENAME
350
E
  0
DICTIONARY
  5
D
102
{ACAD_REACTORS
330
C
102
}
100
AcDbDictionary
280
0
281
1
  0
ACDBDICTIONARYWDFLT
  5
E
102
{ACAD_REACTORS
330
C
102
}
100
AcDbDictionary
281
1
  3
Normal
350
F
100
AcDbDictionaryWithDefault
340
F
  0
DICTIONARY
  5
17
102
{ACAD_REACTORS
330
C
102
}
100
AcDbDictionary
280
0
281
1
  3
Standard
350
18
  0
DICTIONARY
  5
19
102
{ACAD_REACTORS
330
C
102
}
100
AcDbDictionary
281
1
  0
DICTIONARY
  5
1A
102
{ACAD_REACTORS
330
C
102
}
100
AcDbDictionary
281
1
  3
Model
350
38C
  3
Layout1
350
38D
  0
ACDBPLACEHOLDER
  5
F
102
{ACAD_REACTORS
330
E
102
}
  0
MLINESTYLE
  5
18
102
{ACAD_REACTORS
330
17
102
}
100
AcDbMlineStyle
  2
STANDARD
 70
0
  3

 62
256
 51
90.0
 52
90.0
 71
2
 49
0.5
 62
256
  6
BYLAYER
 49
-0.5
 62
256
  6
BYLAYER
  0
LAYOUT
  5
38C
102
{ACAD_REACTORS
330
1A
102
}
100
AcDbPlotSettings
  1

  2
none_device
  4
ANSI_C_(22.00_x_17.00_Inches)
  6

 40
0.0
 41
0.0
 42
0.0
 43
0.0
 44
558.8
 45
431.8
 46
0.0
 47
0.0
 48
0.0
 49
0.0
140
0.0
141
0.0
142
1.0
143
1.0
 70
1024
 72
0
 73
0
 74
0
  7

 75
0
147
1.0
148
0.0
149
0.0
100
AcDbLayout
  1
Model
 70
0
 71
0
 10
0.0
 20
0.0
 11
22.0
 21
17.0
 12
0.0
 22
0.0
 32
0.0
 14
0.0
 24
0.0
 34
0.0
 15
0.0
 25
0.0
 35
0.0
146
0.0
 13
0.0
 23
0.0
 33
0.0
 16
1.0
 26
0.0
 36
0.0
 17
0.0
 27
1.0
 37
0.0
 76
0
330
205
345
0
346
0
  0
LAYOUT
  5
38D
102
{ACAD_REACTORS
330
1A
102
}
100
AcDbPlotSettings
  1

  2
none_device
  4
ANSI_C_(22.00_x_17.00_Inches)
  6

 40
0.0
 41
0.0
 42
0.0
 43
0.0
 44
558.8
 45
431.8
 46
0.0
 47
0.0
 48
0.0
 49
0.0
140
0.0
141
0.0
142
1.0
143
1.0
 70
0
 72
0
 73
0
 74
0
  7

 75
0
147
1.0
148
0.0
149
0.0
100
AcDbLayout
  1
Layout1
 70
0
 71
1
 10
0.0
 20
0.0
 11
22.0
 21
17.0
 12
0.0
 22
0.0
 32
0.0
 14
0.0
 24
0.0
 34
0.0
 15
0.0
 25
0.0
 35
0.0
146
0.0
 13
0.0
 23
0.0
 33
0.0
 16
1.0
 26
0.0
 36
0.0
 17
0.0
 27
1.0
 37
0.0
 76
0
330
206
345
0
346
0
  0
ENDSEC
  0
EOF
