999
DXF file: E:\BT Custom\CADOUTPUT\_TOP.dxf
999
Pro/ENGINEER 2018400 by Parametric Technology Corporation
  0
SECTION
  2
HEADER
  9
$ACADVER
  1
AC1018
  9
$DWGCODEPAGE
  3
ANSI_1252
  9
$EXTMAX
 10
22.0
 20
17.0
 30
0.0
  9
$EXTMIN
 10
0.0
 20
0.0
 30
0.0
  9
$LIMMIN
 10
0.0
 20
0.0
  9
$LIMMAX
 10
22.0
 20
17.0
  9
$VIEWCTR
 10
11.0
 20
8.5
  9
$VIEWSIZE
 40
17.0
  9
$CLAYER
  8
0
  9
$LTSCALE
 40
1.21
  9
$CELTYPE
  6
BYLAYER
  9
$DIMSCALE
 40
1.0
  9
$DIMASZ
 40
0.1
  9
$DIMEXO
 40
0.0625
  9
$DIMDLI
 40
0.836
  9
$DIMEXE
 40
0.125
  9
$DIMCEN
 40
0.198
  9
$DIMLFAC
 40
1.0
  9
$DIMBLK
  1
_FILLED
  9
$DIMALT
 70
1
  9
$DIMALTD
 70
2
  9
$DIMALTTD
 70
2
  9
$DIMALTF
 40
25.4
  9
$DIMTXT
 40
0.08
  9
$DIMTOL
 70
1
  9
$DIMLIM
 70
0
  9
$DIMTFAC
 40
1.0
  9
$DIMTP
 40
0.001
  9
$DIMTM
 40
0.001
  9
$DIMGAP
 40
0.09
  9
$DIMDSEP
 70
46
  9
$AUNITS
 70
0
  9
$PDMODE
 70
3
  9
$PDSIZE
 40
0.06
  9
$HANDSEED
  5
3C4
  9
$TILEMODE
 70
1
  9
$MEASUREMENT
 70
0
  9
$INSUNITS
 70
1
  0
ENDSEC
  0
SECTION
  2
CLASSES
  0
CLASS
  1
ACDBDICTIONARYWDFLT
  2
AcDbDictionaryWithDefault
  3
AutoCAD 2000
 90
0
 91
1
280
0
281
0
  0
CLASS
  1
ACDBPLACEHOLDER
  2
AcDbPlaceHolder
  3
AutoCAD 2000
 90
0
 91
1
280
0
281
0
  0
CLASS
  1
LAYOUT
  2
AcDbLayout
  3
AutoCAD 2000
 90
0
 91
0
280
0
281
0
  0
ENDSEC
  0
SECTION
  2
TABLES
  0
TABLE
  2
VPORT
  5
8
100
AcDbSymbolTable
 70
2
  0
VPORT
  5
1F4
100
AcDbSymbolTableRecord
100
AcDbViewportTableRecord
  2
*ACTIVE
 70
0
 10
0.0
 20
0.0
 11
1.0
 21
1.0
 12
11.0
 22
8.5
 13
0.0
 23
0.0
 14
1.0
 24
1.0
 15
0.0
 25
0.0
 16
0.0
 26
0.0
 36
1.0
 17
0.0
 27
0.0
 37
0.0
 40
17.0
 41
1.2941176471
 42
50.0
 43
0.0
 44
0.0
 50
0.0
 51
0.0
 71
0
 72
100
 73
1
 74
1
 75
0
 76
0
 77
0
 78
0
  0
ENDTAB
  0
TABLE
  2
LTYPE
  5
5
100
AcDbSymbolTable
 70
6
  0
LTYPE
  5
14
100
AcDbSymbolTableRecord
100
AcDbLinetypeTableRecord
  2
BYBLOCK
 70
0
  3

 72
65
 73
0
 40
0.0
  0
LTYPE
  5
15
100
AcDbSymbolTableRecord
100
AcDbLinetypeTableRecord
  2
BYLAYER
 70
0
  3

 72
65
 73
0
 40
0.0
  0
LTYPE
  5
16
100
AcDbSymbolTableRecord
100
AcDbLinetypeTableRecord
  2
CONTINUOUS
 70
64
  3
Solid line
 72
65
 73
0
 40
0.0
  0
LTYPE
  5
1F5
100
AcDbSymbolTableRecord
100
AcDbLinetypeTableRecord
  2
CENTER
 70
64
  3
____ _ ____ _ ____ _ ____ _ ____ _ ____ _ ____
 72
65
 73
4
 40
0.6
 49
0.375
 74
0
 49
-0.075
 74
0
 49
0.075
 74
0
 49
-0.075
 74
0
  0
LTYPE
  5
1F6
100
AcDbSymbolTableRecord
100
AcDbLinetypeTableRecord
  2
HIDDEN
 70
64
  3
- - - - - - - - - - - - - - - - - - - -
 72
65
 73
2
 40
0.2
 49
0.1
 74
0
 49
-0.1
 74
0
  0
LTYPE
  5
1F7
100
AcDbSymbolTableRecord
100
AcDbLinetypeTableRecord
  2
PHANTOM
 70
64
  3
_____ _ _ _____ _ _ _____ _ _ _____
 72
65
 73
6
 40
0.8
 49
0.45
 74
0
 49
-0.05
 74
0
 49
0.1
 74
0
 49
-0.05
 74
0
 49
0.1
 74
0
 49
-0.05
 74
0
  0
LTYPE
  5
1F8
100
AcDbSymbolTableRecord
100
AcDbLinetypeTableRecord
  2
DOT
 70
64
  3
. . . . . . . . . . . . . . . . . . . .
 72
65
 73
2
 40
0.2
 49
0.1
 74
0
 49
-0.1
 74
0
  0
LTYPE
  5
1F9
100
AcDbSymbolTableRecord
100
AcDbLinetypeTableRecord
  2
DASHED
 70
64
  3
- - - - - - - - - - - - - - - - - - - -
 72
65
 73
2
 40
0.2
 49
0.1
 74
0
 49
-0.1
 74
0
  0
ENDTAB
  0
TABLE
  2
LAYER
  5
2
100
AcDbSymbolTable
 70
36
  0
LAYER
  5
10
100
AcDbSymbolTableRecord
100
AcDbLayerTableRecord
  2
0
 70
0
 62
7
  6
CONTINUOUS
370
-3
390
F
  0
LAYER
  5
1FA
100
AcDbSymbolTableRecord
100
AcDbLayerTableRecord
  2
DEFAULT_1
 70
0
 62
7
  6
CENTER
370
-3
390
F
  0
LAYER
  5
1FB
100
AcDbSymbolTableRecord
100
AcDbLayerTableRecord
  2
DEFAULT_2
 70
0
 62
8
  6
HIDDEN
370
-3
390
F
  0
LAYER
  5
1FC
100
AcDbSymbolTableRecord
100
AcDbLayerTableRecord
  2
DEFAULT_3
 70
0
 62
7
  6
PHANTOM
370
-3
390
F
  0
LAYER
  5
1FD
100
AcDbSymbolTableRecord
100
AcDbLayerTableRecord
  2
ALL_FEATURES
 70
0
 62
7
  6
CONTINUOUS
370
-3
390
F
  0
LAYER
  5
1FE
100
AcDbSymbolTableRecord
100
AcDbLayerTableRecord
  2
AXES_FEATURES
 70
0
 62
7
  6
CONTINUOUS
370
-3
390
F
  0
LAYER
  5
1FF
100
AcDbSymbolTableRecord
100
AcDbLayerTableRecord
  2
DEFAULT_COORDINATE_SYSTEM
 70
0
 62
7
  6
CONTINUOUS
370
-3
390
F
  0
LAYER
  5
200
100
AcDbSymbolTableRecord
100
AcDbLayerTableRecord
  2
DEFAULT_DATUM_AXES
 70
0
 62
7
  6
CONTINUOUS
370
-3
390
F
  0
LAYER
  5
201
100
AcDbSymbolTableRecord
100
AcDbLayerTableRecord
  2
DEFAULT_DATUM_PLANES
 70
0
 62
7
  6
CONTINUOUS
370
-3
390
F
  0
LAYER
  5
202
100
AcDbSymbolTableRecord
100
AcDbLayerTableRecord
  2
DIMENSIONS
 70
0
 62
7
  6
CONTINUOUS
370
-3
390
F
  0
ENDTAB
  0
TABLE
  2
STYLE
  5
3
100
AcDbSymbolTable
 70
1
  0
STYLE
  5
11
100
AcDbSymbolTableRecord
100
AcDbTextStyleTableRecord
  2
STANDARD
 70
0
 40
0.0
 41
0.8
 50
0.0
 71
0
 42
0.2
  3
txt
  4

  0
STYLE
  5
203
100
AcDbSymbolTableRecord
100
AcDbTextStyleTableRecord
  2
TEXTSTYLE_1
 70
0
 40
0.0
 41
0.8
 50
0.0
 71
0
 42
0.2
  3
gdt
  4

  0
ENDTAB
  0
TABLE
  2
VIEW
  5
6
100
AcDbSymbolTable
 70
0
  0
ENDTAB
  0
TABLE
  2
UCS
  5
7
100
AcDbSymbolTable
 70
0
  0
ENDTAB
  0
TABLE
  2
APPID
  5
9
100
AcDbSymbolTable
 70
1
  0
APPID
  5
204
100
AcDbSymbolTableRecord
100
AcDbRegAppTableRecord
  2
ACAD
 70
0
  0
ENDTAB
  0
TABLE
  2
BLOCK_RECORD
  5
1
100
AcDbSymbolTable
 70
0
  0
BLOCK_RECORD
  5
205
100
AcDbSymbolTableRecord
100
AcDbBlockTableRecord
  2
*Model_Space
  0
BLOCK_RECORD
  5
206
100
AcDbSymbolTableRecord
100
AcDbBlockTableRecord
  2
*Paper_Space
  0
BLOCK_RECORD
  5
207
100
AcDbSymbolTableRecord
100
AcDbBlockTableRecord
  2
_FILLED
  0
ENDTAB
  0
TABLE
  2
DIMSTYLE
  5
A
100
AcDbSymbolTable
 70
1
100
AcDbDimStyleTable
 71
0
  0
DIMSTYLE
105
208
100
AcDbSymbolTableRecord
100
AcDbDimStyleTableRecord
  2
STANDARD
 70
0
  3

  4

 40
1.0
 41
0.1
 42
0.0625
 43
0.38
 44
0.125
 45
0.0
 46
0.0
 47
0.001
 48
0.001
140
0.08
141
0.09
142
0.0
143
25.4
144
1.0
145
0.0
146
1.0
147
0.09
 71
1.0
 72
0.0
 73
1
 74
1
 75
0
 76
0
 77
0
 78
4
 79
1
170
1
171
2
172
0
173
0
174
0
175
0
176
0
177
0
178
0
270
2
179
3
271
3
272
3
273
2
274
2
275
0
280
0
281
0
282
0
283
1
284
4
285
0
286
0
287
3
288
0
340
11
278
46
341
207
342
207
343
207
344
207
  0
ENDTAB
  0
ENDSEC
  0
SECTION
  2
BLOCKS
  0
BLOCK
  5
20
100
AcDbEntity
  8
0
100
AcDbBlockBegin
  2
*Model_Space
 70
0
 10
0.0
 20
0.0
 30
0.0
  3
*Model_Space
  1

  0
ENDBLK
  5
21
100
AcDbEntity
  8
0
100
AcDbBlockEnd
  0
BLOCK
  5
1C
100
AcDbEntity
  8
0
100
AcDbBlockBegin
  2
*Paper_Space
 70
0
 10
0.0
 20
0.0
 30
0.0
  3
*Paper_Space
  1

  0
ENDBLK
  5
1D
100
AcDbEntity
  8
0
100
AcDbBlockEnd
  0
BLOCK
  5
209
100
AcDbEntity
  8
0
100
AcDbBlockBegin
  2
_FILLED
 70
64
 10
0.0
 20
0.0
  3
_FILLED
  1

  0
SOLID
  5
20A
100
AcDbEntity
  8
0
  6
BYBLOCK
 62
0
100
AcDbTrace
 10
0.0
 20
0.0
 11
-1.0
 21
0.2
 12
-1.0
 22
-0.2
 13
-1.0
 23
-0.2
  0
ENDBLK
  5
20B
100
AcDbEntity
  8
0
  6
BYBLOCK
 62
0
100
AcDbBlockEnd
  0
ENDSEC
  0
SECTION
  2
ENTITIES
  0
LINE
  5
20C
100
AcDbEntity
  8
0
100
AcDbLine
 62
7
  6
CONTINUOUS
 10
12.206338893
 20
10.405288953
 11
12.232744535
 21
10.4154251293
  0
LINE
  5
20D
100
AcDbEntity
  8
0
100
AcDbLine
 62
7
  6
CONTINUOUS
 10
12.2526382208
 20
10.3832053064
 11
12.2795381613
 21
10.3919456269
  0
LINE
  5
20E
100
AcDbEntity
  8
0
100
AcDbLine
 62
7
  6
CONTINUOUS
 10
12.1105931832
 20
10.4420422875
 11
12.1357946534
 21
10.4548830779
  0
LINE
  5
20F
100
AcDbEntity
  8
0
100
AcDbLine
 62
7
  6
CONTINUOUS
 10
12.1589472481
 20
10.424919215
 11
12.1847862156
 21
10.4364234646
  0
LINE
  5
210
100
AcDbEntity
  8
0
100
AcDbLine
 62
7
  6
CONTINUOUS
 10
11.961092824
 20
10.4779341482
 11
11.9839752801
 21
10.4945592257
  0
LINE
  5
211
100
AcDbEntity
  8
0
100
AcDbLine
 62
7
  6
CONTINUOUS
 10
12.0115302088
 20
10.4685861315
 11
12.0352513946
 21
10.4839908497
  0
LINE
  5
212
100
AcDbEntity
  8
0
100
AcDbLine
 62
7
  6
CONTINUOUS
 10
12.0614092335
 20
10.4566112371
 11
12.0859041309
 21
10.4707533727
  0
LINE
  5
213
100
AcDbEntity
  8
0
100
AcDbLine
 62
7
  6
CONTINUOUS
 10
9.2868183383
 20
9.9101970733
 11
9.2868183383
 21
9.1101971318
  0
LINE
  5
214
100
AcDbEntity
  8
0
100
AcDbLine
 62
7
  6
CONTINUOUS
 10
9.3844133097
 20
9.9255176636
 11
9.3844133097
 21
9.6182209974
  0
LINE
  5
215
100
AcDbEntity
  8
0
100
AcDbLine
 62
7
  6
CONTINUOUS
 10
9.3844133097
 20
9.0948766001
 11
9.3844133097
 21
9.4021732663
  0
LINE
  5
216
100
AcDbEntity
  8
0
100
AcDbLine
 62
7
  6
CONTINUOUS
 10
11.8590971072
 20
10.48865433
 11
11.880116417
 21
10.5075802016
  0
LINE
  5
217
100
AcDbEntity
  8
0
100
AcDbLine
 62
7
  6
CONTINUOUS
 10
11.9102353245
 20
10.484629665
 11
11.9322163317
 21
10.5024295337
  0
LINE
  5
218
100
AcDbEntity
  8
0
100
AcDbLine
 62
7
  6
CONTINUOUS
 10
11.7054013521
 20
10.484629665
 11
11.7232012207
 21
10.5066106722
  0
LINE
  5
219
100
AcDbEntity
  8
0
100
AcDbLine
 62
7
  6
CONTINUOUS
 10
11.7565395694
 20
10.48865433
 11
11.775465441
 21
10.5096736398
  0
LINE
  5
21A
100
AcDbEntity
  8
0
100
AcDbLine
 62
7
  6
CONTINUOUS
 10
11.8078183383
 20
10.4899971118
 11
11.8278183383
 21
10.5099971118
  0
LINE
  5
21B
100
AcDbEntity
  8
0
100
AcDbLine
 62
7
  6
CONTINUOUS
 10
11.6041064678
 20
10.4685861315
 11
11.619511186
 21
10.4923073173
  0
LINE
  5
21C
100
AcDbEntity
  8
0
100
AcDbLine
 62
7
  6
CONTINUOUS
 10
11.6545438526
 20
10.4779341482
 11
11.6711689301
 21
10.5008166043
  0
LINE
  5
21D
100
AcDbEntity
  8
0
100
AcDbLine
 62
7
  6
CONTINUOUS
 10
10.1068183383
 20
9.0404292016
 11
10.1068183383
 21
9.979965062
  0
LINE
  5
21E
100
AcDbEntity
  8
0
100
AcDbLine
 62
7
  6
CONTINUOUS
 10
11.5050434934
 20
10.4420422875
 11
11.5178842838
 21
10.4672437577
  0
LINE
  5
21F
100
AcDbEntity
  8
0
100
AcDbLine
 62
7
  6
CONTINUOUS
 10
11.5542274431
 20
10.4566112371
 11
11.5683695787
 21
10.4811061345
  0
LINE
  5
220
100
AcDbEntity
  8
0
100
AcDbLine
 62
7
  6
CONTINUOUS
 10
12.7293158014
 20
9.1218127534
 11
12.7029101594
 21
9.1116765771
  0
LINE
  5
221
100
AcDbEntity
  8
0
100
AcDbLine
 62
7
  6
CONTINUOUS
 10
11.4092977835
 20
8.6151053107
 11
11.3828921415
 21
8.6049691344
  0
LINE
  5
222
100
AcDbEntity
  8
0
100
AcDbLine
 62
7
  6
CONTINUOUS
 10
12.7077264533
 20
9.0741175698
 11
12.6808265129
 21
9.0653772493
  0
LINE
  5
223
100
AcDbEntity
  8
0
100
AcDbLine
 62
7
  6
CONTINUOUS
 10
11.3629984557
 20
8.6371889573
 11
11.3360985152
 21
8.6284486368
  0
LINE
  5
224
100
AcDbEntity
  8
0
100
AcDbLine
 62
7
  6
CONTINUOUS
 10
10.1668183383
 20
9.979965062
 11
10.1668183383
 21
9.0404292016
  0
LINE
  5
225
100
AcDbEntity
  8
0
100
AcDbLine
 62
7
  6
CONTINUOUS
 10
11.4092977835
 20
10.405288953
 11
11.4194339598
 21
10.431694595
  0
LINE
  5
226
100
AcDbEntity
  8
0
100
AcDbLine
 62
7
  6
CONTINUOUS
 10
11.4566894285
 20
10.424919215
 11
11.468193678
 21
10.4507581826
  0
LINE
  5
227
100
AcDbEntity
  8
0
100
AcDbLine
 62
7
  6
CONTINUOUS
 10
12.778727341
 20
9.2707483722
 11
12.7542324436
 21
9.2566062366
  0
LINE
  5
228
100
AcDbEntity
  8
0
100
AcDbLine
 62
7
  6
CONTINUOUS
 10
11.5542274431
 20
8.5637830266
 11
11.5297325456
 21
8.5496408909
  0
LINE
  5
229
100
AcDbEntity
  8
0
100
AcDbLine
 62
7
  6
CONTINUOUS
 10
12.7648649641
 20
9.2202630774
 11
12.7396634939
 21
9.2074222869
  0
LINE
  5
22A
100
AcDbEntity
  8
0
100
AcDbLine
 62
7
  6
CONTINUOUS
 10
11.5050434934
 20
8.5783519762
 11
11.4798420232
 21
8.5655111858
  0
LINE
  5
22B
100
AcDbEntity
  8
0
100
AcDbLine
 62
7
  6
CONTINUOUS
 10
12.748379389
 20
9.1705724716
 11
12.7225404215
 21
9.159068222
  0
LINE
  5
22C
100
AcDbEntity
  8
0
100
AcDbLine
 62
7
  6
CONTINUOUS
 10
11.4566894285
 20
8.5954750486
 11
11.430850461
 21
8.5839707991
  0
LINE
  5
22D
100
AcDbEntity
  8
0
100
AcDbLine
 62
7
  6
CONTINUOUS
 10
10.5668183383
 20
8.9601971318
 11
10.5668183383
 21
10.0601971318
  0
LINE
  5
22E
100
AcDbEntity
  8
0
100
AcDbLine
 62
7
  6
CONTINUOUS
 10
10.6068183383
 20
8.9151971318
 11
10.6068183383
 21
10.1051971318
  0
LINE
  5
22F
100
AcDbEntity
  8
0
100
AcDbLine
 62
7
  6
CONTINUOUS
 10
10.9519661569
 20
8.9929766338
 11
10.959286665
 21
9.0202971418
  0
LINE
  5
230
100
AcDbEntity
  8
0
100
AcDbLine
 62
7
  6
CONTINUOUS
 10
11.3179183483
 20
10.3587288051
 11
11.3252388564
 21
10.3860493132
  0
LINE
  5
231
100
AcDbEntity
  8
0
100
AcDbLine
 62
7
  6
CONTINUOUS
 10
11.3629984557
 20
10.3832053064
 11
11.3717387762
 21
10.4101052469
  0
LINE
  5
232
100
AcDbEntity
  8
0
100
AcDbLine
 62
7
  6
CONTINUOUS
 10
12.7984378108
 20
9.3735477236
 11
12.7755553546
 21
9.3569226461
  0
LINE
  5
233
100
AcDbEntity
  8
0
100
AcDbLine
 62
7
  6
CONTINUOUS
 10
12.7899285237
 20
9.3218899795
 11
12.7662073379
 21
9.3064852613
  0
LINE
  5
234
100
AcDbEntity
  8
0
100
AcDbLine
 62
7
  6
CONTINUOUS
 10
10.7068183383
 20
8.9151971318
 11
10.7068183383
 21
10.1051971318
  0
LINE
  5
235
100
AcDbEntity
  8
0
100
AcDbLine
 62
7
  6
CONTINUOUS
 10
11.0107188685
 20
8.9063491085
 11
11.0151435034
 21
8.9342851534
  0
LINE
  5
236
100
AcDbEntity
  8
0
100
AcDbLine
 62
7
  6
CONTINUOUS
 10
11.2319063598
 20
10.3028719667
 11
11.2363309947
 21
10.3308080117
  0
LINE
  5
237
100
AcDbEntity
  8
0
100
AcDbLine
 62
7
  6
CONTINUOUS
 10
10.9802083019
 20
8.9488936242
 11
10.9860889326
 21
8.9765598162
  0
LINE
  5
238
100
AcDbEntity
  8
0
100
AcDbLine
 62
7
  6
CONTINUOUS
 10
11.2741810227
 20
10.3319265375
 11
11.2800616533
 21
10.3595927296
  0
LINE
  5
239
100
AcDbEntity
  8
0
100
AcDbLine
 62
7
  6
CONTINUOUS
 10
12.8076183183
 20
9.5301971318
 11
12.7876183183
 21
9.5101971318
  0
LINE
  5
23A
100
AcDbEntity
  8
0
100
AcDbLine
 62
7
  6
CONTINUOUS
 10
12.8072948463
 20
9.4778442345
 11
12.7862755365
 21
9.458918363
  0
LINE
  5
23B
100
AcDbEntity
  8
0
100
AcDbLine
 62
7
  6
CONTINUOUS
 10
12.8042318786
 20
9.4255800143
 11
12.7822508715
 21
9.4077801456
  0
LINE
  5
23C
100
AcDbEntity
  8
0
100
AcDbLine
 62
7
  6
CONTINUOUS
 10
12.1043938861
 20
5.0428269355
 11
12.1115361109
 21
5.031032483
  0
LINE
  5
23D
100
AcDbEntity
  8
0
100
AcDbLine
 62
7
  6
CONTINUOUS
 10
11.0782047688
 20
8.8263374685
 11
11.0796850531
 21
8.8545829771
  0
LINE
  5
23E
100
AcDbEntity
  8
0
100
AcDbLine
 62
7
  6
CONTINUOUS
 10
11.1522041836
 20
10.238330417
 11
11.1536844679
 21
10.2665759256
  0
LINE
  5
23F
100
AcDbEntity
  8
0
100
AcDbLine
 62
7
  6
CONTINUOUS
 10
11.0434142294
 20
8.8654596982
 11
11.0463707408
 21
8.8935890253
  0
LINE
  5
240
100
AcDbEntity
  8
0
100
AcDbLine
 62
7
  6
CONTINUOUS
 10
11.1912102317
 20
10.2716447293
 11
11.1941667431
 21
10.2997740564
  0
LINE
  5
241
100
AcDbEntity
  8
0
100
AcDbLine
 62
7
  6
CONTINUOUS
 10
12.8000507401
 20
9.6345951252
 11
12.7822508715
 21
9.6126141181
  0
LINE
  5
242
100
AcDbEntity
  8
0
100
AcDbLine
 62
7
  6
CONTINUOUS
 10
12.805201408
 20
9.5824952105
 11
12.7862755365
 21
9.5614759007
  0
LINE
  5
243
100
AcDbEntity
  8
0
100
AcDbLine
 62
7
  6
CONTINUOUS
 10
11.1536844679
 20
8.7538183381
 11
11.1522041836
 21
8.7820638467
  0
LINE
  5
244
100
AcDbEntity
  8
0
100
AcDbLine
 62
7
  6
CONTINUOUS
 10
11.0796850531
 20
10.1658112866
 11
11.0782047688
 21
10.1940567952
  0
LINE
  5
245
100
AcDbEntity
  8
0
100
AcDbLine
 62
7
  6
CONTINUOUS
 10
11.1149951282
 20
8.7890896505
 11
11.1149951282
 21
8.8173739218
  0
LINE
  5
246
100
AcDbEntity
  8
0
100
AcDbLine
 62
7
  6
CONTINUOUS
 10
11.1149951282
 20
10.2030203419
 11
11.1149951282
 21
10.2313046131
  0
LINE
  5
247
100
AcDbEntity
  8
0
100
AcDbLine
 62
7
  6
CONTINUOUS
 10
12.7816120561
 20
9.7376301882
 11
12.7662073379
 21
9.7139090023
  0
LINE
  5
248
100
AcDbEntity
  8
0
100
AcDbLine
 62
7
  6
CONTINUOUS
 10
12.7921804322
 20
9.6863540737
 11
12.7755553546
 21
9.6634716176
  0
LINE
  5
249
100
AcDbEntity
  8
0
100
AcDbLine
 62
7
  6
CONTINUOUS
 10
11.1941667431
 20
8.7206202073
 11
11.1912102317
 21
8.7487495343
  0
LINE
  5
24A
100
AcDbEntity
  8
0
100
AcDbLine
 62
7
  6
CONTINUOUS
 10
11.0463707408
 20
10.1268052384
 11
11.0434142294
 21
10.1549345654
  0
LINE
  5
24B
100
AcDbEntity
  8
0
100
AcDbLine
 62
7
  6
CONTINUOUS
 10
12.7525042844
 20
9.838173447
 11
12.7396634939
 21
9.8129719767
  0
LINE
  5
24C
100
AcDbEntity
  8
0
100
AcDbLine
 62
7
  6
CONTINUOUS
 10
12.1105931832
 20
8.5783519762
 11
12.0977523928
 21
8.553150506
  0
LINE
  5
24D
100
AcDbEntity
  8
0
100
AcDbLine
 62
7
  6
CONTINUOUS
 10
12.7683745792
 20
9.7882829245
 11
12.7542324436
 21
9.7637880271
  0
LINE
  5
24E
100
AcDbEntity
  8
0
100
AcDbLine
 62
7
  6
CONTINUOUS
 10
12.0614092335
 20
8.5637830266
 11
12.0578183383
 21
8.5575634136
  0
LINE
  5
24F
100
AcDbEntity
  8
0
100
AcDbLine
 62
7
  6
CONTINUOUS
 10
11.2800616533
 20
8.6608015341
 11
11.2741810227
 21
8.6884677261
  0
LINE
  5
250
100
AcDbEntity
  8
0
100
AcDbLine
 62
7
  6
CONTINUOUS
 10
10.9860889326
 20
10.0438344474
 11
10.9802083019
 21
10.0715006395
  0
LINE
  5
251
100
AcDbEntity
  8
0
100
AcDbLine
 62
7
  6
CONTINUOUS
 10
11.2363309947
 20
8.689586252
 11
11.2319063598
 21
8.7175222969
  0
LINE
  5
252
100
AcDbEntity
  8
0
100
AcDbLine
 62
7
  6
CONTINUOUS
 10
11.0151435034
 20
10.0861091103
 11
11.0107188685
 21
10.1140451552
  0
LINE
  5
253
100
AcDbEntity
  8
0
100
AcDbLine
 62
7
  6
CONTINUOUS
 10
11.5578183383
 20
9.5101971318
 11
11.5578183383
 21
4.8893736276
  0
LINE
  5
254
100
AcDbEntity
  8
0
100
AcDbLine
 62
7
  6
CONTINUOUS
 10
12.7130463357
 20
9.9351233286
 11
12.7029101594
 21
9.9087176866
  0
LINE
  5
255
100
AcDbEntity
  8
0
100
AcDbLine
 62
7
  6
CONTINUOUS
 10
12.206338893
 20
8.6151053107
 11
12.1962027167
 21
8.5886996687
  0
LINE
  5
256
100
AcDbEntity
  8
0
100
AcDbLine
 62
7
  6
CONTINUOUS
 10
12.734044671
 20
9.8871650092
 11
12.7225404215
 21
9.8613260416
  0
LINE
  5
257
100
AcDbEntity
  8
0
100
AcDbLine
 62
7
  6
CONTINUOUS
 10
12.1589472481
 20
8.5954750486
 11
12.1474429985
 21
8.5696360811
  0
LINE
  5
258
100
AcDbEntity
  8
0
100
AcDbLine
 62
7
  6
CONTINUOUS
 10
11.3717387762
 20
8.6102890168
 11
11.3629984557
 21
8.6371889573
  0
LINE
  5
259
100
AcDbEntity
  8
0
100
AcDbLine
 62
7
  6
CONTINUOUS
 10
11.3252388564
 20
8.6343449505
 11
11.3179183483
 21
8.6616654585
  0
LINE
  5
25A
100
AcDbEntity
  8
0
100
AcDbLine
 62
7
  6
CONTINUOUS
 10
10.959286665
 20
10.0000971218
 11
10.9519661569
 21
10.0274176299
  0
LINE
  5
25B
100
AcDbEntity
  8
0
100
AcDbLine
 62
7
  6
CONTINUOUS
 10
12.6636705197
 20
10.0274176299
 11
12.6563500116
 21
10.0000971218
  0
LINE
  5
25C
100
AcDbEntity
  8
0
100
AcDbLine
 62
7
  6
CONTINUOUS
 10
12.2977183283
 20
8.6616654585
 11
12.2903978202
 21
8.6343449505
  0
LINE
  5
25D
100
AcDbEntity
  8
0
100
AcDbLine
 62
7
  6
CONTINUOUS
 10
12.6895668333
 20
9.9819169549
 11
12.6808265129
 21
9.9550170144
  0
LINE
  5
25E
100
AcDbEntity
  8
0
100
AcDbLine
 62
7
  6
CONTINUOUS
 10
12.2526382208
 20
8.6371889573
 11
12.2438979004
 21
8.6102890168
  0
LINE
  5
25F
100
AcDbEntity
  8
0
100
AcDbLine
 62
7
  6
CONTINUOUS
 10
11.5178842838
 20
8.553150506
 11
11.5050434934
 21
8.5783519762
  0
LINE
  5
260
100
AcDbEntity
  8
0
100
AcDbLine
 62
7
  6
CONTINUOUS
 10
11.468193678
 20
8.5696360811
 11
11.4566894285
 21
8.5954750486
  0
LINE
  5
261
100
AcDbEntity
  8
0
100
AcDbLine
 62
7
  6
CONTINUOUS
 10
11.4194339598
 20
8.5886996687
 11
11.4092977835
 21
8.6151053107
  0
LINE
  5
262
100
AcDbEntity
  8
0
100
AcDbLine
 62
7
  6
CONTINUOUS
 10
12.0578183383
 20
9.5101971318
 11
12.0578183383
 21
4.8893736276
  0
LINE
  5
263
100
AcDbEntity
  8
0
100
AcDbLine
 62
7
  6
CONTINUOUS
 10
12.604917808
 20
10.1140451552
 11
12.6004931732
 21
10.0861091103
  0
LINE
  5
264
100
AcDbEntity
  8
0
100
AcDbLine
 62
7
  6
CONTINUOUS
 10
12.3837303167
 20
8.7175222969
 11
12.3793056819
 21
8.689586252
  0
LINE
  5
265
100
AcDbEntity
  8
0
100
AcDbLine
 62
7
  6
CONTINUOUS
 10
12.6354283746
 20
10.0715006395
 11
12.629547744
 21
10.0438344474
  0
LINE
  5
266
100
AcDbEntity
  8
0
100
AcDbLine
 62
7
  6
CONTINUOUS
 10
12.3414556539
 20
8.6884677261
 11
12.3355750232
 21
8.6608015341
  0
LINE
  5
267
100
AcDbEntity
  8
0
100
AcDbLine
 62
7
  6
CONTINUOUS
 10
12.6836705197
 20
9.0276176499
 11
12.6563500116
 21
9.0202971418
  0
LINE
  5
268
100
AcDbEntity
  8
0
100
AcDbLine
 62
7
  6
CONTINUOUS
 10
11.3179183483
 20
8.6616654585
 11
11.2905978402
 21
8.6543449505
  0
LINE
  5
269
100
AcDbEntity
  8
0
100
AcDbLine
 62
7
  6
CONTINUOUS
 10
12.657213936
 20
8.9824404469
 11
12.629547744
 21
8.9765598162
  0
LINE
  5
26A
100
AcDbEntity
  8
0
100
AcDbLine
 62
7
  6
CONTINUOUS
 10
11.2741810227
 20
8.6884677261
 11
11.2465148306
 21
8.6825870955
  0
LINE
  5
26B
100
AcDbEntity
  8
0
100
AcDbLine
 62
7
  6
CONTINUOUS
 10
12.6284292181
 20
8.9387097882
 11
12.6004931732
 21
8.9342851534
  0
LINE
  5
26C
100
AcDbEntity
  8
0
100
AcDbLine
 62
7
  6
CONTINUOUS
 10
11.2319063598
 20
8.7175222969
 11
11.2039703149
 21
8.7130976621
  0
LINE
  5
26D
100
AcDbEntity
  8
0
100
AcDbLine
 62
7
  6
CONTINUOUS
 10
11.5578183383
 20
8.5575634136
 11
11.5542274431
 21
8.5637830266
  0
LINE
  5
26E
100
AcDbEntity
  8
0
100
AcDbLine
 62
7
  6
CONTINUOUS
 10
12.5374319078
 20
10.1940567952
 11
12.5359516234
 21
10.1658112866
  0
LINE
  5
26F
100
AcDbEntity
  8
0
100
AcDbLine
 62
7
  6
CONTINUOUS
 10
12.463432493
 20
8.7820638467
 11
12.4619522086
 21
8.7538183381
  0
LINE
  5
270
100
AcDbEntity
  8
0
100
AcDbLine
 62
7
  6
CONTINUOUS
 10
12.5722224472
 20
10.1549345654
 11
12.5692659358
 21
10.1268052384
  0
LINE
  5
271
100
AcDbEntity
  8
0
100
AcDbLine
 62
7
  6
CONTINUOUS
 10
12.4244264448
 20
8.7487495343
 11
12.4214699334
 21
8.7206202073
  0
LINE
  5
272
100
AcDbEntity
  8
0
100
AcDbLine
 62
7
  6
CONTINUOUS
 10
12.5973952628
 20
8.8965455367
 11
12.5692659358
 21
8.8935890253
  0
LINE
  5
273
100
AcDbEntity
  8
0
100
AcDbLine
 62
7
  6
CONTINUOUS
 10
11.1912102317
 20
8.7487495343
 11
11.1630809047
 21
8.7457930229
  0
LINE
  5
274
100
AcDbEntity
  8
0
100
AcDbLine
 62
7
  6
CONTINUOUS
 10
12.5641971321
 20
8.8560632615
 11
12.5359516234
 21
8.8545829771
  0
LINE
  5
275
100
AcDbEntity
  8
0
100
AcDbLine
 62
7
  6
CONTINUOUS
 10
11.1522041836
 20
8.7820638467
 11
11.1239586749
 21
8.7805835623
  0
LINE
  5
276
100
AcDbEntity
  8
0
100
AcDbLine
 62
7
  6
CONTINUOUS
 10
12.5289258196
 20
8.8173739218
 11
12.5006415483
 21
8.8173739218
  0
LINE
  5
277
100
AcDbEntity
  8
0
100
AcDbLine
 62
7
  6
CONTINUOUS
 10
11.1149951282
 20
8.8173739218
 11
11.086710857
 21
8.8173739218
  0
LINE
  5
278
100
AcDbEntity
  8
0
100
AcDbLine
 62
7
  6
CONTINUOUS
 10
12.4916780016
 20
8.7805835623
 11
12.463432493
 21
8.7820638467
  0
LINE
  5
279
100
AcDbEntity
  8
0
100
AcDbLine
 62
7
  6
CONTINUOUS
 10
11.0796850531
 20
8.8545829771
 11
11.0514395445
 21
8.8560632615
  0
LINE
  5
27A
100
AcDbEntity
  8
0
100
AcDbLine
 62
7
  6
CONTINUOUS
 10
12.4525557719
 20
8.7457930229
 11
12.4244264448
 21
8.7487495343
  0
LINE
  5
27B
100
AcDbEntity
  8
0
100
AcDbLine
 62
7
  6
CONTINUOUS
 10
11.0463707408
 20
8.8935890253
 11
11.0182414137
 21
8.8965455367
  0
LINE
  5
27C
100
AcDbEntity
  8
0
100
AcDbLine
 62
7
  6
CONTINUOUS
 10
12.4116663617
 20
8.7130976621
 11
12.3837303167
 21
8.7175222969
  0
LINE
  5
27D
100
AcDbEntity
  8
0
100
AcDbLine
 62
7
  6
CONTINUOUS
 10
11.0151435034
 20
8.9342851534
 11
10.9872074584
 21
8.9387097882
  0
LINE
  5
27E
100
AcDbEntity
  8
0
100
AcDbLine
 62
7
  6
CONTINUOUS
 10
12.4214699334
 20
10.2997740564
 11
12.4244264448
 21
10.2716447293
  0
LINE
  5
27F
100
AcDbEntity
  8
0
100
AcDbLine
 62
7
  6
CONTINUOUS
 10
12.5692659358
 20
8.8935890253
 11
12.5722224472
 21
8.8654596982
  0
LINE
  5
280
100
AcDbEntity
  8
0
100
AcDbLine
 62
7
  6
CONTINUOUS
 10
12.4619522086
 20
10.2665759256
 11
12.463432493
 21
10.238330417
  0
LINE
  5
281
100
AcDbEntity
  8
0
100
AcDbLine
 62
7
  6
CONTINUOUS
 10
12.5359516234
 20
8.8545829771
 11
12.5374319078
 21
8.8263374685
  0
LINE
  5
282
100
AcDbEntity
  8
0
100
AcDbLine
 62
7
  6
CONTINUOUS
 10
12.5006415483
 20
10.2313046131
 11
12.5006415483
 21
10.2030203419
  0
LINE
  5
283
100
AcDbEntity
  8
0
100
AcDbLine
 62
7
  6
CONTINUOUS
 10
12.5006415483
 20
8.8173739218
 11
12.5006415483
 21
8.7890896505
  0
LINE
  5
284
100
AcDbEntity
  8
0
100
AcDbLine
 62
7
  6
CONTINUOUS
 10
11.5041005658
 20
5.031032483
 11
11.5112427649
 21
5.0428268951
  0
LINE
  5
285
100
AcDbEntity
  8
0
100
AcDbLine
 62
7
  6
CONTINUOUS
 10
10.6068183383
 20
8.9151971318
 11
10.7068183383
 21
8.9151971318
  0
LINE
  5
286
100
AcDbEntity
  8
0
100
AcDbLine
 62
7
  6
CONTINUOUS
 10
10.5668183383
 20
8.9601971318
 11
10.6068183383
 21
8.9601971318
  0
LINE
  5
287
100
AcDbEntity
  8
0
100
AcDbLine
 62
7
  6
CONTINUOUS
 10
10.7068183383
 20
9.0251971318
 11
11.0319439993
 21
9.0251971318
  0
LINE
  5
288
100
AcDbEntity
  8
0
100
AcDbLine
 62
7
  6
CONTINUOUS
 10
10.1068183383
 20
9.0404292016
 11
10.1668183383
 21
9.0404292016
  0
LINE
  5
289
100
AcDbEntity
  8
0
100
AcDbLine
 62
7
  6
CONTINUOUS
 10
10.1068183383
 20
9.0409297005
 11
10.1668183383
 21
9.0409297005
  0
LINE
  5
28A
100
AcDbEntity
  8
0
100
AcDbLine
 62
7
  6
CONTINUOUS
 10
10.1068183383
 20
9.0435039204
 11
10.1668183383
 21
9.0435039204
  0
LINE
  5
28B
100
AcDbEntity
  8
0
100
AcDbLine
 62
7
  6
CONTINUOUS
 10
10.1068183383
 20
9.0450016079
 11
10.1668183383
 21
9.0450016079
  0
LINE
  5
28C
100
AcDbEntity
  8
0
100
AcDbLine
 62
7
  6
CONTINUOUS
 10
10.1068183383
 20
9.0501304562
 11
10.1668183383
 21
9.0501304562
  0
LINE
  5
28D
100
AcDbEntity
  8
0
100
AcDbLine
 62
7
  6
CONTINUOUS
 10
10.1068183383
 20
9.0526139341
 11
10.1668183383
 21
9.0526139341
  0
LINE
  5
28E
100
AcDbEntity
  8
0
100
AcDbLine
 62
7
  6
CONTINUOUS
 10
10.1068183383
 20
9.0602583773
 11
10.1668183383
 21
9.0602583773
  0
LINE
  5
28F
100
AcDbEntity
  8
0
100
AcDbLine
 62
7
  6
CONTINUOUS
 10
10.1068183383
 20
9.0637087448
 11
10.1668183383
 21
9.0637087448
  0
LINE
  5
290
100
AcDbEntity
  8
0
100
AcDbLine
 62
7
  6
CONTINUOUS
 10
10.1068183383
 20
9.073810604
 11
10.1668183383
 21
9.073810604
  0
LINE
  5
291
100
AcDbEntity
  8
0
100
AcDbLine
 62
7
  6
CONTINUOUS
 10
10.1068183383
 20
9.0782016016
 11
10.1668183383
 21
9.0782016016
  0
LINE
  5
292
100
AcDbEntity
  8
0
100
AcDbLine
 62
7
  6
CONTINUOUS
 10
10.1068183383
 20
9.0906839956
 11
10.1668183383
 21
9.0906839956
  0
LINE
  5
293
100
AcDbEntity
  8
0
100
AcDbLine
 62
7
  6
CONTINUOUS
 10
9.3844133097
 20
9.0948766001
 11
10.1068183383
 21
9.0948766001
  0
LINE
  5
294
100
AcDbEntity
  8
0
100
AcDbLine
 62
7
  6
CONTINUOUS
 10
10.1068183383
 20
9.0959822053
 11
10.1668183383
 21
9.0959822053
  0
LINE
  5
295
100
AcDbEntity
  8
0
100
AcDbLine
 62
7
  6
CONTINUOUS
 10
10.1068183383
 20
9.1107501355
 11
10.1668183383
 21
9.1107501355
  0
LINE
  5
296
100
AcDbEntity
  8
0
100
AcDbLine
 62
7
  6
CONTINUOUS
 10
10.1068183383
 20
9.1169152347
 11
10.1668183383
 21
9.1169152347
  0
LINE
  5
297
100
AcDbEntity
  8
0
100
AcDbLine
 62
7
  6
CONTINUOUS
 10
10.1068183383
 20
9.1338563082
 11
10.1668183383
 21
9.1338563082
  0
LINE
  5
298
100
AcDbEntity
  8
0
100
AcDbLine
 62
7
  6
CONTINUOUS
 10
10.1068183383
 20
9.1408413768
 11
10.1668183383
 21
9.1408413768
  0
LINE
  5
299
100
AcDbEntity
  8
0
100
AcDbLine
 62
7
  6
CONTINUOUS
 10
12.369121846
 20
8.6825870955
 11
12.3414556539
 21
8.6884677261
  0
LINE
  5
29A
100
AcDbEntity
  8
0
100
AcDbLine
 62
7
  6
CONTINUOUS
 10
10.9860889326
 20
8.9765598162
 11
10.9584227405
 21
8.9824404469
  0
LINE
  5
29B
100
AcDbEntity
  8
0
100
AcDbLine
 62
7
  6
CONTINUOUS
 10
12.3250388364
 20
8.6543449505
 11
12.2977183283
 21
8.6616654585
  0
LINE
  5
29C
100
AcDbEntity
  8
0
100
AcDbLine
 62
7
  6
CONTINUOUS
 10
10.959286665
 20
9.0202971418
 11
10.9409996533
 21
9.0251971318
  0
LINE
  5
29D
100
AcDbEntity
  8
0
100
AcDbLine
 62
7
  6
CONTINUOUS
 10
12.2795381613
 20
8.6284486368
 11
12.2526382208
 21
8.6371889573
  0
LINE
  5
29E
100
AcDbEntity
  8
0
100
AcDbLine
 62
7
  6
CONTINUOUS
 10
12.232744535
 20
8.6049691344
 11
12.206338893
 21
8.6151053107
  0
LINE
  5
29F
100
AcDbEntity
  8
0
100
AcDbLine
 62
7
  6
CONTINUOUS
 10
12.1847862156
 20
8.5839707991
 11
12.1589472481
 21
8.5954750486
  0
LINE
  5
2A0
100
AcDbEntity
  8
0
100
AcDbLine
 62
7
  6
CONTINUOUS
 10
12.1357946534
 20
8.5655111858
 11
12.1105931832
 21
8.5783519762
  0
LINE
  5
2A1
100
AcDbEntity
  8
0
100
AcDbLine
 62
7
  6
CONTINUOUS
 10
12.0859041309
 20
8.5496408909
 11
12.0614092335
 21
8.5637830266
  0
LINE
  5
2A2
100
AcDbEntity
  8
0
100
AcDbLine
 62
7
  6
CONTINUOUS
 10
10.1068183383
 20
9.1598266619
 11
10.1668183383
 21
9.1598266619
  0
LINE
  5
2A3
100
AcDbEntity
  8
0
100
AcDbLine
 62
7
  6
CONTINUOUS
 10
10.1068183383
 20
9.1675785392
 11
10.1668183383
 21
9.1675785392
  0
LINE
  5
2A4
100
AcDbEntity
  8
0
100
AcDbLine
 62
7
  6
CONTINUOUS
 10
10.1068183383
 20
9.1884635464
 11
10.1668183383
 21
9.1884635464
  0
LINE
  5
2A5
100
AcDbEntity
  8
0
100
AcDbLine
 62
7
  6
CONTINUOUS
 10
10.1068183383
 20
9.196923236
 11
10.1668183383
 21
9.196923236
  0
LINE
  5
2A6
100
AcDbEntity
  8
0
100
AcDbLine
 62
7
  6
CONTINUOUS
 10
10.1068183383
 20
9.2177287694
 11
10.1668183383
 21
9.2177287694
  0
LINE
  5
2A7
100
AcDbEntity
  8
0
100
AcDbLine
 62
7
  6
CONTINUOUS
 10
10.1068183383
 20
9.2195490177
 11
10.1668183383
 21
9.2195490177
  0
LINE
  5
2A8
100
AcDbEntity
  8
0
100
AcDbLine
 62
7
  6
CONTINUOUS
 10
10.1068183383
 20
9.2286521363
 11
10.1668183383
 21
9.2286521363
  0
LINE
  5
2A9
100
AcDbEntity
  8
0
100
AcDbLine
 62
7
  6
CONTINUOUS
 10
10.1068183383
 20
9.2492198533
 11
10.1668183383
 21
9.2492198533
  0
LINE
  5
2AA
100
AcDbEntity
  8
0
100
AcDbLine
 62
7
  6
CONTINUOUS
 10
10.1068183383
 20
9.2528464967
 11
10.1668183383
 21
9.2528464967
  0
LINE
  5
2AB
100
AcDbEntity
  8
0
100
AcDbLine
 62
7
  6
CONTINUOUS
 10
10.1068183383
 20
9.262523764
 11
10.1668183383
 21
9.262523764
  0
LINE
  5
2AC
100
AcDbEntity
  8
0
100
AcDbLine
 62
7
  6
CONTINUOUS
 10
10.1068183383
 20
9.2826971318
 11
10.1668183383
 21
9.2826971318
  0
LINE
  5
2AD
100
AcDbEntity
  8
0
100
AcDbLine
 62
7
  6
CONTINUOUS
 10
10.1068183383
 20
9.2881025694
 11
10.1668183383
 21
9.2881025694
  0
LINE
  5
2AE
100
AcDbEntity
  8
0
100
AcDbLine
 62
7
  6
CONTINUOUS
 10
10.1068183383
 20
9.2982803356
 11
10.1668183383
 21
9.2982803356
  0
LINE
  5
2AF
100
AcDbEntity
  8
0
100
AcDbLine
 62
7
  6
CONTINUOUS
 10
10.1068183383
 20
9.3179058227
 11
10.1668183383
 21
9.3179058227
  0
LINE
  5
2B0
100
AcDbEntity
  8
0
100
AcDbLine
 62
7
  6
CONTINUOUS
 10
10.1068183383
 20
9.3250489159
 11
10.1668183383
 21
9.3250489159
  0
LINE
  5
2B1
100
AcDbEntity
  8
0
100
AcDbLine
 62
7
  6
CONTINUOUS
 10
10.1068183383
 20
9.335649722
 11
10.1668183383
 21
9.335649722
  0
LINE
  5
2B2
100
AcDbEntity
  8
0
100
AcDbLine
 62
7
  6
CONTINUOUS
 10
10.1068183383
 20
9.3545779666
 11
10.1668183383
 21
9.3545779666
  0
LINE
  5
2B3
100
AcDbEntity
  8
0
100
AcDbLine
 62
7
  6
CONTINUOUS
 10
10.1068183383
 20
9.363404352
 11
10.1668183383
 21
9.363404352
  0
LINE
  5
2B4
100
AcDbEntity
  8
0
100
AcDbLine
 62
7
  6
CONTINUOUS
 10
10.1068183383
 20
9.3743475195
 11
10.1668183383
 21
9.3743475195
  0
LINE
  5
2B5
100
AcDbEntity
  8
0
100
AcDbLine
 62
7
  6
CONTINUOUS
 10
12.3355750232
 20
10.3595927296
 11
12.3414556539
 21
10.3319265375
  0
LINE
  5
2B6
100
AcDbEntity
  8
0
100
AcDbLine
 62
7
  6
CONTINUOUS
 10
12.629547744
 20
8.9765598162
 11
12.6354283746
 21
8.9488936242
  0
LINE
  5
2B7
100
AcDbEntity
  8
0
100
AcDbLine
 62
7
  6
CONTINUOUS
 10
12.3793056819
 20
10.3308080117
 11
12.3837303167
 21
10.3028719667
  0
LINE
  5
2B8
100
AcDbEntity
  8
0
100
AcDbLine
 62
7
  6
CONTINUOUS
 10
12.6004931732
 20
8.9342851534
 11
12.604917808
 21
8.9063491085
  0
LINE
  5
2B9
100
AcDbEntity
  8
0
100
AcDbLine
 62
7
  6
CONTINUOUS
 10
10.1068183383
 20
9.3924344663
 11
10.1668183383
 21
9.3924344663
  0
LINE
  5
2BA
100
AcDbEntity
  8
0
100
AcDbLine
 62
7
  6
CONTINUOUS
 10
10.1068183383
 20
9.4028769699
 11
10.1668183383
 21
9.4028769699
  0
LINE
  5
2BB
100
AcDbEntity
  8
0
100
AcDbLine
 62
7
  6
CONTINUOUS
 10
10.1068183383
 20
9.4140792147
 11
10.1668183383
 21
9.4140792147
  0
LINE
  5
2BC
100
AcDbEntity
  8
0
100
AcDbLine
 62
7
  6
CONTINUOUS
 10
10.1068183383
 20
9.431187211
 11
10.1668183383
 21
9.431187211
  0
LINE
  5
2BD
100
AcDbEntity
  8
0
100
AcDbLine
 62
7
  6
CONTINUOUS
 10
10.1068183383
 20
9.443166359
 11
10.1668183383
 21
9.443166359
  0
LINE
  5
2BE
100
AcDbEntity
  8
0
100
AcDbLine
 62
7
  6
CONTINUOUS
 10
10.1068183383
 20
9.4545424252
 11
10.1668183383
 21
9.4545424252
  0
LINE
  5
2BF
100
AcDbEntity
  8
0
100
AcDbLine
 62
7
  6
CONTINUOUS
 10
10.1068183383
 20
9.4705412689
 11
10.1668183383
 21
9.4705412689
  0
LINE
  5
2C0
100
AcDbEntity
  8
0
100
AcDbLine
 62
7
  6
CONTINUOUS
 10
10.1068183383
 20
9.4839658927
 11
10.1668183383
 21
9.4839658927
  0
LINE
  5
2C1
100
AcDbEntity
  8
0
100
AcDbLine
 62
7
  6
CONTINUOUS
 10
10.1068183383
 20
9.4954292016
 11
10.1668183383
 21
9.4954292016
  0
LINE
  5
2C2
100
AcDbEntity
  8
0
100
AcDbLine
 62
7
  6
CONTINUOUS
 10
10.1068183383
 20
9.5101971318
 11
10.1668183383
 21
9.5101971318
  0
LINE
  5
2C3
100
AcDbEntity
  8
0
100
AcDbLine
 62
7
  6
CONTINUOUS
 10
10.1068183383
 20
9.524965062
 11
10.1668183383
 21
9.524965062
  0
LINE
  5
2C4
100
AcDbEntity
  8
0
100
AcDbLine
 62
7
  6
CONTINUOUS
 10
10.1068183383
 20
9.536428371
 11
10.1668183383
 21
9.536428371
  0
LINE
  5
2C5
100
AcDbEntity
  8
0
100
AcDbLine
 62
7
  6
CONTINUOUS
 10
10.1068183383
 20
9.5498529948
 11
10.1668183383
 21
9.5498529948
  0
LINE
  5
2C6
100
AcDbEntity
  8
0
100
AcDbLine
 62
7
  6
CONTINUOUS
 10
10.1068183383
 20
9.5658518385
 11
10.1668183383
 21
9.5658518385
  0
LINE
  5
2C7
100
AcDbEntity
  8
0
100
AcDbLine
 62
7
  6
CONTINUOUS
 10
10.1068183383
 20
9.5772279047
 11
10.1668183383
 21
9.5772279047
  0
LINE
  5
2C8
100
AcDbEntity
  8
0
100
AcDbLine
 62
7
  6
CONTINUOUS
 10
10.1068183383
 20
9.5892070527
 11
10.1668183383
 21
9.5892070527
  0
LINE
  5
2C9
100
AcDbEntity
  8
0
100
AcDbLine
 62
7
  6
CONTINUOUS
 10
10.1068183383
 20
9.606315049
 11
10.1668183383
 21
9.606315049
  0
LINE
  5
2CA
100
AcDbEntity
  8
0
100
AcDbLine
 62
7
  6
CONTINUOUS
 10
12.1962027167
 20
10.431694595
 11
12.206338893
 21
10.405288953
  0
LINE
  5
2CB
100
AcDbEntity
  8
0
100
AcDbLine
 62
7
  6
CONTINUOUS
 10
12.7029101594
 20
9.1116765771
 11
12.7130463357
 21
9.0852709351
  0
LINE
  5
2CC
100
AcDbEntity
  8
0
100
AcDbLine
 62
7
  6
CONTINUOUS
 10
12.2438979004
 20
10.4101052469
 11
12.2526382208
 21
10.3832053064
  0
LINE
  5
2CD
100
AcDbEntity
  8
0
100
AcDbLine
 62
7
  6
CONTINUOUS
 10
12.6808265129
 20
9.0653772493
 11
12.6895668333
 21
9.0384773088
  0
LINE
  5
2CE
100
AcDbEntity
  8
0
100
AcDbLine
 62
7
  6
CONTINUOUS
 10
12.2903978202
 20
10.3860493132
 11
12.2977183283
 21
10.3587288051
  0
LINE
  5
2CF
100
AcDbEntity
  8
0
100
AcDbLine
 62
7
  6
CONTINUOUS
 10
12.6563500116
 20
9.0202971418
 11
12.6636705197
 21
8.9929766338
  0
LINE
  5
2D0
100
AcDbEntity
  8
0
100
AcDbLine
 62
7
  6
CONTINUOUS
 10
10.1068183383
 20
9.6175172938
 11
10.1668183383
 21
9.6175172938
  0
LINE
  5
2D1
100
AcDbEntity
  8
0
100
AcDbLine
 62
7
  6
CONTINUOUS
 10
10.1068183383
 20
9.6279597974
 11
10.1668183383
 21
9.6279597974
  0
LINE
  5
2D2
100
AcDbEntity
  8
0
100
AcDbLine
 62
7
  6
CONTINUOUS
 10
10.1068183383
 20
9.6460467441
 11
10.1668183383
 21
9.6460467441
  0
LINE
  5
2D3
100
AcDbEntity
  8
0
100
AcDbLine
 62
7
  6
CONTINUOUS
 10
10.1068183383
 20
9.6569899116
 11
10.1668183383
 21
9.6569899116
  0
LINE
  5
2D4
100
AcDbEntity
  8
0
100
AcDbLine
 62
7
  6
CONTINUOUS
 10
10.1068183383
 20
9.665816297
 11
10.1668183383
 21
9.665816297
  0
LINE
  5
2D5
100
AcDbEntity
  8
0
100
AcDbLine
 62
7
  6
CONTINUOUS
 10
10.1068183383
 20
9.6847445417
 11
10.1668183383
 21
9.6847445417
  0
LINE
  5
2D6
100
AcDbEntity
  8
0
100
AcDbLine
 62
7
  6
CONTINUOUS
 10
10.1068183383
 20
9.6953453478
 11
10.1668183383
 21
9.6953453478
  0
LINE
  5
2D7
100
AcDbEntity
  8
0
100
AcDbLine
 62
7
  6
CONTINUOUS
 10
10.1068183383
 20
9.7024884409
 11
10.1668183383
 21
9.7024884409
  0
LINE
  5
2D8
100
AcDbEntity
  8
0
100
AcDbLine
 62
7
  6
CONTINUOUS
 10
10.1068183383
 20
9.722113928
 11
10.1668183383
 21
9.722113928
  0
LINE
  5
2D9
100
AcDbEntity
  8
0
100
AcDbLine
 62
7
  6
CONTINUOUS
 10
10.1068183383
 20
9.7322916942
 11
10.1668183383
 21
9.7322916942
  0
LINE
  5
2DA
100
AcDbEntity
  8
0
100
AcDbLine
 62
7
  6
CONTINUOUS
 10
10.1068183383
 20
9.7376971318
 11
10.1668183383
 21
9.7376971318
  0
LINE
  5
2DB
100
AcDbEntity
  8
0
100
AcDbLine
 62
7
  6
CONTINUOUS
 10
10.1068183383
 20
9.7578704996
 11
10.1668183383
 21
9.7578704996
  0
LINE
  5
2DC
100
AcDbEntity
  8
0
100
AcDbLine
 62
7
  6
CONTINUOUS
 10
10.1068183383
 20
9.7675477669
 11
10.1668183383
 21
9.7675477669
  0
LINE
  5
2DD
100
AcDbEntity
  8
0
100
AcDbLine
 62
7
  6
CONTINUOUS
 10
10.1068183383
 20
9.7711744104
 11
10.1668183383
 21
9.7711744104
  0
LINE
  5
2DE
100
AcDbEntity
  8
0
100
AcDbLine
 62
7
  6
CONTINUOUS
 10
10.1068183383
 20
9.7917421274
 11
10.1668183383
 21
9.7917421274
  0
LINE
  5
2DF
100
AcDbEntity
  8
0
100
AcDbLine
 62
7
  6
CONTINUOUS
 10
10.1068183383
 20
9.8008452459
 11
10.1668183383
 21
9.8008452459
  0
LINE
  5
2E0
100
AcDbEntity
  8
0
100
AcDbLine
 62
7
  6
CONTINUOUS
 10
10.1068183383
 20
9.8026654942
 11
10.1668183383
 21
9.8026654942
  0
LINE
  5
2E1
100
AcDbEntity
  8
0
100
AcDbLine
 62
7
  6
CONTINUOUS
 10
10.1068183383
 20
9.8234710277
 11
10.1668183383
 21
9.8234710277
  0
LINE
  5
2E2
100
AcDbEntity
  8
0
100
AcDbLine
 62
7
  6
CONTINUOUS
 10
10.1068183383
 20
9.8319307173
 11
10.1668183383
 21
9.8319307173
  0
LINE
  5
2E3
100
AcDbEntity
  8
0
100
AcDbLine
 62
7
  6
CONTINUOUS
 10
12.0472670979
 20
10.4811061345
 11
12.0614092335
 21
10.4566112371
  0
LINE
  5
2E4
100
AcDbEntity
  8
0
100
AcDbLine
 62
7
  6
CONTINUOUS
 10
12.7542324436
 20
9.2566062366
 11
12.7683745792
 21
9.2321113392
  0
LINE
  5
2E5
100
AcDbEntity
  8
0
100
AcDbLine
 62
7
  6
CONTINUOUS
 10
12.0977523928
 20
10.4672437577
 11
12.1105931832
 21
10.4420422875
  0
LINE
  5
2E6
100
AcDbEntity
  8
0
100
AcDbLine
 62
7
  6
CONTINUOUS
 10
12.7396634939
 20
9.2074222869
 11
12.7525042844
 21
9.1822208167
  0
LINE
  5
2E7
100
AcDbEntity
  8
0
100
AcDbLine
 62
7
  6
CONTINUOUS
 10
12.1474429985
 20
10.4507581826
 11
12.1589472481
 21
10.424919215
  0
LINE
  5
2E8
100
AcDbEntity
  8
0
100
AcDbLine
 62
7
  6
CONTINUOUS
 10
12.7225404215
 20
9.159068222
 11
12.734044671
 21
9.1332292545
  0
LINE
  5
2E9
100
AcDbEntity
  8
0
100
AcDbLine
 62
7
  6
CONTINUOUS
 10
10.9409996533
 20
9.9951971318
 11
10.959286665
 21
10.0000971218
  0
LINE
  5
2EA
100
AcDbEntity
  8
0
100
AcDbLine
 62
7
  6
CONTINUOUS
 10
12.2977183283
 20
10.3587288051
 11
12.3250388364
 21
10.3660493132
  0
LINE
  5
2EB
100
AcDbEntity
  8
0
100
AcDbLine
 62
7
  6
CONTINUOUS
 10
10.9584227405
 20
10.0379538168
 11
10.9860889326
 21
10.0438344474
  0
LINE
  5
2EC
100
AcDbEntity
  8
0
100
AcDbLine
 62
7
  6
CONTINUOUS
 10
12.3414556539
 20
10.3319265375
 11
12.369121846
 21
10.3378071682
  0
LINE
  5
2ED
100
AcDbEntity
  8
0
100
AcDbLine
 62
7
  6
CONTINUOUS
 10
10.9872074584
 20
10.0816844754
 11
11.0151435034
 21
10.0861091103
  0
LINE
  5
2EE
100
AcDbEntity
  8
0
100
AcDbLine
 62
7
  6
CONTINUOUS
 10
12.3837303167
 20
10.3028719667
 11
12.4116663617
 21
10.3072966016
  0
LINE
  5
2EF
100
AcDbEntity
  8
0
100
AcDbLine
 62
7
  6
CONTINUOUS
 10
10.1068183383
 20
9.8528157244
 11
10.1668183383
 21
9.8528157244
  0
LINE
  5
2F0
100
AcDbEntity
  8
0
100
AcDbLine
 62
7
  6
CONTINUOUS
 10
10.1068183383
 20
9.8605676018
 11
10.1668183383
 21
9.8605676018
  0
LINE
  5
2F1
100
AcDbEntity
  8
0
100
AcDbLine
 62
7
  6
CONTINUOUS
 10
10.1068183383
 20
9.8795528869
 11
10.1668183383
 21
9.8795528869
  0
LINE
  5
2F2
100
AcDbEntity
  8
0
100
AcDbLine
 62
7
  6
CONTINUOUS
 10
10.1068183383
 20
9.8865379554
 11
10.1668183383
 21
9.8865379554
  0
LINE
  5
2F3
100
AcDbEntity
  8
0
100
AcDbLine
 62
7
  6
CONTINUOUS
 10
10.1068183383
 20
9.903479029
 11
10.1668183383
 21
9.903479029
  0
LINE
  5
2F4
100
AcDbEntity
  8
0
100
AcDbLine
 62
7
  6
CONTINUOUS
 10
10.1068183383
 20
9.9096441282
 11
10.1668183383
 21
9.9096441282
  0
LINE
  5
2F5
100
AcDbEntity
  8
0
100
AcDbLine
 62
7
  6
CONTINUOUS
 10
10.1068183383
 20
9.9244120584
 11
10.1668183383
 21
9.9244120584
  0
LINE
  5
2F6
100
AcDbEntity
  8
0
100
AcDbLine
 62
7
  6
CONTINUOUS
 10
9.3844133097
 20
9.9255176636
 11
10.1068183383
 21
9.9255176636
  0
LINE
  5
2F7
100
AcDbEntity
  8
0
100
AcDbLine
 62
7
  6
CONTINUOUS
 10
10.1068183383
 20
9.9297102681
 11
10.1668183383
 21
9.9297102681
  0
LINE
  5
2F8
100
AcDbEntity
  8
0
100
AcDbLine
 62
7
  6
CONTINUOUS
 10
10.1068183383
 20
9.9421926621
 11
10.1668183383
 21
9.9421926621
  0
LINE
  5
2F9
100
AcDbEntity
  8
0
100
AcDbLine
 62
7
  6
CONTINUOUS
 10
10.1068183383
 20
9.9465836597
 11
10.1668183383
 21
9.9465836597
  0
LINE
  5
2FA
100
AcDbEntity
  8
0
100
AcDbLine
 62
7
  6
CONTINUOUS
 10
10.1068183383
 20
9.9566855189
 11
10.1668183383
 21
9.9566855189
  0
LINE
  5
2FB
100
AcDbEntity
  8
0
100
AcDbLine
 62
7
  6
CONTINUOUS
 10
10.1068183383
 20
9.9601358864
 11
10.1668183383
 21
9.9601358864
  0
LINE
  5
2FC
100
AcDbEntity
  8
0
100
AcDbLine
 62
7
  6
CONTINUOUS
 10
10.1068183383
 20
9.9677803296
 11
10.1668183383
 21
9.9677803296
  0
LINE
  5
2FD
100
AcDbEntity
  8
0
100
AcDbLine
 62
7
  6
CONTINUOUS
 10
10.1068183383
 20
9.9702638074
 11
10.1668183383
 21
9.9702638074
  0
LINE
  5
2FE
100
AcDbEntity
  8
0
100
AcDbLine
 62
7
  6
CONTINUOUS
 10
10.1068183383
 20
9.9753926558
 11
10.1668183383
 21
9.9753926558
  0
LINE
  5
2FF
100
AcDbEntity
  8
0
100
AcDbLine
 62
7
  6
CONTINUOUS
 10
10.1068183383
 20
9.9768903433
 11
10.1668183383
 21
9.9768903433
  0
LINE
  5
300
100
AcDbEntity
  8
0
100
AcDbLine
 62
7
  6
CONTINUOUS
 10
10.1068183383
 20
9.9794645632
 11
10.1668183383
 21
9.9794645632
  0
LINE
  5
301
100
AcDbEntity
  8
0
100
AcDbLine
 62
7
  6
CONTINUOUS
 10
10.1068183383
 20
9.979965062
 11
10.1668183383
 21
9.979965062
  0
LINE
  5
302
100
AcDbEntity
  8
0
100
AcDbLine
 62
7
  6
CONTINUOUS
 10
10.7068183383
 20
9.9951971318
 11
11.0319439993
 21
9.9951971318
  0
LINE
  5
303
100
AcDbEntity
  8
0
100
AcDbLine
 62
7
  6
CONTINUOUS
 10
10.5668183383
 20
10.0601971318
 11
10.6068183383
 21
10.0601971318
  0
LINE
  5
304
100
AcDbEntity
  8
0
100
AcDbLine
 62
7
  6
CONTINUOUS
 10
11.8924354559
 20
10.5066106722
 11
11.9102353245
 21
10.484629665
  0
LINE
  5
305
100
AcDbEntity
  8
0
100
AcDbLine
 62
7
  6
CONTINUOUS
 10
12.7822508715
 20
9.4077801456
 11
12.8000507401
 21
9.3857991384
  0
LINE
  5
306
100
AcDbEntity
  8
0
100
AcDbLine
 62
7
  6
CONTINUOUS
 10
11.9444677465
 20
10.5008166043
 11
11.961092824
 21
10.4779341482
  0
LINE
  5
307
100
AcDbEntity
  8
0
100
AcDbLine
 62
7
  6
CONTINUOUS
 10
12.7755553546
 20
9.3569226461
 11
12.7921804322
 21
9.33404019
  0
LINE
  5
308
100
AcDbEntity
  8
0
100
AcDbLine
 62
7
  6
CONTINUOUS
 10
11.9961254906
 20
10.4923073173
 11
12.0115302088
 21
10.4685861315
  0
LINE
  5
309
100
AcDbEntity
  8
0
100
AcDbLine
 62
7
  6
CONTINUOUS
 10
12.7662073379
 20
9.3064852613
 11
12.7816120561
 21
9.2827640755
  0
LINE
  5
30A
100
AcDbEntity
  8
0
100
AcDbLine
 62
7
  6
CONTINUOUS
 10
11.0182414137
 20
10.123848727
 11
11.0463707408
 21
10.1268052384
  0
LINE
  5
30B
100
AcDbEntity
  8
0
100
AcDbLine
 62
7
  6
CONTINUOUS
 10
12.4244264448
 20
10.2716447293
 11
12.4525557719
 21
10.2746012407
  0
LINE
  5
30C
100
AcDbEntity
  8
0
100
AcDbLine
 62
7
  6
CONTINUOUS
 10
11.0514395445
 20
10.1643310022
 11
11.0796850531
 21
10.1658112866
  0
LINE
  5
30D
100
AcDbEntity
  8
0
100
AcDbLine
 62
7
  6
CONTINUOUS
 10
12.463432493
 20
10.238330417
 11
12.4916780016
 21
10.2398107014
  0
LINE
  5
30E
100
AcDbEntity
  8
0
100
AcDbLine
 62
7
  6
CONTINUOUS
 10
10.6068183383
 20
10.1051971318
 11
10.7068183383
 21
10.1051971318
  0
LINE
  5
30F
100
AcDbEntity
  8
0
100
AcDbLine
 62
7
  6
CONTINUOUS
 10
11.086710857
 20
10.2030203419
 11
11.1149951282
 21
10.2030203419
  0
LINE
  5
310
100
AcDbEntity
  8
0
100
AcDbLine
 62
7
  6
CONTINUOUS
 10
12.5006415483
 20
10.2030203419
 11
12.5289258196
 21
10.2030203419
  0
LINE
  5
311
100
AcDbEntity
  8
0
100
AcDbLine
 62
7
  6
CONTINUOUS
 10
11.1239586749
 20
10.2398107014
 11
11.1522041836
 21
10.238330417
  0
LINE
  5
312
100
AcDbEntity
  8
0
100
AcDbLine
 62
7
  6
CONTINUOUS
 10
12.5359516234
 20
10.1658112866
 11
12.5641971321
 21
10.1643310022
  0
LINE
  5
313
100
AcDbEntity
  8
0
100
AcDbLine
 62
7
  6
CONTINUOUS
 10
11.1630809047
 20
10.2746012407
 11
11.1912102317
 21
10.2716447293
  0
LINE
  5
314
100
AcDbEntity
  8
0
100
AcDbLine
 62
7
  6
CONTINUOUS
 10
12.5692659358
 20
10.1268052384
 11
12.5973952628
 21
10.123848727
  0
LINE
  5
315
100
AcDbEntity
  8
0
100
AcDbLine
 62
7
  6
CONTINUOUS
 10
11.2039703149
 20
10.3072966016
 11
11.2319063598
 21
10.3028719667
  0
LINE
  5
316
100
AcDbEntity
  8
0
100
AcDbLine
 62
7
  6
CONTINUOUS
 10
12.6004931732
 20
10.0861091103
 11
12.6284292181
 21
10.0816844754
  0
LINE
  5
317
100
AcDbEntity
  8
0
100
AcDbLine
 62
7
  6
CONTINUOUS
 10
11.5297325456
 20
10.4707533727
 11
11.5542274431
 21
10.4566112371
  0
LINE
  5
318
100
AcDbEntity
  8
0
100
AcDbLine
 62
7
  6
CONTINUOUS
 10
12.7542324436
 20
9.7637880271
 11
12.778727341
 21
9.7496458914
  0
LINE
  5
319
100
AcDbEntity
  8
0
100
AcDbLine
 62
7
  6
CONTINUOUS
 10
11.5803852819
 20
10.4839908497
 11
11.6041064678
 21
10.4685861315
  0
LINE
  5
31A
100
AcDbEntity
  8
0
100
AcDbLine
 62
7
  6
CONTINUOUS
 10
12.7662073379
 20
9.7139090023
 11
12.7899285237
 21
9.6985042841
  0
LINE
  5
31B
100
AcDbEntity
  8
0
100
AcDbLine
 62
7
  6
CONTINUOUS
 10
11.6316613965
 20
10.4945592257
 11
11.6545438526
 21
10.4779341482
  0
LINE
  5
31C
100
AcDbEntity
  8
0
100
AcDbLine
 62
7
  6
CONTINUOUS
 10
12.7755553546
 20
9.6634716176
 11
12.7984378108
 21
9.64684654
  0
LINE
  5
31D
100
AcDbEntity
  8
0
100
AcDbLine
 62
7
  6
CONTINUOUS
 10
11.6834203449
 20
10.5024295337
 11
11.7054013521
 21
10.484629665
  0
LINE
  5
31E
100
AcDbEntity
  8
0
100
AcDbLine
 62
7
  6
CONTINUOUS
 10
12.7822508715
 20
9.6126141181
 11
12.8042318786
 21
9.5948142494
  0
LINE
  5
31F
100
AcDbEntity
  8
0
100
AcDbLine
 62
7
  6
CONTINUOUS
 10
11.7355202596
 20
10.5075802016
 11
11.7565395694
 21
10.48865433
  0
LINE
  5
320
100
AcDbEntity
  8
0
100
AcDbLine
 62
7
  6
CONTINUOUS
 10
12.7862755365
 20
9.5614759007
 11
12.8072948463
 21
9.5425500291
  0
LINE
  5
321
100
AcDbEntity
  8
0
100
AcDbLine
 62
7
  6
CONTINUOUS
 10
11.7878183383
 20
10.5099971118
 11
11.8078183383
 21
10.4899971118
  0
LINE
  5
322
100
AcDbEntity
  8
0
100
AcDbLine
 62
7
  6
CONTINUOUS
 10
12.7876183183
 20
9.5101971318
 11
12.8076183183
 21
9.4901971318
  0
LINE
  5
323
100
AcDbEntity
  8
0
100
AcDbLine
 62
7
  6
CONTINUOUS
 10
11.8401712356
 20
10.5096736398
 11
11.8590971072
 21
10.48865433
  0
LINE
  5
324
100
AcDbEntity
  8
0
100
AcDbLine
 62
7
  6
CONTINUOUS
 10
12.7862755365
 20
9.458918363
 11
12.805201408
 21
9.4378990531
  0
LINE
  5
325
100
AcDbEntity
  8
0
100
AcDbLine
 62
7
  6
CONTINUOUS
 10
11.2465148306
 20
10.3378071682
 11
11.2741810227
 21
10.3319265375
  0
LINE
  5
326
100
AcDbEntity
  8
0
100
AcDbLine
 62
7
  6
CONTINUOUS
 10
12.629547744
 20
10.0438344474
 11
12.657213936
 21
10.0379538168
  0
LINE
  5
327
100
AcDbEntity
  8
0
100
AcDbLine
 62
7
  6
CONTINUOUS
 10
11.2905978402
 20
10.3660493132
 11
11.3179183483
 21
10.3587288051
  0
LINE
  5
328
100
AcDbEntity
  8
0
100
AcDbLine
 62
7
  6
CONTINUOUS
 10
12.6563500116
 20
10.0000971218
 11
12.6836705197
 21
9.9927766138
  0
LINE
  5
329
100
AcDbEntity
  8
0
100
AcDbLine
 62
7
  6
CONTINUOUS
 10
11.3360985152
 20
10.3919456269
 11
11.3629984557
 21
10.3832053064
  0
LINE
  5
32A
100
AcDbEntity
  8
0
100
AcDbLine
 62
7
  6
CONTINUOUS
 10
12.6808265129
 20
9.9550170144
 11
12.7077264533
 21
9.9462766939
  0
LINE
  5
32B
100
AcDbEntity
  8
0
100
AcDbLine
 62
7
  6
CONTINUOUS
 10
11.3828921415
 20
10.4154251293
 11
11.4092977835
 21
10.405288953
  0
LINE
  5
32C
100
AcDbEntity
  8
0
100
AcDbLine
 62
7
  6
CONTINUOUS
 10
12.7029101594
 20
9.9087176866
 11
12.7293158014
 21
9.8985815103
  0
LINE
  5
32D
100
AcDbEntity
  8
0
100
AcDbLine
 62
7
  6
CONTINUOUS
 10
11.430850461
 20
10.4364234646
 11
11.4566894285
 21
10.424919215
  0
LINE
  5
32E
100
AcDbEntity
  8
0
100
AcDbLine
 62
7
  6
CONTINUOUS
 10
12.7225404215
 20
9.8613260416
 11
12.748379389
 21
9.8498217921
  0
LINE
  5
32F
100
AcDbEntity
  8
0
100
AcDbLine
 62
7
  6
CONTINUOUS
 10
11.4798420232
 20
10.4548830779
 11
11.5050434934
 21
10.4420422875
  0
LINE
  5
330
100
AcDbEntity
  8
0
100
AcDbLine
 62
7
  6
CONTINUOUS
 10
12.7396634939
 20
9.8129719767
 11
12.7648649641
 21
9.8001311863
  0
ARC
  5
331
100
AcDbEntity
  8
0
100
AcDbCircle
 62
7
  6
CONTINUOUS
 10
10.1668183383
 20
10.7696018937
 40
0.8144047619
100
AcDbArc
 50
270.0
 51
299.4166077994
  0
ARC
  5
332
100
AcDbEntity
  8
0
100
AcDbCircle
 62
7
  6
CONTINUOUS
 10
10.1668183383
 20
8.2507923699
 40
0.8144047619
100
AcDbArc
 50
60.5833922006
 51
90.0
  0
CIRCLE
  5
333
100
AcDbEntity
  8
0
100
AcDbCircle
 62
7
  6
CONTINUOUS
 10
9.6653183383
 20
9.5101971318
 40
0.301
  0
CIRCLE
  5
334
100
AcDbEntity
  8
0
100
AcDbCircle
 62
7
  6
CONTINUOUS
 10
9.6653183383
 20
9.5101971318
 40
0.3
  0
CIRCLE
  5
335
100
AcDbEntity
  8
0
100
AcDbCircle
 62
9
  6
CONTINUOUS
 10
9.6653183383
 20
9.5101971318
 40
0.25
  0
ARC
  5
336
100
AcDbEntity
  8
0
100
AcDbCircle
 62
7
  6
CONTINUOUS
 10
9.3368183383
 20
9.1101971318
 40
0.05
100
AcDbArc
 50
180.0
 51
342.1569487527
  0
ARC
  5
337
100
AcDbEntity
  8
0
100
AcDbCircle
 62
7
  6
CONTINUOUS
 10
9.3368183383
 20
9.9101971318
 40
0.05
100
AcDbArc
 50
17.8430512473
 51
180.0
  0
ARC
  5
338
100
AcDbEntity
  8
0
100
AcDbCircle
 62
7
  6
CONTINUOUS
 10
11.7897766572
 20
4.8657585706
 40
0.3300538287
100
AcDbArc
 50
134.6683246255
 51
147.5550200466
  0
ARC
  5
339
100
AcDbEntity
  8
0
100
AcDbCircle
 62
7
  6
CONTINUOUS
 10
11.8258600372
 20
4.8657585838
 40
0.3300538066
100
AcDbArc
 50
32.4449796734
 51
45.3316257212
  0
ARC
  5
33A
100
AcDbEntity
  8
0
100
AcDbCircle
 62
9
  6
CONTINUOUS
 10
11.7814173081
 20
4.8713353217
 40
0.3200056827
100
AcDbArc
 50
147.594921343
 51
150.065083648
  0
ARC
  5
33B
100
AcDbEntity
  8
0
100
AcDbCircle
 62
9
  6
CONTINUOUS
 10
11.8345179436
 20
4.8715159316
 40
0.3196568125
100
AcDbArc
 50
29.933569108
 51
32.4064353944
  0
ARC
  5
33C
100
AcDbEntity
  8
0
100
AcDbCircle
 62
9
  6
CONTINUOUS
 10
11.7800305603
 20
4.8721459806
 40
0.3183994055
100
AcDbArc
 50
150.0669734562
 51
151.1058773928
  0
ARC
  5
33D
100
AcDbEntity
  8
0
100
AcDbCircle
 62
9
  6
CONTINUOUS
 10
11.8357376957
 20
4.8722201518
 40
0.3182483671
100
AcDbArc
 50
28.9071002759
 51
29.9332757408
  0
ARC
  5
33E
100
AcDbEntity
  8
0
100
AcDbCircle
 62
7
  6
CONTINUOUS
 10
11.8078183383
 20
9.5101971318
 40
1.0
100
AcDbArc
 50
292.1459919984
 51
292.8540080016
  0
ARC
  5
33F
100
AcDbEntity
  8
0
100
AcDbCircle
 62
7
  6
CONTINUOUS
 10
11.8078183383
 20
9.5101971318
 40
1.0
100
AcDbArc
 50
301.1459919984
 51
301.8540080016
  0
ARC
  5
340
100
AcDbEntity
  8
0
100
AcDbCircle
 62
7
  6
CONTINUOUS
 10
11.8078183383
 20
9.5101971318
 40
1.0
100
AcDbArc
 50
310.1459919984
 51
310.8540080016
  0
ARC
  5
341
100
AcDbEntity
  8
0
100
AcDbCircle
 62
7
  6
CONTINUOUS
 10
11.8078183383
 20
9.5101971318
 40
1.0
100
AcDbArc
 50
319.1459919984
 51
319.8540080016
  0
ARC
  5
342
100
AcDbEntity
  8
0
100
AcDbCircle
 62
7
  6
CONTINUOUS
 10
11.8078183383
 20
9.5101971318
 40
1.0
100
AcDbArc
 50
328.1459919984
 51
328.8540080016
  0
ARC
  5
343
100
AcDbEntity
  8
0
100
AcDbCircle
 62
7
  6
CONTINUOUS
 10
11.8078183383
 20
9.5101971318
 40
1.0
100
AcDbArc
 50
337.1459919984
 51
337.8540080016
  0
ARC
  5
344
100
AcDbEntity
  8
0
100
AcDbCircle
 62
7
  6
CONTINUOUS
 10
11.8078183383
 20
9.5101971318
 40
1.0
100
AcDbArc
 50
346.1459919984
 51
346.8540080016
  0
ARC
  5
345
100
AcDbEntity
  8
0
100
AcDbCircle
 62
7
  6
CONTINUOUS
 10
11.8078183383
 20
9.5101971318
 40
1.0
100
AcDbArc
 50
355.1459919984
 51
355.8540080016
  0
ARC
  5
346
100
AcDbEntity
  8
0
100
AcDbCircle
 62
7
  6
CONTINUOUS
 10
11.8078183383
 20
9.5101971318
 40
1.0
100
AcDbArc
 50
4.1459919984
 51
4.8540080016
  0
ARC
  5
347
100
AcDbEntity
  8
0
100
AcDbCircle
 62
7
  6
CONTINUOUS
 10
11.8078183383
 20
9.5101971318
 40
1.0
100
AcDbArc
 50
13.1459919984
 51
13.8540080016
  0
ARC
  5
348
100
AcDbEntity
  8
0
100
AcDbCircle
 62
7
  6
CONTINUOUS
 10
11.8078183383
 20
9.5101971318
 40
1.0
100
AcDbArc
 50
22.1459919984
 51
22.8540080016
  0
ARC
  5
349
100
AcDbEntity
  8
0
100
AcDbCircle
 62
7
  6
CONTINUOUS
 10
11.8078183383
 20
9.5101971318
 40
1.0
100
AcDbArc
 50
31.1459919984
 51
31.8540080016
  0
ARC
  5
34A
100
AcDbEntity
  8
0
100
AcDbCircle
 62
7
  6
CONTINUOUS
 10
11.8078183383
 20
9.5101971318
 40
1.0
100
AcDbArc
 50
40.1459919984
 51
40.8540080016
  0
ARC
  5
34B
100
AcDbEntity
  8
0
100
AcDbCircle
 62
7
  6
CONTINUOUS
 10
11.8078183383
 20
9.5101971318
 40
1.0
100
AcDbArc
 50
49.1459919984
 51
49.8540080016
  0
ARC
  5
34C
100
AcDbEntity
  8
0
100
AcDbCircle
 62
7
  6
CONTINUOUS
 10
11.8078183383
 20
9.5101971318
 40
1.0
100
AcDbArc
 50
58.1459919984
 51
58.8540080016
  0
ARC
  5
34D
100
AcDbEntity
  8
0
100
AcDbCircle
 62
7
  6
CONTINUOUS
 10
11.8078183383
 20
9.5101971318
 40
1.0
100
AcDbArc
 50
67.1459919984
 51
67.8540080016
  0
ARC
  5
34E
100
AcDbEntity
  8
0
100
AcDbCircle
 62
7
  6
CONTINUOUS
 10
11.8078183383
 20
9.5101971318
 40
1.0
100
AcDbArc
 50
76.1459919984
 51
76.8540080016
  0
ARC
  5
34F
100
AcDbEntity
  8
0
100
AcDbCircle
 62
7
  6
CONTINUOUS
 10
11.8078183383
 20
9.5101971318
 40
1.0
100
AcDbArc
 50
85.1459919984
 51
85.8540080016
  0
ARC
  5
350
100
AcDbEntity
  8
0
100
AcDbCircle
 62
7
  6
CONTINUOUS
 10
11.8078183383
 20
9.5101971318
 40
1.0
100
AcDbArc
 50
85.8597564436
 51
88.1400639003
  0
ARC
  5
351
100
AcDbEntity
  8
0
100
AcDbCircle
 62
7
  6
CONTINUOUS
 10
11.8078183383
 20
9.5101971318
 40
1.0
100
AcDbArc
 50
82.8599630215
 51
85.1401988636
  0
ARC
  5
352
100
AcDbEntity
  8
0
100
AcDbCircle
 62
7
  6
CONTINUOUS
 10
11.8078183383
 20
9.5101971318
 40
1.0
100
AcDbArc
 50
79.1459919984
 51
82.8540080016
  0
ARC
  5
353
100
AcDbEntity
  8
0
100
AcDbCircle
 62
7
  6
CONTINUOUS
 10
11.8078183383
 20
9.5101971318
 40
1.0
100
AcDbArc
 50
76.8597000853
 51
79.1400051317
  0
ARC
  5
354
100
AcDbEntity
  8
0
100
AcDbCircle
 62
7
  6
CONTINUOUS
 10
11.8078183383
 20
9.5101971318
 40
1.0
100
AcDbArc
 50
73.8600611966
 51
76.1401718388
  0
ARC
  5
355
100
AcDbEntity
  8
0
100
AcDbCircle
 62
7
  6
CONTINUOUS
 10
11.8078183383
 20
9.5101971318
 40
1.0
100
AcDbArc
 50
70.1459919984
 51
73.8540080016
  0
ARC
  5
356
100
AcDbEntity
  8
0
100
AcDbCircle
 62
7
  6
CONTINUOUS
 10
11.8078183383
 20
9.5101971318
 40
1.0
100
AcDbArc
 50
67.8596911889
 51
70.1399421854
  0
ARC
  5
357
100
AcDbEntity
  8
0
100
AcDbCircle
 62
7
  6
CONTINUOUS
 10
11.8078183383
 20
9.5101971318
 40
1.0
100
AcDbArc
 50
58.859763586
 51
67.1401893447
  0
ARC
  5
358
100
AcDbEntity
  8
0
100
AcDbCircle
 62
7
  6
CONTINUOUS
 10
11.8078183383
 20
9.5101971318
 40
1.0
100
AcDbArc
 50
49.8598236836
 51
58.1402682765
  0
ARC
  5
359
100
AcDbEntity
  8
0
100
AcDbCircle
 62
7
  6
CONTINUOUS
 10
11.8078183383
 20
9.5101971318
 40
1.0
100
AcDbArc
 50
46.8600348192
 51
49.1403152592
  0
ARC
  5
35A
100
AcDbEntity
  8
0
100
AcDbCircle
 62
7
  6
CONTINUOUS
 10
11.8078183383
 20
9.5101971318
 40
1.0
100
AcDbArc
 50
43.1459919984
 51
46.8540080016
  0
ARC
  5
35B
100
AcDbEntity
  8
0
100
AcDbCircle
 62
7
  6
CONTINUOUS
 10
11.8078183383
 20
9.5101971318
 40
1.0
100
AcDbArc
 50
40.8598210107
 51
43.1399810224
  0
ARC
  5
35C
100
AcDbEntity
  8
0
100
AcDbCircle
 62
7
  6
CONTINUOUS
 10
11.8078183383
 20
9.5101971318
 40
1.0
100
AcDbArc
 50
37.8599781951
 51
40.1402807934
  0
ARC
  5
35D
100
AcDbEntity
  8
0
100
AcDbCircle
 62
7
  6
CONTINUOUS
 10
11.8078183383
 20
9.5101971318
 40
1.0
100
AcDbArc
 50
34.1459919984
 51
37.8540080016
  0
ARC
  5
35E
100
AcDbEntity
  8
0
100
AcDbCircle
 62
7
  6
CONTINUOUS
 10
11.8078183383
 20
9.5101971318
 40
1.0
100
AcDbArc
 50
31.8597883476
 51
34.1400502618
  0
ARC
  5
35F
100
AcDbEntity
  8
0
100
AcDbCircle
 62
7
  6
CONTINUOUS
 10
11.8078183383
 20
9.5101971318
 40
1.0
100
AcDbArc
 50
28.8599460973
 51
31.1402265085
  0
ARC
  5
360
100
AcDbEntity
  8
0
100
AcDbCircle
 62
7
  6
CONTINUOUS
 10
11.8078183383
 20
9.5101971318
 40
1.0
100
AcDbArc
 50
25.1459919984
 51
28.8540080016
  0
ARC
  5
361
100
AcDbEntity
  8
0
100
AcDbCircle
 62
7
  6
CONTINUOUS
 10
11.8078183383
 20
9.5101971318
 40
1.0
100
AcDbArc
 50
22.8597380613
 51
25.1400361349
  0
ARC
  5
362
100
AcDbEntity
  8
0
100
AcDbCircle
 62
7
  6
CONTINUOUS
 10
11.8078183383
 20
9.5101971318
 40
1.0
100
AcDbArc
 50
19.8599860621
 51
22.1401880173
  0
ARC
  5
363
100
AcDbEntity
  8
0
100
AcDbCircle
 62
7
  6
CONTINUOUS
 10
11.8078183383
 20
9.5101971318
 40
1.0
100
AcDbArc
 50
16.1459919984
 51
19.8540080016
  0
ARC
  5
364
100
AcDbEntity
  8
0
100
AcDbCircle
 62
7
  6
CONTINUOUS
 10
11.8078183383
 20
9.5101971318
 40
1.0
100
AcDbArc
 50
13.859687668
 51
16.1399862218
  0
ARC
  5
365
100
AcDbEntity
  8
0
100
AcDbCircle
 62
7
  6
CONTINUOUS
 10
11.8078183383
 20
9.5101971318
 40
1.0
100
AcDbArc
 50
7.1459919984
 51
13.1401704424
  0
ARC
  5
366
100
AcDbEntity
  8
0
100
AcDbCircle
 62
7
  6
CONTINUOUS
 10
11.8078183383
 20
9.5101971318
 40
1.0
100
AcDbArc
 50
4.8597068922
 51
7.139918902
  0
ARC
  5
367
100
AcDbEntity
  8
0
100
AcDbCircle
 62
7
  6
CONTINUOUS
 10
11.8078183383
 20
9.5101971318
 40
1.0
100
AcDbArc
 50
355.8597905861
 51
4.1402094139
  0
ARC
  5
368
100
AcDbEntity
  8
0
100
AcDbCircle
 62
7
  6
CONTINUOUS
 10
11.8078183383
 20
9.5101971318
 40
1.0
100
AcDbArc
 50
352.860081098
 51
355.1402931078
  0
ARC
  5
369
100
AcDbEntity
  8
0
100
AcDbCircle
 62
7
  6
CONTINUOUS
 10
11.8078183383
 20
9.5101971318
 40
1.0
100
AcDbArc
 50
346.8598295576
 51
352.8540080016
  0
ARC
  5
36A
100
AcDbEntity
  8
0
100
AcDbCircle
 62
7
  6
CONTINUOUS
 10
11.8078183383
 20
9.5101971318
 40
1.0
100
AcDbArc
 50
343.8600137782
 51
346.140312332
  0
ARC
  5
36B
100
AcDbEntity
  8
0
100
AcDbCircle
 62
7
  6
CONTINUOUS
 10
11.8078183383
 20
9.5101971318
 40
1.0
100
AcDbArc
 50
340.1459919984
 51
343.8540080016
  0
ARC
  5
36C
100
AcDbEntity
  8
0
100
AcDbCircle
 62
7
  6
CONTINUOUS
 10
11.8078183383
 20
9.5101971318
 40
1.0
100
AcDbArc
 50
337.8598119827
 51
340.1400139379
  0
ARC
  5
36D
100
AcDbEntity
  8
0
100
AcDbCircle
 62
7
  6
CONTINUOUS
 10
11.8078183383
 20
9.5101971318
 40
1.0
100
AcDbArc
 50
334.8599638651
 51
337.1402619387
  0
ARC
  5
36E
100
AcDbEntity
  8
0
100
AcDbCircle
 62
7
  6
CONTINUOUS
 10
11.8078183383
 20
9.5101971318
 40
1.0
100
AcDbArc
 50
331.1459919984
 51
334.8540080016
  0
ARC
  5
36F
100
AcDbEntity
  8
0
100
AcDbCircle
 62
7
  6
CONTINUOUS
 10
11.8078183383
 20
9.5101971318
 40
1.0
100
AcDbArc
 50
328.8597734915
 51
331.1400539027
  0
ARC
  5
370
100
AcDbEntity
  8
0
100
AcDbCircle
 62
7
  6
CONTINUOUS
 10
11.8078183383
 20
9.5101971318
 40
1.0
100
AcDbArc
 50
325.8599497382
 51
328.1402116524
  0
ARC
  5
371
100
AcDbEntity
  8
0
100
AcDbCircle
 62
7
  6
CONTINUOUS
 10
11.8078183383
 20
9.5101971318
 40
1.0
100
AcDbArc
 50
322.1459919984
 51
325.8540080016
  0
ARC
  5
372
100
AcDbEntity
  8
0
100
AcDbCircle
 62
7
  6
CONTINUOUS
 10
11.8078183383
 20
9.5101971318
 40
1.0
100
AcDbArc
 50
319.8597192066
 51
322.1400218049
  0
ARC
  5
373
100
AcDbEntity
  8
0
100
AcDbCircle
 62
7
  6
CONTINUOUS
 10
11.8078183383
 20
9.5101971318
 40
1.0
100
AcDbArc
 50
316.8600189776
 51
319.1401789893
  0
ARC
  5
374
100
AcDbEntity
  8
0
100
AcDbCircle
 62
7
  6
CONTINUOUS
 10
11.8078183383
 20
9.5101971318
 40
1.0
100
AcDbArc
 50
313.1459919984
 51
316.8540080016
  0
ARC
  5
375
100
AcDbEntity
  8
0
100
AcDbCircle
 62
7
  6
CONTINUOUS
 10
11.8078183383
 20
9.5101971318
 40
1.0
100
AcDbArc
 50
310.8596847408
 51
313.1399651808
  0
ARC
  5
376
100
AcDbEntity
  8
0
100
AcDbCircle
 62
7
  6
CONTINUOUS
 10
11.8078183383
 20
9.5101971318
 40
1.0
100
AcDbArc
 50
301.8597317235
 51
310.1401763164
  0
ARC
  5
377
100
AcDbEntity
  8
0
100
AcDbCircle
 62
7
  6
CONTINUOUS
 10
11.8078183383
 20
9.5101971318
 40
1.0
100
AcDbArc
 50
292.8598106553
 51
301.140236414
  0
ARC
  5
378
100
AcDbEntity
  8
0
100
AcDbCircle
 62
7
  6
CONTINUOUS
 10
11.8078183383
 20
9.5101971318
 40
1.0
100
AcDbArc
 50
289.8600578146
 51
292.1403088111
  0
ARC
  5
379
100
AcDbEntity
  8
0
100
AcDbCircle
 62
7
  6
CONTINUOUS
 10
11.8078183383
 20
9.5101971318
 40
1.0
100
AcDbArc
 50
286.1459919984
 51
289.8540080016
  0
ARC
  5
37A
100
AcDbEntity
  8
0
100
AcDbCircle
 62
7
  6
CONTINUOUS
 10
11.8078183383
 20
9.5101971318
 40
1.0
100
AcDbArc
 50
284.4804178686
 51
286.1399388034
  0
ARC
  5
37B
100
AcDbEntity
  8
0
100
AcDbCircle
 62
7
  6
CONTINUOUS
 10
11.8078183383
 20
9.5101971318
 40
1.0
100
AcDbArc
 50
94.1459919984
 51
94.8540080016
  0
ARC
  5
37C
100
AcDbEntity
  8
0
100
AcDbCircle
 62
7
  6
CONTINUOUS
 10
11.8078183383
 20
9.5101971318
 40
1.0
100
AcDbArc
 50
103.1459919984
 51
103.8540080016
  0
ARC
  5
37D
100
AcDbEntity
  8
0
100
AcDbCircle
 62
7
  6
CONTINUOUS
 10
11.8078183383
 20
9.5101971318
 40
1.0
100
AcDbArc
 50
112.1459919984
 51
112.8540080016
  0
ARC
  5
37E
100
AcDbEntity
  8
0
100
AcDbCircle
 62
7
  6
CONTINUOUS
 10
11.8078183383
 20
9.5101971318
 40
1.0
100
AcDbArc
 50
121.1459919984
 51
121.8540080016
  0
ARC
  5
37F
100
AcDbEntity
  8
0
100
AcDbCircle
 62
7
  6
CONTINUOUS
 10
11.8078183383
 20
9.5101971318
 40
1.0
100
AcDbArc
 50
130.1459919984
 51
130.8540080016
  0
ARC
  5
380
100
AcDbEntity
  8
0
100
AcDbCircle
 62
7
  6
CONTINUOUS
 10
11.8078183383
 20
9.5101971318
 40
1.0
100
AcDbArc
 50
139.1459919984
 51
139.8540080016
  0
ARC
  5
381
100
AcDbEntity
  8
0
100
AcDbCircle
 62
7
  6
CONTINUOUS
 10
11.8078183383
 20
9.5101971318
 40
1.0
100
AcDbArc
 50
148.1459919984
 51
148.8540080016
  0
ARC
  5
382
100
AcDbEntity
  8
0
100
AcDbCircle
 62
7
  6
CONTINUOUS
 10
11.8078183383
 20
9.5101971318
 40
1.0
100
AcDbArc
 50
211.1459919984
 51
211.8540080016
  0
ARC
  5
383
100
AcDbEntity
  8
0
100
AcDbCircle
 62
7
  6
CONTINUOUS
 10
11.8078183383
 20
9.5101971318
 40
1.0
100
AcDbArc
 50
220.1459919984
 51
220.8540080016
  0
ARC
  5
384
100
AcDbEntity
  8
0
100
AcDbCircle
 62
7
  6
CONTINUOUS
 10
11.8078183383
 20
9.5101971318
 40
1.0
100
AcDbArc
 50
229.1459919984
 51
229.8540080016
  0
ARC
  5
385
100
AcDbEntity
  8
0
100
AcDbCircle
 62
7
  6
CONTINUOUS
 10
11.8078183383
 20
9.5101971318
 40
1.0
100
AcDbArc
 50
238.1459919984
 51
238.8540080016
  0
ARC
  5
386
100
AcDbEntity
  8
0
100
AcDbCircle
 62
7
  6
CONTINUOUS
 10
11.8078183383
 20
9.5101971318
 40
1.0
100
AcDbArc
 50
247.1459919984
 51
247.8540080016
  0
ARC
  5
387
100
AcDbEntity
  8
0
100
AcDbCircle
 62
7
  6
CONTINUOUS
 10
11.8078183383
 20
9.5101971318
 40
1.0
100
AcDbArc
 50
253.8600611966
 51
255.5195821314
  0
ARC
  5
388
100
AcDbEntity
  8
0
100
AcDbCircle
 62
7
  6
CONTINUOUS
 10
11.8078183383
 20
9.5101971318
 40
1.0
100
AcDbArc
 50
250.1459919984
 51
253.8540080016
  0
ARC
  5
389
100
AcDbEntity
  8
0
100
AcDbCircle
 62
7
  6
CONTINUOUS
 10
11.8078183383
 20
9.5101971318
 40
1.0
100
AcDbArc
 50
247.8596911889
 51
250.1399421854
  0
ARC
  5
38A
100
AcDbEntity
  8
0
100
AcDbCircle
 62
7
  6
CONTINUOUS
 10
11.8078183383
 20
9.5101971318
 40
1.0
100
AcDbArc
 50
238.859763586
 51
247.1401893447
  0
ARC
  5
38B
100
AcDbEntity
  8
0
100
AcDbCircle
 62
7
  6
CONTINUOUS
 10
11.8078183383
 20
9.5101971318
 40
1.0
100
AcDbArc
 50
229.8598236836
 51
238.1402682765
  0
ARC
  5
38C
100
AcDbEntity
  8
0
100
AcDbCircle
 62
7
  6
CONTINUOUS
 10
11.8078183383
 20
9.5101971318
 40
1.0
100
AcDbArc
 50
226.8600348192
 51
229.1403152592
  0
ARC
  5
38D
100
AcDbEntity
  8
0
100
AcDbCircle
 62
7
  6
CONTINUOUS
 10
11.8078183383
 20
9.5101971318
 40
1.0
100
AcDbArc
 50
223.1459919984
 51
226.8540080016
  0
ARC
  5
38E
100
AcDbEntity
  8
0
100
AcDbCircle
 62
7
  6
CONTINUOUS
 10
11.8078183383
 20
9.5101971318
 40
1.0
100
AcDbArc
 50
220.8598210107
 51
223.1399810224
  0
ARC
  5
38F
100
AcDbEntity
  8
0
100
AcDbCircle
 62
7
  6
CONTINUOUS
 10
11.8078183383
 20
9.5101971318
 40
1.0
100
AcDbArc
 50
217.8599781951
 51
220.1402807934
  0
ARC
  5
390
100
AcDbEntity
  8
0
100
AcDbCircle
 62
7
  6
CONTINUOUS
 10
11.8078183383
 20
9.5101971318
 40
1.0
100
AcDbArc
 50
214.1459919984
 51
217.8540080016
  0
ARC
  5
391
100
AcDbEntity
  8
0
100
AcDbCircle
 62
7
  6
CONTINUOUS
 10
11.8078183383
 20
9.5101971318
 40
1.0
100
AcDbArc
 50
211.8597883476
 51
214.1400502618
  0
ARC
  5
392
100
AcDbEntity
  8
0
100
AcDbCircle
 62
7
  6
CONTINUOUS
 10
11.8078183383
 20
9.5101971318
 40
1.0
100
AcDbArc
 50
209.0146586366
 51
211.1402265085
  0
ARC
  5
393
100
AcDbEntity
  8
0
100
AcDbCircle
 62
7
  6
CONTINUOUS
 10
11.8078183383
 20
9.5101971318
 40
1.0
100
AcDbArc
 50
148.8597734915
 51
150.9853413634
  0
ARC
  5
394
100
AcDbEntity
  8
0
100
AcDbCircle
 62
7
  6
CONTINUOUS
 10
11.8078183383
 20
9.5101971318
 40
1.0
100
AcDbArc
 50
145.8599497382
 51
148.1402116524
  0
ARC
  5
395
100
AcDbEntity
  8
0
100
AcDbCircle
 62
7
  6
CONTINUOUS
 10
11.8078183383
 20
9.5101971318
 40
1.0
100
AcDbArc
 50
142.1459919984
 51
145.8540080016
  0
ARC
  5
396
100
AcDbEntity
  8
0
100
AcDbCircle
 62
7
  6
CONTINUOUS
 10
11.8078183383
 20
9.5101971318
 40
1.0
100
AcDbArc
 50
139.8597192066
 51
142.1400218049
  0
ARC
  5
397
100
AcDbEntity
  8
0
100
AcDbCircle
 62
7
  6
CONTINUOUS
 10
11.8078183383
 20
9.5101971318
 40
1.0
100
AcDbArc
 50
136.8600189776
 51
139.1401789893
  0
ARC
  5
398
100
AcDbEntity
  8
0
100
AcDbCircle
 62
7
  6
CONTINUOUS
 10
11.8078183383
 20
9.5101971318
 40
1.0
100
AcDbArc
 50
133.1459919984
 51
136.8540080016
  0
ARC
  5
399
100
AcDbEntity
  8
0
100
AcDbCircle
 62
7
  6
CONTINUOUS
 10
11.8078183383
 20
9.5101971318
 40
1.0
100
AcDbArc
 50
130.8596847408
 51
133.1399651808
  0
ARC
  5
39A
100
AcDbEntity
  8
0
100
AcDbCircle
 62
7
  6
CONTINUOUS
 10
11.8078183383
 20
9.5101971318
 40
1.0
100
AcDbArc
 50
121.8597317235
 51
130.1401763164
  0
ARC
  5
39B
100
AcDbEntity
  8
0
100
AcDbCircle
 62
7
  6
CONTINUOUS
 10
11.8078183383
 20
9.5101971318
 40
1.0
100
AcDbArc
 50
112.8598106553
 51
121.140236414
  0
ARC
  5
39C
100
AcDbEntity
  8
0
100
AcDbCircle
 62
7
  6
CONTINUOUS
 10
11.8078183383
 20
9.5101971318
 40
1.0
100
AcDbArc
 50
109.8600578146
 51
112.1403088111
  0
ARC
  5
39D
100
AcDbEntity
  8
0
100
AcDbCircle
 62
7
  6
CONTINUOUS
 10
11.8078183383
 20
9.5101971318
 40
1.0
100
AcDbArc
 50
106.1459919984
 51
109.8540080016
  0
ARC
  5
39E
100
AcDbEntity
  8
0
100
AcDbCircle
 62
7
  6
CONTINUOUS
 10
11.8078183383
 20
9.5101971318
 40
1.0
100
AcDbArc
 50
103.8598281612
 51
106.1399388034
  0
ARC
  5
39F
100
AcDbEntity
  8
0
100
AcDbCircle
 62
7
  6
CONTINUOUS
 10
11.8078183383
 20
9.5101971318
 40
1.0
100
AcDbArc
 50
100.8599948683
 51
103.1402999147
  0
ARC
  5
3A0
100
AcDbEntity
  8
0
100
AcDbCircle
 62
7
  6
CONTINUOUS
 10
11.8078183383
 20
9.5101971318
 40
1.0
100
AcDbArc
 50
97.1459919984
 51
100.8540080016
  0
ARC
  5
3A1
100
AcDbEntity
  8
0
100
AcDbCircle
 62
7
  6
CONTINUOUS
 10
11.8078183383
 20
9.5101971318
 40
1.0
100
AcDbArc
 50
94.8598011364
 51
97.1400369785
  0
ARC
  5
3A2
100
AcDbEntity
  8
0
100
AcDbCircle
 62
7
  6
CONTINUOUS
 10
11.8078183383
 20
9.5101971318
 40
1.0
100
AcDbArc
 50
91.8599360997
 51
94.1402435564
  0
ARC
  5
3A3
100
AcDbEntity
  8
0
100
AcDbCircle
 62
7
  6
CONTINUOUS
 10
11.8078183383
 20
9.5101971318
 40
1.0
100
AcDbArc
 50
88.1459919984
 51
91.8540080016
  0
ARC
  5
3A4
100
AcDbEntity
  8
0
100
AcDbCircle
 62
9
  6
CONTINUOUS
 10
11.8078183383
 20
9.5101971318
 40
0.917
100
AcDbArc
 50
211.9350884541
 51
254.1777093418
  0
ARC
  5
3A5
100
AcDbEntity
  8
0
100
AcDbCircle
 62
9
  6
CONTINUOUS
 10
11.8078183383
 20
9.5101971318
 40
0.917
100
AcDbArc
 50
285.8222906582
 51
148.0649115459
  0
ARC
  5
3A6
100
AcDbEntity
  8
0
100
AcDbCircle
 62
7
  6
CONTINUOUS
 10
11.8078183383
 20
9.5101971318
 40
0.915
100
AcDbArc
 50
285.85989969
 51
254.14010031
  0
ARC
  5
3A7
100
AcDbEntity
  8
0
100
AcDbCircle
 62
7
  6
CONTINUOUS
 10
11.8078183383
 20
9.5101971318
 40
0.865
100
AcDbArc
 50
286.8053548169
 51
253.1946451831
  0
ARC
  5
3A8
100
AcDbEntity
  8
0
100
AcDbCircle
 62
7
  6
CONTINUOUS
 10
11.8078183383
 20
9.5101971318
 40
0.8
100
AcDbArc
 50
288.2149354762
 51
251.7850645238
  0
ARC
  5
3A9
100
AcDbEntity
  8
0
100
AcDbCircle
 62
7
  6
CONTINUOUS
 10
11.8078183383
 20
9.5101971318
 40
0.25
100
AcDbArc
 50
0.0
 51
180.0
  0
SPLINE
  5
3AA
100
AcDbEntity
  8
0
100
AcDbSpline
 62
7
  6
CONTINUOUS
 70
0
 71
3
 72
67
 73
63
 74
0
 42
0.0000001
 43
0.0000001
 44
0.0000000001
 40
0.0
 40
0.0
 40
0.0
 40
0.0
 40
0.0152671116
 40
0.0305414366
 40
0.0458258441
 40
0.0611232282
 40
0.0764363584
 40
0.0917678655
 40
0.107120228
 40
0.1224957421
 40
0.1378965013
 40
0.1533243774
 40
0.1687810098
 40
0.184267787
 40
0.199785827
 40
0.2153359724
 40
0.2309187827
 40
0.2465345339
 40
0.2621832009
 40
0.2778644646
 40
0.2935777175
 40
0.3093220683
 40
0.3250963456
 40
0.3408991032
 40
0.356728644
 40
0.3725830312
 40
0.3884601034
 40
0.4043574922
 40
0.4202726473
 40
0.4362028605
 40
0.468089044
 40
0.500000067
 40
0.5319110889
 40
0.5637972689
 40
0.5797274797
 40
0.5956426318
 40
0.6115400172
 40
0.6274170855
 40
0.6432714683
 40
0.6591010044
 40
0.6749037568
 40
0.6906780287
 40
0.7064223737
 40
0.7221356206
 40
0.7378168782
 40
0.7534655388
 40
0.7690812838
 40
0.7846640878
 40
0.8002142269
 40
0.8157322608
 40
0.8312190319
 40
0.8466756585
 40
0.862103529
 40
0.8775042829
 40
0.8928797922
 40
0.9082321502
 40
0.9235636534
 40
0.9388767801
 40
0.9541741613
 40
0.9694585664
 40
0.9847328896
 40
1.0
 40
1.0
 40
1.0
 40
1.0
 10
12.1221878508
 20
4.7342883408
 30
0.0
 10
12.1218736413
 20
4.729584901
 30
0.0
 10
12.1210102602
 20
4.7201897947
 30
0.0
 10
12.1190145778
 20
4.7061762883
 30
0.0
 10
12.1163227517
 20
4.6922698259
 30
0.0
 10
12.1129413066
 20
4.6785025575
 30
0.0
 10
12.1088783552
 20
4.6649056159
 30
0.0
 10
12.104143622
 20
4.6515098052
 30
0.0
 10
12.098748392
 20
4.6383453168
 30
0.0
 10
12.0927054649
 20
4.625441708
 30
0.0
 10
12.0860291088
 20
4.6128278182
 30
0.0
 10
12.0787350055
 20
4.6005317071
 30
0.0
 10
12.0708401957
 20
4.5885805921
 30
0.0
 10
12.0623630226
 20
4.5770007956
 30
0.0
 10
12.0533230741
 20
4.5658176959
 30
0.0
 10
12.0437411258
 20
4.5550556812
 30
0.0
 10
12.0336390799
 20
4.544738105
 30
0.0
 10
12.0230399054
 20
4.5348872525
 30
0.0
 10
12.0119675813
 20
4.5255243056
 30
0.0
 10
12.000447037
 20
4.5166693145
 30
0.0
 10
11.9885040932
 20
4.5083411648
 30
0.0
 10
11.9761654019
 20
4.5005575541
 30
0.0
 10
11.9634583922
 20
4.4933349674
 30
0.0
 10
11.9504112116
 20
4.4866886567
 30
0.0
 10
11.9370526648
 20
4.4806326182
 30
0.0
 10
11.9234121659
 20
4.4751795732
 30
0.0
 10
11.9095196386
 20
4.4703409482
 30
0.0
 10
11.8954056196
 20
4.4661268754
 30
0.0
 10
11.88110059
 20
4.4625461215
 30
0.0
 10
11.8618116704
 20
4.4586254538
 30
0.0
 10
11.8373786463
 20
4.4553434006
 30
0.0
 10
11.8078183976
 20
4.4540280149
 30
0.0
 10
11.7782581496
 20
4.4553433909
 30
0.0
 10
11.7538251264
 20
4.4586254344
 30
0.0
 10
11.734536208
 20
4.4625460939
 30
0.0
 10
11.7202311796
 20
4.4661268414
 30
0.0
 10
11.7061171619
 20
4.4703409075
 30
0.0
 10
11.6922246361
 20
4.4751795258
 30
0.0
 10
11.6785841388
 20
4.4806325639
 30
0.0
 10
11.6652255936
 20
4.4866885953
 30
0.0
 10
11.6521784143
 20
4.4933348981
 30
0.0
 10
11.6394714057
 20
4.5005574763
 30
0.0
 10
11.6271327149
 20
4.508341078
 30
0.0
 10
11.6151897712
 20
4.5166692182
 30
0.0
 10
11.6036692267
 20
4.5255241996
 30
0.0
 10
11.5925969017
 20
4.5348871364
 30
0.0
 10
11.5819977258
 20
4.5447379789
 30
0.0
 10
11.5718956778
 20
4.555055545
 30
0.0
 10
11.5623137268
 20
4.5658175495
 30
0.0
 10
11.5532737749
 20
4.5770006391
 30
0.0
 10
11.5447965973
 20
4.5885804254
 30
0.0
 10
11.5369017821
 20
4.6005315303
 30
0.0
 10
11.5296076726
 20
4.6128276317
 30
0.0
 10
11.5229313093
 20
4.6254415122
 30
0.0
 10
11.5168883743
 20
4.6383451124
 30
0.0
 10
11.5114931356
 20
4.6515095928
 30
0.0
 10
11.506758393
 20
4.6649053962
 30
0.0
 10
11.5026954315
 20
4.6785023315
 30
0.0
 10
11.4993139758
 20
4.6922695944
 30
0.0
 10
11.4966221385
 20
4.7061760525
 30
0.0
 10
11.4946264445
 20
4.7201895555
 30
0.0
 10
11.4937630554
 20
4.7295846602
 30
0.0
 10
11.4934488419
 20
4.7342880993
 30
0.0
  0
SPLINE
  5
3AB
100
AcDbEntity
  8
0
100
AcDbSpline
 62
7
  6
CONTINUOUS
 70
0
 71
3
 72
15
 73
11
 74
0
 42
0.0000001
 43
0.0000001
 44
0.0000000001
 40
0.0
 40
0.0
 40
0.0
 40
0.0
 40
0.1256345069
 40
0.2510251543
 40
0.3761997201
 40
0.5011892149
 40
0.6260273025
 40
0.7507500226
 40
0.8753942192
 40
1.0
 40
1.0
 40
1.0
 40
1.0
 10
12.1115364646
 20
5.0310318776
 30
0.0
 10
12.1150104194
 20
5.0250119326
 30
0.0
 10
12.1215671699
 20
5.0127570248
 30
0.0
 10
12.130184414
 20
4.9937972677
 30
0.0
 10
12.1375394636
 20
4.9743501858
 30
0.0
 10
12.143600566
 20
4.9544938557
 30
0.0
 10
12.1483420199
 20
4.9343073376
 30
0.0
 10
12.1517434318
 20
4.9138713971
 30
0.0
 10
12.1537902073
 20
4.8932694734
 30
0.0
 10
12.1542457186
 20
4.8794760322
 30
0.0
 10
12.1542457186
 20
4.8725825409
 30
0.0
  0
SPLINE
  5
3AC
100
AcDbEntity
  8
0
100
AcDbSpline
 62
7
  6
CONTINUOUS
 70
0
 71
3
 72
15
 73
11
 74
0
 42
0.0000001
 43
0.0000001
 44
0.0000000001
 40
0.0
 40
0.0
 40
0.0
 40
0.0
 40
0.1246057509
 40
0.2492499276
 40
0.3739726373
 40
0.4988107225
 40
0.6238002232
 40
0.7489748018
 40
0.8743654683
 40
1.0
 40
1.0
 40
1.0
 40
1.0
 10
11.4613909581
 20
4.8725825409
 30
0.0
 10
11.4613909581
 20
4.8794760303
 30
0.0
 10
11.4618464691
 20
4.8932694683
 30
0.0
 10
11.4638932437
 20
4.9138713881
 30
0.0
 10
11.4672946545
 20
4.9343073263
 30
0.0
 10
11.4720361074
 20
4.9544938436
 30
0.0
 10
11.4780972089
 20
4.9743501742
 30
0.0
 10
11.4854522583
 20
4.9937972577
 30
0.0
 10
11.494069503
 20
5.0127570172
 30
0.0
 10
11.5006262543
 20
5.0250119269
 30
0.0
 10
11.5041002096
 20
5.031031873
 30
0.0
  0
SPLINE
  5
3AD
100
AcDbEntity
  8
0
100
AcDbSpline
 62
7
  6
CONTINUOUS
 70
0
 71
3
 72
69
 73
65
 74
0
 42
0.0000001
 43
0.0000001
 44
0.0000000001
 40
0.0
 40
0.0
 40
0.0
 40
0.0
 40
0.0153102035
 40
0.030623427
 40
0.0459425518
 40
0.0612705319
 40
0.0766101703
 40
0.0919641922
 40
0.107335184
 40
0.1227255843
 40
0.1381376568
 40
0.153573461
 40
0.1690348375
 40
0.1845233947
 40
0.2000404876
 40
0.2155871967
 40
0.2311643203
 40
0.2467723726
 40
0.2624115708
 40
0.2780818243
 40
0.2937827403
 40
0.3095136306
 40
0.3252735157
 40
0.3410611197
 40
0.3568748958
 40
0.372713038
 40
0.3885735027
 40
0.4044540126
 40
0.4203520937
 40
0.4362650969
 40
0.4521902238
 40
0.4681245513
 40
0.5000000898
 40
0.5318756266
 40
0.5478099521
 40
0.5637350763
 40
0.5796480759
 40
0.5955461527
 40
0.6114266576
 40
0.6272871168
 40
0.6431252526
 40
0.6589390219
 40
0.6747266185
 40
0.6904864957
 40
0.706217378
 40
0.7219182855
 40
0.7375885304
 40
0.7532277197
 40
0.7688357632
 40
0.784412878
 40
0.7999595785
 40
0.8154766629
 40
0.830965212
 40
0.8464265807
 40
0.8618623776
 40
0.8772744434
 40
0.8926648375
 40
0.9080358238
 40
0.923389841
 40
0.9387294754
 40
0.9540574522
 40
0.9693765749
 40
0.9846897968
 40
1.0
 40
1.0
 40
1.0
 40
1.0
 10
12.1542457186
 20
4.8725825409
 30
0.0
 10
12.1542457186
 20
4.8671649321
 30
0.0
 10
12.1539644751
 20
4.8563265421
 30
0.0
 10
12.1527000602
 20
4.840111783
 30
0.0
 10
12.150596438
 20
4.8239776317
 30
0.0
 10
12.1476592281
 20
4.8079648696
 30
0.0
 10
12.1438962176
 20
4.7921131214
 30
0.0
 10
12.1393173735
 20
4.7764616933
 30
0.0
 10
12.1339347595
 20
4.761049182
 30
0.0
 10
12.1277624934
 20
4.7459134334
 30
0.0
 10
12.1208166729
 20
4.7310914193
 30
0.0
 10
12.1131153085
 20
4.7166191458
 30
0.0
 10
12.1046782435
 20
4.7025315623
 30
0.0
 10
12.0955270741
 20
4.6888624794
 30
0.0
 10
12.0856850666
 20
4.6756444985
 30
0.0
 10
12.0751770756
 20
4.662908949
 30
0.0
 10
12.0640294587
 20
4.6506858296
 30
0.0
 10
12.0522699909
 20
4.6390037557
 30
0.0
 10
12.0399277831
 20
4.6278899154
 30
0.0
 10
12.0270332004
 20
4.6173700317
 30
0.0
 10
12.0136177816
 20
4.6074683242
 30
0.0
 10
11.9997141552
 20
4.5982074761
 30
0.0
 10
11.985355964
 20
4.589608606
 30
0.0
 10
11.9705777865
 20
4.5816912428
 30
0.0
 10
11.9554150609
 20
4.5744733008
 30
0.0
 10
11.9399040035
 20
4.5679710552
 30
0.0
 10
11.9240815327
 20
4.5621991251
 30
0.0
 10
11.9079852049
 20
4.5571704542
 30
0.0
 10
11.8916530879
 20
4.5528962947
 30
0.0
 10
11.8751238675
 20
4.5493861946
 30
0.0
 10
11.8584360733
 20
4.5466479738
 30
0.0
 10
11.8360281865
 20
4.5440342873
 30
0.0
 10
11.8078182434
 20
4.5427236478
 30
0.0
 10
11.7796083016
 20
4.5440343016
 30
0.0
 10
11.7572004183
 20
4.5466479991
 30
0.0
 10
11.7405126284
 20
4.5493862278
 30
0.0
 10
11.7239834134
 20
4.5528963354
 30
0.0
 10
11.707651303
 20
4.5571705018
 30
0.0
 10
11.6915549826
 20
4.562199179
 30
0.0
 10
11.6757325203
 20
4.5679711147
 30
0.0
 10
11.660221472
 20
4.5744733651
 30
0.0
 10
11.6450587563
 20
4.5816913109
 30
0.0
 10
11.6302805891
 20
4.5896086767
 30
0.0
 10
11.6159224084
 20
4.5982075483
 30
0.0
 10
11.6020187927
 20
4.6074683968
 30
0.0
 10
11.5886033845
 20
4.6173701037
 30
0.0
 10
11.5757088124
 20
4.6278899857
 30
0.0
 10
11.5633666147
 20
4.6390038234
 30
0.0
 10
11.5516071567
 20
4.650685894
 30
0.0
 10
11.540459549
 20
4.6629090092
 30
0.0
 10
11.5299515667
 20
4.6756445539
 30
0.0
 10
11.5201095671
 20
4.6888625296
 30
0.0
 10
11.5109584048
 20
4.7025316069
 30
0.0
 10
11.5025213462
 20
4.7166191845
 30
0.0
 10
11.4948199872
 20
4.7310914522
 30
0.0
 10
11.4878741713
 20
4.7459134605
 30
0.0
 10
11.4817019089
 20
4.7610492036
 30
0.0
 10
11.4763192978
 20
4.7764617097
 30
0.0
 10
11.4717404559
 20
4.7921131332
 30
0.0
 10
11.4679774469
 20
4.8079648774
 30
0.0
 10
11.4650402379
 20
4.8239776362
 30
0.0
 10
11.4629366162
 20
4.8401117851
 30
0.0
 10
11.4616722015
 20
4.8563265429
 30
0.0
 10
11.4613909581
 20
4.8671649322
 30
0.0
 10
11.4613909581
 20
4.8725825409
 30
0.0
  0
SPLINE
  5
3AE
100
AcDbEntity
  8
0
100
AcDbSpline
 62
9
  6
CONTINUOUS
 70
0
 71
3
 72
47
 73
43
 74
0
 42
0.0000001
 43
0.0000001
 44
0.0000000001
 40
0.0
 40
0.0
 40
0.0
 40
0.0
 40
0.0151186513
 40
0.0302566286
 40
0.045417118
 40
0.0606031399
 40
0.0910551017
 40
0.1216399952
 40
0.1369910771
 40
0.1523808306
 40
0.1678104723
 40
0.1832809143
 40
0.2143390385
 40
0.2455636633
 40
0.2769509465
 40
0.3084923132
 40
0.3401747654
 40
0.3719813154
 40
0.4038915066
 40
0.4358820141
 40
0.4679273122
 40
0.5000003794
 40
0.5320734409
 40
0.5641187222
 40
0.596109202
 40
0.6280193557
 40
0.659825859
 40
0.6915082571
 40
0.7230495634
 40
0.7544367819
 40
0.7856613394
 40
0.8167193958
 40
0.8321898043
 40
0.8476194131
 40
0.8630091346
 40
0.8783601856
 40
0.9089450215
 40
0.9393969331
 40
0.954582933
 40
0.9697434028
 40
0.9848813631
 40
1.0
 40
1.0
 40
1.0
 40
1.0
 10
12.1082925591
 20
4.708564165
 30
0.0
 10
12.1074597042
 20
4.7045019672
 30
0.0
 10
12.1056067744
 20
4.6964092681
 30
0.0
 10
12.1022749756
 20
4.684402045
 30
0.0
 10
12.098394998
 20
4.6725406401
 30
0.0
 10
12.0924963146
 20
4.6569380651
 30
0.0
 10
12.0837829086
 20
4.6379010742
 30
0.0
 10
12.0733782221
 20
4.6196817667
 30
0.0
 10
12.0640824365
 20
4.6056581339
 30
0.0
 10
12.0566242474
 20
4.5954186584
 30
0.0
 10
12.0487030677
 20
4.5854911233
 30
0.0
 10
12.037531155
 20
4.5726799575
 30
0.0
 10
12.0224755222
 20
4.5575352084
 30
0.0
 10
12.0028406385
 20
4.5409190277
 30
0.0
 10
11.9817560547
 20
4.5259547655
 30
0.0
 10
11.9593795481
 20
4.5127542924
 30
0.0
 10
11.9358773637
 20
4.5014150461
 30
0.0
 10
11.9114242884
 20
4.4920209744
 30
0.0
 10
11.8862019823
 20
4.4846415774
 30
0.0
 10
11.8603977913
 20
4.4793313831
 30
0.0
 10
11.8342033009
 20
4.4761296573
 30
0.0
 10
11.8078129634
 20
4.4750600842
 30
0.0
 10
11.7814226659
 20
4.4761305274
 30
0.0
 10
11.7552282948
 20
4.4793331169
 30
0.0
 10
11.7294243018
 20
4.484644162
 30
0.0
 10
11.7042022709
 20
4.4920243908
 30
0.0
 10
11.6797495459
 20
4.5014192689
 30
0.0
 10
11.6562477845
 20
4.5127592906
 30
0.0
 10
11.6338717703
 20
4.5259605018
 30
0.0
 10
11.6127877448
 20
4.5409254599
 30
0.0
 10
11.5931534812
 20
4.5575422887
 30
0.0
 10
11.5780984137
 20
4.5726875348
 30
0.0
 10
11.5669269795
 20
4.5854990691
 30
0.0
 10
11.5590061706
 20
4.5954268656
 30
0.0
 10
11.551548364
 20
4.6056665872
 30
0.0
 10
11.5422531017
 20
4.6196905273
 30
0.0
 10
11.5318490952
 20
4.6379101795
 30
0.0
 10
11.523136401
 20
4.6569474571
 30
0.0
 10
11.5172383008
 20
4.6725502258
 30
0.0
 10
11.5133587663
 20
4.6844117587
 30
0.0
 10
11.5100274161
 20
4.6964190917
 30
0.0
 10
11.5081747887
 20
4.7045118513
 30
0.0
 10
11.5073420856
 20
4.7085740761
 30
0.0
  0
SPLINE
  5
3AF
100
AcDbEntity
  8
0
100
AcDbSpline
 62
9
  6
CONTINUOUS
 70
0
 71
3
 72
39
 73
35
 74
0
 42
0.0000001
 43
0.0000001
 44
0.0000000001
 40
0.0
 40
0.0
 40
0.0
 40
0.0
 40
0.0305823022
 40
0.0612708718
 40
0.092065904
 40
0.1229662742
 40
0.1539695646
 40
0.1850721072
 40
0.2162690394
 40
0.2475543731
 40
0.2789210752
 40
0.3103611582
 40
0.3418657803
 40
0.3734253529
 40
0.4050296552
 40
0.436667954
 40
0.4683291282
 40
0.5000017965
 40
0.5316744467
 40
0.5633355668
 40
0.5949737762
 40
0.6265779547
 40
0.6581373705
 40
0.6896418048
 40
0.721081671
 40
0.7524481298
 40
0.7837331967
 40
0.8149298415
 40
0.8460320797
 40
0.8770350523
 40
0.907935095
 40
0.9387297943
 40
0.9694180295
 40
1.0
 40
1.0
 40
1.0
 40
1.0
 10
12.0289626268
 20
4.6189738102
 30
0.0
 10
12.0256444296
 20
4.6151019692
 30
0.0
 10
12.0187756134
 20
4.6075311151
 30
0.0
 10
12.0078347064
 20
4.596752713
 30
0.0
 10
11.9962709628
 20
4.586564383
 30
0.0
 10
11.9841208341
 20
4.5769982891
 30
0.0
 10
11.9714220572
 20
4.5680840339
 30
0.0
 10
11.9582142116
 20
4.5598493561
 30
0.0
 10
11.944538415
 20
4.5523198332
 30
0.0
 10
11.9304372443
 20
4.5455188605
 30
0.0
 10
11.91595459
 20
4.5394675638
 30
0.0
 10
11.9011355241
 20
4.5341847389
 30
0.0
 10
11.8860261595
 20
4.5296867931
 30
0.0
 10
11.8706735073
 20
4.5259876949
 30
0.0
 10
11.8551253313
 20
4.5230989312
 30
0.0
 10
11.8394300001
 20
4.5210294722
 30
0.0
 10
11.8236363378
 20
4.5197857437
 30
0.0
 10
11.8077934724
 20
4.5193716077
 30
0.0
 10
11.7919506843
 20
4.5197883499
 30
0.0
 10
11.7761572538
 20
4.5210346764
 30
0.0
 10
11.7604623081
 20
4.5231067173
 30
0.0
 10
11.7449146702
 20
4.5259980388
 30
0.0
 10
11.729562707
 20
4.5296996627
 30
0.0
 10
11.7144541801
 20
4.5342000941
 30
0.0
 10
11.6996360981
 20
4.539485357
 30
0.0
 10
11.6851545708
 20
4.5455390364
 30
0.0
 10
11.6710546666
 20
4.5523423291
 30
0.0
 10
11.6573802724
 20
4.5598741021
 30
0.0
 10
11.6441739605
 20
4.5681109531
 30
0.0
 10
11.6314768438
 20
4.577027298
 30
0.0
 10
11.6193284969
 20
4.5865953913
 30
0.0
 10
11.607766651
 20
4.5967856244
 30
0.0
 10
11.5968277518
 20
4.6075658271
 30
0.0
 10
11.5899603464
 20
4.6151378114
 30
0.0
 10
11.5866428708
 20
4.6190101978
 30
0.0
  0
SPLINE
  5
3B0
100
AcDbEntity
  8
0
100
AcDbSpline
 62
9
  6
CONTINUOUS
 70
0
 71
3
 72
15
 73
11
 74
0
 42
0.0000001
 43
0.0000001
 44
0.0000000001
 40
0.0
 40
0.0
 40
0.0
 40
0.0
 40
0.1259439981
 40
0.2515261316
 40
0.3767870295
 40
0.501772257
 40
0.6265315463
 40
0.7511184951
 40
0.8755881857
 40
1.0
 40
1.0
 40
1.0
 40
1.0
 10
11.5012673921
 20
5.0259942094
 30
0.0
 10
11.4981036535
 20
5.0202616249
 30
0.0
 10
11.4921375017
 20
5.0086143221
 30
0.0
 10
11.4843047341
 20
4.9906466355
 30
0.0
 10
11.4776284787
 20
4.9722700199
 30
0.0
 10
11.4721331723
 20
4.9535510728
 30
0.0
 10
11.4678384061
 20
4.9345566225
 30
0.0
 10
11.4647596711
 20
4.9153544792
 30
0.0
 10
11.4629079653
 20
4.8960143669
 30
0.0
 10
11.4624959598
 20
4.8830715851
 30
0.0
 10
11.4624959598
 20
4.8766035876
 30
0.0
  0
SPLINE
  5
3B1
100
AcDbEntity
  8
0
100
AcDbSpline
 62
9
  6
CONTINUOUS
 70
0
 71
3
 72
69
 73
65
 74
0
 42
0.0000001
 43
0.0000001
 44
0.0000000001
 40
0.0
 40
0.0
 40
0.0
 40
0.0
 40
0.0151363859
 40
0.0302776451
 40
0.0454284445
 40
0.0605935272
 40
0.0757773777
 40
0.0909843299
 40
0.1062184589
 40
0.121483563
 40
0.136783118
 40
0.1521202466
 40
0.1674976878
 40
0.1829177724
 40
0.1983824032
 40
0.2138930393
 40
0.229450686
 40
0.2450558887
 40
0.260708732
 40
0.2764088428
 40
0.2921553984
 40
0.3079471379
 40
0.323782378
 40
0.3396590319
 40
0.3555746317
 40
0.371526354
 40
0.3875110476
 40
0.4035252643
 40
0.4195652913
 40
0.4356271855
 40
0.4517068099
 40
0.4677998706
 40
0.5
 40
0.5322001294
 40
0.5482931901
 40
0.5643728145
 40
0.5804347087
 40
0.5964747357
 40
0.6124889524
 40
0.628473646
 40
0.6444253683
 40
0.6603409681
 40
0.676217622
 40
0.6920528621
 40
0.7078446016
 40
0.7235911572
 40
0.739291268
 40
0.7549441113
 40
0.770549314
 40
0.7861069607
 40
0.8016175968
 40
0.8170822276
 40
0.8325023122
 40
0.8478797534
 40
0.863216882
 40
0.878516437
 40
0.8937815411
 40
0.9090156701
 40
0.9242226223
 40
0.9394064728
 40
0.9545715555
 40
0.9697223549
 40
0.9848636141
 40
1.0
 40
1.0
 40
1.0
 40
1.0
 10
12.153318336
 20
4.8762660411
 30
0.0
 10
12.1533184579
 20
4.8709540703
 30
0.0
 10
12.1530406317
 20
4.8603263272
 30
0.0
 10
12.1517922786
 20
4.8444256911
 30
0.0
 10
12.1497149502
 20
4.8286013807
 30
0.0
 10
12.1468137365
 20
4.8128921536
 30
0.0
 10
12.1430956385
 20
4.7973357147
 30
0.0
 10
12.1385696422
 20
4.7819696223
 30
0.0
 10
12.1332466825
 20
4.7668309055
 30
0.0
 10
12.1271396181
 20
4.7519560588
 30
0.0
 10
12.1202631987
 20
4.7373809298
 30
0.0
 10
12.1126340288
 20
4.7231406397
 30
0.0
 10
12.1042705265
 20
4.709269496
 30
0.0
 10
12.0951928785
 20
4.6958009115
 30
0.0
 10
12.08542299
 20
4.6827673233
 30
0.0
 10
12.0749844317
 20
4.6702001153
 30
0.0
 10
12.0639023818
 20
4.6581295434
 30
0.0
 10
12.0522035653
 20
4.6465846629
 30
0.0
 10
12.0399161884
 20
4.6355932596
 30
0.0
 10
12.0270698716
 20
4.6251817825
 30
0.0
 10
12.0136955769
 20
4.6153752819
 30
0.0
 10
11.9998255332
 20
4.6061973494
 30
0.0
 10
11.9854931589
 20
4.5976700619
 30
0.0
 10
11.9707329817
 20
4.5898139289
 30
0.0
 10
11.9555805548
 20
4.5826478441
 30
0.0
 10
11.9400723728
 20
4.5761890402
 30
0.0
 10
11.9242457807
 20
4.5704530477
 30
0.0
 10
11.908138897
 20
4.5654536588
 30
0.0
 10
11.8917904738
 20
4.5612028927
 30
0.0
 10
11.875239987
 20
4.5577109719
 30
0.0
 10
11.8585268544
 20
4.5549862819
 30
0.0
 10
11.8360793471
 20
4.5523848565
 30
0.0
 10
11.8078183383
 20
4.5510804213
 30
0.0
 10
11.7795573295
 20
4.5523848565
 30
0.0
 10
11.7571098222
 20
4.5549862819
 30
0.0
 10
11.7403966896
 20
4.5577109719
 30
0.0
 10
11.7238462028
 20
4.5612028927
 30
0.0
 10
11.7074977796
 20
4.5654536588
 30
0.0
 10
11.691390896
 20
4.5704530477
 30
0.0
 10
11.6755643038
 20
4.5761890402
 30
0.0
 10
11.6600561218
 20
4.5826478441
 30
0.0
 10
11.6449036949
 20
4.5898139289
 30
0.0
 10
11.6301435177
 20
4.5976700619
 30
0.0
 10
11.6158111434
 20
4.6061973494
 30
0.0
 10
11.6019410997
 20
4.6153752819
 30
0.0
 10
11.588566805
 20
4.6251817825
 30
0.0
 10
11.5757204882
 20
4.6355932596
 30
0.0
 10
11.5634331113
 20
4.6465846629
 30
0.0
 10
11.5517342948
 20
4.6581295434
 30
0.0
 10
11.5406522449
 20
4.6702001153
 30
0.0
 10
11.5302136866
 20
4.6827673233
 30
0.0
 10
11.5204437981
 20
4.6958009115
 30
0.0
 10
11.5113661501
 20
4.709269496
 30
0.0
 10
11.5030026479
 20
4.7231406397
 30
0.0
 10
11.4953734779
 20
4.7373809298
 30
0.0
 10
11.4884970585
 20
4.7519560588
 30
0.0
 10
11.4823899941
 20
4.7668309055
 30
0.0
 10
11.4770670344
 20
4.7819696223
 30
0.0
 10
11.4725410381
 20
4.7973357147
 30
0.0
 10
11.4688229401
 20
4.8128921536
 30
0.0
 10
11.4659217264
 20
4.8286013807
 30
0.0
 10
11.4638443981
 20
4.8444256911
 30
0.0
 10
11.4625960449
 20
4.8603263272
 30
0.0
 10
11.4623182187
 20
4.8709540703
 30
0.0
 10
11.4623183406
 20
4.8762660411
 30
0.0
  0
SPLINE
  5
3B2
100
AcDbEntity
  8
0
100
AcDbSpline
 62
9
  6
CONTINUOUS
 70
0
 71
3
 72
69
 73
65
 74
0
 42
0.0000001
 43
0.0000001
 44
0.0000000001
 40
0.0
 40
0.0
 40
0.0
 40
0.0
 40
0.0151363715
 40
0.0302776509
 40
0.0454284402
 40
0.060593527
 40
0.0757773761
 40
0.0909843288
 40
0.1062184577
 40
0.1214835618
 40
0.1367831169
 40
0.1521202456
 40
0.1674976868
 40
0.1829177714
 40
0.1983824023
 40
0.2138930385
 40
0.2294506852
 40
0.245055888
 40
0.2607087313
 40
0.2764088421
 40
0.2921553978
 40
0.3079471374
 40
0.3237823775
 40
0.3396590314
 40
0.3555746313
 40
0.3715263536
 40
0.3875110473
 40
0.403525264
 40
0.419565291
 40
0.4356271853
 40
0.4517068098
 40
0.4677998705
 40
0.5
 40
0.5322001295
 40
0.5482931902
 40
0.5643728147
 40
0.580434709
 40
0.596474736
 40
0.6124889527
 40
0.6284736464
 40
0.6444253687
 40
0.6603409686
 40
0.6762176225
 40
0.6920528626
 40
0.7078446022
 40
0.7235911579
 40
0.7392912687
 40
0.754944112
 40
0.7705493148
 40
0.7861069615
 40
0.8016175977
 40
0.8170822286
 40
0.8325023132
 40
0.8478797544
 40
0.8632168831
 40
0.8785164382
 40
0.8937815423
 40
0.9090156712
 40
0.9242226239
 40
0.939406473
 40
0.9545715598
 40
0.9697223491
 40
0.9848636285
 40
1.0
 40
1.0
 40
1.0
 40
1.0
 10
12.1531407168
 20
4.8766035876
 30
0.0
 10
12.1531407168
 20
4.8712943527
 30
0.0
 10
12.1528631937
 20
4.8606720721
 30
0.0
 10
12.1516154421
 20
4.8447796096
 30
0.0
 10
12.149539179
 20
4.828963432
 30
0.0
 10
12.1466394632
 20
4.8132622818
 30
0.0
 10
12.1429232728
 20
4.7977138403
 30
0.0
 10
12.1383996051
 20
4.7823556474
 30
0.0
 10
12.1330793812
 20
4.7672247134
 30
0.0
 10
12.1269754567
 20
4.7523575137
 30
0.0
 10
12.1201025723
 20
4.7377898778
 30
0.0
 10
12.1124773245
 20
4.7235569085
 30
0.0
 10
12.1041181219
 20
4.709692896
 30
0.0
 10
12.0950451406
 20
4.6962312356
 30
0.0
 10
12.0852802748
 20
4.6832043478
 30
0.0
 10
12.0748470829
 20
4.6706436006
 30
0.0
 10
12.0637707303
 20
4.6585792341
 30
0.0
 10
12.052077928
 20
4.6470402889
 30
0.0
 10
12.0397968681
 20
4.6360545361
 30
0.0
 10
12.0269571555
 20
4.6256484115
 30
0.0
 10
12.0135897364
 20
4.6158469524
 30
0.0
 10
11.9997268232
 20
4.6066737383
 30
0.0
 10
11.9854018172
 20
4.5981508345
 30
0.0
 10
11.9706492281
 20
4.5902987404
 30
0.0
 10
11.955504591
 20
4.5831363396
 30
0.0
 10
11.9400043816
 20
4.5766808561
 30
0.0
 10
11.9241859259
 20
4.5709478125
 30
0.0
 10
11.9080873227
 20
4.5659509937
 30
0.0
 10
11.8917473041
 20
4.561702413
 30
0.0
 10
11.8752053259
 20
4.5582122873
 30
0.0
 10
11.8585007854
 20
4.5554889981
 30
0.0
 10
11.8360648183
 20
4.5528889101
 30
0.0
 10
11.8078183383
 20
4.5515851455
 30
0.0
 10
11.7795718583
 20
4.5528889101
 30
0.0
 10
11.7571358912
 20
4.5554889981
 30
0.0
 10
11.7404313507
 20
4.5582122873
 30
0.0
 10
11.7238893725
 20
4.561702413
 30
0.0
 10
11.7075493539
 20
4.5659509937
 30
0.0
 10
11.6914507507
 20
4.5709478125
 30
0.0
 10
11.675632295
 20
4.5766808561
 30
0.0
 10
11.6601320857
 20
4.5831363396
 30
0.0
 10
11.6449874485
 20
4.5902987404
 30
0.0
 10
11.6302348594
 20
4.5981508345
 30
0.0
 10
11.6159098534
 20
4.6066737383
 30
0.0
 10
11.6020469402
 20
4.6158469524
 30
0.0
 10
11.5886795211
 20
4.6256484115
 30
0.0
 10
11.5758398085
 20
4.6360545361
 30
0.0
 10
11.5635587486
 20
4.6470402889
 30
0.0
 10
11.5518659463
 20
4.6585792341
 30
0.0
 10
11.5407895937
 20
4.6706436006
 30
0.0
 10
11.5303564018
 20
4.6832043478
 30
0.0
 10
11.520591536
 20
4.6962312356
 30
0.0
 10
11.5115185547
 20
4.709692896
 30
0.0
 10
11.5031593521
 20
4.7235569085
 30
0.0
 10
11.4955341043
 20
4.7377898778
 30
0.0
 10
11.4886612199
 20
4.7523575137
 30
0.0
 10
11.4825572954
 20
4.7672247134
 30
0.0
 10
11.4772370715
 20
4.7823556474
 30
0.0
 10
11.4727134038
 20
4.7977138403
 30
0.0
 10
11.4689972134
 20
4.8132622818
 30
0.0
 10
11.4660974976
 20
4.828963432
 30
0.0
 10
11.4640212345
 20
4.8447796096
 30
0.0
 10
11.462773483
 20
4.8606720721
 30
0.0
 10
11.4624959598
 20
4.8712943527
 30
0.0
 10
11.4624959598
 20
4.8766035876
 30
0.0
  0
SPLINE
  5
3B3
100
AcDbEntity
  8
0
100
AcDbSpline
 62
9
  6
CONTINUOUS
 70
0
 71
3
 72
69
 73
65
 74
0
 42
0.0000001
 43
0.0000001
 44
0.0000000001
 40
0.0
 40
0.0
 40
0.0
 40
0.0
 40
0.015136329
 40
0.0302776277
 40
0.0454283957
 40
0.0605934902
 40
0.0757773404
 40
0.0909842964
 40
0.106218426
 40
0.1214835299
 40
0.1367830853
 40
0.1521202154
 40
0.1674976588
 40
0.1829177456
 40
0.198382378
 40
0.2138930153
 40
0.229450663
 40
0.2450558667
 40
0.2607087109
 40
0.2764088226
 40
0.2921553793
 40
0.30794712
 40
0.3237823616
 40
0.3396590172
 40
0.3555746188
 40
0.3715263428
 40
0.3875110381
 40
0.4035252562
 40
0.4195652845
 40
0.43562718
 40
0.4517068057
 40
0.4677998677
 40
0.5
 40
0.5322001323
 40
0.5482931943
 40
0.56437282
 40
0.5804347155
 40
0.5964747438
 40
0.6124889619
 40
0.6284736572
 40
0.6444253812
 40
0.6603409828
 40
0.6762176384
 40
0.69205288
 40
0.7078446207
 40
0.7235911774
 40
0.7392912891
 40
0.7549441333
 40
0.770549337
 40
0.7861069847
 40
0.801617622
 40
0.8170822544
 40
0.8325023412
 40
0.8478797846
 40
0.8632169147
 40
0.8785164701
 40
0.893781574
 40
0.9090157036
 40
0.9242226596
 40
0.9394065098
 40
0.9545716043
 40
0.9697223723
 40
0.984863671
 40
1.0
 40
1.0
 40
1.0
 40
1.0
 10
12.1043183398
 20
4.8893736276
 30
0.0
 10
12.1043183398
 20
4.8848150359
 30
0.0
 10
12.1040800516
 20
4.875694562
 30
0.0
 10
12.1030087166
 20
4.8620490209
 30
0.0
 10
12.1012259953
 20
4.8484689653
 30
0.0
 10
12.0987362526
 20
4.8349876785
 30
0.0
 10
12.0955454639
 20
4.8216375035
 30
0.0
 10
12.0916613642
 20
4.8084506807
 30
0.0
 10
12.0870933266
 20
4.7954589868
 30
0.0
 10
12.0818523903
 20
4.7826937405
 30
0.0
 10
12.075951211
 20
4.7701857047
 30
0.0
 10
12.0694040379
 20
4.7579650191
 30
0.0
 10
12.0622266761
 20
4.7460611267
 30
0.0
 10
12.0544364495
 20
4.7345027022
 30
0.0
 10
12.0460521579
 20
4.7233175822
 30
0.0
 10
12.0370940297
 20
4.7125326992
 30
0.0
 10
12.0275836728
 20
4.7021740174
 30
0.0
 10
12.0175440221
 20
4.6922664709
 30
0.0
 10
12.0069992839
 20
4.6828339044
 30
0.0
 10
11.9959748771
 20
4.673899016
 30
0.0
 10
11.9844973722
 20
4.6654833035
 30
0.0
 10
11.9725944269
 20
4.6576070132
 30
0.0
 10
11.9602947197
 20
4.6502890916
 30
0.0
 10
11.9476278807
 20
4.6435471407
 30
0.0
 10
11.9346244214
 20
4.6373973745
 30
0.0
 10
11.9213156613
 20
4.6318545809
 30
0.0
 10
11.907733649
 20
4.6269320874
 30
0.0
 10
11.8939110974
 20
4.6226417297
 30
0.0
 10
11.8798812625
 20
4.6189938223
 30
0.0
 10
11.8656780215
 20
4.6159971374
 30
0.0
 10
11.8513352018
 20
4.6136588715
 30
0.0
 10
11.8320712758
 20
4.6114263877
 30
0.0
 10
11.8078183383
 20
4.6103069501
 30
0.0
 10
11.7835654008
 20
4.6114263877
 30
0.0
 10
11.7643014748
 20
4.6136588715
 30
0.0
 10
11.7499586551
 20
4.6159971374
 30
0.0
 10
11.7357554141
 20
4.6189938223
 30
0.0
 10
11.7217255792
 20
4.6226417297
 30
0.0
 10
11.7079030276
 20
4.6269320874
 30
0.0
 10
11.6943210153
 20
4.6318545809
 30
0.0
 10
11.6810122552
 20
4.6373973745
 30
0.0
 10
11.6680087959
 20
4.6435471407
 30
0.0
 10
11.655341957
 20
4.6502890916
 30
0.0
 10
11.6430422497
 20
4.6576070132
 30
0.0
 10
11.6311393044
 20
4.6654833035
 30
0.0
 10
11.6196617995
 20
4.673899016
 30
0.0
 10
11.6086373928
 20
4.6828339044
 30
0.0
 10
11.5980926545
 20
4.6922664709
 30
0.0
 10
11.5880530038
 20
4.7021740174
 30
0.0
 10
11.5785426469
 20
4.7125326992
 30
0.0
 10
11.5695845187
 20
4.7233175822
 30
0.0
 10
11.5612002271
 20
4.7345027022
 30
0.0
 10
11.5534100005
 20
4.7460611267
 30
0.0
 10
11.5462326387
 20
4.7579650191
 30
0.0
 10
11.5396854656
 20
4.7701857047
 30
0.0
 10
11.5337842863
 20
4.7826937405
 30
0.0
 10
11.52854335
 20
4.7954589868
 30
0.0
 10
11.5239753124
 20
4.8084506807
 30
0.0
 10
11.5200912127
 20
4.8216375035
 30
0.0
 10
11.5169004241
 20
4.8349876785
 30
0.0
 10
11.5144106813
 20
4.8484689653
 30
0.0
 10
11.51262796
 20
4.8620490209
 30
0.0
 10
11.511556625
 20
4.875694562
 30
0.0
 10
11.5113183368
 20
4.8848150359
 30
0.0
 10
11.5113183368
 20
4.8893736276
 30
0.0
  0
SPLINE
  5
3B4
100
AcDbEntity
  8
0
100
AcDbSpline
 62
9
  6
CONTINUOUS
 70
0
 71
3
 72
69
 73
65
 74
0
 42
0.0000001
 43
0.0000001
 44
0.0000000001
 40
0.0
 40
0.0
 40
0.0
 40
0.0
 40
0.0151363715
 40
0.0302776509
 40
0.0454284402
 40
0.060593527
 40
0.0757773761
 40
0.0909843288
 40
0.1062184577
 40
0.1214835618
 40
0.1367831169
 40
0.1521202456
 40
0.1674976868
 40
0.1829177714
 40
0.1983824023
 40
0.2138930385
 40
0.2294506852
 40
0.245055888
 40
0.2607087313
 40
0.2764088421
 40
0.2921553978
 40
0.3079471374
 40
0.3237823775
 40
0.3396590314
 40
0.3555746313
 40
0.3715263536
 40
0.3875110473
 40
0.403525264
 40
0.419565291
 40
0.4356271853
 40
0.4517068098
 40
0.4677998705
 40
0.5
 40
0.5322001295
 40
0.5482931902
 40
0.5643728147
 40
0.580434709
 40
0.596474736
 40
0.6124889527
 40
0.6284736464
 40
0.6444253687
 40
0.6603409686
 40
0.6762176225
 40
0.6920528626
 40
0.7078446022
 40
0.7235911579
 40
0.7392912687
 40
0.754944112
 40
0.7705493148
 40
0.7861069615
 40
0.8016175977
 40
0.8170822286
 40
0.8325023132
 40
0.8478797544
 40
0.8632168831
 40
0.8785164382
 40
0.8937815423
 40
0.9090156712
 40
0.9242226239
 40
0.939406473
 40
0.9545715598
 40
0.9697223491
 40
0.9848636285
 40
1.0
 40
1.0
 40
1.0
 40
1.0
 10
12.1454849713
 20
4.8824544284
 30
0.0
 10
12.1454849713
 20
4.8772628986
 30
0.0
 10
12.1452136008
 20
4.8668761123
 30
0.0
 10
12.1439935117
 20
4.8513359833
 30
0.0
 10
12.1419632791
 20
4.835870448
 30
0.0
 10
12.1391278496
 20
4.8205173899
 30
0.0
 10
12.1354940466
 20
4.805313655
 30
0.0
 10
12.1310706679
 20
4.790295951
 30
0.0
 10
12.1258683925
 20
4.7755004676
 30
0.0
 10
12.1198997911
 20
4.7609628715
 30
0.0
 10
12.1131792775
 20
4.7467181979
 30
0.0
 10
12.1057230804
 20
4.7328007714
 30
0.0
 10
12.0975492
 20
4.7192441219
 30
0.0
 10
12.0886773654
 20
4.7060809045
 30
0.0
 10
12.0791289852
 20
4.6933428209
 30
0.0
 10
12.0689270956
 20
4.6810605436
 30
0.0
 10
12.058096304
 20
4.6692636423
 30
0.0
 10
12.0466627294
 20
4.6579805137
 30
0.0
 10
12.0346539388
 20
4.6472383135
 30
0.0
 10
12.0220988807
 20
4.6370628911
 30
0.0
 10
12.0090278153
 20
4.6274787289
 30
0.0
 10
11.9954722408
 20
4.6185088835
 30
0.0
 10
11.981464818
 20
4.6101749313
 30
0.0
 10
11.9670392916
 20
4.6024969169
 30
0.0
 10
11.9522304088
 20
4.5954933055
 30
0.0
 10
11.9370738368
 20
4.5891809391
 30
0.0
 10
11.9216060739
 20
4.5835749962
 30
0.0
 10
11.9058643743
 20
4.5786889561
 30
0.0
 10
11.8898866115
 20
4.5745345658
 30
0.0
 10
11.8737113664
 20
4.5711218157
 30
0.0
 10
11.8573771631
 20
4.5684589014
 30
0.0
 10
11.835438598
 20
4.5659164569
 30
0.0
 10
11.8078183383
 20
4.5646415966
 30
0.0
 10
11.7801980786
 20
4.5659164569
 30
0.0
 10
11.7582595135
 20
4.5684589014
 30
0.0
 10
11.7419253102
 20
4.5711218157
 30
0.0
 10
11.7257500651
 20
4.5745345658
 30
0.0
 10
11.7097723023
 20
4.5786889561
 30
0.0
 10
11.6940306027
 20
4.5835749962
 30
0.0
 10
11.6785628398
 20
4.5891809391
 30
0.0
 10
11.6634062678
 20
4.5954933055
 30
0.0
 10
11.648597385
 20
4.6024969169
 30
0.0
 10
11.6341718586
 20
4.6101749313
 30
0.0
 10
11.6201644358
 20
4.6185088835
 30
0.0
 10
11.6066088613
 20
4.6274787289
 30
0.0
 10
11.5935377959
 20
4.6370628911
 30
0.0
 10
11.5809827378
 20
4.6472383135
 30
0.0
 10
11.5689739472
 20
4.6579805137
 30
0.0
 10
11.5575403726
 20
4.6692636423
 30
0.0
 10
11.546709581
 20
4.6810605436
 30
0.0
 10
11.5365076914
 20
4.6933428209
 30
0.0
 10
11.5269593112
 20
4.7060809045
 30
0.0
 10
11.5180874766
 20
4.7192441219
 30
0.0
 10
11.5099135963
 20
4.7328007714
 30
0.0
 10
11.5024573991
 20
4.7467181979
 30
0.0
 10
11.4957368855
 20
4.7609628715
 30
0.0
 10
11.4897682841
 20
4.7755004676
 30
0.0
 10
11.4845660087
 20
4.790295951
 30
0.0
 10
11.48014263
 20
4.805313655
 30
0.0
 10
11.476508827
 20
4.8205173899
 30
0.0
 10
11.4736733976
 20
4.835870448
 30
0.0
 10
11.4716431649
 20
4.8513359833
 30
0.0
 10
11.4704230758
 20
4.8668761123
 30
0.0
 10
11.4701517053
 20
4.8772628986
 30
0.0
 10
11.4701517053
 20
4.8824544284
 30
0.0
  0
SPLINE
  5
3B5
100
AcDbEntity
  8
0
100
AcDbSpline
 62
9
  6
CONTINUOUS
 70
0
 71
3
 72
15
 73
11
 74
0
 42
0.0000001
 43
0.0000001
 44
0.0000000001
 40
0.0
 40
0.0
 40
0.0
 40
0.0
 40
0.1260108355
 40
0.2516355423
 40
0.3769164962
 40
0.5019017494
 40
0.6266441898
 40
0.7512012057
 40
0.8756315805
 40
1.0
 40
1.0
 40
1.0
 40
1.0
 10
11.5041002237
 20
5.031031877
 30
0.0
 10
11.5006964754
 20
5.0251336076
 30
0.0
 10
11.4942748367
 20
5.0131337302
 30
0.0
 10
11.4858376329
 20
4.9945788992
 30
0.0
 10
11.4786420017
 20
4.975566421
 30
0.0
 10
11.4727163595
 20
4.9561706072
 30
0.0
 10
11.4680835165
 20
4.9364661553
 30
0.0
 10
11.4647614329
 20
4.9165289701
 30
0.0
 10
11.4627631311
 20
4.8964371186
 30
0.0
 10
11.4623181864
 20
4.8829872064
 30
0.0
 10
11.4623183406
 20
4.8762660411
 30
0.0
  0
SPLINE
  5
3B6
100
AcDbEntity
  8
0
100
AcDbSpline
 62
9
  6
CONTINUOUS
 70
0
 71
3
 72
35
 73
31
 74
0
 42
0.0000001
 43
0.0000001
 44
0.0000000001
 40
0.0
 40
0.0
 40
0.0
 40
0.0
 40
0.0302743851
 40
0.060558412
 40
0.0908616207
 40
0.1211933487
 40
0.1515626333
 40
0.1819781173
 40
0.2124479604
 40
0.2429797567
 40
0.2735804592
 40
0.3042563123
 40
0.3350127942
 40
0.3658545669
 40
0.3967854363
 40
0.4278083211
 40
0.4589252322
 40
0.4901372606
 40
0.5214445753
 40
0.5528464299
 40
0.5843411785
 40
0.6159262993
 40
0.6475984257
 40
0.6793533842
 40
0.7111862393
 40
0.7430913436
 40
0.8070750101
 40
0.8712648627
 40
0.9355962831
 40
1.0
 40
1.0
 40
1.0
 40
1.0
 10
12.0578183383
 20
5.1458887351
 30
0.0
 10
12.0578183383
 20
5.1420450465
 30
0.0
 10
12.0576174245
 20
5.1343549323
 30
0.0
 10
12.0567140912
 20
5.1228494051
 30
0.0
 10
12.0552109641
 20
5.111399115
 30
0.0
 10
12.0531116772
 20
5.1000320876
 30
0.0
 10
12.0504213042
 20
5.0887756208
 30
0.0
 10
12.0471463458
 20
5.0776568841
 30
0.0
 10
12.0432947136
 20
5.0667026741
 30
0.0
 10
12.0388757104
 20
5.0559393976
 30
0.0
 10
12.0339000072
 20
5.045392995
 30
0.0
 10
12.0283796209
 20
5.0350888788
 30
0.0
 10
12.0223278801
 20
5.0250518732
 30
0.0
 10
12.0157593925
 20
5.0153061546
 30
0.0
 10
12.0086900087
 20
5.0058751937
 30
0.0
 10
12.0011367838
 20
4.9967816996
 30
0.0
 10
11.9931179359
 20
4.9880475653
 30
0.0
 10
11.9846528017
 20
4.9796938159
 30
0.0
 10
11.97576179
 20
4.9717405581
 30
0.0
 10
11.9664663355
 20
4.9642069293
 30
0.0
 10
11.9567888413
 20
4.9571110541
 30
0.0
 10
11.9467526343
 20
4.9504700042
 30
0.0
 10
11.9363818726
 20
4.9442997473
 30
0.0
 10
11.9257016259
 20
4.9386151491
 30
0.0
 10
11.9147372959
 20
4.9334297876
 30
0.0
 10
11.8997633863
 20
4.9271933668
 30
0.0
 10
11.8804676555
 20
4.9207090263
 30
0.0
 10
11.8566424913
 20
4.915104517
 30
0.0
 10
11.8323495818
 20
4.9117199239
 30
0.0
 10
11.8159951461
 20
4.9109655799
 30
0.0
 10
11.8078183383
 20
4.9109655799
 30
0.0
  0
SPLINE
  5
3B7
100
AcDbEntity
  8
0
100
AcDbSpline
 62
9
  6
CONTINUOUS
 70
0
 71
3
 72
15
 73
11
 74
0
 42
0.0000001
 43
0.0000001
 44
0.0000000001
 40
0.0
 40
0.0
 40
0.0
 40
0.0
 40
0.1243684194
 40
0.2487987942
 40
0.3733558101
 40
0.4980982505
 40
0.6230835037
 40
0.7483644576
 40
0.8739891644
 40
1.0
 40
1.0
 40
1.0
 40
1.0
 10
12.153318336
 20
4.8762660411
 30
0.0
 10
12.1533184902
 20
4.8829872066
 30
0.0
 10
12.1528735455
 20
4.8964371193
 30
0.0
 10
12.1508752435
 20
4.9165289714
 30
0.0
 10
12.1475531597
 20
4.9364661572
 30
0.0
 10
12.1429203165
 20
4.9561706097
 30
0.0
 10
12.1369946739
 20
4.9755664241
 30
0.0
 10
12.1297990423
 20
4.9945789027
 30
0.0
 10
12.1213618379
 20
5.0131337342
 30
0.0
 10
12.1149401988
 20
5.0251336119
 30
0.0
 10
12.1115364503
 20
5.0310318814
 30
0.0
  0
SPLINE
  5
3B8
100
AcDbEntity
  8
0
100
AcDbSpline
 62
9
  6
CONTINUOUS
 70
0
 71
3
 72
15
 73
11
 74
0
 42
0.0000001
 43
0.0000001
 44
0.0000000001
 40
0.0
 40
0.0
 40
0.0
 40
0.0
 40
0.1244112957
 40
0.2488805205
 40
0.3734671114
 40
0.4982261994
 40
0.6232114262
 40
0.7484725623
 40
0.8740552032
 40
1.0
 40
1.0
 40
1.0
 40
1.0
 10
12.1531407168
 20
4.8766035876
 30
0.0
 10
12.1531407168
 20
4.8830746024
 30
0.0
 10
12.1527283264
 20
4.8960234282
 30
0.0
 10
12.150874893
 20
4.9153725028
 30
0.0
 10
12.1477932927
 20
4.9345834153
 30
0.0
 10
12.1434945438
 20
4.9535863445
 30
0.0
 10
12.1379941664
 20
4.9723133867
 30
0.0
 10
12.1313117882
 20
4.9906976223
 30
0.0
 10
12.1234718909
 20
5.0086723641
 30
0.0
 10
12.1175003629
 20
5.0203239193
 30
0.0
 10
12.1143337899
 20
5.0260585068
 30
0.0
  0
SPLINE
  5
3B9
100
AcDbEntity
  8
0
100
AcDbSpline
 62
9
  6
CONTINUOUS
 70
0
 71
3
 72
15
 73
11
 74
0
 42
0.0000001
 43
0.0000001
 44
0.0000000001
 40
0.0
 40
0.0
 40
0.0
 40
0.0
 40
0.1241914812
 40
0.2484642389
 40
0.3729005175
 40
0.4975763421
 40
0.6225634424
 40
0.7479267381
 40
0.8737230619
 40
1.0
 40
1.0
 40
1.0
 40
1.0
 10
12.1043183398
 20
4.8893736276
 30
0.0
 10
12.1043183398
 20
4.8959559836
 30
0.0
 10
12.1038211656
 20
4.9091304027
 30
0.0
 10
12.1015878538
 20
4.9287860778
 30
0.0
 10
12.0978782824
 20
4.9482445266
 30
0.0
 10
12.092711107
 20
4.967406422
 30
0.0
 10
12.0861125358
 20
4.9861756546
 30
0.0
 10
12.0781156983
 20
5.0044580602
 30
0.0
 10
12.0687617128
 20
5.0221606332
 30
0.0
 10
12.0616647203
 20
5.0334966322
 30
0.0
 10
12.0579099151
 20
5.0390370471
 30
0.0
  0
SPLINE
  5
3BA
100
AcDbEntity
  8
0
100
AcDbSpline
 62
9
  6
CONTINUOUS
 70
0
 71
3
 72
15
 73
11
 74
0
 42
0.0000001
 43
0.0000001
 44
0.0000000001
 40
0.0
 40
0.0
 40
0.0
 40
0.0
 40
0.126276938
 40
0.2520732619
 40
0.3774365576
 40
0.5024236579
 40
0.6270994825
 40
0.7515357611
 40
0.8758085188
 40
1.0
 40
1.0
 40
1.0
 40
1.0
 10
11.5577267614
 20
5.0390370471
 30
0.0
 10
11.5539719563
 20
5.0334966322
 30
0.0
 10
11.5468749637
 20
5.0221606332
 30
0.0
 10
11.5375209783
 20
5.0044580602
 30
0.0
 10
11.5295241408
 20
4.9861756546
 30
0.0
 10
11.5229255696
 20
4.9674064219
 30
0.0
 10
11.5177583942
 20
4.9482445266
 30
0.0
 10
11.5140488228
 20
4.9287860778
 30
0.0
 10
11.511815511
 20
4.9091304027
 30
0.0
 10
11.5113183368
 20
4.8959559836
 30
0.0
 10
11.5113183368
 20
4.8893736276
 30
0.0
  0
SPLINE
  5
3BB
100
AcDbEntity
  8
0
100
AcDbSpline
 62
9
  6
CONTINUOUS
 70
0
 71
3
 72
23
 73
19
 74
0
 42
0.0000001
 43
0.0000001
 44
0.0000000001
 40
0.0
 40
0.0
 40
0.0
 40
0.0
 40
0.061843178
 40
0.1237044842
 40
0.1855996124
 40
0.2475464857
 40
0.3095610356
 40
0.3716591875
 40
0.4338558851
 40
0.4961652288
 40
0.5586002745
 40
0.6211729388
 40
0.6838938964
 40
0.7467724938
 40
0.8098166756
 40
0.8730329252
 40
0.9364262199
 40
1.0
 40
1.0
 40
1.0
 40
1.0
 10
12.1454849713
 20
4.8824544284
 30
0.0
 10
12.1454849713
 20
4.8873264681
 30
0.0
 10
12.1452459871
 20
4.8970736641
 30
0.0
 10
12.1441714293
 20
4.9116613458
 30
0.0
 10
12.1423829886
 20
4.9261873908
 30
0.0
 10
12.1398845464
 20
4.9406204276
 30
0.0
 10
12.1366813643
 20
4.9549299841
 30
0.0
 10
12.132780287
 20
4.9690856214
 30
0.0
 10
12.1281895986
 20
4.9830573017
 30
0.0
 10
12.1229190674
 20
4.9968153605
 30
0.0
 10
12.1169798984
 20
5.010330595
 30
0.0
 10
12.110384721
 20
5.0235743216
 30
0.0
 10
12.103147559
 20
5.0365184361
 30
0.0
 10
12.0952837909
 20
5.0491354811
 30
0.0
 10
12.0868101492
 20
5.0613986697
 30
0.0
 10
12.0777445612
 20
5.0732820721
 30
0.0
 10
12.0681065739
 20
5.0847601814
 30
0.0
 10
12.0613222858
 20
5.0921160647
 30
0.0
 10
12.0578426489
 20
5.0957182822
 30
0.0
  0
SPLINE
  5
3BC
100
AcDbEntity
  8
0
100
AcDbSpline
 62
9
  6
CONTINUOUS
 70
0
 71
3
 72
23
 73
19
 74
0
 42
0.0000001
 43
0.0000001
 44
0.0000000001
 40
0.0
 40
0.0
 40
0.0
 40
0.0
 40
0.0635737801
 40
0.1269670748
 40
0.1901833244
 40
0.2532275062
 40
0.3161061036
 40
0.3788270612
 40
0.4413997255
 40
0.5038347712
 40
0.5661441149
 40
0.6283408125
 40
0.6904389644
 40
0.7524535143
 40
0.8144003876
 40
0.8762955158
 40
0.938156822
 40
1.0
 40
1.0
 40
1.0
 40
1.0
 10
11.5577940277
 20
5.0957182822
 30
0.0
 10
11.5543143907
 20
5.0921160647
 30
0.0
 10
11.5475301027
 20
5.0847601814
 30
0.0
 10
11.5378921154
 20
5.0732820721
 30
0.0
 10
11.5288265274
 20
5.0613986697
 30
0.0
 10
11.5203528857
 20
5.0491354811
 30
0.0
 10
11.5124891175
 20
5.036518436
 30
0.0
 10
11.5052519556
 20
5.0235743215
 30
0.0
 10
11.4986567782
 20
5.0103305949
 30
0.0
 10
11.4927176092
 20
4.9968153605
 30
0.0
 10
11.487447078
 20
4.9830573017
 30
0.0
 10
11.4828563896
 20
4.9690856214
 30
0.0
 10
11.4789553123
 20
4.9549299841
 30
0.0
 10
11.4757521302
 20
4.9406204275
 30
0.0
 10
11.473253688
 20
4.9261873908
 30
0.0
 10
11.4714652473
 20
4.9116613457
 30
0.0
 10
11.4703906895
 20
4.8970736641
 30
0.0
 10
11.4701517053
 20
4.8873264681
 30
0.0
 10
11.4701517053
 20
4.8824544284
 30
0.0
  0
SPLINE
  5
3BD
100
AcDbEntity
  8
0
100
AcDbSpline
 62
9
  6
CONTINUOUS
 70
0
 71
3
 72
23
 73
19
 74
0
 42
0.0000001
 43
0.0000001
 44
0.0000000001
 40
0.0
 40
0.0
 40
0.0
 40
0.0
 40
0.0616103385
 40
0.1235461117
 40
0.1857821705
 40
0.2482839597
 40
0.311008718
 40
0.3739068689
 40
0.4369235847
 40
0.5000004773
 40
0.5630773524
 40
0.6260940161
 40
0.6889920818
 40
0.7517167246
 40
0.8142183712
 40
0.8764542649
 40
0.9383898557
 40
1.0
 40
1.0
 40
1.0
 40
1.0
 10
11.9957169698
 20
4.595892539
 30
0.0
 10
11.989293542
 20
4.590547521
 30
0.0
 10
11.9759227985
 20
4.5804033878
 30
0.0
 10
11.9545504403
 20
4.5669965451
 30
0.0
 10
11.9319751087
 20
4.5554608353
 30
0.0
 10
11.9083839295
 20
4.5458920014
 30
0.0
 10
11.8839695969
 20
4.5383675699
 30
0.0
 10
11.8589321503
 20
4.5329489909
 30
0.0
 10
11.8334764781
 20
4.5296803366
 30
0.0
 10
11.8078108818
 20
4.5285882355
 30
0.0
 10
11.7821453466
 20
4.5296816039
 30
0.0
 10
11.7566898569
 20
4.5329515151
 30
0.0
 10
11.7316527129
 20
4.5383713305
 30
0.0
 10
11.7072388004
 20
4.5458969677
 30
0.0
 10
11.6836481556
 20
4.5554669669
 30
0.0
 10
11.6610734684
 20
4.5670037921
 30
0.0
 10
11.6397018591
 20
4.5804116908
 30
0.0
 10
11.6263316814
 20
4.5905564857
 30
0.0
 10
11.6199085523
 20
4.5959018214
 30
0.0
  0
SPLINE
  5
3BE
100
AcDbEntity
  8
0
100
AcDbSpline
 62
7
  6
CONTINUOUS
 70
0
 71
3
 72
35
 73
31
 74
0
 42
0.0000001
 43
0.0000001
 44
0.0000000001
 40
0.0
 40
0.0
 40
0.0
 40
0.0
 40
0.0302743851
 40
0.060558412
 40
0.0908616207
 40
0.1211933487
 40
0.1515626333
 40
0.1819781173
 40
0.2124479604
 40
0.2429797567
 40
0.2735804592
 40
0.3042563123
 40
0.3350127942
 40
0.3658545669
 40
0.3967854363
 40
0.4278083211
 40
0.4589252322
 40
0.4901372606
 40
0.5214445753
 40
0.5528464299
 40
0.5843411785
 40
0.6159262993
 40
0.6475984257
 40
0.6793533842
 40
0.7111862393
 40
0.7430913436
 40
0.8070750101
 40
0.8712648627
 40
0.9355962831
 40
1.0
 40
1.0
 40
1.0
 40
1.0
 10
12.0578183383
 20
4.8893736276
 30
0.0
 10
12.0578183383
 20
4.885529939
 30
0.0
 10
12.0576174245
 20
4.8778398248
 30
0.0
 10
12.0567140912
 20
4.8663342976
 30
0.0
 10
12.0552109641
 20
4.8548840076
 30
0.0
 10
12.0531116772
 20
4.8435169801
 30
0.0
 10
12.0504213042
 20
4.8322605133
 30
0.0
 10
12.0471463458
 20
4.8211417766
 30
0.0
 10
12.0432947136
 20
4.8101875666
 30
0.0
 10
12.0388757104
 20
4.7994242901
 30
0.0
 10
12.0339000072
 20
4.7888778875
 30
0.0
 10
12.0283796209
 20
4.7785737713
 30
0.0
 10
12.0223278801
 20
4.7685367657
 30
0.0
 10
12.0157593925
 20
4.7587910471
 30
0.0
 10
12.0086900087
 20
4.7493600862
 30
0.0
 10
12.0011367838
 20
4.7402665921
 30
0.0
 10
11.9931179359
 20
4.7315324578
 30
0.0
 10
11.9846528017
 20
4.7231787084
 30
0.0
 10
11.97576179
 20
4.7152254506
 30
0.0
 10
11.9664663355
 20
4.7076918218
 30
0.0
 10
11.9567888413
 20
4.7005959466
 30
0.0
 10
11.9467526343
 20
4.6939548967
 30
0.0
 10
11.9363818726
 20
4.6877846398
 30
0.0
 10
11.9257016259
 20
4.6821000416
 30
0.0
 10
11.9147372959
 20
4.6769146801
 30
0.0
 10
11.8997633863
 20
4.6706782593
 30
0.0
 10
11.8804676555
 20
4.6641939189
 30
0.0
 10
11.8566424913
 20
4.6585894095
 30
0.0
 10
11.8323495818
 20
4.6552048164
 30
0.0
 10
11.8159951461
 20
4.6544504724
 30
0.0
 10
11.8078183383
 20
4.6544504724
 30
0.0
  0
SPLINE
  5
3BF
100
AcDbEntity
  8
0
100
AcDbSpline
 62
7
  6
CONTINUOUS
 70
0
 71
3
 72
35
 73
31
 74
0
 42
0.0000001
 43
0.0000001
 44
0.0000000001
 40
0.0
 40
0.0
 40
0.0
 40
0.0
 40
0.0644037169
 40
0.1287351373
 40
0.1929249899
 40
0.2569086564
 40
0.2888137607
 40
0.3206466158
 40
0.3524015743
 40
0.3840737007
 40
0.4156588215
 40
0.4471535701
 40
0.4785554247
 40
0.5098627394
 40
0.5410747678
 40
0.5721916789
 40
0.6032145637
 40
0.6341454331
 40
0.6649872058
 40
0.6957436877
 40
0.7264195408
 40
0.7570202433
 40
0.7875520396
 40
0.8180218827
 40
0.8484373667
 40
0.8788066513
 40
0.9091383793
 40
0.939441588
 40
0.9697256149
 40
1.0
 40
1.0
 40
1.0
 40
1.0
 10
11.8078183383
 20
4.6544504724
 30
0.0
 10
11.7996415304
 20
4.6544504724
 30
0.0
 10
11.7832870947
 20
4.6552048164
 30
0.0
 10
11.7589941852
 20
4.6585894095
 30
0.0
 10
11.7351690211
 20
4.6641939189
 30
0.0
 10
11.7158732903
 20
4.6706782593
 30
0.0
 10
11.7008993807
 20
4.6769146801
 30
0.0
 10
11.6899350506
 20
4.6821000416
 30
0.0
 10
11.679254804
 20
4.6877846398
 30
0.0
 10
11.6688840423
 20
4.6939548967
 30
0.0
 10
11.6588478353
 20
4.7005959466
 30
0.0
 10
11.649170341
 20
4.7076918218
 30
0.0
 10
11.6398748865
 20
4.7152254506
 30
0.0
 10
11.6309838748
 20
4.7231787084
 30
0.0
 10
11.6225187407
 20
4.7315324578
 30
0.0
 10
11.6144998928
 20
4.7402665921
 30
0.0
 10
11.6069466679
 20
4.7493600862
 30
0.0
 10
11.5998772841
 20
4.7587910471
 30
0.0
 10
11.5933087964
 20
4.7685367657
 30
0.0
 10
11.5872570557
 20
4.7785737713
 30
0.0
 10
11.5817366694
 20
4.7888778875
 30
0.0
 10
11.5767609661
 20
4.7994242901
 30
0.0
 10
11.572341963
 20
4.8101875666
 30
0.0
 10
11.5684903308
 20
4.8211417766
 30
0.0
 10
11.5652153724
 20
4.8322605133
 30
0.0
 10
11.5625249994
 20
4.8435169801
 30
0.0
 10
11.5604257125
 20
4.8548840076
 30
0.0
 10
11.5589225854
 20
4.8663342976
 30
0.0
 10
11.558019252
 20
4.8778398248
 30
0.0
 10
11.5578183383
 20
4.885529939
 30
0.0
 10
11.5578183383
 20
4.8893736276
 30
0.0
  0
SPLINE
  5
3C0
100
AcDbEntity
  8
0
100
AcDbSpline
 62
9
  6
CONTINUOUS
 70
0
 71
3
 72
35
 73
31
 74
0
 42
0.0000001
 43
0.0000001
 44
0.0000000001
 40
0.0
 40
0.0
 40
0.0
 40
0.0
 40
0.0644037169
 40
0.1287351373
 40
0.1929249899
 40
0.2569086564
 40
0.2888137607
 40
0.3206466158
 40
0.3524015743
 40
0.3840737007
 40
0.4156588215
 40
0.4471535701
 40
0.4785554247
 40
0.5098627394
 40
0.5410747678
 40
0.5721916789
 40
0.6032145637
 40
0.6341454331
 40
0.6649872058
 40
0.6957436877
 40
0.7264195408
 40
0.7570202433
 40
0.7875520396
 40
0.8180218827
 40
0.8484373667
 40
0.8788066513
 40
0.9091383793
 40
0.939441588
 40
0.9697256149
 40
1.0
 40
1.0
 40
1.0
 40
1.0
 10
11.8078183383
 20
4.9109655799
 30
0.0
 10
11.7996415304
 20
4.9109655799
 30
0.0
 10
11.7832870947
 20
4.9117199239
 30
0.0
 10
11.7589941852
 20
4.915104517
 30
0.0
 10
11.7351690211
 20
4.9207090263
 30
0.0
 10
11.7158732903
 20
4.9271933668
 30
0.0
 10
11.7008993807
 20
4.9334297876
 30
0.0
 10
11.6899350506
 20
4.9386151491
 30
0.0
 10
11.679254804
 20
4.9442997473
 30
0.0
 10
11.6688840423
 20
4.9504700042
 30
0.0
 10
11.6588478353
 20
4.9571110541
 30
0.0
 10
11.649170341
 20
4.9642069293
 30
0.0
 10
11.6398748865
 20
4.9717405581
 30
0.0
 10
11.6309838748
 20
4.9796938159
 30
0.0
 10
11.6225187407
 20
4.9880475653
 30
0.0
 10
11.6144998928
 20
4.9967816996
 30
0.0
 10
11.6069466679
 20
5.0058751937
 30
0.0
 10
11.5998772841
 20
5.0153061546
 30
0.0
 10
11.5933087964
 20
5.0250518732
 30
0.0
 10
11.5872570557
 20
5.0350888788
 30
0.0
 10
11.5817366694
 20
5.045392995
 30
0.0
 10
11.5767609661
 20
5.0559393976
 30
0.0
 10
11.572341963
 20
5.0667026741
 30
0.0
 10
11.5684903308
 20
5.0776568841
 30
0.0
 10
11.5652153724
 20
5.0887756208
 30
0.0
 10
11.5625249994
 20
5.1000320876
 30
0.0
 10
11.5604257125
 20
5.111399115
 30
0.0
 10
11.5589225854
 20
5.1228494051
 30
0.0
 10
11.558019252
 20
5.1343549323
 30
0.0
 10
11.5578183383
 20
5.1420450465
 30
0.0
 10
11.5578183383
 20
5.1458887351
 30
0.0
  0
SPLINE
  5
3C1
100
AcDbEntity
  8
0
100
AcDbSpline
 62
9
  6
CONTINUOUS
 70
0
 71
3
 72
63
 73
59
 74
0
 42
0.0000001
 43
0.0000001
 44
0.0000000001
 40
0.0
 40
0.0
 40
0.0
 40
0.0
 40
0.015121482
 40
0.0302549068
 40
0.0454042128
 40
0.0605734108
 40
0.0757662671
 40
0.0909863373
 40
0.1062369224
 40
0.1215210398
 40
0.1368413985
 40
0.1522003756
 40
0.1675999976
 40
0.1830419246
 40
0.1985274382
 40
0.2140574338
 40
0.2296324155
 40
0.2452524958
 40
0.2609173977
 40
0.2766264603
 40
0.2923786477
 40
0.3081725607
 40
0.3240064514
 40
0.3398782401
 40
0.3557855352
 40
0.3717256551
 40
0.4036845087
 40
0.4357363743
 40
0.4678519368
 40
0.4999998597
 40
0.532147785
 40
0.5642633546
 40
0.5963152316
 40
0.6282741008
 40
0.6442142298
 40
0.6601215349
 40
0.6759933342
 40
0.6918272363
 40
0.7076211612
 40
0.723373361
 40
0.7390824363
 40
0.7547473512
 40
0.7703674446
 40
0.7859424394
 40
0.801472448
 40
0.8169579745
 40
0.832399914
 40
0.8477995481
 40
0.8631585368
 40
0.8784789064
 40
0.893763034
 40
0.9090136284
 40
0.9242337071
 40
0.9394265707
 40
0.954595775
 40
0.9697450863
 40
0.9848785151
 40
1.0
 40
1.0
 40
1.0
 40
1.0
 10
12.1210266957
 20
4.731834931
 30
0.0
 10
12.1206283396
 20
4.7272690888
 30
0.0
 10
12.1196050314
 20
4.7181519218
 30
0.0
 10
12.117395565
 20
4.7045634467
 30
0.0
 10
12.1145157281
 20
4.6910859672
 30
0.0
 10
12.1109718443
 20
4.6777491589
 30
0.0
 10
12.1067715802
 20
4.6645817853
 30
0.0
 10
12.101924059
 20
4.6516124
 30
0.0
 10
12.0964398
 20
4.6388690813
 30
0.0
 10
12.0903307025
 20
4.6263794253
 30
0.0
 10
12.0836100185
 20
4.6141704721
 30
0.0
 10
12.0762923232
 20
4.6022686509
 30
0.0
 10
12.0683934831
 20
4.5906997228
 30
0.0
 10
12.0599306212
 20
4.5794887246
 30
0.0
 10
12.0509220793
 20
4.5686599159
 30
0.0
 10
12.0413873813
 20
4.5582367238
 30
0.0
 10
12.0313471881
 20
4.5482416939
 30
0.0
 10
12.0208232509
 20
4.5386964432
 30
0.0
 10
12.0098383646
 20
4.5296216135
 30
0.0
 10
11.9984163191
 20
4.5210368277
 30
0.0
 10
11.9865818445
 20
4.5129606467
 30
0.0
 10
11.9743605692
 20
4.5054105329
 30
0.0
 10
11.9617789235
 20
4.4984028025
 30
0.0
 10
11.9488642365
 20
4.4919526267
 30
0.0
 10
11.9356441075
 20
4.4860738488
 30
0.0
 10
11.9176358899
 20
4.4790092546
 30
0.0
 10
11.8945049307
 20
4.4716713607
 30
0.0
 10
11.8660298439
 20
4.4653344445
 30
0.0
 10
11.8370511747
 20
4.4615100043
 30
0.0
 10
11.807820469
 20
4.4602314757
 30
0.0
 10
11.7785897449
 20
4.4615096324
 30
0.0
 10
11.7496110206
 20
4.4653337038
 30
0.0
 10
11.7211358427
 20
4.4716702577
 30
0.0
 10
11.6980047785
 20
4.479007857
 30
0.0
 10
11.6799964597
 20
4.4860722217
 30
0.0
 10
11.666776246
 20
4.4919508313
 30
0.0
 10
11.653861466
 20
4.4984008427
 30
0.0
 10
11.6412797193
 20
4.505408413
 30
0.0
 10
11.6290583352
 20
4.5129583711
 30
0.0
 10
11.6172237443
 20
4.5210344014
 30
0.0
 10
11.605801575
 20
4.5296190418
 30
0.0
 10
11.594816558
 20
4.5386937316
 30
0.0
 10
11.5842924832
 20
4.5482388483
 30
0.0
 10
11.5742521459
 20
4.5582337504
 30
0.0
 10
11.5647172977
 20
4.5686568211
 30
0.0
 10
11.5557085997
 20
4.579485515
 30
0.0
 10
11.5472455762
 20
4.5906964055
 30
0.0
 10
11.5393465693
 20
4.602265233
 30
0.0
 10
11.5320287025
 20
4.6141669609
 30
0.0
 10
11.5253078425
 20
4.6263758286
 30
0.0
 10
11.5191985649
 20
4.6388654068
 30
0.0
 10
11.5137141222
 20
4.6516086556
 30
0.0
 10
11.5088664141
 20
4.6645779791
 30
0.0
 10
11.5046659601
 20
4.6777452992
 30
0.0
 10
11.501121884
 20
4.6910820623
 30
0.0
 10
11.4982418528
 20
4.7045595052
 30
0.0
 10
11.4960321904
 20
4.7181479521
 30
0.0
 10
11.4950087507
 20
4.7272651065
 30
0.0
 10
11.4946103288
 20
4.7318309438
 30
0.0
  0
ENDSEC
  0
SECTION
  2
OBJECTS
  0
DICTIONARY
  5
C
100
AcDbDictionary
280
0
281
1
  3
ACAD_GROUP
350
D
  3
ACAD_MLINESTYLE
350
17
  3
ACAD_LAYOUT
350
1A
  3
ACAD_PLOTSETTINGS
350
19
  3
ACAD_PLOTSTYLENAME
350
E
  0
DICTIONARY
  5
D
102
{ACAD_REACTORS
330
C
102
}
100
AcDbDictionary
280
0
281
1
  0
ACDBDICTIONARYWDFLT
  5
E
102
{ACAD_REACTORS
330
C
102
}
100
AcDbDictionary
281
1
  3
Normal
350
F
100
AcDbDictionaryWithDefault
340
F
  0
DICTIONARY
  5
17
102
{ACAD_REACTORS
330
C
102
}
100
AcDbDictionary
280
0
281
1
  3
Standard
350
18
  0
DICTIONARY
  5
19
102
{ACAD_REACTORS
330
C
102
}
100
AcDbDictionary
281
1
  0
DICTIONARY
  5
1A
102
{ACAD_REACTORS
330
C
102
}
100
AcDbDictionary
281
1
  3
Model
350
3C2
  3
Layout1
350
3C3
  0
ACDBPLACEHOLDER
  5
F
102
{ACAD_REACTORS
330
E
102
}
  0
MLINESTYLE
  5
18
102
{ACAD_REACTORS
330
17
102
}
100
AcDbMlineStyle
  2
STANDARD
 70
0
  3

 62
256
 51
90.0
 52
90.0
 71
2
 49
0.5
 62
256
  6
BYLAYER
 49
-0.5
 62
256
  6
BYLAYER
  0
LAYOUT
  5
3C2
102
{ACAD_REACTORS
330
1A
102
}
100
AcDbPlotSettings
  1

  2
none_device
  4
ANSI_C_(22.00_x_17.00_Inches)
  6

 40
0.0
 41
0.0
 42
0.0
 43
0.0
 44
558.8
 45
431.8
 46
0.0
 47
0.0
 48
0.0
 49
0.0
140
0.0
141
0.0
142
1.0
143
1.0
 70
1024
 72
0
 73
0
 74
0
  7

 75
0
147
1.0
148
0.0
149
0.0
100
AcDbLayout
  1
Model
 70
0
 71
0
 10
0.0
 20
0.0
 11
22.0
 21
17.0
 12
0.0
 22
0.0
 32
0.0
 14
0.0
 24
0.0
 34
0.0
 15
0.0
 25
0.0
 35
0.0
146
0.0
 13
0.0
 23
0.0
 33
0.0
 16
1.0
 26
0.0
 36
0.0
 17
0.0
 27
1.0
 37
0.0
 76
0
330
205
345
0
346
0
  0
LAYOUT
  5
3C3
102
{ACAD_REACTORS
330
1A
102
}
100
AcDbPlotSettings
  1

  2
none_device
  4
ANSI_C_(22.00_x_17.00_Inches)
  6

 40
0.0
 41
0.0
 42
0.0
 43
0.0
 44
558.8
 45
431.8
 46
0.0
 47
0.0
 48
0.0
 49
0.0
140
0.0
141
0.0
142
1.0
143
1.0
 70
0
 72
0
 73
0
 74
0
  7

 75
0
147
1.0
148
0.0
149
0.0
100
AcDbLayout
  1
Layout1
 70
0
 71
1
 10
0.0
 20
0.0
 11
22.0
 21
17.0
 12
0.0
 22
0.0
 32
0.0
 14
0.0
 24
0.0
 34
0.0
 15
0.0
 25
0.0
 35
0.0
146
0.0
 13
0.0
 23
0.0
 33
0.0
 16
1.0
 26
0.0
 36
0.0
 17
0.0
 27
1.0
 37
0.0
 76
0
330
206
345
0
346
0
  0
ENDSEC
  0
EOF
