999
DXF file: E:\BT Custom\CADOUTPUT\_TOP.dxf
999
Pro/ENGINEER 2018400 by Parametric Technology Corporation
  0
SECTION
  2
HEADER
  9
$ACADVER
  1
AC1018
  9
$DWGCODEPAGE
  3
ANSI_1252
  9
$EXTMAX
 10
22.0
 20
17.0
 30
0.0
  9
$EXTMIN
 10
0.0
 20
0.0
 30
0.0
  9
$LIMMIN
 10
0.0
 20
0.0
  9
$LIMMAX
 10
22.0
 20
17.0
  9
$VIEWCTR
 10
11.0
 20
8.5
  9
$VIEWSIZE
 40
17.0
  9
$CLAYER
  8
0
  9
$LTSCALE
 40
1.21
  9
$CELTYPE
  6
BYLAYER
  9
$DIMSCALE
 40
1.0
  9
$DIMASZ
 40
0.1
  9
$DIMEXO
 40
0.0625
  9
$DIMDLI
 40
0.836
  9
$DIMEXE
 40
0.125
  9
$DIMCEN
 40
0.198
  9
$DIMLFAC
 40
1.0
  9
$DIMBLK
  1
_FILLED
  9
$DIMALT
 70
1
  9
$DIMALTD
 70
2
  9
$DIMALTTD
 70
2
  9
$DIMALTF
 40
25.4
  9
$DIMTXT
 40
0.08
  9
$DIMTOL
 70
1
  9
$DIMLIM
 70
0
  9
$DIMTFAC
 40
1.0
  9
$DIMTP
 40
0.001
  9
$DIMTM
 40
0.001
  9
$DIMGAP
 40
0.09
  9
$DIMDSEP
 70
46
  9
$AUNITS
 70
0
  9
$PDMODE
 70
3
  9
$PDSIZE
 40
0.06
  9
$HANDSEED
  5
319
  9
$TILEMODE
 70
1
  9
$MEASUREMENT
 70
0
  9
$INSUNITS
 70
1
  0
ENDSEC
  0
SECTION
  2
CLASSES
  0
CLASS
  1
ACDBDICTIONARYWDFLT
  2
AcDbDictionaryWithDefault
  3
AutoCAD 2000
 90
0
 91
1
280
0
281
0
  0
CLASS
  1
ACDBPLACEHOLDER
  2
AcDbPlaceHolder
  3
AutoCAD 2000
 90
0
 91
1
280
0
281
0
  0
CLASS
  1
LAYOUT
  2
AcDbLayout
  3
AutoCAD 2000
 90
0
 91
0
280
0
281
0
  0
ENDSEC
  0
SECTION
  2
TABLES
  0
TABLE
  2
VPORT
  5
8
100
AcDbSymbolTable
 70
2
  0
VPORT
  5
1F4
100
AcDbSymbolTableRecord
100
AcDbViewportTableRecord
  2
*ACTIVE
 70
0
 10
0.0
 20
0.0
 11
1.0
 21
1.0
 12
11.0
 22
8.5
 13
0.0
 23
0.0
 14
1.0
 24
1.0
 15
0.0
 25
0.0
 16
0.0
 26
0.0
 36
1.0
 17
0.0
 27
0.0
 37
0.0
 40
17.0
 41
1.2941176471
 42
50.0
 43
0.0
 44
0.0
 50
0.0
 51
0.0
 71
0
 72
100
 73
1
 74
1
 75
0
 76
0
 77
0
 78
0
  0
ENDTAB
  0
TABLE
  2
LTYPE
  5
5
100
AcDbSymbolTable
 70
6
  0
LTYPE
  5
14
100
AcDbSymbolTableRecord
100
AcDbLinetypeTableRecord
  2
BYBLOCK
 70
0
  3

 72
65
 73
0
 40
0.0
  0
LTYPE
  5
15
100
AcDbSymbolTableRecord
100
AcDbLinetypeTableRecord
  2
BYLAYER
 70
0
  3

 72
65
 73
0
 40
0.0
  0
LTYPE
  5
16
100
AcDbSymbolTableRecord
100
AcDbLinetypeTableRecord
  2
CONTINUOUS
 70
64
  3
Solid line
 72
65
 73
0
 40
0.0
  0
LTYPE
  5
1F5
100
AcDbSymbolTableRecord
100
AcDbLinetypeTableRecord
  2
CENTER
 70
64
  3
____ _ ____ _ ____ _ ____ _ ____ _ ____ _ ____
 72
65
 73
4
 40
0.6
 49
0.375
 74
0
 49
-0.075
 74
0
 49
0.075
 74
0
 49
-0.075
 74
0
  0
LTYPE
  5
1F6
100
AcDbSymbolTableRecord
100
AcDbLinetypeTableRecord
  2
HIDDEN
 70
64
  3
- - - - - - - - - - - - - - - - - - - -
 72
65
 73
2
 40
0.2
 49
0.1
 74
0
 49
-0.1
 74
0
  0
LTYPE
  5
1F7
100
AcDbSymbolTableRecord
100
AcDbLinetypeTableRecord
  2
PHANTOM
 70
64
  3
_____ _ _ _____ _ _ _____ _ _ _____
 72
65
 73
6
 40
0.8
 49
0.45
 74
0
 49
-0.05
 74
0
 49
0.1
 74
0
 49
-0.05
 74
0
 49
0.1
 74
0
 49
-0.05
 74
0
  0
LTYPE
  5
1F8
100
AcDbSymbolTableRecord
100
AcDbLinetypeTableRecord
  2
DOT
 70
64
  3
. . . . . . . . . . . . . . . . . . . .
 72
65
 73
2
 40
0.2
 49
0.1
 74
0
 49
-0.1
 74
0
  0
LTYPE
  5
1F9
100
AcDbSymbolTableRecord
100
AcDbLinetypeTableRecord
  2
DASHED
 70
64
  3
- - - - - - - - - - - - - - - - - - - -
 72
65
 73
2
 40
0.2
 49
0.1
 74
0
 49
-0.1
 74
0
  0
ENDTAB
  0
TABLE
  2
LAYER
  5
2
100
AcDbSymbolTable
 70
36
  0
LAYER
  5
10
100
AcDbSymbolTableRecord
100
AcDbLayerTableRecord
  2
0
 70
0
 62
7
  6
CONTINUOUS
370
-3
390
F
  0
LAYER
  5
1FA
100
AcDbSymbolTableRecord
100
AcDbLayerTableRecord
  2
DEFAULT_1
 70
0
 62
7
  6
CENTER
370
-3
390
F
  0
LAYER
  5
1FB
100
AcDbSymbolTableRecord
100
AcDbLayerTableRecord
  2
DEFAULT_2
 70
0
 62
8
  6
HIDDEN
370
-3
390
F
  0
LAYER
  5
1FC
100
AcDbSymbolTableRecord
100
AcDbLayerTableRecord
  2
DEFAULT_3
 70
0
 62
7
  6
PHANTOM
370
-3
390
F
  0
LAYER
  5
1FD
100
AcDbSymbolTableRecord
100
AcDbLayerTableRecord
  2
ALL_FEATURES
 70
0
 62
7
  6
CONTINUOUS
370
-3
390
F
  0
LAYER
  5
1FE
100
AcDbSymbolTableRecord
100
AcDbLayerTableRecord
  2
AXES_FEATURES
 70
0
 62
7
  6
CONTINUOUS
370
-3
390
F
  0
LAYER
  5
1FF
100
AcDbSymbolTableRecord
100
AcDbLayerTableRecord
  2
DEFAULT_COORDINATE_SYSTEM
 70
0
 62
7
  6
CONTINUOUS
370
-3
390
F
  0
LAYER
  5
200
100
AcDbSymbolTableRecord
100
AcDbLayerTableRecord
  2
DEFAULT_DATUM_AXES
 70
0
 62
7
  6
CONTINUOUS
370
-3
390
F
  0
LAYER
  5
201
100
AcDbSymbolTableRecord
100
AcDbLayerTableRecord
  2
DEFAULT_DATUM_PLANES
 70
0
 62
7
  6
CONTINUOUS
370
-3
390
F
  0
LAYER
  5
202
100
AcDbSymbolTableRecord
100
AcDbLayerTableRecord
  2
DIMENSIONS
 70
0
 62
7
  6
CONTINUOUS
370
-3
390
F
  0
ENDTAB
  0
TABLE
  2
STYLE
  5
3
100
AcDbSymbolTable
 70
1
  0
STYLE
  5
11
100
AcDbSymbolTableRecord
100
AcDbTextStyleTableRecord
  2
STANDARD
 70
0
 40
0.0
 41
0.8
 50
0.0
 71
0
 42
0.2
  3
txt
  4

  0
STYLE
  5
203
100
AcDbSymbolTableRecord
100
AcDbTextStyleTableRecord
  2
TEXTSTYLE_1
 70
0
 40
0.0
 41
0.8
 50
0.0
 71
0
 42
0.2
  3
gdt
  4

  0
ENDTAB
  0
TABLE
  2
VIEW
  5
6
100
AcDbSymbolTable
 70
0
  0
ENDTAB
  0
TABLE
  2
UCS
  5
7
100
AcDbSymbolTable
 70
0
  0
ENDTAB
  0
TABLE
  2
APPID
  5
9
100
AcDbSymbolTable
 70
1
  0
APPID
  5
204
100
AcDbSymbolTableRecord
100
AcDbRegAppTableRecord
  2
ACAD
 70
0
  0
ENDTAB
  0
TABLE
  2
BLOCK_RECORD
  5
1
100
AcDbSymbolTable
 70
0
  0
BLOCK_RECORD
  5
205
100
AcDbSymbolTableRecord
100
AcDbBlockTableRecord
  2
*Model_Space
  0
BLOCK_RECORD
  5
206
100
AcDbSymbolTableRecord
100
AcDbBlockTableRecord
  2
*Paper_Space
  0
BLOCK_RECORD
  5
207
100
AcDbSymbolTableRecord
100
AcDbBlockTableRecord
  2
_FILLED
  0
ENDTAB
  0
TABLE
  2
DIMSTYLE
  5
A
100
AcDbSymbolTable
 70
1
100
AcDbDimStyleTable
 71
0
  0
DIMSTYLE
105
208
100
AcDbSymbolTableRecord
100
AcDbDimStyleTableRecord
  2
STANDARD
 70
0
  3

  4

 40
1.0
 41
0.1
 42
0.0625
 43
0.38
 44
0.125
 45
0.0
 46
0.0
 47
0.001
 48
0.001
140
0.08
141
0.09
142
0.0
143
25.4
144
1.0
145
0.0
146
1.0
147
0.09
 71
1.0
 72
0.0
 73
1
 74
1
 75
0
 76
0
 77
0
 78
4
 79
1
170
1
171
2
172
0
173
0
174
0
175
0
176
0
177
0
178
0
270
2
179
3
271
3
272
3
273
2
274
2
275
0
280
0
281
0
282
0
283
1
284
4
285
0
286
0
287
3
288
0
340
11
278
46
341
207
342
207
343
207
344
207
  0
ENDTAB
  0
ENDSEC
  0
SECTION
  2
BLOCKS
  0
BLOCK
  5
20
100
AcDbEntity
  8
0
100
AcDbBlockBegin
  2
*Model_Space
 70
0
 10
0.0
 20
0.0
 30
0.0
  3
*Model_Space
  1

  0
ENDBLK
  5
21
100
AcDbEntity
  8
0
100
AcDbBlockEnd
  0
BLOCK
  5
1C
100
AcDbEntity
  8
0
100
AcDbBlockBegin
  2
*Paper_Space
 70
0
 10
0.0
 20
0.0
 30
0.0
  3
*Paper_Space
  1

  0
ENDBLK
  5
1D
100
AcDbEntity
  8
0
100
AcDbBlockEnd
  0
BLOCK
  5
209
100
AcDbEntity
  8
0
100
AcDbBlockBegin
  2
_FILLED
 70
64
 10
0.0
 20
0.0
  3
_FILLED
  1

  0
SOLID
  5
20A
100
AcDbEntity
  8
0
  6
BYBLOCK
 62
0
100
AcDbTrace
 10
0.0
 20
0.0
 11
-1.0
 21
0.2
 12
-1.0
 22
-0.2
 13
-1.0
 23
-0.2
  0
ENDBLK
  5
20B
100
AcDbEntity
  8
0
  6
BYBLOCK
 62
0
100
AcDbBlockEnd
  0
ENDSEC
  0
SECTION
  2
ENTITIES
  0
LINE
  5
20C
100
AcDbEntity
  8
0
100
AcDbLine
 62
7
  6
CONTINUOUS
 10
10.0860705458
 20
9.0674355437
 11
10.1105654432
 21
9.0815776793
  0
LINE
  5
20D
100
AcDbEntity
  8
0
100
AcDbLine
 62
7
  6
CONTINUOUS
 10
11.29832052
 20
9.7673283926
 11
11.3228154174
 21
9.7814705282
  0
LINE
  5
20E
100
AcDbEntity
  8
0
100
AcDbLine
 62
7
  6
CONTINUOUS
 10
10.0997841995
 20
9.1174187576
 11
10.1249856697
 21
9.1302595481
  0
LINE
  5
20F
100
AcDbEntity
  8
0
100
AcDbLine
 62
7
  6
CONTINUOUS
 10
11.3470023888
 20
9.7529081661
 11
11.372203859
 21
9.7657489566
  0
LINE
  5
210
100
AcDbEntity
  8
0
100
AcDbLine
 62
7
  6
CONTINUOUS
 10
10.1160949784
 20
9.1666157541
 11
10.1419339459
 21
9.1781200037
  0
LINE
  5
211
100
AcDbEntity
  8
0
100
AcDbLine
 62
7
  6
CONTINUOUS
 10
11.3948628444
 20
9.7359598899
 11
11.4207018119
 21
9.7474641394
  0
LINE
  5
212
100
AcDbEntity
  8
0
100
AcDbLine
 62
7
  6
CONTINUOUS
 10
10.1349581758
 20
9.2148916876
 11
10.1613638178
 21
9.2250278639
  0
LINE
  5
213
100
AcDbEntity
  8
0
100
AcDbLine
 62
7
  6
CONTINUOUS
 10
11.4417707047
 20
9.716530018
 11
11.4681763467
 21
9.7266661943
  0
LINE
  5
214
100
AcDbEntity
  8
0
100
AcDbLine
 62
7
  6
CONTINUOUS
 10
10.156322089
 20
9.2621142372
 11
10.1832220295
 21
9.2708545577
  0
LINE
  5
215
100
AcDbEntity
  8
0
100
AcDbLine
 62
7
  6
CONTINUOUS
 10
11.4875973984
 20
9.6946718063
 11
11.5144973389
 21
9.7034121268
  0
LINE
  5
216
100
AcDbEntity
  8
0
100
AcDbLine
 62
7
  6
CONTINUOUS
 10
10.0578301437
 20
8.8624049295
 11
10.0788494535
 21
8.8813308011
  0
LINE
  5
217
100
AcDbEntity
  8
0
100
AcDbLine
 62
7
  6
CONTINUOUS
 10
11.0980736418
 20
9.7990443823
 11
11.1190929517
 21
9.8179702539
  0
LINE
  5
218
100
AcDbEntity
  8
0
100
AcDbLine
 62
7
  6
CONTINUOUS
 10
10.0608520266
 20
8.9141471193
 11
10.0828330338
 21
8.9319469879
  0
LINE
  5
219
100
AcDbEntity
  8
0
100
AcDbLine
 62
7
  6
CONTINUOUS
 10
11.1486898286
 20
9.7950608021
 11
11.1706708358
 21
9.8128606707
  0
LINE
  5
21A
100
AcDbEntity
  8
0
100
AcDbLine
 62
7
  6
CONTINUOUS
 10
10.0665777452
 20
8.965660245
 11
10.0894602013
 21
8.9822853225
  0
LINE
  5
21B
100
AcDbEntity
  8
0
100
AcDbLine
 62
7
  6
CONTINUOUS
 10
11.1990281632
 20
9.7884336346
 11
11.2219106193
 21
9.8050587121
  0
LINE
  5
21C
100
AcDbEntity
  8
0
100
AcDbLine
 62
7
  6
CONTINUOUS
 10
10.0749916055
 20
9.0168031128
 11
10.0987127913
 21
9.032207831
  0
LINE
  5
21D
100
AcDbEntity
  8
0
100
AcDbLine
 62
7
  6
CONTINUOUS
 10
11.2489506717
 20
9.7791810445
 11
11.2726718576
 21
9.7945857627
  0
LINE
  5
21E
100
AcDbEntity
  8
0
100
AcDbLine
 62
7
  6
CONTINUOUS
 10
10.0650331652
 20
8.707223
 11
10.0828330338
 21
8.7292040072
  0
LINE
  5
21F
100
AcDbEntity
  8
0
100
AcDbLine
 62
7
  6
CONTINUOUS
 10
10.9459468479
 20
9.7950608021
 11
10.9637467166
 21
9.8170418092
  0
LINE
  5
220
100
AcDbEntity
  8
0
100
AcDbLine
 62
7
  6
CONTINUOUS
 10
10.0599235819
 20
8.7588008842
 11
10.0788494535
 21
8.779820194
  0
LINE
  5
221
100
AcDbEntity
  8
0
100
AcDbLine
 62
7
  6
CONTINUOUS
 10
10.9965630347
 20
9.7990443823
 11
11.0154889063
 21
9.8200636922
  0
LINE
  5
222
100
AcDbEntity
  8
0
100
AcDbLine
 62
7
  6
CONTINUOUS
 10
10.0575203791
 20
8.8105754976
 11
10.0775203791
 21
8.8305754976
  0
LINE
  5
223
100
AcDbEntity
  8
0
100
AcDbLine
 62
7
  6
CONTINUOUS
 10
11.0473183383
 20
9.8003734567
 11
11.0673183383
 21
9.8203734567
  0
LINE
  5
224
100
AcDbEntity
  8
0
100
AcDbLine
 62
7
  6
CONTINUOUS
 10
10.0964233076
 20
8.5550784184
 11
10.1105654432
 21
8.5795733158
  0
LINE
  5
225
100
AcDbEntity
  8
0
100
AcDbLine
 62
7
  6
CONTINUOUS
 10
10.7963161565
 20
9.7673283926
 11
10.8104582922
 21
9.79182329
  0
LINE
  5
226
100
AcDbEntity
  8
0
100
AcDbLine
 62
7
  6
CONTINUOUS
 10
10.0833080731
 20
8.6052219783
 11
10.0987127913
 21
8.6289431641
  0
LINE
  5
227
100
AcDbEntity
  8
0
100
AcDbLine
 62
7
  6
CONTINUOUS
 10
10.8456860048
 20
9.7791810445
 11
10.861090723
 21
9.8029022304
  0
LINE
  5
228
100
AcDbEntity
  8
0
100
AcDbLine
 62
7
  6
CONTINUOUS
 10
10.0728351238
 20
8.6559832165
 11
10.0894602013
 21
8.6788656726
  0
LINE
  5
229
100
AcDbEntity
  8
0
100
AcDbLine
 62
7
  6
CONTINUOUS
 10
10.8956085133
 20
9.7884336346
 11
10.9122335909
 21
9.8113160907
  0
LINE
  5
22A
100
AcDbEntity
  8
0
100
AcDbLine
 62
7
  6
CONTINUOUS
 10
10.1512276416
 20
8.4097174892
 11
10.1613638178
 21
8.4361231312
  0
LINE
  5
22B
100
AcDbEntity
  8
0
100
AcDbLine
 62
7
  6
CONTINUOUS
 10
10.6528659719
 20
9.716530018
 11
10.6630021482
 21
9.74293566
  0
LINE
  5
22C
100
AcDbEntity
  8
0
100
AcDbLine
 62
7
  6
CONTINUOUS
 10
10.1304296964
 20
8.4571920239
 11
10.1419339459
 21
8.4830309915
  0
LINE
  5
22D
100
AcDbEntity
  8
0
100
AcDbLine
 62
7
  6
CONTINUOUS
 10
10.6997738322
 20
9.7359598899
 11
10.7112780817
 21
9.7617988574
  0
LINE
  5
22E
100
AcDbEntity
  8
0
100
AcDbLine
 62
7
  6
CONTINUOUS
 10
10.1121448793
 20
8.5056899769
 11
10.1249856697
 21
8.5308914471
  0
LINE
  5
22F
100
AcDbEntity
  8
0
100
AcDbLine
 62
7
  6
CONTINUOUS
 10
10.7476342878
 20
9.7529081661
 11
10.7604750782
 21
9.7781096363
  0
LINE
  5
230
100
AcDbEntity
  8
0
100
AcDbLine
 62
9
  6
CONTINUOUS
 10
11.2973183383
 20
6.2457257584
 11
10.7973183383
 21
6.2457257584
  0
LINE
  5
231
100
AcDbEntity
  8
0
100
AcDbLine
 62
7
  6
CONTINUOUS
 10
10.200128161
 20
8.3183560099
 11
10.2074486691
 21
8.345676518
  0
LINE
  5
232
100
AcDbEntity
  8
0
100
AcDbLine
 62
7
  6
CONTINUOUS
 10
10.5624193587
 20
9.6704451668
 11
10.5697398668
 21
9.6977656748
  0
LINE
  5
233
100
AcDbEntity
  8
0
100
AcDbLine
 62
7
  6
CONTINUOUS
 10
10.174481709
 20
8.3633964969
 11
10.1832220295
 21
8.3902964374
  0
LINE
  5
234
100
AcDbEntity
  8
0
100
AcDbLine
 62
7
  6
CONTINUOUS
 10
10.6070392781
 20
9.6946718063
 11
10.6157795986
 21
9.7215717468
  0
LINE
  5
235
100
AcDbEntity
  8
0
100
AcDbLine
 62
7
  6
CONTINUOUS
 10
10.2906872595
 20
8.1921325396
 11
10.2936437709
 21
8.2202618666
  0
LINE
  5
236
100
AcDbEntity
  8
0
100
AcDbLine
 62
7
  6
CONTINUOUS
 10
10.4370047074
 20
9.584250065
 11
10.4399612188
 21
9.612379392
  0
LINE
  5
237
100
AcDbEntity
  8
0
100
AcDbLine
 62
7
  6
CONTINUOUS
 10
10.2583106734
 20
8.2326065145
 11
10.2627353082
 21
8.2605425595
  0
LINE
  5
238
100
AcDbEntity
  8
0
100
AcDbLine
 62
7
  6
CONTINUOUS
 10
10.4772854002
 20
9.6151585276
 11
10.481710035
 21
9.6430945726
  0
LINE
  5
239
100
AcDbEntity
  8
0
100
AcDbLine
 62
7
  6
CONTINUOUS
 10
10.2280967024
 20
8.2747194809
 11
10.2339773331
 21
8.3023856729
  0
LINE
  5
23A
100
AcDbEntity
  8
0
100
AcDbLine
 62
7
  6
CONTINUOUS
 10
10.5191285136
 20
9.6439165028
 11
10.5250091443
 21
9.6715826948
  0
LINE
  5
23B
100
AcDbEntity
  8
0
100
AcDbLine
 62
7
  6
CONTINUOUS
 10
10.361567625
 20
8.116540513
 11
10.361567625
 21
8.1448247842
  0
LINE
  5
23C
100
AcDbEntity
  8
0
100
AcDbLine
 62
7
  6
CONTINUOUS
 10
10.361567625
 20
9.5163262109
 11
10.361567625
 21
9.5446104821
  0
LINE
  5
23D
100
AcDbEntity
  8
0
100
AcDbLine
 62
7
  6
CONTINUOUS
 10
10.3251377188
 20
8.1534084925
 11
10.3266180032
 21
8.1816540011
  0
LINE
  5
23E
100
AcDbEntity
  8
0
100
AcDbLine
 62
7
  6
CONTINUOUS
 10
10.3983968418
 20
9.5512758327
 11
10.3998771262
 21
9.5795213413
  0
LINE
  5
23F
100
AcDbEntity
  8
0
100
AcDbLine
 62
7
  6
CONTINUOUS
 10
10.4399612188
 20
8.0487716031
 11
10.4370047074
 21
8.0769009302
  0
LINE
  5
240
100
AcDbEntity
  8
0
100
AcDbLine
 62
7
  6
CONTINUOUS
 10
10.2936437709
 20
9.4408891285
 11
10.2906872595
 21
9.4690184555
  0
LINE
  5
241
100
AcDbEntity
  8
0
100
AcDbLine
 62
7
  6
CONTINUOUS
 10
10.3998771262
 20
8.0816296538
 11
10.3983968418
 21
8.1098751624
  0
LINE
  5
242
100
AcDbEntity
  8
0
100
AcDbLine
 62
7
  6
CONTINUOUS
 10
10.3266180032
 20
9.479496994
 11
10.3251377188
 21
9.5077425027
  0
LINE
  5
243
100
AcDbEntity
  8
0
100
AcDbLine
 62
7
  6
CONTINUOUS
 10
11.9948524771
 20
8.5437322375
 11
11.9696510069
 21
8.5308914471
  0
LINE
  5
244
100
AcDbEntity
  8
0
100
AcDbLine
 62
7
  6
CONTINUOUS
 10
10.7476342878
 20
7.908242829
 11
10.7224328176
 21
7.8954020386
  0
LINE
  5
245
100
AcDbEntity
  8
0
100
AcDbLine
 62
7
  6
CONTINUOUS
 10
11.9785416982
 20
8.494535241
 11
11.9527027306
 21
8.4830309915
  0
LINE
  5
246
100
AcDbEntity
  8
0
100
AcDbLine
 62
7
  6
CONTINUOUS
 10
10.6997738322
 20
7.9251911052
 11
10.6739348647
 21
7.9136868557
  0
LINE
  5
247
100
AcDbEntity
  8
0
100
AcDbLine
 62
7
  6
CONTINUOUS
 10
11.9596785007
 20
8.4462593075
 11
11.9332728587
 21
8.4361231312
  0
LINE
  5
248
100
AcDbEntity
  8
0
100
AcDbLine
 62
7
  6
CONTINUOUS
 10
10.6528659719
 20
7.9446209771
 11
10.6264603299
 21
7.9344848008
  0
LINE
  5
249
100
AcDbEntity
  8
0
100
AcDbLine
 62
7
  6
CONTINUOUS
 10
11.9383145875
 20
8.3990367579
 11
11.9114146471
 21
8.3902964374
  0
LINE
  5
24A
100
AcDbEntity
  8
0
100
AcDbLine
 62
7
  6
CONTINUOUS
 10
10.6070392781
 20
7.9664791888
 11
10.5801393377
 21
7.9577388683
  0
LINE
  5
24B
100
AcDbEntity
  8
0
100
AcDbLine
 62
7
  6
CONTINUOUS
 10
12.0368065329
 20
8.7987460656
 11
12.0157872231
 21
8.779820194
  0
LINE
  5
24C
100
AcDbEntity
  8
0
100
AcDbLine
 62
7
  6
CONTINUOUS
 10
12.0337846499
 20
8.7470038758
 11
12.0118036428
 21
8.7292040072
  0
LINE
  5
24D
100
AcDbEntity
  8
0
100
AcDbLine
 62
7
  6
CONTINUOUS
 10
12.0280589314
 20
8.6954907501
 11
12.0051764753
 21
8.6788656726
  0
LINE
  5
24E
100
AcDbEntity
  8
0
100
AcDbLine
 62
7
  6
CONTINUOUS
 10
12.0196450711
 20
8.6443478823
 11
11.9959238853
 21
8.6289431641
  0
LINE
  5
24F
100
AcDbEntity
  8
0
100
AcDbLine
 62
7
  6
CONTINUOUS
 10
12.0085661308
 20
8.5937154514
 11
11.9840712333
 21
8.5795733158
  0
LINE
  5
250
100
AcDbEntity
  8
0
100
AcDbLine
 62
7
  6
CONTINUOUS
 10
10.7963161565
 20
7.8938226025
 11
10.7718212591
 21
7.8796804669
  0
LINE
  5
251
100
AcDbEntity
  8
0
100
AcDbLine
 62
7
  6
CONTINUOUS
 10
10.5697398668
 20
7.9633853203
 11
10.5624193587
 21
7.9907058284
  0
LINE
  5
252
100
AcDbEntity
  8
0
100
AcDbLine
 62
7
  6
CONTINUOUS
 10
10.2074486691
 20
9.3154744772
 11
10.200128161
 21
9.3427949852
  0
LINE
  5
253
100
AcDbEntity
  8
0
100
AcDbLine
 62
7
  6
CONTINUOUS
 10
10.5250091443
 20
7.9895683003
 11
10.5191285136
 21
8.0172344923
  0
LINE
  5
254
100
AcDbEntity
  8
0
100
AcDbLine
 62
7
  6
CONTINUOUS
 10
10.2339773331
 20
9.3587653222
 11
10.2280967024
 21
9.3864315143
  0
LINE
  5
255
100
AcDbEntity
  8
0
100
AcDbLine
 62
7
  6
CONTINUOUS
 10
10.481710035
 20
8.0180564225
 11
10.4772854002
 21
8.0459924675
  0
LINE
  5
256
100
AcDbEntity
  8
0
100
AcDbLine
 62
7
  6
CONTINUOUS
 10
10.2627353082
 20
9.4006084357
 11
10.2583106734
 21
9.4285444806
  0
LINE
  5
257
100
AcDbEntity
  8
0
100
AcDbLine
 62
7
  6
CONTINUOUS
 10
10.7973183383
 20
8.1202742014
 11
10.7973183383
 21
5.3488359798
  0
LINE
  5
258
100
AcDbEntity
  8
0
100
AcDbLine
 62
7
  6
CONTINUOUS
 10
12.0296035114
 20
8.9539279951
 11
12.0118036428
 21
8.9319469879
  0
LINE
  5
259
100
AcDbEntity
  8
0
100
AcDbLine
 62
7
  6
CONTINUOUS
 10
12.0347130946
 20
8.9023501109
 11
12.0157872231
 21
8.8813308011
  0
LINE
  5
25A
100
AcDbEntity
  8
0
100
AcDbLine
 62
7
  6
CONTINUOUS
 10
12.0371162975
 20
8.8505754976
 11
12.0171162975
 21
8.8305754976
  0
LINE
  5
25B
100
AcDbEntity
  8
0
100
AcDbLine
 62
7
  6
CONTINUOUS
 10
10.6630021482
 20
7.9182153351
 11
10.6528659719
 21
7.9446209771
  0
LINE
  5
25C
100
AcDbEntity
  8
0
100
AcDbLine
 62
7
  6
CONTINUOUS
 10
10.1613638178
 20
9.2250278639
 11
10.1512276416
 21
9.251433506
  0
LINE
  5
25D
100
AcDbEntity
  8
0
100
AcDbLine
 62
7
  6
CONTINUOUS
 10
10.6157795986
 20
7.9395792483
 11
10.6070392781
 21
7.9664791888
  0
LINE
  5
25E
100
AcDbEntity
  8
0
100
AcDbLine
 62
7
  6
CONTINUOUS
 10
10.1832220295
 20
9.2708545577
 11
10.174481709
 21
9.2977544982
  0
LINE
  5
25F
100
AcDbEntity
  8
0
100
AcDbLine
 62
7
  6
CONTINUOUS
 10
11.998213369
 20
9.1060725767
 11
11.9840712333
 21
9.0815776793
  0
LINE
  5
260
100
AcDbEntity
  8
0
100
AcDbLine
 62
7
  6
CONTINUOUS
 10
11.29832052
 20
7.8938226025
 11
11.2973183383
 21
7.8920867728
  0
LINE
  5
261
100
AcDbEntity
  8
0
100
AcDbLine
 62
7
  6
CONTINUOUS
 10
12.0113286035
 20
9.0559290168
 11
11.9959238853
 21
9.032207831
  0
LINE
  5
262
100
AcDbEntity
  8
0
100
AcDbLine
 62
7
  6
CONTINUOUS
 10
12.0218015528
 20
9.0051677786
 11
12.0051764753
 21
8.9822853225
  0
LINE
  5
263
100
AcDbEntity
  8
0
100
AcDbLine
 62
7
  6
CONTINUOUS
 10
10.7973183383
 20
7.8920867728
 11
10.7963161565
 21
7.8938226025
  0
LINE
  5
264
100
AcDbEntity
  8
0
100
AcDbLine
 62
7
  6
CONTINUOUS
 10
10.1105654432
 20
9.0815776793
 11
10.0964233076
 21
9.1060725767
  0
LINE
  5
265
100
AcDbEntity
  8
0
100
AcDbLine
 62
7
  6
CONTINUOUS
 10
10.7604750782
 20
7.8830413588
 11
10.7476342878
 21
7.908242829
  0
LINE
  5
266
100
AcDbEntity
  8
0
100
AcDbLine
 62
7
  6
CONTINUOUS
 10
10.1249856697
 20
9.1302595481
 11
10.1121448793
 21
9.1554610183
  0
LINE
  5
267
100
AcDbEntity
  8
0
100
AcDbLine
 62
7
  6
CONTINUOUS
 10
10.7112780817
 20
7.8993521377
 11
10.6997738322
 21
7.9251911052
  0
LINE
  5
268
100
AcDbEntity
  8
0
100
AcDbLine
 62
7
  6
CONTINUOUS
 10
10.1419339459
 20
9.1781200037
 11
10.1304296964
 21
9.2039589712
  0
LINE
  5
269
100
AcDbEntity
  8
0
100
AcDbLine
 62
7
  6
CONTINUOUS
 10
11.9642069802
 20
9.2039589712
 11
11.9527027306
 21
9.1781200037
  0
LINE
  5
26A
100
AcDbEntity
  8
0
100
AcDbLine
 62
7
  6
CONTINUOUS
 10
11.3948628444
 20
7.9251911052
 11
11.3833585948
 21
7.8993521377
  0
LINE
  5
26B
100
AcDbEntity
  8
0
100
AcDbLine
 62
7
  6
CONTINUOUS
 10
11.9824917973
 20
9.1554610183
 11
11.9696510069
 21
9.1302595481
  0
LINE
  5
26C
100
AcDbEntity
  8
0
100
AcDbLine
 62
7
  6
CONTINUOUS
 10
11.3470023888
 20
7.908242829
 11
11.3341615983
 21
7.8830413588
  0
LINE
  5
26D
100
AcDbEntity
  8
0
100
AcDbLine
 62
7
  6
CONTINUOUS
 10
10.0828330338
 20
8.9319469879
 11
10.0650331652
 21
8.9539279951
  0
LINE
  5
26E
100
AcDbEntity
  8
0
100
AcDbLine
 62
7
  6
CONTINUOUS
 10
10.0894602013
 20
8.9822853225
 11
10.0728351238
 21
9.0051677786
  0
LINE
  5
26F
100
AcDbEntity
  8
0
100
AcDbLine
 62
7
  6
CONTINUOUS
 10
10.0987127913
 20
9.032207831
 11
10.0833080731
 21
9.0559290168
  0
LINE
  5
270
100
AcDbEntity
  8
0
100
AcDbLine
 62
7
  6
CONTINUOUS
 10
11.2973183383
 20
8.1202758769
 11
11.2973183383
 21
5.3488359798
  0
LWPOLYLINE
  5
271
100
AcDbEntity
  8
0
100
AcDbPolyline
 62
7
  6
CONTINUOUS
 90
24
 70
0
 10
11.2973181144
 20
8.1202758812
 10
11.2974411178
 20
8.1241158201
 10
11.2977817835
 20
8.1277206615
 10
11.2983288153
 20
8.1312422583
 10
11.2990701426
 20
8.1346693446
 10
11.2999932691
 20
8.1379919504
 10
11.3010853908
 20
8.1412013826
 10
11.3023335065
 20
8.1442901973
 10
11.3037245215
 20
8.1472521639
 10
11.3052453431
 20
8.1500822223
 10
11.3068829689
 20
8.1527764343
 10
11.3086245655
 20
8.1553319284
 10
11.3104575403
 20
8.1577468435
 10
11.3123696063
 20
8.1600202679
 10
11.314348837
 20
8.1621521761
 10
11.3163838652
 20
8.1641435041
 10
11.3184626209
 20
8.1659949137
 10
11.3205711813
 20
8.1677062557
 10
11.3226957137
 20
8.169278586
 10
11.3248228198
 20
8.1707142559
 10
11.3269400304
 20
8.1720170032
 10
11.3290314075
 20
8.1731893115
 10
11.3309586307
 20
8.1741752447
 10
11.3331015474
 20
8.1751715004
  0
LINE
  5
272
100
AcDbEntity
  8
0
100
AcDbLine
 62
7
  6
CONTINUOUS
 10
11.8945085155
 20
9.3427949852
 11
11.8871880075
 21
9.3154744772
  0
LINE
  5
273
100
AcDbEntity
  8
0
100
AcDbLine
 62
7
  6
CONTINUOUS
 10
11.5322173179
 20
7.9907058284
 11
11.5248968098
 21
7.9633853203
  0
LINE
  5
274
100
AcDbEntity
  8
0
100
AcDbLine
 62
7
  6
CONTINUOUS
 10
11.9201549675
 20
9.2977544982
 11
11.9114146471
 21
9.2708545577
  0
LINE
  5
275
100
AcDbEntity
  8
0
100
AcDbLine
 62
7
  6
CONTINUOUS
 10
11.4875973984
 20
7.9664791888
 11
11.4788570779
 21
7.9395792483
  0
LINE
  5
276
100
AcDbEntity
  8
0
100
AcDbLine
 62
7
  6
CONTINUOUS
 10
11.943409035
 20
9.251433506
 11
11.9332728587
 21
9.2250278639
  0
LINE
  5
277
100
AcDbEntity
  8
0
100
AcDbLine
 62
7
  6
CONTINUOUS
 10
11.4417707047
 20
7.9446209771
 11
11.4316345284
 21
7.9182153351
  0
LINE
  5
278
100
AcDbEntity
  8
0
100
AcDbLine
 62
7
  6
CONTINUOUS
 10
10.0788494535
 20
8.779820194
 11
10.0578301437
 21
8.7987460656
  0
LINE
  5
279
100
AcDbEntity
  8
0
100
AcDbLine
 62
7
  6
CONTINUOUS
 10
10.0775203791
 20
8.8305754976
 11
10.0575203791
 21
8.8505754976
  0
LINE
  5
27A
100
AcDbEntity
  8
0
100
AcDbLine
 62
7
  6
CONTINUOUS
 10
10.0788494535
 20
8.8813308011
 11
10.0599235819
 21
8.9023501109
  0
LINE
  5
27B
100
AcDbEntity
  8
0
100
AcDbLine
 62
7
  6
CONTINUOUS
 10
11.8363260032
 20
9.4285444806
 11
11.8319013684
 21
9.4006084357
  0
LINE
  5
27C
100
AcDbEntity
  8
0
100
AcDbLine
 62
7
  6
CONTINUOUS
 10
11.6173512764
 20
8.0459924675
 11
11.6129266416
 21
8.0180564225
  0
LINE
  5
27D
100
AcDbEntity
  8
0
100
AcDbLine
 62
7
  6
CONTINUOUS
 10
11.8665399742
 20
9.3864315143
 11
11.8606593435
 21
9.3587653222
  0
LINE
  5
27E
100
AcDbEntity
  8
0
100
AcDbLine
 62
7
  6
CONTINUOUS
 10
11.5755081629
 20
8.0172344923
 11
11.5696275323
 21
7.9895683003
  0
LWPOLYLINE
  5
27F
100
AcDbEntity
  8
0
100
AcDbPolyline
 62
7
  6
CONTINUOUS
 90
12
 70
0
 10
10.7613198131
 20
8.1752635468
 10
10.7660702368
 20
8.1729358809
 10
10.771019126
 20
8.1699150144
 10
10.7758605227
 20
8.1662577206
 10
10.7804824367
 20
8.1619500433
 10
10.7847676942
 20
8.1569975517
 10
10.7885979056
 20
8.151426739
 10
10.7918575355
 20
8.1452857219
 10
10.7944382046
 20
8.1386437952
 10
10.7962425414
 20
8.1315911967
 10
10.7971885304
 20
8.1242370494
 10
10.7973195481
 20
8.1202742021
  0
LINE
  5
280
100
AcDbEntity
  8
0
100
AcDbLine
 62
7
  6
CONTINUOUS
 10
11.372203859
 20
7.8954020386
 11
11.3470023888
 21
7.908242829
  0
LINE
  5
281
100
AcDbEntity
  8
0
100
AcDbLine
 62
7
  6
CONTINUOUS
 10
10.1249856697
 20
8.5308914471
 11
10.0997841995
 21
8.5437322375
  0
LINE
  5
282
100
AcDbEntity
  8
0
100
AcDbLine
 62
7
  6
CONTINUOUS
 10
11.3228154174
 20
7.8796804669
 11
11.29832052
 21
7.8938226025
  0
LINE
  5
283
100
AcDbEntity
  8
0
100
AcDbLine
 62
7
  6
CONTINUOUS
 10
10.1105654432
 20
8.5795733158
 11
10.0860705458
 21
8.5937154514
  0
LINE
  5
284
100
AcDbEntity
  8
0
100
AcDbLine
 62
7
  6
CONTINUOUS
 10
10.0987127913
 20
8.6289431641
 11
10.0749916055
 21
8.6443478823
  0
LINE
  5
285
100
AcDbEntity
  8
0
100
AcDbLine
 62
7
  6
CONTINUOUS
 10
10.0894602013
 20
8.6788656726
 11
10.0665777452
 21
8.6954907501
  0
LINE
  5
286
100
AcDbEntity
  8
0
100
AcDbLine
 62
7
  6
CONTINUOUS
 10
10.0828330338
 20
8.7292040072
 11
10.0608520266
 21
8.7470038758
  0
LINE
  5
287
100
AcDbEntity
  8
0
100
AcDbLine
 62
7
  6
CONTINUOUS
 10
11.7330690516
 20
9.5446104821
 11
11.7330690516
 21
9.5163262109
  0
LINE
  5
288
100
AcDbEntity
  8
0
100
AcDbLine
 62
7
  6
CONTINUOUS
 10
11.7330690516
 20
8.1448247842
 11
11.7330690516
 21
8.116540513
  0
LINE
  5
289
100
AcDbEntity
  8
0
100
AcDbLine
 62
7
  6
CONTINUOUS
 10
11.7694989578
 20
9.5077425027
 11
11.7680186734
 21
9.479496994
  0
LINE
  5
28A
100
AcDbEntity
  8
0
100
AcDbLine
 62
7
  6
CONTINUOUS
 10
11.6962398348
 20
8.1098751624
 11
11.6947595504
 21
8.0816296538
  0
LINE
  5
28B
100
AcDbEntity
  8
0
100
AcDbLine
 62
7
  6
CONTINUOUS
 10
11.8039494171
 20
9.4690184555
 11
11.8009929057
 21
9.4408891285
  0
LINE
  5
28C
100
AcDbEntity
  8
0
100
AcDbLine
 62
7
  6
CONTINUOUS
 10
11.6576319692
 20
8.0769009302
 11
11.6546754578
 21
8.0487716031
  0
LINE
  5
28D
100
AcDbEntity
  8
0
100
AcDbLine
 62
7
  6
CONTINUOUS
 10
11.9145085155
 20
8.352997026
 11
11.8871880075
 21
8.345676518
  0
LINE
  5
28E
100
AcDbEntity
  8
0
100
AcDbLine
 62
7
  6
CONTINUOUS
 10
10.5624193587
 20
7.9907058284
 11
10.5350988506
 21
7.9833853203
  0
LINE
  5
28F
100
AcDbEntity
  8
0
100
AcDbLine
 62
7
  6
CONTINUOUS
 10
11.8883255356
 20
8.3082663036
 11
11.8606593435
 21
8.3023856729
  0
LINE
  5
290
100
AcDbEntity
  8
0
100
AcDbLine
 62
7
  6
CONTINUOUS
 10
10.5191285136
 20
8.0172344923
 11
10.4914623216
 21
8.0113538617
  0
LINE
  5
291
100
AcDbEntity
  8
0
100
AcDbLine
 62
7
  6
CONTINUOUS
 10
11.8598374133
 20
8.2649671943
 11
11.8319013684
 21
8.2605425595
  0
LINE
  5
292
100
AcDbEntity
  8
0
100
AcDbLine
 62
7
  6
CONTINUOUS
 10
10.4772854002
 20
8.0459924675
 11
10.4493493552
 21
8.0415678326
  0
LINE
  5
293
100
AcDbEntity
  8
0
100
AcDbLine
 62
7
  6
CONTINUOUS
 10
11.8291222327
 20
8.2232183781
 11
11.8009929057
 21
8.2202618666
  0
LINE
  5
294
100
AcDbEntity
  8
0
100
AcDbLine
 62
7
  6
CONTINUOUS
 10
10.4370047074
 20
8.0769009302
 11
10.4088753803
 21
8.0739444187
  0
LINE
  5
295
100
AcDbEntity
  8
0
100
AcDbLine
 62
7
  6
CONTINUOUS
 10
11.796264182
 20
8.1831342855
 11
11.7680186734
 21
8.1816540011
  0
LINE
  5
296
100
AcDbEntity
  8
0
100
AcDbLine
 62
7
  6
CONTINUOUS
 10
10.3983968418
 20
8.1098751624
 11
10.3701513332
 21
8.1083948781
  0
LINE
  5
297
100
AcDbEntity
  8
0
100
AcDbLine
 62
7
  6
CONTINUOUS
 10
11.7613533228
 20
8.1448247842
 11
11.7330690516
 21
8.1448247842
  0
LINE
  5
298
100
AcDbEntity
  8
0
100
AcDbLine
 62
7
  6
CONTINUOUS
 10
10.361567625
 20
8.1448247842
 11
10.3332833537
 21
8.1448247842
  0
LINE
  5
299
100
AcDbEntity
  8
0
100
AcDbLine
 62
7
  6
CONTINUOUS
 10
11.7244853434
 20
8.1083948781
 11
11.6962398348
 21
8.1098751624
  0
LINE
  5
29A
100
AcDbEntity
  8
0
100
AcDbLine
 62
7
  6
CONTINUOUS
 10
10.3266180032
 20
8.1816540011
 11
10.2983724945
 21
8.1831342855
  0
LINE
  5
29B
100
AcDbEntity
  8
0
100
AcDbLine
 62
7
  6
CONTINUOUS
 10
11.6857612962
 20
8.0739444187
 11
11.6576319692
 21
8.0769009302
  0
LINE
  5
29C
100
AcDbEntity
  8
0
100
AcDbLine
 62
7
  6
CONTINUOUS
 10
10.2936437709
 20
8.2202618666
 11
10.2655144438
 21
8.2232183781
  0
LINE
  5
29D
100
AcDbEntity
  8
0
100
AcDbLine
 62
7
  6
CONTINUOUS
 10
11.6452873213
 20
8.0415678326
 11
11.6173512764
 21
8.0459924675
  0
LINE
  5
29E
100
AcDbEntity
  8
0
100
AcDbLine
 62
7
  6
CONTINUOUS
 10
10.2627353082
 20
8.2605425595
 11
10.2347992633
 21
8.2649671943
  0
LINE
  5
29F
100
AcDbEntity
  8
0
100
AcDbLine
 62
7
  6
CONTINUOUS
 10
11.603174355
 20
8.0113538617
 11
11.5755081629
 21
8.0172344923
  0
LINE
  5
2A0
100
AcDbEntity
  8
0
100
AcDbLine
 62
7
  6
CONTINUOUS
 10
10.2339773331
 20
8.3023856729
 11
10.206311141
 21
8.3082663036
  0
LINE
  5
2A1
100
AcDbEntity
  8
0
100
AcDbLine
 62
7
  6
CONTINUOUS
 10
11.5595378259
 20
7.9833853203
 11
11.5322173179
 21
7.9907058284
  0
LINE
  5
2A2
100
AcDbEntity
  8
0
100
AcDbLine
 62
7
  6
CONTINUOUS
 10
10.2074486691
 20
8.345676518
 11
10.180128161
 21
8.352997026
  0
LINE
  5
2A3
100
AcDbEntity
  8
0
100
AcDbLine
 62
7
  6
CONTINUOUS
 10
11.5144973389
 20
7.9577388683
 11
11.4875973984
 21
7.9664791888
  0
LINE
  5
2A4
100
AcDbEntity
  8
0
100
AcDbLine
 62
7
  6
CONTINUOUS
 10
10.1832220295
 20
8.3902964374
 11
10.156322089
 21
8.3990367579
  0
LINE
  5
2A5
100
AcDbEntity
  8
0
100
AcDbLine
 62
7
  6
CONTINUOUS
 10
11.4681763467
 20
7.9344848008
 11
11.4417707047
 21
7.9446209771
  0
LINE
  5
2A6
100
AcDbEntity
  8
0
100
AcDbLine
 62
7
  6
CONTINUOUS
 10
10.1613638178
 20
8.4361231312
 11
10.1349581758
 21
8.4462593075
  0
LINE
  5
2A7
100
AcDbEntity
  8
0
100
AcDbLine
 62
7
  6
CONTINUOUS
 10
11.4207018119
 20
7.9136868557
 11
11.3948628444
 21
7.9251911052
  0
LINE
  5
2A8
100
AcDbEntity
  8
0
100
AcDbLine
 62
7
  6
CONTINUOUS
 10
10.1419339459
 20
8.4830309915
 11
10.1160949784
 21
8.494535241
  0
LINE
  5
2A9
100
AcDbEntity
  8
0
100
AcDbLine
 62
7
  6
CONTINUOUS
 10
11.6546754578
 20
9.612379392
 11
11.6576319692
 21
9.584250065
  0
LINE
  5
2AA
100
AcDbEntity
  8
0
100
AcDbLine
 62
7
  6
CONTINUOUS
 10
11.8009929057
 20
8.2202618666
 11
11.8039494171
 21
8.1921325396
  0
LINE
  5
2AB
100
AcDbEntity
  8
0
100
AcDbLine
 62
7
  6
CONTINUOUS
 10
11.6947595504
 20
9.5795213413
 11
11.6962398348
 21
9.5512758327
  0
LINE
  5
2AC
100
AcDbEntity
  8
0
100
AcDbLine
 62
7
  6
CONTINUOUS
 10
11.7680186734
 20
8.1816540011
 11
11.7694989578
 21
8.1534084925
  0
LINE
  5
2AD
100
AcDbEntity
  8
0
100
AcDbLine
 62
7
  6
CONTINUOUS
 10
11.5248968098
 20
9.6977656748
 11
11.5322173179
 21
9.6704451668
  0
LINE
  5
2AE
100
AcDbEntity
  8
0
100
AcDbLine
 62
7
  6
CONTINUOUS
 10
11.8871880075
 20
8.345676518
 11
11.8945085155
 21
8.3183560099
  0
LINE
  5
2AF
100
AcDbEntity
  8
0
100
AcDbLine
 62
7
  6
CONTINUOUS
 10
11.5696275323
 20
9.6715826948
 11
11.5755081629
 21
9.6439165028
  0
LINE
  5
2B0
100
AcDbEntity
  8
0
100
AcDbLine
 62
7
  6
CONTINUOUS
 10
11.8606593435
 20
8.3023856729
 11
11.8665399742
 21
8.2747194809
  0
LINE
  5
2B1
100
AcDbEntity
  8
0
100
AcDbLine
 62
7
  6
CONTINUOUS
 10
11.6129266416
 20
9.6430945726
 11
11.6173512764
 21
9.6151585276
  0
LINE
  5
2B2
100
AcDbEntity
  8
0
100
AcDbLine
 62
7
  6
CONTINUOUS
 10
11.8319013684
 20
8.2605425595
 11
11.8363260032
 21
8.2326065145
  0
LINE
  5
2B3
100
AcDbEntity
  8
0
100
AcDbLine
 62
7
  6
CONTINUOUS
 10
11.4316345284
 20
9.74293566
 11
11.4417707047
 21
9.716530018
  0
LINE
  5
2B4
100
AcDbEntity
  8
0
100
AcDbLine
 62
7
  6
CONTINUOUS
 10
11.9332728587
 20
8.4361231312
 11
11.943409035
 21
8.4097174892
  0
LINE
  5
2B5
100
AcDbEntity
  8
0
100
AcDbLine
 62
7
  6
CONTINUOUS
 10
11.4788570779
 20
9.7215717468
 11
11.4875973984
 21
9.6946718063
  0
LINE
  5
2B6
100
AcDbEntity
  8
0
100
AcDbLine
 62
7
  6
CONTINUOUS
 10
11.9114146471
 20
8.3902964374
 11
11.9201549675
 21
8.3633964969
  0
LINE
  5
2B7
100
AcDbEntity
  8
0
100
AcDbLine
 62
7
  6
CONTINUOUS
 10
11.2841783844
 20
9.79182329
 11
11.29832052
 21
9.7673283926
  0
LINE
  5
2B8
100
AcDbEntity
  8
0
100
AcDbLine
 62
7
  6
CONTINUOUS
 10
11.9840712333
 20
8.5795733158
 11
11.998213369
 21
8.5550784184
  0
LINE
  5
2B9
100
AcDbEntity
  8
0
100
AcDbLine
 62
7
  6
CONTINUOUS
 10
11.3341615983
 20
9.7781096363
 11
11.3470023888
 21
9.7529081661
  0
LINE
  5
2BA
100
AcDbEntity
  8
0
100
AcDbLine
 62
7
  6
CONTINUOUS
 10
11.9696510069
 20
8.5308914471
 11
11.9824917973
 21
8.5056899769
  0
LINE
  5
2BB
100
AcDbEntity
  8
0
100
AcDbLine
 62
7
  6
CONTINUOUS
 10
11.3833585948
 20
9.7617988574
 11
11.3948628444
 21
9.7359598899
  0
LINE
  5
2BC
100
AcDbEntity
  8
0
100
AcDbLine
 62
7
  6
CONTINUOUS
 10
11.9527027306
 20
8.4830309915
 11
11.9642069802
 21
8.4571920239
  0
LINE
  5
2BD
100
AcDbEntity
  8
0
100
AcDbLine
 62
7
  6
CONTINUOUS
 10
11.13088996
 20
9.8170418092
 11
11.1486898286
 21
9.7950608021
  0
LINE
  5
2BE
100
AcDbEntity
  8
0
100
AcDbLine
 62
7
  6
CONTINUOUS
 10
12.0118036428
 20
8.7292040072
 11
12.0296035114
 21
8.707223
  0
LINE
  5
2BF
100
AcDbEntity
  8
0
100
AcDbLine
 62
7
  6
CONTINUOUS
 10
11.1824030857
 20
9.8113160907
 11
11.1990281632
 21
9.7884336346
  0
LINE
  5
2C0
100
AcDbEntity
  8
0
100
AcDbLine
 62
7
  6
CONTINUOUS
 10
12.0051764753
 20
8.6788656726
 11
12.0218015528
 21
8.6559832165
  0
LINE
  5
2C1
100
AcDbEntity
  8
0
100
AcDbLine
 62
7
  6
CONTINUOUS
 10
11.2335459535
 20
9.8029022304
 11
11.2489506717
 21
9.7791810445
  0
LINE
  5
2C2
100
AcDbEntity
  8
0
100
AcDbLine
 62
7
  6
CONTINUOUS
 10
11.9959238853
 20
8.6289431641
 11
12.0113286035
 21
8.6052219783
  0
LINE
  5
2C3
100
AcDbEntity
  8
0
100
AcDbLine
 62
7
  6
CONTINUOUS
 10
10.9755437249
 20
9.8179702539
 11
10.9965630347
 21
9.7990443823
  0
LINE
  5
2C4
100
AcDbEntity
  8
0
100
AcDbLine
 62
7
  6
CONTINUOUS
 10
12.0157872231
 20
8.8813308011
 11
12.0368065329
 21
8.8624049295
  0
LINE
  5
2C5
100
AcDbEntity
  8
0
100
AcDbLine
 62
7
  6
CONTINUOUS
 10
11.0273183383
 20
9.8203734567
 11
11.0473183383
 21
9.8003734567
  0
LINE
  5
2C6
100
AcDbEntity
  8
0
100
AcDbLine
 62
7
  6
CONTINUOUS
 10
12.0171162975
 20
8.8305754976
 11
12.0371162975
 21
8.8105754976
  0
LINE
  5
2C7
100
AcDbEntity
  8
0
100
AcDbLine
 62
7
  6
CONTINUOUS
 10
11.0791477703
 20
9.8200636922
 11
11.0980736418
 21
9.7990443823
  0
LINE
  5
2C8
100
AcDbEntity
  8
0
100
AcDbLine
 62
7
  6
CONTINUOUS
 10
12.0157872231
 20
8.779820194
 11
12.0347130946
 21
8.7588008842
  0
LINE
  5
2C9
100
AcDbEntity
  8
0
100
AcDbLine
 62
7
  6
CONTINUOUS
 10
10.7718212591
 20
9.7814705282
 11
10.7963161565
 21
9.7673283926
  0
LINE
  5
2CA
100
AcDbEntity
  8
0
100
AcDbLine
 62
7
  6
CONTINUOUS
 10
11.9840712333
 20
9.0815776793
 11
12.0085661308
 21
9.0674355437
  0
LINE
  5
2CB
100
AcDbEntity
  8
0
100
AcDbLine
 62
7
  6
CONTINUOUS
 10
10.821964819
 20
9.7945857627
 11
10.8456860048
 21
9.7791810445
  0
LINE
  5
2CC
100
AcDbEntity
  8
0
100
AcDbLine
 62
7
  6
CONTINUOUS
 10
11.9959238853
 20
9.032207831
 11
12.0196450711
 21
9.0168031128
  0
LINE
  5
2CD
100
AcDbEntity
  8
0
100
AcDbLine
 62
7
  6
CONTINUOUS
 10
10.8727260572
 20
9.8050587121
 11
10.8956085133
 21
9.7884336346
  0
LINE
  5
2CE
100
AcDbEntity
  8
0
100
AcDbLine
 62
7
  6
CONTINUOUS
 10
12.0051764753
 20
8.9822853225
 11
12.0280589314
 21
8.965660245
  0
LINE
  5
2CF
100
AcDbEntity
  8
0
100
AcDbLine
 62
7
  6
CONTINUOUS
 10
10.9239658408
 20
9.8128606707
 11
10.9459468479
 21
9.7950608021
  0
LINE
  5
2D0
100
AcDbEntity
  8
0
100
AcDbLine
 62
7
  6
CONTINUOUS
 10
12.0118036428
 20
8.9319469879
 11
12.0337846499
 21
8.9141471193
  0
LINE
  5
2D1
100
AcDbEntity
  8
0
100
AcDbLine
 62
7
  6
CONTINUOUS
 10
10.180128161
 20
9.3081539691
 11
10.2074486691
 21
9.3154744772
  0
LINE
  5
2D2
100
AcDbEntity
  8
0
100
AcDbLine
 62
7
  6
CONTINUOUS
 10
11.5322173179
 20
9.6704451668
 11
11.5595378259
 21
9.6777656748
  0
LINE
  5
2D3
100
AcDbEntity
  8
0
100
AcDbLine
 62
7
  6
CONTINUOUS
 10
10.206311141
 20
9.3528846916
 11
10.2339773331
 21
9.3587653222
  0
LINE
  5
2D4
100
AcDbEntity
  8
0
100
AcDbLine
 62
7
  6
CONTINUOUS
 10
11.5755081629
 20
9.6439165028
 11
11.603174355
 21
9.6497971334
  0
LINE
  5
2D5
100
AcDbEntity
  8
0
100
AcDbLine
 62
7
  6
CONTINUOUS
 10
10.2347992633
 20
9.3961838008
 11
10.2627353082
 21
9.4006084357
  0
LINE
  5
2D6
100
AcDbEntity
  8
0
100
AcDbLine
 62
7
  6
CONTINUOUS
 10
11.6173512764
 20
9.6151585276
 11
11.6452873213
 21
9.6195831625
  0
LINE
  5
2D7
100
AcDbEntity
  8
0
100
AcDbLine
 62
7
  6
CONTINUOUS
 10
10.2655144438
 20
9.4379326171
 11
10.2936437709
 21
9.4408891285
  0
LINE
  5
2D8
100
AcDbEntity
  8
0
100
AcDbLine
 62
7
  6
CONTINUOUS
 10
11.6576319692
 20
9.584250065
 11
11.6857612962
 21
9.5872065764
  0
LINE
  5
2D9
100
AcDbEntity
  8
0
100
AcDbLine
 62
7
  6
CONTINUOUS
 10
10.2983724945
 20
9.4780167097
 11
10.3266180032
 21
9.479496994
  0
LINE
  5
2DA
100
AcDbEntity
  8
0
100
AcDbLine
 62
7
  6
CONTINUOUS
 10
11.6962398348
 20
9.5512758327
 11
11.7244853434
 21
9.5527561171
  0
LINE
  5
2DB
100
AcDbEntity
  8
0
100
AcDbLine
 62
7
  6
CONTINUOUS
 10
10.3332833537
 20
9.5163262109
 11
10.361567625
 21
9.5163262109
  0
LINE
  5
2DC
100
AcDbEntity
  8
0
100
AcDbLine
 62
7
  6
CONTINUOUS
 10
11.7330690516
 20
9.5163262109
 11
11.7613533228
 21
9.5163262109
  0
LINE
  5
2DD
100
AcDbEntity
  8
0
100
AcDbLine
 62
7
  6
CONTINUOUS
 10
10.3701513332
 20
9.5527561171
 11
10.3983968418
 21
9.5512758327
  0
LINE
  5
2DE
100
AcDbEntity
  8
0
100
AcDbLine
 62
7
  6
CONTINUOUS
 10
11.7680186734
 20
9.479496994
 11
11.796264182
 21
9.4780167097
  0
LINE
  5
2DF
100
AcDbEntity
  8
0
100
AcDbLine
 62
7
  6
CONTINUOUS
 10
10.4088753803
 20
9.5872065764
 11
10.4370047074
 21
9.584250065
  0
LINE
  5
2E0
100
AcDbEntity
  8
0
100
AcDbLine
 62
7
  6
CONTINUOUS
 10
11.8009929057
 20
9.4408891285
 11
11.8291222327
 21
9.4379326171
  0
LINE
  5
2E1
100
AcDbEntity
  8
0
100
AcDbLine
 62
7
  6
CONTINUOUS
 10
10.4493493552
 20
9.6195831625
 11
10.4772854002
 21
9.6151585276
  0
LINE
  5
2E2
100
AcDbEntity
  8
0
100
AcDbLine
 62
7
  6
CONTINUOUS
 10
11.8319013684
 20
9.4006084357
 11
11.8598374133
 21
9.3961838008
  0
LINE
  5
2E3
100
AcDbEntity
  8
0
100
AcDbLine
 62
7
  6
CONTINUOUS
 10
10.4914623216
 20
9.6497971334
 11
10.5191285136
 21
9.6439165028
  0
LINE
  5
2E4
100
AcDbEntity
  8
0
100
AcDbLine
 62
7
  6
CONTINUOUS
 10
11.8606593435
 20
9.3587653222
 11
11.8883255356
 21
9.3528846916
  0
LINE
  5
2E5
100
AcDbEntity
  8
0
100
AcDbLine
 62
7
  6
CONTINUOUS
 10
10.5350988506
 20
9.6777656748
 11
10.5624193587
 21
9.6704451668
  0
LINE
  5
2E6
100
AcDbEntity
  8
0
100
AcDbLine
 62
7
  6
CONTINUOUS
 10
11.8871880075
 20
9.3154744772
 11
11.9145085155
 21
9.3081539691
  0
LINE
  5
2E7
100
AcDbEntity
  8
0
100
AcDbLine
 62
7
  6
CONTINUOUS
 10
10.5801393377
 20
9.7034121268
 11
10.6070392781
 21
9.6946718063
  0
LINE
  5
2E8
100
AcDbEntity
  8
0
100
AcDbLine
 62
7
  6
CONTINUOUS
 10
11.9114146471
 20
9.2708545577
 11
11.9383145875
 21
9.2621142372
  0
LINE
  5
2E9
100
AcDbEntity
  8
0
100
AcDbLine
 62
7
  6
CONTINUOUS
 10
10.6264603299
 20
9.7266661943
 11
10.6528659719
 21
9.716530018
  0
LINE
  5
2EA
100
AcDbEntity
  8
0
100
AcDbLine
 62
7
  6
CONTINUOUS
 10
11.9332728587
 20
9.2250278639
 11
11.9596785007
 21
9.2148916876
  0
LINE
  5
2EB
100
AcDbEntity
  8
0
100
AcDbLine
 62
7
  6
CONTINUOUS
 10
10.6739348647
 20
9.7474641394
 11
10.6997738322
 21
9.7359598899
  0
LINE
  5
2EC
100
AcDbEntity
  8
0
100
AcDbLine
 62
7
  6
CONTINUOUS
 10
11.9527027306
 20
9.1781200037
 11
11.9785416982
 21
9.1666157541
  0
LINE
  5
2ED
100
AcDbEntity
  8
0
100
AcDbLine
 62
7
  6
CONTINUOUS
 10
10.7224328176
 20
9.7657489566
 11
10.7476342878
 21
9.7529081661
  0
LINE
  5
2EE
100
AcDbEntity
  8
0
100
AcDbLine
 62
7
  6
CONTINUOUS
 10
11.9696510069
 20
9.1302595481
 11
11.9948524771
 21
9.1174187576
  0
ARC
  5
2EF
100
AcDbEntity
  8
0
100
AcDbCircle
 62
7
  6
CONTINUOUS
 10
11.0473183383
 20
8.8305754976
 40
0.99
100
AcDbArc
 50
157.8708717516
 51
166.1290637168
  0
ARC
  5
2F0
100
AcDbEntity
  8
0
100
AcDbCircle
 62
7
  6
CONTINUOUS
 10
11.0473183383
 20
8.8305754976
 40
0.99
100
AcDbArc
 50
130.1575692425
 51
157.8424307575
  0
ARC
  5
2F1
100
AcDbEntity
  8
0
100
AcDbCircle
 62
7
  6
CONTINUOUS
 10
11.0473183383
 20
8.8305754976
 40
0.99
100
AcDbArc
 50
121.8709240484
 51
130.1291067224
  0
ARC
  5
2F2
100
AcDbEntity
  8
0
100
AcDbCircle
 62
7
  6
CONTINUOUS
 10
11.0473183383
 20
8.8305754976
 40
0.99
100
AcDbArc
 50
94.1575692425
 51
121.8424307575
  0
ARC
  5
2F3
100
AcDbEntity
  8
0
100
AcDbCircle
 62
7
  6
CONTINUOUS
 10
11.0473183383
 20
8.8305754976
 40
0.99
100
AcDbArc
 50
85.8708890907
 51
94.1291109093
  0
ARC
  5
2F4
100
AcDbEntity
  8
0
100
AcDbCircle
 62
7
  6
CONTINUOUS
 10
11.0473183383
 20
8.8305754976
 40
0.99
100
AcDbArc
 50
58.1575692425
 51
85.8424307575
  0
ARC
  5
2F5
100
AcDbEntity
  8
0
100
AcDbCircle
 62
7
  6
CONTINUOUS
 10
11.0473183383
 20
8.8305754976
 40
0.99
100
AcDbArc
 50
49.8708932776
 51
58.1290759516
  0
ARC
  5
2F6
100
AcDbEntity
  8
0
100
AcDbCircle
 62
7
  6
CONTINUOUS
 10
11.0473183383
 20
8.8305754976
 40
0.99
100
AcDbArc
 50
22.1575692425
 51
49.8424307575
  0
ARC
  5
2F7
100
AcDbEntity
  8
0
100
AcDbCircle
 62
7
  6
CONTINUOUS
 10
11.0473183383
 20
8.8305754976
 40
0.99
100
AcDbArc
 50
13.8709362832
 51
22.1291282484
  0
ARC
  5
2F8
100
AcDbEntity
  8
0
100
AcDbCircle
 62
7
  6
CONTINUOUS
 10
11.0473183383
 20
8.8305754976
 40
0.99
100
AcDbArc
 50
166.1575692425
 51
193.8424307575
  0
ARC
  5
2F9
100
AcDbEntity
  8
0
100
AcDbCircle
 62
7
  6
CONTINUOUS
 10
11.0473183383
 20
8.8305754976
 40
0.99
100
AcDbArc
 50
193.8709362832
 51
202.1291282484
  0
ARC
  5
2FA
100
AcDbEntity
  8
0
100
AcDbCircle
 62
7
  6
CONTINUOUS
 10
11.0473183383
 20
8.8305754976
 40
0.99
100
AcDbArc
 50
202.1575692425
 51
229.8424307575
  0
ARC
  5
2FB
100
AcDbEntity
  8
0
100
AcDbCircle
 62
7
  6
CONTINUOUS
 10
11.0473183383
 20
8.8305754976
 40
0.99
100
AcDbArc
 50
229.8708932776
 51
238.1290759516
  0
ARC
  5
2FC
100
AcDbEntity
  8
0
100
AcDbCircle
 62
7
  6
CONTINUOUS
 10
11.0473183383
 20
8.8305754976
 40
0.99
100
AcDbArc
 50
238.1575692425
 51
255.3439029103
  0
ARC
  5
2FD
100
AcDbEntity
  8
0
100
AcDbCircle
 62
7
  6
CONTINUOUS
 10
11.0473183383
 20
8.8305754976
 40
0.99
100
AcDbArc
 50
284.6560970897
 51
301.8424307575
  0
ARC
  5
2FE
100
AcDbEntity
  8
0
100
AcDbCircle
 62
7
  6
CONTINUOUS
 10
11.0473183383
 20
8.8305754976
 40
0.99
100
AcDbArc
 50
301.8709240484
 51
310.1291067224
  0
ARC
  5
2FF
100
AcDbEntity
  8
0
100
AcDbCircle
 62
7
  6
CONTINUOUS
 10
11.0473183383
 20
8.8305754976
 40
0.99
100
AcDbArc
 50
310.1575692425
 51
337.8424307575
  0
ARC
  5
300
100
AcDbEntity
  8
0
100
AcDbCircle
 62
7
  6
CONTINUOUS
 10
11.0473183383
 20
8.8305754976
 40
0.99
100
AcDbArc
 50
337.8708717516
 51
346.1290637168
  0
ARC
  5
301
100
AcDbEntity
  8
0
100
AcDbCircle
 62
7
  6
CONTINUOUS
 10
11.0473183383
 20
8.8305754976
 40
0.99
100
AcDbArc
 50
346.1575692425
 51
13.8424307575
  0
ARC
  5
302
100
AcDbEntity
  8
0
100
AcDbCircle
 62
9
  6
CONTINUOUS
 10
11.0473183383
 20
8.8305754976
 40
0.9167722558
100
AcDbArc
 50
285.8516973246
 51
254.1483026754
  0
ARC
  5
303
100
AcDbEntity
  8
0
100
AcDbCircle
 62
7
  6
CONTINUOUS
 10
11.0473183383
 20
8.8305754976
 40
0.862
100
AcDbArc
 50
286.8874200965
 51
253.1125799035
  0
ARC
  5
304
100
AcDbEntity
  8
0
100
AcDbCircle
 62
7
  6
CONTINUOUS
 10
11.0473183383
 20
8.8305754976
 40
0.715
100
AcDbArc
 50
281.5798750557
 51
258.4201249443
  0
CIRCLE
  5
305
100
AcDbEntity
  8
0
100
AcDbCircle
 62
9
  6
CONTINUOUS
 10
11.0473183383
 20
8.8305754976
 40
0.658087044
  0
ARC
  5
306
100
AcDbEntity
  8
0
100
AcDbCircle
 62
9
  6
CONTINUOUS
 10
11.1336786319
 20
5.3499687606
 40
0.1637537088
100
AcDbArc
 50
343.3309623441
 51
345.0349859062
  0
ARC
  5
307
100
AcDbEntity
  8
0
100
AcDbCircle
 62
9
  6
CONTINUOUS
 10
11.1368032243
 20
5.3492090614
 40
0.1605389311
100
AcDbArc
 50
345.0089581765
 51
352.5962739904
  0
ARC
  5
308
100
AcDbEntity
  8
0
100
AcDbCircle
 62
9
  6
CONTINUOUS
 10
11.1396355847
 20
5.3488384337
 40
0.1576824256
100
AcDbArc
 50
352.5972040252
 51
359.9991083696
  0
SPLINE
  5
309
100
AcDbEntity
  8
0
100
AcDbSpline
 62
7
  6
CONTINUOUS
 70
0
 71
3
 72
22
 73
18
 74
0
 42
0.0000001
 43
0.0000001
 44
0.0000000001
 40
0.0
 40
0.0
 40
0.0
 40
0.0
 40
0.1351507195
 40
0.2022790265
 40
0.2688380151
 40
0.3346685782
 40
0.3996392072
 40
0.4636549571
 40
0.5266574883
 40
0.5886285878
 40
0.6495916285
 40
0.709609759
 40
0.7687826283
 40
0.8272425108
 40
0.8851460408
 40
0.9426705743
 40
1.0
 40
1.0
 40
1.0
 40
1.0
 10
11.0473183377
 20
5.1442849631
 30
0.0
 10
11.0311971251
 20
5.1442849631
 30
0.0
 10
11.0070094447
 20
5.1461875593
 30
0.0
 10
10.9755478871
 20
5.1525155079
 30
0.0
 10
10.9526460001
 20
5.1590943076
 30
0.0
 10
10.9306122847
 20
5.1674620862
 30
0.0
 10
10.9096466532
 20
5.1775536119
 30
0.0
 10
10.8899454382
 20
5.1892901655
 30
0.0
 10
10.8716947316
 20
5.2025795792
 30
0.0
 10
10.8550722034
 20
5.2173167199
 30
0.0
 10
10.8402471137
 20
5.2333832286
 30
0.0
 10
10.8273783241
 20
5.2506442673
 30
0.0
 10
10.8166125034
 20
5.2689471824
 30
0.0
 10
10.8080825458
 20
5.2881198585
 30
0.0
 10
10.8019015262
 20
5.3079707595
 30
0.0
 10
10.7981558513
 20
5.3282828833
 30
0.0
 10
10.7973183383
 20
5.3419975415
 30
0.0
 10
10.7973183383
 20
5.3488359798
 30
0.0
  0
SPLINE
  5
30A
100
AcDbEntity
  8
0
100
AcDbSpline
 62
7
  6
CONTINUOUS
 70
0
 71
3
 72
22
 73
18
 74
0
 42
0.0000001
 43
0.0000001
 44
0.0000000001
 40
0.0
 40
0.0
 40
0.0
 40
0.0
 40
0.057329219
 40
0.1148535262
 40
0.1727570757
 40
0.2312170568
 40
0.2903900864
 40
0.3504084318
 40
0.4113716981
 40
0.4733430143
 40
0.5363457305
 40
0.6003616188
 40
0.665332315
 40
0.7311628551
 40
0.7977217988
 40
0.8648499297
 40
1.0
 40
1.0
 40
1.0
 40
1.0
 10
11.2973183383
 20
5.3488359798
 30
0.0
 10
11.2973183383
 20
5.3419975661
 30
0.0
 10
11.2964808485
 20
5.3282829581
 30
0.0
 10
11.2927351697
 20
5.3079708849
 30
0.0
 10
11.2865541792
 20
5.2881199897
 30
0.0
 10
11.2780242276
 20
5.2689472733
 30
0.0
 10
11.2672583771
 20
5.2506443097
 30
0.0
 10
11.2543895511
 20
5.2333832085
 30
0.0
 10
11.2395644013
 20
5.2173166474
 30
0.0
 10
11.2229418056
 20
5.20257947
 30
0.0
 10
11.2046910401
 20
5.189290027
 30
0.0
 10
11.184989768
 20
5.1775534768
 30
0.0
 10
11.1640241046
 20
5.1674619687
 30
0.0
 10
11.141990385
 20
5.1590942001
 30
0.0
 10
11.1190885142
 20
5.1525154488
 30
0.0
 10
11.0876270548
 20
5.146187542
 30
0.0
 10
11.063439473
 20
5.1442849631
 30
0.0
 10
11.0473183377
 20
5.1442849631
 30
0.0
  0
SPLINE
  5
30B
100
AcDbEntity
  8
0
100
AcDbSpline
 62
9
  6
CONTINUOUS
 70
0
 71
3
 72
21
 73
17
 74
0
 42
0.0000001
 43
0.0000001
 44
0.0000000001
 40
0.0
 40
0.0
 40
0.0
 40
0.0
 40
0.1385587271
 40
0.2072751669
 40
0.2752819606
 40
0.4082481577
 40
0.4730038865
 40
0.5364182421
 40
0.598434848
 40
0.6590488455
 40
0.7183117875
 40
0.7763318192
 40
0.833273165
 40
0.8893527884
 40
0.9448310324
 40
1.0
 40
1.0
 40
1.0
 40
1.0
 10
11.0473183383
 20
5.253958618
 30
0.0
 10
11.0310107508
 20
5.253958618
 30
0.0
 10
11.0065582179
 20
5.2558550226
 30
0.0
 10
10.9747528722
 20
5.2621662348
 30
0.0
 10
10.944188733
 20
5.270825795
 30
0.0
 10
10.9151965223
 20
5.2830255169
 30
0.0
 10
10.8886658843
 20
5.2986068272
 30
0.0
 10
10.8704516286
 20
5.3116760361
 30
0.0
 10
10.8539339503
 20
5.326102867
 30
0.0
 10
10.8392714373
 20
5.3417525424
 30
0.0
 10
10.8266066496
 20
5.3584754846
 30
0.0
 10
10.8160650949
 20
5.3761134403
 30
0.0
 10
10.8077528328
 20
5.3944972306
 30
0.0
 10
10.8017526454
 20
5.4134495783
 30
0.0
 10
10.7981274877
 20
5.4327821621
 30
0.0
 10
10.7973186662
 20
5.445818967
 30
0.0
 10
10.7973186662
 20
5.4523120461
 30
0.0
  0
SPLINE
  5
30C
100
AcDbEntity
  8
0
100
AcDbSpline
 62
9
  6
CONTINUOUS
 70
0
 71
3
 72
21
 73
17
 74
0
 42
0.0000001
 43
0.0000001
 44
0.0000000001
 40
0.0
 40
0.0
 40
0.0
 40
0.0
 40
0.1385587271
 40
0.2072751669
 40
0.2752819606
 40
0.4082481577
 40
0.4730038865
 40
0.5364182421
 40
0.598434848
 40
0.6590488455
 40
0.7183117875
 40
0.7763318192
 40
0.833273165
 40
0.8893527884
 40
0.9448310324
 40
1.0
 40
1.0
 40
1.0
 40
1.0
 10
11.0473183383
 20
5.1504825517
 30
0.0
 10
11.0310107508
 20
5.1504825517
 30
0.0
 10
11.0065582179
 20
5.1523789564
 30
0.0
 10
10.9747528722
 20
5.1586901686
 30
0.0
 10
10.944188733
 20
5.1673497288
 30
0.0
 10
10.9151965223
 20
5.1795494506
 30
0.0
 10
10.8886658843
 20
5.195130761
 30
0.0
 10
10.8704516286
 20
5.2081999699
 30
0.0
 10
10.8539339503
 20
5.2226268007
 30
0.0
 10
10.8392714373
 20
5.2382764762
 30
0.0
 10
10.8266066496
 20
5.2549994184
 30
0.0
 10
10.8160650949
 20
5.2726373741
 30
0.0
 10
10.8077528328
 20
5.2910211643
 30
0.0
 10
10.8017526454
 20
5.3099735121
 30
0.0
 10
10.7981274877
 20
5.3293060959
 30
0.0
 10
10.7973186662
 20
5.3423429008
 30
0.0
 10
10.7973186662
 20
5.3488359798
 30
0.0
  0
SPLINE
  5
30D
100
AcDbEntity
  8
0
100
AcDbSpline
 62
9
  6
CONTINUOUS
 70
0
 71
3
 72
20
 73
16
 74
0
 42
0.0000001
 43
0.0000001
 44
0.0000000001
 40
0.0
 40
0.0
 40
0.0
 40
0.0
 40
0.0411351497
 40
0.0833667664
 40
0.1275790096
 40
0.1745216952
 40
0.2247612001
 40
0.2786558669
 40
0.3363696213
 40
0.397933287
 40
0.4632427051
 40
0.5321092965
 40
0.6792264946
 40
0.8364370506
 40
1.0
 40
1.0
 40
1.0
 40
1.0
 10
10.9037936453
 20
8.1301287383
 30
0.0
 10
10.9046850315
 20
8.1299460893
 30
0.0
 10
10.906460581
 20
8.1294036008
 30
0.0
 10
10.9089778105
 20
8.1280973709
 30
0.0
 10
10.9113398306
 20
8.1263076923
 30
0.0
 10
10.9135262033
 20
8.1240566857
 30
0.0
 10
10.9155222822
 20
8.121365919
 30
0.0
 10
10.9173142816
 20
8.1182587724
 30
0.0
 10
10.9188902435
 20
8.114761321
 30
0.0
 10
10.9202363341
 20
8.11090171
 30
0.0
 10
10.9213441788
 20
8.1067120496
 30
0.0
 10
10.9225143927
 20
8.1005967538
 30
0.0
 10
10.9232908259
 20
8.0923575867
 30
0.0
 10
10.9231681785
 20
8.0819931349
 30
0.0
 10
10.9224079234
 20
8.0749262123
 30
0.0
 10
10.9218596906
 20
8.0713499893
 30
0.0
  0
SPLINE
  5
30E
100
AcDbEntity
  8
0
100
AcDbSpline
 62
9
  6
CONTINUOUS
 70
0
 71
3
 72
15
 73
11
 74
0
 42
0.0000001
 43
0.0000001
 44
0.0000000001
 40
0.0
 40
0.0
 40
0.0
 40
0.0
 40
0.1157709602
 40
0.2350463355
 40
0.357447049
 40
0.4825769427
 40
0.6099409011
 40
0.7390293974
 40
0.8692674013
 40
1.0
 40
1.0
 40
1.0
 40
1.0
 10
11.172776986
 20
8.0713499893
 30
0.0
 10
11.1680633434
 20
8.0701528236
 30
0.0
 10
11.15838612
 20
8.0681351638
 30
0.0
 10
11.1435080959
 20
8.0660528874
 30
0.0
 10
11.1281547319
 20
8.0646903878
 30
0.0
 10
11.1124255338
 20
8.0638674177
 30
0.0
 10
11.0964014116
 20
8.0634167575
 30
0.0
 10
11.0801583832
 20
8.0632091939
 30
0.0
 10
11.0637729847
 20
8.0631217157
 30
0.0
 10
11.0528101396
 20
8.063113929
 30
0.0
 10
11.0473183383
 20
8.0631138014
 30
0.0
  0
SPLINE
  5
30F
100
AcDbEntity
  8
0
100
AcDbSpline
 62
9
  6
CONTINUOUS
 70
0
 71
3
 72
15
 73
11
 74
0
 42
0.0000001
 43
0.0000001
 44
0.0000000001
 40
0.0
 40
0.0
 40
0.0
 40
0.0
 40
0.1307326687
 40
0.2609709087
 40
0.3900596945
 40
0.5174236447
 40
0.6425531427
 40
0.7649535827
 40
0.8842290093
 40
1.0
 40
1.0
 40
1.0
 40
1.0
 10
11.0473183383
 20
8.0631138014
 30
0.0
 10
11.0418265312
 20
8.0631138099
 30
0.0
 10
11.0308636674
 20
8.0631214042
 30
0.0
 10
11.0144782344
 20
8.0632087354
 30
0.0
 10
10.9982351748
 20
8.063416208
 30
0.0
 10
10.9822110466
 20
8.0638668192
 30
0.0
 10
10.9664818787
 20
8.0646900276
 30
0.0
 10
10.9511285583
 20
8.0660527737
 30
0.0
 10
10.9362505208
 20
8.0681349043
 30
0.0
 10
10.9265732831
 20
8.0701526111
 30
0.0
 10
10.9218596906
 20
8.0713499893
 30
0.0
  0
SPLINE
  5
310
100
AcDbEntity
  8
0
100
AcDbSpline
 62
9
  6
CONTINUOUS
 70
0
 71
3
 72
37
 73
33
 74
0
 42
0.0000001
 43
0.0000001
 44
0.0000000001
 40
0.0
 40
0.0
 40
0.0
 40
0.0
 40
0.1062853481
 40
0.2085753964
 40
0.3064406665
 40
0.3995160533
 40
0.487468822
 40
0.5699368133
 40
0.6465207883
 40
0.7168031396
 40
0.780344353
 40
0.8366920415
 40
0.8620263097
 40
0.8853914722
 40
0.9067300488
 40
0.9259861887
 40
0.9431125206
 40
0.9580638547
 40
0.9707948152
 40
0.9763134883
 40
0.9812615778
 40
0.9856364809
 40
0.9894356677
 40
0.992656606
 40
0.9952967619
 40
0.9973535992
 40
0.9981624805
 40
0.9988245802
 40
0.999339581
 40
0.9997071722
 40
0.9999272591
 40
1.0
 40
1.0
 40
1.0
 40
1.0
 10
10.9218596906
 20
8.0713499893
 30
0.0
 10
10.9172534525
 20
8.0725202212
 30
0.0
 10
10.9082453658
 20
8.0749416797
 30
0.0
 10
10.8951105114
 20
8.0788500125
 30
0.0
 10
10.8826408564
 20
8.0829076069
 30
0.0
 10
10.8708772125
 20
8.0870506269
 30
0.0
 10
10.8598544604
 20
8.091215125
 30
0.0
 10
10.8496066476
 20
8.0953367769
 30
0.0
 10
10.8401686873
 20
8.0993488103
 30
0.0
 10
10.8315769929
 20
8.1031841123
 30
0.0
 10
10.8238691598
 20
8.1067764674
 30
0.0
 10
10.8180232769
 20
8.1096042291
 30
0.0
 10
10.813815058
 20
8.1116910389
 30
0.0
 10
10.8110175233
 20
8.113098813
 30
0.0
 10
10.8084696402
 20
8.1143979724
 30
0.0
 10
10.8061757213
 20
8.1155810053
 30
0.0
 10
10.8041401663
 20
8.116641854
 30
0.0
 10
10.8023669653
 20
8.1175747458
 30
0.0
 10
10.8010554349
 20
8.1182703668
 30
0.0
 10
10.8001399915
 20
8.118758153
 30
0.0
 10
10.7995546175
 20
8.1190708215
 30
0.0
 10
10.7990373384
 20
8.1193478047
 30
0.0
 10
10.7985884118
 20
8.1195887622
 30
0.0
 10
10.7982079496
 20
8.1197934626
 30
0.0
 10
10.797896484
 20
8.1199613836
 30
0.0
 10
10.7976794974
 20
8.1200786847
 30
0.0
 10
10.7975413503
 20
8.1201533488
 30
0.0
 10
10.7974620175
 20
8.1201964847
 30
0.0
 10
10.79740449
 20
8.1202271823
 30
0.0
 10
10.7973538892
 20
8.1202556356
 30
0.0
 10
10.7973405825
 20
8.1202609862
 30
0.0
 10
10.7973160134
 20
8.1202761625
 30
0.0
 10
10.7973184748
 20
8.1202740362
 30
0.0
  0
SPLINE
  5
311
100
AcDbEntity
  8
0
100
AcDbSpline
 62
9
  6
CONTINUOUS
 70
0
 71
3
 72
14
 73
10
 74
0
 42
0.0000001
 43
0.0000001
 44
0.0000000001
 40
0.0
 40
0.0
 40
0.0
 40
0.0
 40
0.1267268182
 40
0.2533455835
 40
0.3796633382
 40
0.5054917663
 40
0.6306400956
 40
0.7549489541
 40
1.0
 40
1.0
 40
1.0
 40
1.0
 10
11.0473183383
 20
8.1193446495
 30
0.0
 10
11.0412294095
 20
8.1193446552
 30
0.0
 10
11.0290565749
 20
8.1194183252
 30
0.0
 10
11.0108175782
 20
8.1197786586
 30
0.0
 10
10.9926292279
 20
8.1204183203
 30
0.0
 10
10.9745249316
 20
8.1213651755
 30
0.0
 10
10.956540517
 20
8.1227030243
 30
0.0
 10
10.9329021443
 20
8.1251029848
 30
0.0
 10
10.9153281355
 20
8.1277653227
 30
0.0
 10
10.9037936453
 20
8.1301287383
 30
0.0
  0
SPLINE
  5
312
100
AcDbEntity
  8
0
100
AcDbSpline
 62
9
  6
CONTINUOUS
 70
0
 71
3
 72
14
 73
10
 74
0
 42
0.0000001
 43
0.0000001
 44
0.0000000001
 40
0.0
 40
0.0
 40
0.0
 40
0.0
 40
0.2450511287
 40
0.3693602383
 40
0.4945084947
 40
0.6203367541
 40
0.7466544205
 40
0.8732731618
 40
1.0
 40
1.0
 40
1.0
 40
1.0
 10
11.1908430313
 20
8.1301287383
 30
0.0
 10
11.1793085332
 20
8.1277653444
 30
0.0
 10
11.1617345146
 20
8.1251029757
 30
0.0
 10
11.1380961261
 20
8.122703053
 30
0.0
 10
11.1201117115
 20
8.1213652125
 30
0.0
 10
11.1020074284
 20
8.1204184208
 30
0.0
 10
11.083819091
 20
8.1197788159
 30
0.0
 10
11.0655801007
 20
8.1194184507
 30
0.0
 10
11.0534072676
 20
8.1193447075
 30
0.0
 10
11.0473183383
 20
8.1193446495
 30
0.0
  0
SPLINE
  5
313
100
AcDbEntity
  8
0
100
AcDbSpline
 62
9
  6
CONTINUOUS
 70
0
 71
3
 72
44
 73
40
 74
0
 42
0.0000001
 43
0.0000001
 44
0.0000000001
 40
0.0
 40
0.0
 40
0.0
 40
0.0
 40
0.0000184525
 40
0.0000737471
 40
0.000165911
 40
0.0002949686
 40
0.0004609438
 40
0.0006638451
 40
0.0011802811
 40
0.0018439497
 40
0.0026545162
 40
0.0036116457
 40
0.0047150039
 40
0.0059642563
 40
0.0073590686
 40
0.0105840366
 40
0.0143872374
 40
0.0187660031
 40
0.0237176687
 40
0.0292395024
 40
0.0353272974
 40
0.0419754428
 40
0.0569301579
 40
0.074058521
 40
0.0933155863
 40
0.1146542543
 40
0.1380189874
 40
0.1633526026
 40
0.1905983245
 40
0.2196997334
 40
0.2832409059
 40
0.353522306
 40
0.4301031424
 40
0.5125663211
 40
0.6005133759
 40
0.6935824315
 40
0.7914407605
 40
0.8937231641
 40
1.0
 40
1.0
 40
1.0
 40
1.0
 10
11.2973182001
 20
8.1202759798
 30
0.0
 10
11.2973177634
 20
8.1202766799
 30
0.0
 10
11.2973140915
 20
8.1202725819
 30
0.0
 10
11.2973082733
 20
8.1202715646
 30
0.0
 10
11.2972969684
 20
8.1202642981
 30
0.0
 10
11.297281914
 20
8.1202567017
 30
0.0
 10
11.297262258
 20
8.1202458684
 30
0.0
 10
11.2972274834
 20
8.1202271288
 30
0.0
 10
11.2971731012
 20
8.1201975676
 30
0.0
 10
11.297094871
 20
8.1201551511
 30
0.0
 10
11.2969993002
 20
8.1201033044
 30
0.0
 10
11.2968864344
 20
8.1200421316
 30
0.0
 10
11.2967562953
 20
8.1199716539
 30
0.0
 10
11.2966089127
 20
8.1198919218
 30
0.0
 10
11.2963780297
 20
8.1197671576
 30
0.0
 10
11.2960465347
 20
8.1195883647
 30
0.0
 10
11.2955973393
 20
8.1193467215
 30
0.0
 10
11.2950798311
 20
8.1190690901
 30
0.0
 10
11.2944942319
 20
8.1187558215
 30
0.0
 10
11.2938408352
 20
8.1184072794
 30
0.0
 10
11.2931199908
 20
8.1180240028
 30
0.0
 10
11.2920258024
 20
8.1174444392
 30
0.0
 10
11.2904931371
 20
8.116637979
 30
0.0
 10
11.2884572464
 20
8.1155771242
 30
0.0
 10
11.2861630267
 20
8.1143943355
 30
0.0
 10
11.2836148664
 20
8.1130956151
 30
0.0
 10
11.2808170905
 20
8.1116883703
 30
0.0
 10
11.2777744892
 20
8.1101801647
 30
0.0
 10
11.2744919087
 20
8.1085786532
 30
0.0
 10
11.2696582863
 20
8.1062601839
 30
0.0
 10
11.2630548583
 20
8.1031822479
 30
0.0
 10
11.2544634759
 20
8.0993465513
 30
0.0
 10
11.2450257729
 20
8.0953347213
 30
0.0
 10
11.2347783304
 20
8.0912135717
 30
0.0
 10
11.2237561069
 20
8.0870495651
 30
0.0
 10
11.2119931331
 20
8.0829069262
 30
0.0
 10
11.1995242694
 20
8.0788496153
 30
0.0
 10
11.1863903287
 20
8.074941483
 30
0.0
 10
11.1773828859
 20
8.072520148
 30
0.0
 10
11.172776986
 20
8.0713499893
 30
0.0
  0
SPLINE
  5
314
100
AcDbEntity
  8
0
100
AcDbSpline
 62
9
  6
CONTINUOUS
 70
0
 71
3
 72
21
 73
17
 74
0
 42
0.0000001
 43
0.0000001
 44
0.0000000001
 40
0.0
 40
0.0
 40
0.0
 40
0.0
 40
0.0551689676
 40
0.1106472116
 40
0.166726835
 40
0.2236681808
 40
0.2816882125
 40
0.3409511545
 40
0.401565152
 40
0.4635817579
 40
0.5269961135
 40
0.5917518423
 40
0.7247180394
 40
0.7927248331
 40
0.8614412729
 40
1.0
 40
1.0
 40
1.0
 40
1.0
 10
11.2973180103
 20
5.4523120461
 30
0.0
 10
11.2973180103
 20
5.445818967
 30
0.0
 10
11.2965091889
 20
5.4327821621
 30
0.0
 10
11.2928840311
 20
5.4134495783
 30
0.0
 10
11.2868838437
 20
5.3944972306
 30
0.0
 10
11.2785715816
 20
5.3761134403
 30
0.0
 10
11.2680300269
 20
5.3584754846
 30
0.0
 10
11.2553652392
 20
5.3417525424
 30
0.0
 10
11.2407027263
 20
5.326102867
 30
0.0
 10
11.224185048
 20
5.3116760361
 30
0.0
 10
11.2059707922
 20
5.2986068272
 30
0.0
 10
11.1794401543
 20
5.2830255169
 30
0.0
 10
11.1504479436
 20
5.270825795
 30
0.0
 10
11.1198838044
 20
5.2621662348
 30
0.0
 10
11.0880784587
 20
5.2558550226
 30
0.0
 10
11.0636259258
 20
5.253958618
 30
0.0
 10
11.0473183383
 20
5.253958618
 30
0.0
  0
SPLINE
  5
315
100
AcDbEntity
  8
0
100
AcDbSpline
 62
9
  6
CONTINUOUS
 70
0
 71
3
 72
22
 73
18
 74
0
 42
0.0000001
 43
0.0000001
 44
0.0000000001
 40
0.0
 40
0.0
 40
0.0
 40
0.0
 40
0.0552115796
 40
0.1111873772
 40
0.1680767429
 40
0.2259960828
 40
0.2850285087
 40
0.3452221506
 40
0.4065906335
 40
0.4691159195
 40
0.5327478435
 40
0.5974106417
 40
0.6630036549
 40
0.7294037965
 40
0.863967769
 40
0.9319139454
 40
1.0
 40
1.0
 40
1.0
 40
1.0
 10
11.290551024
 20
5.3029971759
 30
0.0
 10
11.2889321251
 20
5.2975898654
 30
0.0
 10
11.2851089246
 20
5.2868607155
 30
0.0
 10
11.2777467903
 20
5.2713057349
 30
0.0
 10
11.2687734118
 20
5.2562970807
 30
0.0
 10
11.2582546166
 20
5.2419411239
 30
0.0
 10
11.2462652529
 20
5.2283364496
 30
0.0
 10
11.2328892288
 20
5.215578146
 30
0.0
 10
11.2182220272
 20
5.2037524064
 30
0.0
 10
11.2023647275
 20
5.1929429316
 30
0.0
 10
11.185429689
 20
5.183221513
 30
0.0
 10
11.1675339205
 20
5.1746574702
 30
0.0
 10
11.1488013106
 20
5.1673077511
 30
0.0
 10
11.1227780684
 20
5.1591629668
 30
0.0
 10
11.0957320887
 20
5.153693154
 30
0.0
 10
11.0681913238
 20
5.1509447032
 30
0.0
 10
11.0542789882
 20
5.1504825517
 30
0.0
 10
11.0473183383
 20
5.1504825517
 30
0.0
  0
SPLINE
  5
316
100
AcDbEntity
  8
0
100
AcDbSpline
 62
9
  6
CONTINUOUS
 70
0
 71
3
 72
20
 73
16
 74
0
 42
0.0000001
 43
0.0000001
 44
0.0000000001
 40
0.0
 40
0.0
 40
0.0
 40
0.0
 40
0.0411364931
 40
0.083369126
 40
0.1275820647
 40
0.1745251582
 40
0.2247648298
 40
0.2786594695
 40
0.3363730467
 40
0.3979364244
 40
0.4632454806
 40
0.532111666
 40
0.6792280049
 40
0.8364377497
 40
1.0
 40
1.0
 40
1.0
 40
1.0
 10
11.1908430312
 20
8.1301287383
 30
0.0
 10
11.1899516129
 20
8.1299460827
 30
0.0
 10
11.1881760056
 20
8.1294035847
 30
0.0
 10
11.1856586965
 20
8.1280973406
 30
0.0
 10
11.1832966136
 20
8.1263076502
 30
0.0
 10
11.1811101945
 20
8.1240566341
 30
0.0
 10
11.1791140848
 20
8.1213658604
 30
0.0
 10
11.1773220694
 20
8.1182587095
 30
0.0
 10
11.175746105
 20
8.1147612565
 30
0.0
 10
11.1744000242
 20
8.1109016464
 30
0.0
 10
11.1732921999
 20
8.1067119893
 30
0.0
 10
11.1721220259
 20
8.1005967007
 30
0.0
 10
11.1713456615
 20
8.0923575443
 30
0.0
 10
11.1714684046
 20
8.0819931109
 30
0.0
 10
11.1722287206
 20
8.0749262041
 30
0.0
 10
11.1727769858
 20
8.0713499893
 30
0.0
  0
ENDSEC
  0
SECTION
  2
OBJECTS
  0
DICTIONARY
  5
C
100
AcDbDictionary
280
0
281
1
  3
ACAD_GROUP
350
D
  3
ACAD_MLINESTYLE
350
17
  3
ACAD_LAYOUT
350
1A
  3
ACAD_PLOTSETTINGS
350
19
  3
ACAD_PLOTSTYLENAME
350
E
  0
DICTIONARY
  5
D
102
{ACAD_REACTORS
330
C
102
}
100
AcDbDictionary
280
0
281
1
  0
ACDBDICTIONARYWDFLT
  5
E
102
{ACAD_REACTORS
330
C
102
}
100
AcDbDictionary
281
1
  3
Normal
350
F
100
AcDbDictionaryWithDefault
340
F
  0
DICTIONARY
  5
17
102
{ACAD_REACTORS
330
C
102
}
100
AcDbDictionary
280
0
281
1
  3
Standard
350
18
  0
DICTIONARY
  5
19
102
{ACAD_REACTORS
330
C
102
}
100
AcDbDictionary
281
1
  0
DICTIONARY
  5
1A
102
{ACAD_REACTORS
330
C
102
}
100
AcDbDictionary
281
1
  3
Model
350
317
  3
Layout1
350
318
  0
ACDBPLACEHOLDER
  5
F
102
{ACAD_REACTORS
330
E
102
}
  0
MLINESTYLE
  5
18
102
{ACAD_REACTORS
330
17
102
}
100
AcDbMlineStyle
  2
STANDARD
 70
0
  3

 62
256
 51
90.0
 52
90.0
 71
2
 49
0.5
 62
256
  6
BYLAYER
 49
-0.5
 62
256
  6
BYLAYER
  0
LAYOUT
  5
317
102
{ACAD_REACTORS
330
1A
102
}
100
AcDbPlotSettings
  1

  2
none_device
  4
ANSI_C_(22.00_x_17.00_Inches)
  6

 40
0.0
 41
0.0
 42
0.0
 43
0.0
 44
558.8
 45
431.8
 46
0.0
 47
0.0
 48
0.0
 49
0.0
140
0.0
141
0.0
142
1.0
143
1.0
 70
1024
 72
0
 73
0
 74
0
  7

 75
0
147
1.0
148
0.0
149
0.0
100
AcDbLayout
  1
Model
 70
0
 71
0
 10
0.0
 20
0.0
 11
22.0
 21
17.0
 12
0.0
 22
0.0
 32
0.0
 14
0.0
 24
0.0
 34
0.0
 15
0.0
 25
0.0
 35
0.0
146
0.0
 13
0.0
 23
0.0
 33
0.0
 16
1.0
 26
0.0
 36
0.0
 17
0.0
 27
1.0
 37
0.0
 76
0
330
205
345
0
346
0
  0
LAYOUT
  5
318
102
{ACAD_REACTORS
330
1A
102
}
100
AcDbPlotSettings
  1

  2
none_device
  4
ANSI_C_(22.00_x_17.00_Inches)
  6

 40
0.0
 41
0.0
 42
0.0
 43
0.0
 44
558.8
 45
431.8
 46
0.0
 47
0.0
 48
0.0
 49
0.0
140
0.0
141
0.0
142
1.0
143
1.0
 70
0
 72
0
 73
0
 74
0
  7

 75
0
147
1.0
148
0.0
149
0.0
100
AcDbLayout
  1
Layout1
 70
0
 71
1
 10
0.0
 20
0.0
 11
22.0
 21
17.0
 12
0.0
 22
0.0
 32
0.0
 14
0.0
 24
0.0
 34
0.0
 15
0.0
 25
0.0
 35
0.0
146
0.0
 13
0.0
 23
0.0
 33
0.0
 16
1.0
 26
0.0
 36
0.0
 17
0.0
 27
1.0
 37
0.0
 76
0
330
206
345
0
346
0
  0
ENDSEC
  0
EOF
