999
DXF file: 2949_right.dxf
999
Pro/ENGINEER 2019352 by Parametric Technology Corporation
  0
SECTION
  2
HEADER
  9
$ACADVER
  1
AC1032
  9
$DWGCODEPAGE
  3
ANSI_1252
  9
$EXTMAX
 10
11.0
 20
8.5
 30
0.0
  9
$EXTMIN
 10
0.0
 20
0.0
 30
0.0
  9
$LIMMIN
 10
0.0
 20
0.0
  9
$LIMMAX
 10
11.0
 20
8.5
  9
$VIEWCTR
 10
5.5
 20
4.25
  9
$VIEWSIZE
 40
8.5
  9
$CLAYER
  8
0
  9
$LTSCALE
 40
0.605
  9
$CELTYPE
  6
BYLAYER
  9
$DIMSCALE
 40
1.0
  9
$DIMASZ
 40
0.1
  9
$DIMEXO
 40
0.0625
  9
$DIMDLI
 40
0.418
  9
$DIMEXE
 40
0.125
  9
$DIMCEN
 40
0.099
  9
$DIMLFAC
 40
1.0
  9
$DIMBLK
  1
_FILLED
  9
$DIMALT
 70
1
  9
$DIMALTD
 70
2
  9
$DIMALTTD
 70
2
  9
$DIMALTF
 40
25.4
  9
$DIMTXT
 40
0.08
  9
$DIMTOL
 70
1
  9
$DIMLIM
 70
0
  9
$DIMTFAC
 40
1.0
  9
$DIMTP
 40
0.001
  9
$DIMTM
 40
0.001
  9
$DIMGAP
 40
0.09
  9
$DIMDSEP
 70
46
  9
$AUNITS
 70
0
  9
$PDMODE
 70
3
  9
$PDSIZE
 40
0.3125
  9
$HANDSEED
  5
3C2
  9
$TILEMODE
 70
1
  9
$MEASUREMENT
 70
0
  9
$INSUNITS
 70
1
  0
ENDSEC
  0
SECTION
  2
CLASSES
  0
CLASS
  1
ACDBDICTIONARYWDFLT
  2
AcDbDictionaryWithDefault
  3
AutoCAD 2000
 90
0
 91
1
280
0
281
0
  0
CLASS
  1
ACDBPLACEHOLDER
  2
AcDbPlaceHolder
  3
AutoCAD 2000
 90
0
 91
1
280
0
281
0
  0
CLASS
  1
LAYOUT
  2
AcDbLayout
  3
AutoCAD 2000
 90
0
 91
0
280
0
281
0
  0
ENDSEC
  0
SECTION
  2
TABLES
  0
TABLE
  2
VPORT
  5
8
100
AcDbSymbolTable
 70
2
  0
VPORT
  5
1F4
100
AcDbSymbolTableRecord
100
AcDbViewportTableRecord
  2
*ACTIVE
 70
0
 10
0.0
 20
0.0
 11
1.0
 21
1.0
 12
5.5
 22
4.25
 13
0.0
 23
0.0
 14
1.0
 24
1.0
 15
0.0
 25
0.0
 16
0.0
 26
0.0
 36
1.0
 17
0.0
 27
0.0
 37
0.0
 40
8.5
 41
1.2941176471
 42
50.0
 43
0.0
 44
0.0
 50
0.0
 51
0.0
 71
0
 72
100
 73
1
 74
1
 75
0
 76
0
 77
0
 78
0
  0
ENDTAB
  0
TABLE
  2
LTYPE
  5
5
100
AcDbSymbolTable
 70
6
  0
LTYPE
  5
14
100
AcDbSymbolTableRecord
100
AcDbLinetypeTableRecord
  2
BYBLOCK
 70
0
  3

 72
65
 73
0
 40
0.0
  0
LTYPE
  5
15
100
AcDbSymbolTableRecord
100
AcDbLinetypeTableRecord
  2
BYLAYER
 70
0
  3

 72
65
 73
0
 40
0.0
  0
LTYPE
  5
16
100
AcDbSymbolTableRecord
100
AcDbLinetypeTableRecord
  2
CONTINUOUS
 70
64
  3
Solid line
 72
65
 73
0
 40
0.0
  0
LTYPE
  5
1F5
100
AcDbSymbolTableRecord
100
AcDbLinetypeTableRecord
  2
CENTER
 70
64
  3
____ _ ____ _ ____ _ ____ _ ____ _ ____ _ ____
 72
65
 73
4
 40
0.6
 49
0.375
 74
0
 49
-0.075
 74
0
 49
0.075
 74
0
 49
-0.075
 74
0
  0
LTYPE
  5
1F6
100
AcDbSymbolTableRecord
100
AcDbLinetypeTableRecord
  2
HIDDEN
 70
64
  3
- - - - - - - - - - - - - - - - - - - -
 72
65
 73
2
 40
0.2
 49
0.1
 74
0
 49
-0.1
 74
0
  0
LTYPE
  5
1F7
100
AcDbSymbolTableRecord
100
AcDbLinetypeTableRecord
  2
PHANTOM
 70
64
  3
_____ _ _ _____ _ _ _____ _ _ _____
 72
65
 73
6
 40
0.8
 49
0.45
 74
0
 49
-0.05
 74
0
 49
0.1
 74
0
 49
-0.05
 74
0
 49
0.1
 74
0
 49
-0.05
 74
0
  0
LTYPE
  5
1F8
100
AcDbSymbolTableRecord
100
AcDbLinetypeTableRecord
  2
DOT
 70
64
  3
. . . . . . . . . . . . . . . . . . . .
 72
65
 73
2
 40
0.2
 49
0.1
 74
0
 49
-0.1
 74
0
  0
LTYPE
  5
1F9
100
AcDbSymbolTableRecord
100
AcDbLinetypeTableRecord
  2
DASHED
 70
64
  3
- - - - - - - - - - - - - - - - - - - -
 72
65
 73
2
 40
0.2
 49
0.1
 74
0
 49
-0.1
 74
0
  0
ENDTAB
  0
TABLE
  2
LAYER
  5
2
100
AcDbSymbolTable
 70
36
  0
LAYER
  5
10
100
AcDbSymbolTableRecord
100
AcDbLayerTableRecord
  2
0
 70
0
 62
7
  6
CONTINUOUS
370
-3
390
F
  0
LAYER
  5
1FA
100
AcDbSymbolTableRecord
100
AcDbLayerTableRecord
  2
DEFAULT_1
 70
0
 62
7
  6
CENTER
370
-3
390
F
  0
LAYER
  5
1FB
100
AcDbSymbolTableRecord
100
AcDbLayerTableRecord
  2
DEFAULT_2
 70
0
 62
8
  6
HIDDEN
370
-3
390
F
  0
LAYER
  5
1FC
100
AcDbSymbolTableRecord
100
AcDbLayerTableRecord
  2
DEFAULT_3
 70
0
 62
7
  6
PHANTOM
370
-3
390
F
  0
LAYER
  5
1FD
100
AcDbSymbolTableRecord
100
AcDbLayerTableRecord
  2
DEFAULT_COORDINATE_SYSTEM
 70
0
 62
7
  6
CONTINUOUS
370
-3
390
F
  0
LAYER
  5
1FE
100
AcDbSymbolTableRecord
100
AcDbLayerTableRecord
  2
DEFAULT_DATUM_AXES
 70
0
 62
7
  6
CONTINUOUS
370
-3
390
F
  0
LAYER
  5
1FF
100
AcDbSymbolTableRecord
100
AcDbLayerTableRecord
  2
DEFAULT_DATUM_PLANES
 70
0
 62
7
  6
CONTINUOUS
370
-3
390
F
  0
ENDTAB
  0
TABLE
  2
STYLE
  5
3
100
AcDbSymbolTable
 70
1
  0
STYLE
  5
11
100
AcDbSymbolTableRecord
100
AcDbTextStyleTableRecord
  2
STANDARD
 70
0
 40
0.0
 41
0.8
 50
0.0
 71
0
 42
0.2
  3
txt
  4

  0
STYLE
  5
200
100
AcDbSymbolTableRecord
100
AcDbTextStyleTableRecord
  2
TEXTSTYLE_1
 70
0
 40
0.0
 41
0.8
 50
0.0
 71
0
 42
0.2
  3
gdt
  4

  0
ENDTAB
  0
TABLE
  2
VIEW
  5
6
100
AcDbSymbolTable
 70
0
  0
ENDTAB
  0
TABLE
  2
UCS
  5
7
100
AcDbSymbolTable
 70
0
  0
ENDTAB
  0
TABLE
  2
APPID
  5
9
100
AcDbSymbolTable
 70
1
  0
APPID
  5
201
100
AcDbSymbolTableRecord
100
AcDbRegAppTableRecord
  2
ACAD
 70
0
  0
ENDTAB
  0
TABLE
  2
BLOCK_RECORD
  5
1
100
AcDbSymbolTable
 70
0
  0
BLOCK_RECORD
  5
202
100
AcDbSymbolTableRecord
100
AcDbBlockTableRecord
  2
*Model_Space
  0
BLOCK_RECORD
  5
203
100
AcDbSymbolTableRecord
100
AcDbBlockTableRecord
  2
*Paper_Space
  0
BLOCK_RECORD
  5
204
100
AcDbSymbolTableRecord
100
AcDbBlockTableRecord
  2
_FILLED
  0
ENDTAB
  0
TABLE
  2
DIMSTYLE
  5
A
100
AcDbSymbolTable
 70
1
100
AcDbDimStyleTable
 71
0
  0
DIMSTYLE
105
205
100
AcDbSymbolTableRecord
100
AcDbDimStyleTableRecord
  2
STANDARD
 70
0
  3

  4

 40
1.0
 41
0.1
 42
0.0625
 43
0.38
 44
0.125
 45
0.0
 46
0.0
 47
0.001
 48
0.001
140
0.08
141
0.09
142
0.0
143
25.4
144
1.0
145
0.0
146
1.0
147
0.09
 71
1.0
 72
0.0
 73
1
 74
1
 75
0
 76
0
 77
0
 78
4
 79
1
170
1
171
2
172
0
173
0
174
0
175
0
176
0
177
0
178
0
270
2
179
3
271
3
272
3
273
2
274
2
275
0
280
0
281
0
282
0
283
1
284
4
285
0
286
0
287
3
288
0
340
11
278
46
341
204
342
204
343
204
344
204
  0
ENDTAB
  0
ENDSEC
  0
SECTION
  2
BLOCKS
  0
BLOCK
  5
20
100
AcDbEntity
  8
0
100
AcDbBlockBegin
  2
*Model_Space
 70
0
 10
0.0
 20
0.0
 30
0.0
  3
*Model_Space
  1

  0
ENDBLK
  5
21
100
AcDbEntity
  8
0
100
AcDbBlockEnd
  0
BLOCK
  5
1C
100
AcDbEntity
  8
0
100
AcDbBlockBegin
  2
*Paper_Space
 70
0
 10
0.0
 20
0.0
 30
0.0
  3
*Paper_Space
  1

  0
ENDBLK
  5
1D
100
AcDbEntity
  8
0
100
AcDbBlockEnd
  0
BLOCK
  5
206
100
AcDbEntity
  8
0
100
AcDbBlockBegin
  2
_FILLED
 70
64
 10
0.0
 20
0.0
  3
_FILLED
  1

  0
SOLID
  5
207
100
AcDbEntity
  8
0
  6
BYBLOCK
 62
0
100
AcDbTrace
 10
0.0
 20
0.0
 11
-1.0
 21
0.2
 12
-1.0
 22
-0.2
 13
-1.0
 23
-0.2
  0
ENDBLK
  5
208
100
AcDbEntity
  8
0
  6
BYBLOCK
 62
0
100
AcDbBlockEnd
  0
ENDSEC
  0
SECTION
  2
ENTITIES
  0
MTEXT
  5
209
100
AcDbEntity
  8
0
100
AcDbMText
 62
2
  6
CONTINUOUS
  7
STANDARD
 71
3
 72
1
 10
5.7104356112
 20
1.802406446
 30
0.0
 11
1.0
 21
0.0
 31
0.0
 73
2
 44
0.9
  1
SCALE 0.375
 40
0.08
 41
0.704
  0
LINE
  5
20A
100
AcDbEntity
  8
0
100
AcDbLine
 62
7
  6
CONTINUOUS
 10
0.0
 20
0.0
 11
0.0
 21
8.5
  0
LINE
  5
20B
100
AcDbEntity
  8
0
100
AcDbLine
 62
7
  6
CONTINUOUS
 10
0.0
 20
0.0
 11
11.0
 21
0.0
  0
LINE
  5
20C
100
AcDbEntity
  8
0
100
AcDbLine
 62
7
  6
CONTINUOUS
 10
0.0
 20
8.5
 11
11.0
 21
8.5
  0
LINE
  5
20D
100
AcDbEntity
  8
0
100
AcDbLine
 62
7
  6
CONTINUOUS
 10
11.0
 20
0.0
 11
11.0
 21
8.5
  0
LINE
  5
20E
100
AcDbEntity
  8
0
100
AcDbLine
 62
7
  6
CONTINUOUS
 10
1.0752912672
 20
3.4512803482
 11
1.0752912672
 21
3.4812803482
  0
LINE
  5
20F
100
AcDbEntity
  8
0
100
AcDbLine
 62
7
  6
CONTINUOUS
 10
1.4221662672
 20
3.4512803482
 11
1.4221662672
 21
3.4812803482
  0
LINE
  5
210
100
AcDbEntity
  8
0
100
AcDbLine
 62
7
  6
CONTINUOUS
 10
2.5424787672
 20
3.5787803482
 11
2.5424787672
 21
3.5187803482
  0
LINE
  5
211
100
AcDbEntity
  8
0
100
AcDbLine
 62
7
  6
CONTINUOUS
 10
2.6756037672
 20
3.5037803482
 11
2.6756037672
 21
3.3575303482
  0
LINE
  5
212
100
AcDbEntity
  8
0
100
AcDbLine
 62
7
  6
CONTINUOUS
 10
2.8218537672
 20
3.5037803482
 11
2.8218537672
 21
3.3575303482
  0
LINE
  5
213
100
AcDbEntity
  8
0
100
AcDbLine
 62
7
  6
CONTINUOUS
 10
2.9549787672
 20
3.5787803482
 11
2.9549787672
 21
3.5187803482
  0
LINE
  5
214
100
AcDbEntity
  8
0
100
AcDbLine
 62
7
  6
CONTINUOUS
 10
0.9524792897
 20
3.2637803482
 11
1.5449782446
 21
3.2637803482
  0
LINE
  5
215
100
AcDbEntity
  8
0
100
AcDbLine
 62
7
  6
CONTINUOUS
 10
2.5027287672
 20
3.2637803482
 11
2.9947287672
 21
3.2637803482
  0
LINE
  5
216
100
AcDbEntity
  8
0
100
AcDbLine
 62
7
  6
CONTINUOUS
 10
5.3924787672
 20
3.2637803482
 11
6.1049787672
 21
3.2637803482
  0
LINE
  5
217
100
AcDbEntity
  8
0
100
AcDbLine
 62
7
  6
CONTINUOUS
 10
8.7440412672
 20
3.2637803482
 11
9.5034162672
 21
3.2637803482
  0
LINE
  5
218
100
AcDbEntity
  8
0
100
AcDbLine
 62
7
  6
CONTINUOUS
 10
5.3924787672
 20
3.2937803482
 11
6.1049787672
 21
3.2937803482
  0
LINE
  5
219
100
AcDbEntity
  8
0
100
AcDbLine
 62
7
  6
CONTINUOUS
 10
2.9285702218
 20
3.3106553482
 11
2.5688873126
 21
3.3106553482
  0
LINE
  5
21A
100
AcDbEntity
  8
0
100
AcDbLine
 62
7
  6
CONTINUOUS
 10
5.4112287672
 20
3.3125303482
 11
6.0862287672
 21
3.3125303482
  0
LINE
  5
21B
100
AcDbEntity
  8
0
100
AcDbLine
 62
7
  6
CONTINUOUS
 10
6.1049148141
 20
3.3500303482
 11
5.3925427203
 21
3.3500303482
  0
LINE
  5
21C
100
AcDbEntity
  8
0
100
AcDbLine
 62
7
  6
CONTINUOUS
 10
8.7440412672
 20
3.3571431485
 11
9.5034162672
 21
3.3571431485
  0
LINE
  5
21D
100
AcDbEntity
  8
0
100
AcDbLine
 62
7
  6
CONTINUOUS
 10
2.8583505778
 20
3.3575303482
 11
2.6391060626
 21
3.3575303482
  0
LINE
  5
21E
100
AcDbEntity
  8
0
100
AcDbLine
 62
7
  6
CONTINUOUS
 10
5.3925427203
 20
3.3800303482
 11
6.1049148141
 21
3.3800303482
  0
LINE
  5
21F
100
AcDbEntity
  8
0
100
AcDbLine
 62
7
  6
CONTINUOUS
 10
8.7581037672
 20
3.3837803482
 11
9.4893537672
 21
3.3837803482
  0
LINE
  5
220
100
AcDbEntity
  8
0
100
AcDbLine
 62
7
  6
CONTINUOUS
 10
6.0358753632
 20
3.3984053482
 11
5.4615821712
 21
3.3984053482
  0
LINE
  5
221
100
AcDbEntity
  8
0
100
AcDbLine
 62
7
  6
CONTINUOUS
 10
6.0251434784
 20
3.4062803482
 11
5.472314056
 21
3.4062803482
  0
LINE
  5
222
100
AcDbEntity
  8
0
100
AcDbLine
 62
7
  6
CONTINUOUS
 10
5.5143537672
 20
3.4100303482
 11
5.9831037672
 21
3.4100303482
  0
LINE
  5
223
100
AcDbEntity
  8
0
100
AcDbLine
 62
7
  6
CONTINUOUS
 10
1.0631037903
 20
3.4512803482
 11
1.4343537441
 21
3.4512803482
  0
LINE
  5
224
100
AcDbEntity
  8
0
100
AcDbLine
 62
7
  6
CONTINUOUS
 10
1.0752912672
 20
3.4812803482
 11
1.4221662672
 21
3.4812803482
  0
LINE
  5
225
100
AcDbEntity
  8
0
100
AcDbLine
 62
7
  6
CONTINUOUS
 10
2.9399787672
 20
3.5037803482
 11
2.5574787672
 21
3.5037803482
  0
LINE
  5
226
100
AcDbEntity
  8
0
100
AcDbLine
 62
7
  6
CONTINUOUS
 10
2.9549787672
 20
3.5187803482
 11
2.5424787672
 21
3.5187803482
  0
LINE
  5
227
100
AcDbEntity
  8
0
100
AcDbLine
 62
7
  6
CONTINUOUS
 10
1.4089617998
 20
3.5428188097
 11
1.0884957346
 21
3.5428188097
  0
LINE
  5
228
100
AcDbEntity
  8
0
100
AcDbLine
 62
7
  6
CONTINUOUS
 10
1.4055416096
 20
3.5450303482
 11
1.0919159248
 21
3.5450303482
  0
LINE
  5
229
100
AcDbEntity
  8
0
100
AcDbLine
 62
7
  6
CONTINUOUS
 10
2.9549787672
 20
3.5787803482
 11
2.5424787672
 21
3.5787803482
  0
LINE
  5
22A
100
AcDbEntity
  8
0
100
AcDbLine
 62
7
  6
CONTINUOUS
 10
2.9399787672
 20
3.5937803482
 11
2.5574787672
 21
3.5937803482
  0
LINE
  5
22B
100
AcDbEntity
  8
0
100
AcDbLine
 62
7
  6
CONTINUOUS
 10
9.3893008413
 20
3.6990597757
 11
8.8581566931
 21
3.6990597757
  0
LINE
  5
22C
100
AcDbEntity
  8
0
100
AcDbLine
 62
7
  6
CONTINUOUS
 10
9.3700552435
 20
3.752533138
 11
8.8774022909
 21
3.752533138
  0
LINE
  5
22D
100
AcDbEntity
  8
0
100
AcDbLine
 62
7
  6
CONTINUOUS
 10
6.0168420585
 20
3.8675303482
 11
5.957051117
 21
3.8675303482
  0
LINE
  5
22E
100
AcDbEntity
  8
0
100
AcDbLine
 62
7
  6
CONTINUOUS
 10
5.9570274384
 20
3.8675303482
 11
5.4806154759
 21
3.8675303482
  0
LINE
  5
22F
100
AcDbEntity
  8
0
100
AcDbLine
 62
7
  6
CONTINUOUS
 10
5.4806154759
 20
3.9050303482
 11
5.9570274384
 21
3.9050303482
  0
LINE
  5
230
100
AcDbEntity
  8
0
100
AcDbLine
 62
7
  6
CONTINUOUS
 10
5.957051117
 20
3.9050303482
 11
6.0168420585
 21
3.9050303482
  0
LINE
  5
231
100
AcDbEntity
  8
0
100
AcDbLine
 62
7
  6
CONTINUOUS
 10
5.9299684893
 20
3.9468830268
 11
5.5674890451
 21
3.9468830268
  0
LINE
  5
232
100
AcDbEntity
  8
0
100
AcDbLine
 62
7
  6
CONTINUOUS
 10
5.9205994023
 20
3.9519053482
 11
5.5768581321
 21
3.9519053482
  0
LINE
  5
233
100
AcDbEntity
  8
0
100
AcDbLine
 62
7
  6
CONTINUOUS
 10
5.5987287672
 20
3.9631553482
 11
5.8987287672
 21
3.9631553482
  0
LINE
  5
234
100
AcDbEntity
  8
0
100
AcDbLine
 62
7
  6
CONTINUOUS
 10
5.8987287672
 20
3.9969053482
 11
5.5987287672
 21
3.9969053482
  0
LINE
  5
235
100
AcDbEntity
  8
0
100
AcDbLine
 62
7
  6
CONTINUOUS
 10
5.8874787672
 20
4.0081553482
 11
5.6099787672
 21
4.0081553482
  0
LINE
  5
236
100
AcDbEntity
  8
0
100
AcDbLine
 62
7
  6
CONTINUOUS
 10
5.8602912672
 20
4.0875156459
 11
5.6371662672
 21
4.0875156459
  0
LINE
  5
237
100
AcDbEntity
  8
0
100
AcDbLine
 62
7
  6
CONTINUOUS
 10
5.8668537672
 20
4.0949568215
 11
5.6306037672
 21
4.0949568215
  0
LINE
  5
238
100
AcDbEntity
  8
0
100
AcDbLine
 62
7
  6
CONTINUOUS
 10
5.8640412672
 20
4.1397803482
 11
5.6334162672
 21
4.1397803482
  0
LINE
  5
239
100
AcDbEntity
  8
0
100
AcDbLine
 62
7
  6
CONTINUOUS
 10
5.6756037672
 20
4.1472803482
 11
5.7204773359
 21
4.1472803482
  0
LINE
  5
23A
100
AcDbEntity
  8
0
100
AcDbLine
 62
7
  6
CONTINUOUS
 10
5.7769801985
 20
4.1472803482
 11
5.8218537672
 21
4.1472803482
  0
LINE
  5
23B
100
AcDbEntity
  8
0
100
AcDbLine
 62
7
  6
CONTINUOUS
 10
5.6756037672
 20
4.1566553482
 11
5.6908715284
 21
4.1566553482
  0
LINE
  5
23C
100
AcDbEntity
  8
0
100
AcDbLine
 62
7
  6
CONTINUOUS
 10
5.806586006
 20
4.1566553482
 11
5.8218537672
 21
4.1566553482
  0
LINE
  5
23D
100
AcDbEntity
  8
0
100
AcDbLine
 62
7
  6
CONTINUOUS
 10
6.1049787672
 20
3.2937803482
 11
6.0862287672
 21
3.3125303482
  0
LINE
  5
23E
100
AcDbEntity
  8
0
100
AcDbLine
 62
7
  6
CONTINUOUS
 10
5.3924787672
 20
3.2637803482
 11
5.3924787672
 21
3.2937803482
  0
LINE
  5
23F
100
AcDbEntity
  8
0
100
AcDbLine
 62
7
  6
CONTINUOUS
 10
5.3925427203
 20
3.3500303482
 11
5.3925427203
 21
3.3800303482
  0
LINE
  5
240
100
AcDbEntity
  8
0
100
AcDbLine
 62
7
  6
CONTINUOUS
 10
5.3926775932
 20
3.3500303482
 11
5.3926775932
 21
3.3800303482
  0
LINE
  5
241
100
AcDbEntity
  8
0
100
AcDbLine
 62
7
  6
CONTINUOUS
 10
5.3933841286
 20
3.3500303482
 11
5.3933841286
 21
3.3800303482
  0
LINE
  5
242
100
AcDbEntity
  8
0
100
AcDbLine
 62
7
  6
CONTINUOUS
 10
5.3937883776
 20
3.3500303482
 11
5.3937883776
 21
3.3800303482
  0
LINE
  5
243
100
AcDbEntity
  8
0
100
AcDbLine
 62
7
  6
CONTINUOUS
 10
5.3951995119
 20
3.3500303482
 11
5.3951995119
 21
3.3800303482
  0
LINE
  5
244
100
AcDbEntity
  8
0
100
AcDbLine
 62
7
  6
CONTINUOUS
 10
5.395872029
 20
3.3500303482
 11
5.395872029
 21
3.3800303482
  0
LINE
  5
245
100
AcDbEntity
  8
0
100
AcDbLine
 62
7
  6
CONTINUOUS
 10
5.3979838942
 20
3.3500303482
 11
5.3979838942
 21
3.3800303482
  0
LINE
  5
246
100
AcDbEntity
  8
0
100
AcDbLine
 62
7
  6
CONTINUOUS
 10
5.3989228361
 20
3.3500303482
 11
5.3989228361
 21
3.3800303482
  0
LINE
  5
247
100
AcDbEntity
  8
0
100
AcDbLine
 62
7
  6
CONTINUOUS
 10
5.4017296439
 20
3.3500303482
 11
5.4017296439
 21
3.3800303482
  0
LINE
  5
248
100
AcDbEntity
  8
0
100
AcDbLine
 62
7
  6
CONTINUOUS
 10
5.402932437
 20
3.3500303482
 11
5.402932437
 21
3.3800303482
  0
LINE
  5
249
100
AcDbEntity
  8
0
100
AcDbLine
 62
7
  6
CONTINUOUS
 10
5.4064264941
 20
3.3500303482
 11
5.4064264941
 21
3.3800303482
  0
LINE
  5
24A
100
AcDbEntity
  8
0
100
AcDbLine
 62
7
  6
CONTINUOUS
 10
5.4078898416
 20
3.3500303482
 11
5.4078898416
 21
3.3800303482
  0
LINE
  5
24B
100
AcDbEntity
  8
0
100
AcDbLine
 62
7
  6
CONTINUOUS
 10
5.4112287672
 20
3.3125303482
 11
5.4112287672
 21
3.3500303482
  0
LINE
  5
24C
100
AcDbEntity
  8
0
100
AcDbLine
 62
7
  6
CONTINUOUS
 10
5.412061571
 20
3.3500303482
 11
5.412061571
 21
3.3800303482
  0
LINE
  5
24D
100
AcDbEntity
  8
0
100
AcDbLine
 62
7
  6
CONTINUOUS
 10
5.413781462
 20
3.3500303482
 11
5.413781462
 21
3.3800303482
  0
LINE
  5
24E
100
AcDbEntity
  8
0
100
AcDbLine
 62
7
  6
CONTINUOUS
 10
5.4186194293
 20
3.3500303482
 11
5.4186194293
 21
3.3800303482
  0
LINE
  5
24F
100
AcDbEntity
  8
0
100
AcDbLine
 62
7
  6
CONTINUOUS
 10
5.4205911496
 20
3.3500303482
 11
5.4205911496
 21
3.3800303482
  0
LINE
  5
250
100
AcDbEntity
  8
0
100
AcDbLine
 62
7
  6
CONTINUOUS
 10
5.4260820943
 20
3.3500303482
 11
5.4260820943
 21
3.3800303482
  0
LINE
  5
251
100
AcDbEntity
  8
0
100
AcDbLine
 62
7
  6
CONTINUOUS
 10
5.4283002397
 20
3.3500303482
 11
5.4283002397
 21
3.3800303482
  0
LINE
  5
252
100
AcDbEntity
  8
0
100
AcDbLine
 62
7
  6
CONTINUOUS
 10
5.4344291115
 20
3.3500303482
 11
5.4344291115
 21
3.3800303482
  0
LINE
  5
253
100
AcDbEntity
  8
0
100
AcDbLine
 62
7
  6
CONTINUOUS
 10
5.4368876021
 20
3.3500303482
 11
5.4368876021
 21
3.3800303482
  0
LINE
  5
254
100
AcDbEntity
  8
0
100
AcDbLine
 62
7
  6
CONTINUOUS
 10
5.4436376021
 20
3.3500303482
 11
5.4436376021
 21
3.3800303482
  0
LINE
  5
255
100
AcDbEntity
  8
0
100
AcDbLine
 62
7
  6
CONTINUOUS
 10
5.4463296995
 20
3.3500303482
 11
5.4463296995
 21
3.3800303482
  0
LINE
  5
256
100
AcDbEntity
  8
0
100
AcDbLine
 62
7
  6
CONTINUOUS
 10
5.4536823264
 20
3.3500303482
 11
5.4536823264
 21
3.3800303482
  0
LINE
  5
257
100
AcDbEntity
  8
0
100
AcDbLine
 62
7
  6
CONTINUOUS
 10
5.4566006517
 20
3.3500303482
 11
5.4566006517
 21
3.3800303482
  0
LINE
  5
258
100
AcDbEntity
  8
0
100
AcDbLine
 62
7
  6
CONTINUOUS
 10
5.4645357526
 20
3.3500303482
 11
5.4645357526
 21
3.3800303482
  0
LINE
  5
259
100
AcDbEntity
  8
0
100
AcDbLine
 62
7
  6
CONTINUOUS
 10
5.4676723067
 20
3.3500303482
 11
5.4676723067
 21
3.3800303482
  0
LINE
  5
25A
100
AcDbEntity
  8
0
100
AcDbLine
 62
7
  6
CONTINUOUS
 10
5.4759505347
 20
3.3800303482
 11
5.4759505347
 21
3.3500303482
  0
LINE
  5
25B
100
AcDbEntity
  8
0
100
AcDbLine
 62
7
  6
CONTINUOUS
 10
5.476168132
 20
3.3500303482
 11
5.476168132
 21
3.3800303482
  0
LINE
  5
25C
100
AcDbEntity
  8
0
100
AcDbLine
 62
7
  6
CONTINUOUS
 10
5.479514318
 20
3.3500303482
 11
5.479514318
 21
3.3800303482
  0
LINE
  5
25D
100
AcDbEntity
  8
0
100
AcDbLine
 62
7
  6
CONTINUOUS
 10
5.4806154759
 20
3.8675303482
 11
5.4806154759
 21
3.9050303482
  0
LINE
  5
25E
100
AcDbEntity
  8
0
100
AcDbLine
 62
7
  6
CONTINUOUS
 10
5.4806887457
 20
3.8675303482
 11
5.4806887457
 21
3.9050303482
  0
LINE
  5
25F
100
AcDbEntity
  8
0
100
AcDbLine
 62
7
  6
CONTINUOUS
 10
5.4808617219
 20
3.8675303482
 11
5.4808617219
 21
3.9050303482
  0
LINE
  5
260
100
AcDbEntity
  8
0
100
AcDbLine
 62
7
  6
CONTINUOUS
 10
5.4817931023
 20
3.8675303482
 11
5.4817931023
 21
3.9050303482
  0
LINE
  5
261
100
AcDbEntity
  8
0
100
AcDbLine
 62
7
  6
CONTINUOUS
 10
5.4823112065
 20
3.8675303482
 11
5.4823112065
 21
3.9050303482
  0
LINE
  5
262
100
AcDbEntity
  8
0
100
AcDbLine
 62
7
  6
CONTINUOUS
 10
5.4841695289
 20
3.8675303482
 11
5.4841695289
 21
3.9050303482
  0
LINE
  5
263
100
AcDbEntity
  8
0
100
AcDbLine
 62
7
  6
CONTINUOUS
 10
5.4850302921
 20
3.8675303482
 11
5.4850302921
 21
3.9050303482
  0
LINE
  5
264
100
AcDbEntity
  8
0
100
AcDbLine
 62
7
  6
CONTINUOUS
 10
5.4878067008
 20
3.8675303482
 11
5.4878067008
 21
3.9050303482
  0
LINE
  5
265
100
AcDbEntity
  8
0
100
AcDbLine
 62
7
  6
CONTINUOUS
 10
5.4878849335
 20
3.3800303482
 11
5.4878849335
 21
3.3500303482
  0
LINE
  5
266
100
AcDbEntity
  8
0
100
AcDbLine
 62
7
  6
CONTINUOUS
 10
5.4885475811
 20
3.3500303482
 11
5.4885475811
 21
3.3800303482
  0
LINE
  5
267
100
AcDbEntity
  8
0
100
AcDbLine
 62
7
  6
CONTINUOUS
 10
5.489006021
 20
3.8675303482
 11
5.489006021
 21
3.9050303482
  0
LINE
  5
268
100
AcDbEntity
  8
0
100
AcDbLine
 62
7
  6
CONTINUOUS
 10
5.4920942273
 20
3.3500303482
 11
5.4920942273
 21
3.3800303482
  0
LINE
  5
269
100
AcDbEntity
  8
0
100
AcDbLine
 62
7
  6
CONTINUOUS
 10
5.4926872851
 20
3.8675303482
 11
5.4926872851
 21
3.9050303482
  0
LINE
  5
26A
100
AcDbEntity
  8
0
100
AcDbLine
 62
7
  6
CONTINUOUS
 10
5.4942194471
 20
3.8675303482
 11
5.4942194471
 21
3.9050303482
  0
LINE
  5
26B
100
AcDbEntity
  8
0
100
AcDbLine
 62
7
  6
CONTINUOUS
 10
5.4987880237
 20
3.8675303482
 11
5.4987880237
 21
3.9050303482
  0
LINE
  5
26C
100
AcDbEntity
  8
0
100
AcDbLine
 62
7
  6
CONTINUOUS
 10
5.500534287
 20
3.3800303482
 11
5.500534287
 21
3.3500303482
  0
LINE
  5
26D
100
AcDbEntity
  8
0
100
AcDbLine
 62
7
  6
CONTINUOUS
 10
5.5006457261
 20
3.8675303482
 11
5.5006457261
 21
3.9050303482
  0
LINE
  5
26E
100
AcDbEntity
  8
0
100
AcDbLine
 62
7
  6
CONTINUOUS
 10
5.5016401689
 20
3.3500303482
 11
5.5016401689
 21
3.3800303482
  0
LINE
  5
26F
100
AcDbEntity
  8
0
100
AcDbLine
 62
7
  6
CONTINUOUS
 10
5.5053775541
 20
3.3500303482
 11
5.5053775541
 21
3.3800303482
  0
LINE
  5
270
100
AcDbEntity
  8
0
100
AcDbLine
 62
7
  6
CONTINUOUS
 10
5.5060798438
 20
3.8675303482
 11
5.5060798438
 21
3.9050303482
  0
LINE
  5
271
100
AcDbEntity
  8
0
100
AcDbLine
 62
7
  6
CONTINUOUS
 10
5.5082542336
 20
3.8675303482
 11
5.5082542336
 21
3.9050303482
  0
LINE
  5
272
100
AcDbEntity
  8
0
100
AcDbLine
 62
7
  6
CONTINUOUS
 10
5.5138639244
 20
3.3800303482
 11
5.5138639244
 21
3.3500303482
  0
LINE
  5
273
100
AcDbEntity
  8
0
100
AcDbLine
 62
7
  6
CONTINUOUS
 10
5.5143537672
 20
3.4100303482
 11
5.5143537672
 21
3.8675303482
  0
LINE
  5
274
100
AcDbEntity
  8
0
100
AcDbLine
 62
7
  6
CONTINUOUS
 10
5.5145279965
 20
3.8675303482
 11
5.5145279965
 21
3.9050303482
  0
LINE
  5
275
100
AcDbEntity
  8
0
100
AcDbLine
 62
7
  6
CONTINUOUS
 10
5.5154100092
 20
3.3500303482
 11
5.5154100092
 21
3.3800303482
  0
LINE
  5
276
100
AcDbEntity
  8
0
100
AcDbLine
 62
7
  6
CONTINUOUS
 10
5.5170087119
 20
3.8675303482
 11
5.5170087119
 21
3.9050303482
  0
LINE
  5
277
100
AcDbEntity
  8
0
100
AcDbLine
 62
7
  6
CONTINUOUS
 10
5.5193278896
 20
3.3500303482
 11
5.5193278896
 21
3.3800303482
  0
LINE
  5
278
100
AcDbEntity
  8
0
100
AcDbLine
 62
7
  6
CONTINUOUS
 10
5.5237287672
 20
3.4062803482
 11
5.5237287672
 21
3.4100303482
  0
LINE
  5
279
100
AcDbEntity
  8
0
100
AcDbLine
 62
7
  6
CONTINUOUS
 10
5.5240922225
 20
3.8675303482
 11
5.5240922225
 21
3.9050303482
  0
LINE
  5
27A
100
AcDbEntity
  8
0
100
AcDbLine
 62
7
  6
CONTINUOUS
 10
5.5268674417
 20
3.8675303482
 11
5.5268674417
 21
3.9050303482
  0
LINE
  5
27B
100
AcDbEntity
  8
0
100
AcDbLine
 62
7
  6
CONTINUOUS
 10
5.5278373099
 20
3.3800303482
 11
5.5278373099
 21
3.3500303482
  0
LINE
  5
27C
100
AcDbEntity
  8
0
100
AcDbLine
 62
7
  6
CONTINUOUS
 10
5.5298193601
 20
3.3500303482
 11
5.5298193601
 21
3.3800303482
  0
LINE
  5
27D
100
AcDbEntity
  8
0
100
AcDbLine
 62
7
  6
CONTINUOUS
 10
5.5339069971
 20
3.3500303482
 11
5.5339069971
 21
3.3800303482
  0
LINE
  5
27E
100
AcDbEntity
  8
0
100
AcDbLine
 62
7
  6
CONTINUOUS
 10
5.5347269439
 20
3.8675303482
 11
5.5347269439
 21
3.9050303482
  0
LINE
  5
27F
100
AcDbEntity
  8
0
100
AcDbLine
 62
7
  6
CONTINUOUS
 10
5.5377834418
 20
3.8675303482
 11
5.5377834418
 21
3.9050303482
  0
LINE
  5
280
100
AcDbEntity
  8
0
100
AcDbLine
 62
7
  6
CONTINUOUS
 10
5.5424161436
 20
3.3800303482
 11
5.5424161436
 21
3.3500303482
  0
LINE
  5
281
100
AcDbEntity
  8
0
100
AcDbLine
 62
7
  6
CONTINUOUS
 10
5.5448287265
 20
3.3500303482
 11
5.5448287265
 21
3.3800303482
  0
LINE
  5
282
100
AcDbEntity
  8
0
100
AcDbLine
 62
7
  6
CONTINUOUS
 10
5.5460644514
 20
3.9050303482
 11
5.5460644514
 21
3.8675303482
  0
LINE
  5
283
100
AcDbEntity
  8
0
100
AcDbLine
 62
7
  6
CONTINUOUS
 10
5.5463814815
 20
3.8675303482
 11
5.5463814815
 21
3.9050303482
  0
LINE
  5
284
100
AcDbEntity
  8
0
100
AcDbLine
 62
7
  6
CONTINUOUS
 10
5.549074916
 20
3.3500303482
 11
5.549074916
 21
3.3800303482
  0
LINE
  5
285
100
AcDbEntity
  8
0
100
AcDbLine
 62
7
  6
CONTINUOUS
 10
5.5497046924
 20
3.8675303482
 11
5.5497046924
 21
3.9050303482
  0
LINE
  5
286
100
AcDbEntity
  8
0
100
AcDbLine
 62
7
  6
CONTINUOUS
 10
5.5575604659
 20
3.3800303482
 11
5.5575604659
 21
3.3500303482
  0
LINE
  5
287
100
AcDbEntity
  8
0
100
AcDbLine
 62
7
  6
CONTINUOUS
 10
5.5580980455
 20
3.9050303482
 11
5.5580980455
 21
3.8675303482
  0
LINE
  5
288
100
AcDbEntity
  8
0
100
AcDbLine
 62
7
  6
CONTINUOUS
 10
5.5590002961
 20
3.8675303482
 11
5.5590002961
 21
3.9050303482
  0
LINE
  5
289
100
AcDbEntity
  8
0
100
AcDbLine
 62
7
  6
CONTINUOUS
 10
5.5603969687
 20
3.3500303482
 11
5.5603969687
 21
3.3800303482
  0
LINE
  5
28A
100
AcDbEntity
  8
0
100
AcDbLine
 62
7
  6
CONTINUOUS
 10
5.5625743834
 20
3.8675303482
 11
5.5625743834
 21
3.9050303482
  0
LINE
  5
28B
100
AcDbEntity
  8
0
100
AcDbLine
 62
7
  6
CONTINUOUS
 10
5.5647900723
 20
3.3500303482
 11
5.5647900723
 21
3.3800303482
  0
LINE
  5
28C
100
AcDbEntity
  8
0
100
AcDbLine
 62
7
  6
CONTINUOUS
 10
8.8462287672
 20
4.5642803482
 11
9.4012287672
 21
4.5642803482
  0
LINE
  5
28D
100
AcDbEntity
  8
0
100
AcDbLine
 62
7
  6
CONTINUOUS
 10
8.8387287672
 20
4.5923427786
 11
9.4087287672
 21
4.5923427786
  0
LINE
  5
28E
100
AcDbEntity
  8
0
100
AcDbLine
 62
7
  6
CONTINUOUS
 10
5.5710400817
 20
3.9050303482
 11
5.5710400817
 21
3.8675303482
  0
LINE
  5
28F
100
AcDbEntity
  8
0
100
AcDbLine
 62
7
  6
CONTINUOUS
 10
5.5725232532
 20
3.8675303482
 11
5.5725232532
 21
3.9050303482
  0
LINE
  5
290
100
AcDbEntity
  8
0
100
AcDbLine
 62
7
  6
CONTINUOUS
 10
5.5732287672
 20
3.3800303482
 11
5.5732287672
 21
3.3500303482
  0
LINE
  5
291
100
AcDbEntity
  8
0
100
AcDbLine
 62
7
  6
CONTINUOUS
 10
5.5763311848
 20
3.8675303482
 11
5.5763311848
 21
3.9050303482
  0
LINE
  5
292
100
AcDbEntity
  8
0
100
AcDbLine
 62
7
  6
CONTINUOUS
 10
5.5764814152
 20
3.3500303482
 11
5.5764814152
 21
3.3800303482
  0
LINE
  5
293
100
AcDbEntity
  8
0
100
AcDbLine
 62
7
  6
CONTINUOUS
 10
5.5810093917
 20
3.3500303482
 11
5.5810093917
 21
3.3800303482
  0
LINE
  5
294
100
AcDbEntity
  8
0
100
AcDbLine
 62
7
  6
CONTINUOUS
 10
5.5848288855
 20
3.9050303482
 11
5.5848288855
 21
3.8675303482
  0
LINE
  5
295
100
AcDbEntity
  8
0
100
AcDbLine
 62
7
  6
CONTINUOUS
 10
5.5868859098
 20
3.8675303482
 11
5.5868859098
 21
3.9050303482
  0
LINE
  5
296
100
AcDbEntity
  8
0
100
AcDbLine
 62
7
  6
CONTINUOUS
 10
5.5893781018
 20
3.3800303482
 11
5.5893781018
 21
3.3500303482
  0
LINE
  5
297
100
AcDbEntity
  8
0
100
AcDbLine
 62
7
  6
CONTINUOUS
 10
5.5909095392
 20
3.8675303482
 11
5.5909095392
 21
3.9050303482
  0
LINE
  5
298
100
AcDbEntity
  8
0
100
AcDbLine
 62
7
  6
CONTINUOUS
 10
5.5930379798
 20
3.3500303482
 11
5.5930379798
 21
3.3800303482
  0
LINE
  5
299
100
AcDbEntity
  8
0
100
AcDbLine
 62
7
  6
CONTINUOUS
 10
5.5976884183
 20
3.3500303482
 11
5.5976884183
 21
3.3800303482
  0
LINE
  5
29A
100
AcDbEntity
  8
0
100
AcDbLine
 62
7
  6
CONTINUOUS
 10
5.5987287672
 20
3.9631553482
 11
5.5987287672
 21
3.9969053482
  0
LINE
  5
29B
100
AcDbEntity
  8
0
100
AcDbLine
 62
7
  6
CONTINUOUS
 10
5.5993987469
 20
3.9050303482
 11
5.5993987469
 21
3.8675303482
  0
LINE
  5
29C
100
AcDbEntity
  8
0
100
AcDbLine
 62
7
  6
CONTINUOUS
 10
5.6020198214
 20
3.8675303482
 11
5.6020198214
 21
3.9050303482
  0
LINE
  5
29D
100
AcDbEntity
  8
0
100
AcDbLine
 62
7
  6
CONTINUOUS
 10
5.6059642055
 20
3.3800303482
 11
5.6059642055
 21
3.3500303482
  0
LINE
  5
29E
100
AcDbEntity
  8
0
100
AcDbLine
 62
7
  6
CONTINUOUS
 10
5.606239974
 20
3.8675303482
 11
5.606239974
 21
3.9050303482
  0
LINE
  5
29F
100
AcDbEntity
  8
0
100
AcDbLine
 62
7
  6
CONTINUOUS
 10
5.610021282
 20
3.3500303482
 11
5.610021282
 21
3.3800303482
  0
LINE
  5
2A0
100
AcDbEntity
  8
0
100
AcDbLine
 62
7
  6
CONTINUOUS
 10
5.6146802338
 20
3.9050303482
 11
5.6146802338
 21
3.8675303482
  0
LINE
  5
2A1
100
AcDbEntity
  8
0
100
AcDbLine
 62
7
  6
CONTINUOUS
 10
5.614781436
 20
3.3500303482
 11
5.614781436
 21
3.3800303482
  0
LINE
  5
2A2
100
AcDbEntity
  8
0
100
AcDbLine
 62
7
  6
CONTINUOUS
 10
5.6178528679
 20
3.8675303482
 11
5.6178528679
 21
3.9050303482
  0
LINE
  5
2A3
100
AcDbEntity
  8
0
100
AcDbLine
 62
7
  6
CONTINUOUS
 10
5.6222494329
 20
3.8675303482
 11
5.6222494329
 21
3.9050303482
  0
LINE
  5
2A4
100
AcDbEntity
  8
0
100
AcDbLine
 62
7
  6
CONTINUOUS
 10
5.6229416169
 20
3.3800303482
 11
5.6229416169
 21
3.3500303482
  0
LINE
  5
2A5
100
AcDbEntity
  8
0
100
AcDbLine
 62
7
  6
CONTINUOUS
 10
5.6273847718
 20
3.3500303482
 11
5.6273847718
 21
3.3800303482
  0
LINE
  5
2A6
100
AcDbEntity
  8
0
100
AcDbLine
 62
7
  6
CONTINUOUS
 10
5.630600523
 20
3.9050303482
 11
5.630600523
 21
3.8675303482
  0
LINE
  5
2A7
100
AcDbEntity
  8
0
100
AcDbLine
 62
7
  6
CONTINUOUS
 10
5.6322415941
 20
3.3500303482
 11
5.6322415941
 21
3.3800303482
  0
LINE
  5
2A8
100
AcDbEntity
  8
0
100
AcDbLine
 62
7
  6
CONTINUOUS
 10
5.6343095976
 20
3.8675303482
 11
5.6343095976
 21
3.9050303482
  0
LINE
  5
2A9
100
AcDbEntity
  8
0
100
AcDbLine
 62
7
  6
CONTINUOUS
 10
5.6371662672
 20
4.0875156459
 11
5.6371662672
 21
4.0081553482
  0
LINE
  5
2AA
100
AcDbEntity
  8
0
100
AcDbLine
 62
7
  6
CONTINUOUS
 10
5.6388616234
 20
3.8675303482
 11
5.6388616234
 21
3.9050303482
  0
LINE
  5
2AB
100
AcDbEntity
  8
0
100
AcDbLine
 62
7
  6
CONTINUOUS
 10
5.6402638022
 20
3.3800303482
 11
5.6402638022
 21
3.3500303482
  0
LINE
  5
2AC
100
AcDbEntity
  8
0
100
AcDbLine
 62
7
  6
CONTINUOUS
 10
5.645080857
 20
3.3500303482
 11
5.645080857
 21
3.3800303482
  0
LINE
  5
2AD
100
AcDbEntity
  8
0
100
AcDbLine
 62
7
  6
CONTINUOUS
 10
5.6470837471
 20
3.9050303482
 11
5.6470837471
 21
3.8675303482
  0
LINE
  5
2AE
100
AcDbEntity
  8
0
100
AcDbLine
 62
7
  6
CONTINUOUS
 10
5.6500210353
 20
3.3500303482
 11
5.6500210353
 21
3.3800303482
  0
LINE
  5
2AF
100
AcDbEntity
  8
0
100
AcDbLine
 62
7
  6
CONTINUOUS
 10
5.6513115868
 20
3.8675303482
 11
5.6513115868
 21
3.9050303482
  0
LINE
  5
2B0
100
AcDbEntity
  8
0
100
AcDbLine
 62
7
  6
CONTINUOUS
 10
5.6559973809
 20
3.8675303482
 11
5.6559973809
 21
3.9050303482
  0
LINE
  5
2B1
100
AcDbEntity
  8
0
100
AcDbLine
 62
7
  6
CONTINUOUS
 10
5.6578832824
 20
3.3800303482
 11
5.6578832824
 21
3.3500303482
  0
LINE
  5
2B2
100
AcDbEntity
  8
0
100
AcDbLine
 62
7
  6
CONTINUOUS
 10
5.663061034
 20
3.3500303482
 11
5.663061034
 21
3.3800303482
  0
LINE
  5
2B3
100
AcDbEntity
  8
0
100
AcDbLine
 62
7
  6
CONTINUOUS
 10
5.6640513561
 20
3.9050303482
 11
5.6640513561
 21
3.8675303482
  0
LINE
  5
2B4
100
AcDbEntity
  8
0
100
AcDbLine
 62
7
  6
CONTINUOUS
 10
5.6680710276
 20
3.3500303482
 11
5.6680710276
 21
3.3800303482
  0
LINE
  5
2B5
100
AcDbEntity
  8
0
100
AcDbLine
 62
7
  6
CONTINUOUS
 10
5.6687778133
 20
3.8675303482
 11
5.6687778133
 21
3.9050303482
  0
LINE
  5
2B6
100
AcDbEntity
  8
0
100
AcDbLine
 62
7
  6
CONTINUOUS
 10
5.6735750456
 20
3.8675303482
 11
5.6735750456
 21
3.9050303482
  0
LINE
  5
2B7
100
AcDbEntity
  8
0
100
AcDbLine
 62
7
  6
CONTINUOUS
 10
5.6756037672
 20
4.1472803482
 11
5.6756037672
 21
4.1645173117
  0
LINE
  5
2B8
100
AcDbEntity
  8
0
100
AcDbLine
 62
7
  6
CONTINUOUS
 10
5.6757517637
 20
3.3800303482
 11
5.6757517637
 21
3.3500303482
  0
LINE
  5
2B9
100
AcDbEntity
  8
0
100
AcDbLine
 62
7
  6
CONTINUOUS
 10
5.6812760202
 20
3.3500303482
 11
5.6812760202
 21
3.3800303482
  0
LINE
  5
2BA
100
AcDbEntity
  8
0
100
AcDbLine
 62
7
  6
CONTINUOUS
 10
5.6814224914
 20
3.9050303482
 11
5.6814224914
 21
3.8675303482
  0
LINE
  5
2BB
100
AcDbEntity
  8
0
100
AcDbLine
 62
7
  6
CONTINUOUS
 10
5.6863420972
 20
3.3500303482
 11
5.6863420972
 21
3.3800303482
  0
LINE
  5
2BC
100
AcDbEntity
  8
0
100
AcDbLine
 62
7
  6
CONTINUOUS
 10
5.6866250424
 20
3.8675303482
 11
5.6866250424
 21
3.9050303482
  0
LINE
  5
2BD
100
AcDbEntity
  8
0
100
AcDbLine
 62
7
  6
CONTINUOUS
 10
5.6915108521
 20
3.8675303482
 11
5.6915108521
 21
3.9050303482
  0
LINE
  5
2BE
100
AcDbEntity
  8
0
100
AcDbLine
 62
7
  6
CONTINUOUS
 10
5.69382027
 20
3.3800303482
 11
5.69382027
 21
3.3500303482
  0
LINE
  5
2BF
100
AcDbEntity
  8
0
100
AcDbLine
 62
7
  6
CONTINUOUS
 10
5.6991143718
 20
3.9050303482
 11
5.6991143718
 21
3.8675303482
  0
LINE
  5
2C0
100
AcDbEntity
  8
0
100
AcDbLine
 62
7
  6
CONTINUOUS
 10
5.6996758898
 20
3.3500303482
 11
5.6996758898
 21
3.3800303482
  0
LINE
  5
2C1
100
AcDbEntity
  8
0
100
AcDbLine
 62
7
  6
CONTINUOUS
 10
5.7047682241
 20
3.8675303482
 11
5.7047682241
 21
3.9050303482
  0
LINE
  5
2C2
100
AcDbEntity
  8
0
100
AcDbLine
 62
7
  6
CONTINUOUS
 10
5.7047841643
 20
3.3500303482
 11
5.7047841643
 21
3.3800303482
  0
LINE
  5
2C3
100
AcDbEntity
  8
0
100
AcDbLine
 62
7
  6
CONTINUOUS
 10
5.7097193279
 20
3.8675303482
 11
5.7097193279
 21
3.9050303482
  0
LINE
  5
2C4
100
AcDbEntity
  8
0
100
AcDbLine
 62
7
  6
CONTINUOUS
 10
5.7120392766
 20
3.3800303482
 11
5.7120392766
 21
3.3500303482
  0
LINE
  5
2C5
100
AcDbEntity
  8
0
100
AcDbLine
 62
7
  6
CONTINUOUS
 10
5.7170426874
 20
3.9050303482
 11
5.7170426874
 21
3.8675303482
  0
LINE
  5
2C6
100
AcDbEntity
  8
0
100
AcDbLine
 62
7
  6
CONTINUOUS
 10
5.7182102099
 20
3.3500303482
 11
5.7182102099
 21
3.3800303482
  0
LINE
  5
2C7
100
AcDbEntity
  8
0
100
AcDbLine
 62
7
  6
CONTINUOUS
 10
5.7231208977
 20
3.8675303482
 11
5.7231208977
 21
3.9050303482
  0
LINE
  5
2C8
100
AcDbEntity
  8
0
100
AcDbLine
 62
7
  6
CONTINUOUS
 10
5.7233466805
 20
3.3500303482
 11
5.7233466805
 21
3.3800303482
  0
LINE
  5
2C9
100
AcDbEntity
  8
0
100
AcDbLine
 62
7
  6
CONTINUOUS
 10
5.7281137016
 20
3.8675303482
 11
5.7281137016
 21
3.9050303482
  0
LINE
  5
2CA
100
AcDbEntity
  8
0
100
AcDbLine
 62
7
  6
CONTINUOUS
 10
5.7303588466
 20
3.3800303482
 11
5.7303588466
 21
3.3500303482
  0
LINE
  5
2CB
100
AcDbEntity
  8
0
100
AcDbLine
 62
7
  6
CONTINUOUS
 10
5.7351220016
 20
3.9050303482
 11
5.7351220016
 21
3.8675303482
  0
LINE
  5
2CC
100
AcDbEntity
  8
0
100
AcDbLine
 62
7
  6
CONTINUOUS
 10
5.7368281792
 20
3.3500303482
 11
5.7368281792
 21
3.3800303482
  0
LINE
  5
2CD
100
AcDbEntity
  8
0
100
AcDbLine
 62
7
  6
CONTINUOUS
 10
5.7415956046
 20
3.8675303482
 11
5.7415956046
 21
3.9050303482
  0
LINE
  5
2CE
100
AcDbEntity
  8
0
100
AcDbLine
 62
7
  6
CONTINUOUS
 10
5.7419787672
 20
3.3500303482
 11
5.7419787672
 21
3.3800303482
  0
LINE
  5
2CF
100
AcDbEntity
  8
0
100
AcDbLine
 62
7
  6
CONTINUOUS
 10
5.7466063153
 20
3.8675303482
 11
5.7466063153
 21
3.9050303482
  0
LINE
  5
2D0
100
AcDbEntity
  8
0
100
AcDbLine
 62
7
  6
CONTINUOUS
 10
5.7487287672
 20
3.3800303482
 11
5.7487287672
 21
3.3500303482
  0
LINE
  5
2D1
100
AcDbEntity
  8
0
100
AcDbLine
 62
7
  6
CONTINUOUS
 10
5.7532661582
 20
3.9050303482
 11
5.7532661582
 21
3.8675303482
  0
LINE
  5
2D2
100
AcDbEntity
  8
0
100
AcDbLine
 62
7
  6
CONTINUOUS
 10
5.7554787672
 20
3.3500303482
 11
5.7554787672
 21
3.3800303482
  0
LINE
  5
2D3
100
AcDbEntity
  8
0
100
AcDbLine
 62
7
  6
CONTINUOUS
 10
5.7601043042
 20
3.8675303482
 11
5.7601043042
 21
3.9050303482
  0
LINE
  5
2D4
100
AcDbEntity
  8
0
100
AcDbLine
 62
7
  6
CONTINUOUS
 10
5.7606293552
 20
3.3500303482
 11
5.7606293552
 21
3.3800303482
  0
LINE
  5
2D5
100
AcDbEntity
  8
0
100
AcDbLine
 62
7
  6
CONTINUOUS
 10
5.7651090436
 20
3.8675303482
 11
5.7651090436
 21
3.9050303482
  0
LINE
  5
2D6
100
AcDbEntity
  8
0
100
AcDbLine
 62
7
  6
CONTINUOUS
 10
5.7670986878
 20
3.3800303482
 11
5.7670986878
 21
3.3500303482
  0
LINE
  5
2D7
100
AcDbEntity
  8
0
100
AcDbLine
 62
7
  6
CONTINUOUS
 10
5.7713886921
 20
3.9050303482
 11
5.7713886921
 21
3.8675303482
  0
LINE
  5
2D8
100
AcDbEntity
  8
0
100
AcDbLine
 62
7
  6
CONTINUOUS
 10
5.7741108539
 20
3.3500303482
 11
5.7741108539
 21
3.3800303482
  0
LINE
  5
2D9
100
AcDbEntity
  8
0
100
AcDbLine
 62
7
  6
CONTINUOUS
 10
5.7785587942
 20
3.8675303482
 11
5.7785587942
 21
3.9050303482
  0
LINE
  5
2DA
100
AcDbEntity
  8
0
100
AcDbLine
 62
7
  6
CONTINUOUS
 10
5.7792473245
 20
3.3500303482
 11
5.7792473245
 21
3.3800303482
  0
LINE
  5
2DB
100
AcDbEntity
  8
0
100
AcDbLine
 62
7
  6
CONTINUOUS
 10
5.7835337124
 20
3.8675303482
 11
5.7835337124
 21
3.9050303482
  0
LINE
  5
2DC
100
AcDbEntity
  8
0
100
AcDbLine
 62
7
  6
CONTINUOUS
 10
5.7854182578
 20
3.3800303482
 11
5.7854182578
 21
3.3500303482
  0
LINE
  5
2DD
100
AcDbEntity
  8
0
100
AcDbLine
 62
7
  6
CONTINUOUS
 10
5.7894032411
 20
3.9050303482
 11
5.7894032411
 21
3.8675303482
  0
LINE
  5
2DE
100
AcDbEntity
  8
0
100
AcDbLine
 62
7
  6
CONTINUOUS
 10
5.7926733701
 20
3.3500303482
 11
5.7926733701
 21
3.3800303482
  0
LINE
  5
2DF
100
AcDbEntity
  8
0
100
AcDbLine
 62
7
  6
CONTINUOUS
 10
5.7968711305
 20
3.8675303482
 11
5.7968711305
 21
3.9050303482
  0
LINE
  5
2E0
100
AcDbEntity
  8
0
100
AcDbLine
 62
7
  6
CONTINUOUS
 10
5.7977816446
 20
3.3500303482
 11
5.7977816446
 21
3.3800303482
  0
LINE
  5
2E1
100
AcDbEntity
  8
0
100
AcDbLine
 62
7
  6
CONTINUOUS
 10
5.8017925197
 20
3.8675303482
 11
5.8017925197
 21
3.9050303482
  0
LINE
  5
2E2
100
AcDbEntity
  8
0
100
AcDbLine
 62
7
  6
CONTINUOUS
 10
5.8036372644
 20
3.3800303482
 11
5.8036372644
 21
3.3500303482
  0
LINE
  5
2E3
100
AcDbEntity
  8
0
100
AcDbLine
 62
7
  6
CONTINUOUS
 10
5.8072239577
 20
3.9050303482
 11
5.8072239577
 21
3.8675303482
  0
LINE
  5
2E4
100
AcDbEntity
  8
0
100
AcDbLine
 62
7
  6
CONTINUOUS
 10
5.8111154372
 20
3.3500303482
 11
5.8111154372
 21
3.3800303482
  0
LINE
  5
2E5
100
AcDbEntity
  8
0
100
AcDbLine
 62
7
  6
CONTINUOUS
 10
5.8149540465
 20
3.8675303482
 11
5.8149540465
 21
3.9050303482
  0
LINE
  5
2E6
100
AcDbEntity
  8
0
100
AcDbLine
 62
7
  6
CONTINUOUS
 10
5.8161815141
 20
3.3500303482
 11
5.8161815141
 21
3.3800303482
  0
LINE
  5
2E7
100
AcDbEntity
  8
0
100
AcDbLine
 62
7
  6
CONTINUOUS
 10
5.8197984541
 20
3.8675303482
 11
5.8197984541
 21
3.9050303482
  0
LINE
  5
2E8
100
AcDbEntity
  8
0
100
AcDbLine
 62
7
  6
CONTINUOUS
 10
5.8217057707
 20
3.3800303482
 11
5.8217057707
 21
3.3500303482
  0
LINE
  5
2E9
100
AcDbEntity
  8
0
100
AcDbLine
 62
7
  6
CONTINUOUS
 10
5.8218537672
 20
4.1472803482
 11
5.8218537672
 21
4.1645173117
  0
LINE
  5
2EA
100
AcDbEntity
  8
0
100
AcDbLine
 62
7
  6
CONTINUOUS
 10
5.8247659181
 20
3.9050303482
 11
5.8247659181
 21
3.8675303482
  0
LINE
  5
2EB
100
AcDbEntity
  8
0
100
AcDbLine
 62
7
  6
CONTINUOUS
 10
5.8293865068
 20
3.3500303482
 11
5.8293865068
 21
3.3800303482
  0
LINE
  5
2EC
100
AcDbEntity
  8
0
100
AcDbLine
 62
7
  6
CONTINUOUS
 10
5.832721369
 20
3.8675303482
 11
5.832721369
 21
3.9050303482
  0
LINE
  5
2ED
100
AcDbEntity
  8
0
100
AcDbLine
 62
7
  6
CONTINUOUS
 10
5.8343965004
 20
3.3500303482
 11
5.8343965004
 21
3.3800303482
  0
LINE
  5
2EE
100
AcDbEntity
  8
0
100
AcDbLine
 62
7
  6
CONTINUOUS
 10
5.8374657091
 20
3.8675303482
 11
5.8374657091
 21
3.9050303482
  0
LINE
  5
2EF
100
AcDbEntity
  8
0
100
AcDbLine
 62
7
  6
CONTINUOUS
 10
5.839574252
 20
3.3800303482
 11
5.839574252
 21
3.3500303482
  0
LINE
  5
2F0
100
AcDbEntity
  8
0
100
AcDbLine
 62
7
  6
CONTINUOUS
 10
5.8419455269
 20
3.9050303482
 11
5.8419455269
 21
3.8675303482
  0
LINE
  5
2F1
100
AcDbEntity
  8
0
100
AcDbLine
 62
7
  6
CONTINUOUS
 10
5.8474364991
 20
3.3500303482
 11
5.8474364991
 21
3.3800303482
  0
LINE
  5
2F2
100
AcDbEntity
  8
0
100
AcDbLine
 62
7
  6
CONTINUOUS
 10
5.8500884284
 20
3.8675303482
 11
5.8500884284
 21
3.9050303482
  0
LINE
  5
2F3
100
AcDbEntity
  8
0
100
AcDbLine
 62
7
  6
CONTINUOUS
 10
5.8523766774
 20
3.3500303482
 11
5.8523766774
 21
3.3800303482
  0
LINE
  5
2F4
100
AcDbEntity
  8
0
100
AcDbLine
 62
7
  6
CONTINUOUS
 10
5.8547100922
 20
3.8675303482
 11
5.8547100922
 21
3.9050303482
  0
LINE
  5
2F5
100
AcDbEntity
  8
0
100
AcDbLine
 62
7
  6
CONTINUOUS
 10
5.8571937322
 20
3.3800303482
 11
5.8571937322
 21
3.3500303482
  0
LINE
  5
2F6
100
AcDbEntity
  8
0
100
AcDbLine
 62
7
  6
CONTINUOUS
 10
5.8586809153
 20
3.9050303482
 11
5.8586809153
 21
3.8675303482
  0
LINE
  5
2F7
100
AcDbEntity
  8
0
100
AcDbLine
 62
7
  6
CONTINUOUS
 10
5.8602912672
 20
4.0875156459
 11
5.8602912672
 21
4.0081553482
  0
LINE
  5
2F8
100
AcDbEntity
  8
0
100
AcDbLine
 62
7
  6
CONTINUOUS
 10
9.4087287672
 20
4.8021281365
 11
8.8387287672
 21
4.8021281365
  0
LINE
  5
2F9
100
AcDbEntity
  8
0
100
AcDbLine
 62
7
  6
CONTINUOUS
 10
9.4194045592
 20
4.8283333243
 11
8.8280529752
 21
4.8283333243
  0
LINE
  5
2FA
100
AcDbEntity
  8
0
100
AcDbLine
 62
7
  6
CONTINUOUS
 10
5.8652159403
 20
3.3500303482
 11
5.8652159403
 21
3.3800303482
  0
LINE
  5
2FB
100
AcDbEntity
  8
0
100
AcDbLine
 62
7
  6
CONTINUOUS
 10
5.8669724629
 20
3.8675303482
 11
5.8669724629
 21
3.9050303482
  0
LINE
  5
2FC
100
AcDbEntity
  8
0
100
AcDbLine
 62
7
  6
CONTINUOUS
 10
5.8700727626
 20
3.3500303482
 11
5.8700727626
 21
3.3800303482
  0
LINE
  5
2FD
100
AcDbEntity
  8
0
100
AcDbLine
 62
7
  6
CONTINUOUS
 10
5.8714494259
 20
3.8675303482
 11
5.8714494259
 21
3.9050303482
  0
LINE
  5
2FE
100
AcDbEntity
  8
0
100
AcDbLine
 62
7
  6
CONTINUOUS
 10
5.8745159175
 20
3.3800303482
 11
5.8745159175
 21
3.3500303482
  0
LINE
  5
2FF
100
AcDbEntity
  8
0
100
AcDbLine
 62
7
  6
CONTINUOUS
 10
5.8748923317
 20
3.9050303482
 11
5.8748923317
 21
3.8675303482
  0
LINE
  5
300
100
AcDbEntity
  8
0
100
AcDbLine
 62
7
  6
CONTINUOUS
 10
5.8826760984
 20
3.3500303482
 11
5.8826760984
 21
3.3800303482
  0
LINE
  5
301
100
AcDbEntity
  8
0
100
AcDbLine
 62
7
  6
CONTINUOUS
 10
5.8832930123
 20
3.8675303482
 11
5.8832930123
 21
3.9050303482
  0
LINE
  5
302
100
AcDbEntity
  8
0
100
AcDbLine
 62
7
  6
CONTINUOUS
 10
5.8874362524
 20
3.3500303482
 11
5.8874362524
 21
3.3800303482
  0
LINE
  5
303
100
AcDbEntity
  8
0
100
AcDbLine
 62
7
  6
CONTINUOUS
 10
5.8876039399
 20
3.8675303482
 11
5.8876039399
 21
3.9050303482
  0
LINE
  5
304
100
AcDbEntity
  8
0
100
AcDbLine
 62
7
  6
CONTINUOUS
 10
5.8905025213
 20
3.9050303482
 11
5.8905025213
 21
3.8675303482
  0
LINE
  5
305
100
AcDbEntity
  8
0
100
AcDbLine
 62
7
  6
CONTINUOUS
 10
5.8914933289
 20
3.3800303482
 11
5.8914933289
 21
3.3500303482
  0
LINE
  5
306
100
AcDbEntity
  8
0
100
AcDbLine
 62
7
  6
CONTINUOUS
 10
5.8987287672
 20
3.9631553482
 11
5.8987287672
 21
3.9969053482
  0
LINE
  5
307
100
AcDbEntity
  8
0
100
AcDbLine
 62
7
  6
CONTINUOUS
 10
5.8989723018
 20
3.8675303482
 11
5.8989723018
 21
3.9050303482
  0
LINE
  5
308
100
AcDbEntity
  8
0
100
AcDbLine
 62
7
  6
CONTINUOUS
 10
5.8997691161
 20
3.3500303482
 11
5.8997691161
 21
3.3800303482
  0
LINE
  5
309
100
AcDbEntity
  8
0
100
AcDbLine
 62
7
  6
CONTINUOUS
 10
5.9030966504
 20
3.8675303482
 11
5.9030966504
 21
3.9050303482
  0
LINE
  5
30A
100
AcDbEntity
  8
0
100
AcDbLine
 62
7
  6
CONTINUOUS
 10
5.9044195546
 20
3.3500303482
 11
5.9044195546
 21
3.3800303482
  0
LINE
  5
30B
100
AcDbEntity
  8
0
100
AcDbLine
 62
7
  6
CONTINUOUS
 10
5.9054370943
 20
3.9050303482
 11
5.9054370943
 21
3.8675303482
  0
LINE
  5
30C
100
AcDbEntity
  8
0
100
AcDbLine
 62
7
  6
CONTINUOUS
 10
5.9080794326
 20
3.3800303482
 11
5.9080794326
 21
3.3500303482
  0
LINE
  5
30D
100
AcDbEntity
  8
0
100
AcDbLine
 62
7
  6
CONTINUOUS
 10
5.9139356125
 20
3.8675303482
 11
5.9139356125
 21
3.9050303482
  0
LINE
  5
30E
100
AcDbEntity
  8
0
100
AcDbLine
 62
7
  6
CONTINUOUS
 10
5.9164481427
 20
3.3500303482
 11
5.9164481427
 21
3.3800303482
  0
LINE
  5
30F
100
AcDbEntity
  8
0
100
AcDbLine
 62
7
  6
CONTINUOUS
 10
5.9178537276
 20
3.8675303482
 11
5.9178537276
 21
3.9050303482
  0
LINE
  5
310
100
AcDbEntity
  8
0
100
AcDbLine
 62
7
  6
CONTINUOUS
 10
5.9196248808
 20
3.9050303482
 11
5.9196248808
 21
3.8675303482
  0
LINE
  5
311
100
AcDbEntity
  8
0
100
AcDbLine
 62
7
  6
CONTINUOUS
 10
5.9209761192
 20
3.3500303482
 11
5.9209761192
 21
3.3800303482
  0
LINE
  5
312
100
AcDbEntity
  8
0
100
AcDbLine
 62
7
  6
CONTINUOUS
 10
5.9242287672
 20
3.3800303482
 11
5.9242287672
 21
3.3500303482
  0
LINE
  5
313
100
AcDbEntity
  8
0
100
AcDbLine
 62
7
  6
CONTINUOUS
 10
5.9281116373
 20
3.8675303482
 11
5.9281116373
 21
3.9050303482
  0
LINE
  5
314
100
AcDbEntity
  8
0
100
AcDbLine
 62
7
  6
CONTINUOUS
 10
5.9318048474
 20
3.8675303482
 11
5.9318048474
 21
3.9050303482
  0
LINE
  5
315
100
AcDbEntity
  8
0
100
AcDbLine
 62
7
  6
CONTINUOUS
 10
5.9326674621
 20
3.3500303482
 11
5.9326674621
 21
3.3800303482
  0
LINE
  5
316
100
AcDbEntity
  8
0
100
AcDbLine
 62
7
  6
CONTINUOUS
 10
5.9329982695
 20
3.9050303482
 11
5.9329982695
 21
3.8675303482
  0
LINE
  5
317
100
AcDbEntity
  8
0
100
AcDbLine
 62
7
  6
CONTINUOUS
 10
5.9370605657
 20
3.3500303482
 11
5.9370605657
 21
3.3800303482
  0
LINE
  5
318
100
AcDbEntity
  8
0
100
AcDbLine
 62
7
  6
CONTINUOUS
 10
5.9398970685
 20
3.3800303482
 11
5.9398970685
 21
3.3500303482
  0
LINE
  5
319
100
AcDbEntity
  8
0
100
AcDbLine
 62
7
  6
CONTINUOUS
 10
5.941432821
 20
3.8675303482
 11
5.941432821
 21
3.9050303482
  0
LINE
  5
31A
100
AcDbEntity
  8
0
100
AcDbLine
 62
7
  6
CONTINUOUS
 10
5.9448835263
 20
3.8675303482
 11
5.9448835263
 21
3.9050303482
  0
LINE
  5
31B
100
AcDbEntity
  8
0
100
AcDbLine
 62
7
  6
CONTINUOUS
 10
5.9454935301
 20
3.9050303482
 11
5.9454935301
 21
3.8675303482
  0
LINE
  5
31C
100
AcDbEntity
  8
0
100
AcDbLine
 62
7
  6
CONTINUOUS
 10
5.9483826184
 20
3.3500303482
 11
5.9483826184
 21
3.3800303482
  0
LINE
  5
31D
100
AcDbEntity
  8
0
100
AcDbLine
 62
7
  6
CONTINUOUS
 10
5.9526288079
 20
3.3500303482
 11
5.9526288079
 21
3.3800303482
  0
LINE
  5
31E
100
AcDbEntity
  8
0
100
AcDbLine
 62
7
  6
CONTINUOUS
 10
5.9538356822
 20
3.8675303482
 11
5.9538356822
 21
3.9050303482
  0
LINE
  5
31F
100
AcDbEntity
  8
0
100
AcDbLine
 62
7
  6
CONTINUOUS
 10
5.9550413908
 20
3.3800303482
 11
5.9550413908
 21
3.3500303482
  0
LINE
  5
320
100
AcDbEntity
  8
0
100
AcDbLine
 62
7
  6
CONTINUOUS
 10
5.9570274384
 20
3.8675303482
 11
5.9570274384
 21
3.9050303482
  0
LINE
  5
321
100
AcDbEntity
  8
0
100
AcDbLine
 62
7
  6
CONTINUOUS
 10
5.9635505373
 20
3.3500303482
 11
5.9635505373
 21
3.3800303482
  0
LINE
  5
322
100
AcDbEntity
  8
0
100
AcDbLine
 62
7
  6
CONTINUOUS
 10
5.9652611155
 20
3.8675303482
 11
5.9652611155
 21
3.9050303482
  0
LINE
  5
323
100
AcDbEntity
  8
0
100
AcDbLine
 62
7
  6
CONTINUOUS
 10
5.9676381743
 20
3.3500303482
 11
5.9676381743
 21
3.3800303482
  0
LINE
  5
324
100
AcDbEntity
  8
0
100
AcDbLine
 62
7
  6
CONTINUOUS
 10
5.9681787125
 20
3.8675303482
 11
5.9681787125
 21
3.9050303482
  0
LINE
  5
325
100
AcDbEntity
  8
0
100
AcDbLine
 62
7
  6
CONTINUOUS
 10
5.9696202245
 20
3.3800303482
 11
5.9696202245
 21
3.3500303482
  0
LINE
  5
326
100
AcDbEntity
  8
0
100
AcDbLine
 62
7
  6
CONTINUOUS
 10
5.9737287672
 20
3.4062803482
 11
5.9737287672
 21
3.4100303482
  0
LINE
  5
327
100
AcDbEntity
  8
0
100
AcDbLine
 62
7
  6
CONTINUOUS
 10
5.9756546735
 20
3.8675303482
 11
5.9756546735
 21
3.9050303482
  0
LINE
  5
328
100
AcDbEntity
  8
0
100
AcDbLine
 62
7
  6
CONTINUOUS
 10
5.9781296448
 20
3.3500303482
 11
5.9781296448
 21
3.3800303482
  0
LINE
  5
329
100
AcDbEntity
  8
0
100
AcDbLine
 62
7
  6
CONTINUOUS
 10
5.9782842077
 20
3.8675303482
 11
5.9782842077
 21
3.9050303482
  0
LINE
  5
32A
100
AcDbEntity
  8
0
100
AcDbLine
 62
7
  6
CONTINUOUS
 10
5.9820475252
 20
3.3500303482
 11
5.9820475252
 21
3.3800303482
  0
LINE
  5
32B
100
AcDbEntity
  8
0
100
AcDbLine
 62
7
  6
CONTINUOUS
 10
5.9831037672
 20
3.4100303482
 11
5.9831037672
 21
3.8675303482
  0
LINE
  5
32C
100
AcDbEntity
  8
0
100
AcDbLine
 62
7
  6
CONTINUOUS
 10
5.98359361
 20
3.3800303482
 11
5.98359361
 21
3.3500303482
  0
LINE
  5
32D
100
AcDbEntity
  8
0
100
AcDbLine
 62
7
  6
CONTINUOUS
 10
5.9849668263
 20
3.8675303482
 11
5.9849668263
 21
3.9050303482
  0
LINE
  5
32E
100
AcDbEntity
  8
0
100
AcDbLine
 62
7
  6
CONTINUOUS
 10
5.9872957667
 20
3.8675303482
 11
5.9872957667
 21
3.9050303482
  0
LINE
  5
32F
100
AcDbEntity
  8
0
100
AcDbLine
 62
7
  6
CONTINUOUS
 10
5.9920799803
 20
3.3500303482
 11
5.9920799803
 21
3.3800303482
  0
LINE
  5
330
100
AcDbEntity
  8
0
100
AcDbLine
 62
7
  6
CONTINUOUS
 10
5.9931531972
 20
3.8675303482
 11
5.9931531972
 21
3.9050303482
  0
LINE
  5
331
100
AcDbEntity
  8
0
100
AcDbLine
 62
7
  6
CONTINUOUS
 10
5.9951704453
 20
3.8675303482
 11
5.9951704453
 21
3.9050303482
  0
LINE
  5
332
100
AcDbEntity
  8
0
100
AcDbLine
 62
7
  6
CONTINUOUS
 10
5.9958173655
 20
3.3500303482
 11
5.9958173655
 21
3.3800303482
  0
LINE
  5
333
100
AcDbEntity
  8
0
100
AcDbLine
 62
7
  6
CONTINUOUS
 10
5.9969232474
 20
3.3800303482
 11
5.9969232474
 21
3.3500303482
  0
LINE
  5
334
100
AcDbEntity
  8
0
100
AcDbLine
 62
7
  6
CONTINUOUS
 10
6.0001747743
 20
3.8675303482
 11
6.0001747743
 21
3.9050303482
  0
LINE
  5
335
100
AcDbEntity
  8
0
100
AcDbLine
 62
7
  6
CONTINUOUS
 10
6.001870717
 20
3.8675303482
 11
6.001870717
 21
3.9050303482
  0
LINE
  5
336
100
AcDbEntity
  8
0
100
AcDbLine
 62
7
  6
CONTINUOUS
 10
6.0053633071
 20
3.3500303482
 11
6.0053633071
 21
3.3800303482
  0
LINE
  5
337
100
AcDbEntity
  8
0
100
AcDbLine
 62
7
  6
CONTINUOUS
 10
6.0059980967
 20
3.8675303482
 11
6.0059980967
 21
3.9050303482
  0
LINE
  5
338
100
AcDbEntity
  8
0
100
AcDbLine
 62
7
  6
CONTINUOUS
 10
6.0073646521
 20
3.8675303482
 11
6.0073646521
 21
3.9050303482
  0
LINE
  5
339
100
AcDbEntity
  8
0
100
AcDbLine
 62
7
  6
CONTINUOUS
 10
6.0089099533
 20
3.3500303482
 11
6.0089099533
 21
3.3800303482
  0
LINE
  5
33A
100
AcDbEntity
  8
0
100
AcDbLine
 62
7
  6
CONTINUOUS
 10
6.0095726009
 20
3.3800303482
 11
6.0095726009
 21
3.3500303482
  0
LINE
  5
33B
100
AcDbEntity
  8
0
100
AcDbLine
 62
7
  6
CONTINUOUS
 10
6.0105954135
 20
3.8675303482
 11
6.0105954135
 21
3.9050303482
  0
LINE
  5
33C
100
AcDbEntity
  8
0
100
AcDbLine
 62
7
  6
CONTINUOUS
 10
6.0116260694
 20
3.8675303482
 11
6.0116260694
 21
3.9050303482
  0
LINE
  5
33D
100
AcDbEntity
  8
0
100
AcDbLine
 62
7
  6
CONTINUOUS
 10
6.0139448166
 20
3.8675303482
 11
6.0139448166
 21
3.9050303482
  0
LINE
  5
33E
100
AcDbEntity
  8
0
100
AcDbLine
 62
7
  6
CONTINUOUS
 10
6.0146346613
 20
3.8675303482
 11
6.0146346613
 21
3.9050303482
  0
LINE
  5
33F
100
AcDbEntity
  8
0
100
AcDbLine
 62
7
  6
CONTINUOUS
 10
6.0160303444
 20
3.8675303482
 11
6.0160303444
 21
3.9050303482
  0
LINE
  5
340
100
AcDbEntity
  8
0
100
AcDbLine
 62
7
  6
CONTINUOUS
 10
6.0163760906
 20
3.8675303482
 11
6.0163760906
 21
3.9050303482
  0
LINE
  5
341
100
AcDbEntity
  8
0
100
AcDbLine
 62
7
  6
CONTINUOUS
 10
6.0168420585
 20
3.8675303482
 11
6.0168420585
 21
3.9050303482
  0
LINE
  5
342
100
AcDbEntity
  8
0
100
AcDbLine
 62
7
  6
CONTINUOUS
 10
6.0179432164
 20
3.3500303482
 11
6.0179432164
 21
3.3800303482
  0
LINE
  5
343
100
AcDbEntity
  8
0
100
AcDbLine
 62
7
  6
CONTINUOUS
 10
6.0212894024
 20
3.3500303482
 11
6.0212894024
 21
3.3800303482
  0
LINE
  5
344
100
AcDbEntity
  8
0
100
AcDbLine
 62
7
  6
CONTINUOUS
 10
6.0215069997
 20
3.3800303482
 11
6.0215069997
 21
3.3500303482
  0
LINE
  5
345
100
AcDbEntity
  8
0
100
AcDbLine
 62
7
  6
CONTINUOUS
 10
6.0297852277
 20
3.3500303482
 11
6.0297852277
 21
3.3800303482
  0
LINE
  5
346
100
AcDbEntity
  8
0
100
AcDbLine
 62
7
  6
CONTINUOUS
 10
6.0329217818
 20
3.3500303482
 11
6.0329217818
 21
3.3800303482
  0
LINE
  5
347
100
AcDbEntity
  8
0
100
AcDbLine
 62
7
  6
CONTINUOUS
 10
6.0408568827
 20
3.3500303482
 11
6.0408568827
 21
3.3800303482
  0
LINE
  5
348
100
AcDbEntity
  8
0
100
AcDbLine
 62
7
  6
CONTINUOUS
 10
6.043775208
 20
3.3500303482
 11
6.043775208
 21
3.3800303482
  0
LINE
  5
349
100
AcDbEntity
  8
0
100
AcDbLine
 62
7
  6
CONTINUOUS
 10
6.0511278349
 20
3.3500303482
 11
6.0511278349
 21
3.3800303482
  0
LINE
  5
34A
100
AcDbEntity
  8
0
100
AcDbLine
 62
7
  6
CONTINUOUS
 10
6.0538199323
 20
3.3500303482
 11
6.0538199323
 21
3.3800303482
  0
LINE
  5
34B
100
AcDbEntity
  8
0
100
AcDbLine
 62
7
  6
CONTINUOUS
 10
6.0605699323
 20
3.3500303482
 11
6.0605699323
 21
3.3800303482
  0
LINE
  5
34C
100
AcDbEntity
  8
0
100
AcDbLine
 62
7
  6
CONTINUOUS
 10
6.0630284229
 20
3.3500303482
 11
6.0630284229
 21
3.3800303482
  0
LINE
  5
34D
100
AcDbEntity
  8
0
100
AcDbLine
 62
7
  6
CONTINUOUS
 10
6.0691572947
 20
3.3500303482
 11
6.0691572947
 21
3.3800303482
  0
LINE
  5
34E
100
AcDbEntity
  8
0
100
AcDbLine
 62
7
  6
CONTINUOUS
 10
6.0713754401
 20
3.3500303482
 11
6.0713754401
 21
3.3800303482
  0
LINE
  5
34F
100
AcDbEntity
  8
0
100
AcDbLine
 62
7
  6
CONTINUOUS
 10
6.0768663848
 20
3.3500303482
 11
6.0768663848
 21
3.3800303482
  0
LINE
  5
350
100
AcDbEntity
  8
0
100
AcDbLine
 62
7
  6
CONTINUOUS
 10
6.0788381051
 20
3.3500303482
 11
6.0788381051
 21
3.3800303482
  0
LINE
  5
351
100
AcDbEntity
  8
0
100
AcDbLine
 62
7
  6
CONTINUOUS
 10
6.0836760724
 20
3.3500303482
 11
6.0836760724
 21
3.3800303482
  0
LINE
  5
352
100
AcDbEntity
  8
0
100
AcDbLine
 62
7
  6
CONTINUOUS
 10
6.0853959634
 20
3.3500303482
 11
6.0853959634
 21
3.3800303482
  0
LINE
  5
353
100
AcDbEntity
  8
0
100
AcDbLine
 62
7
  6
CONTINUOUS
 10
6.0862287672
 20
3.3125303482
 11
6.0862287672
 21
3.3500303482
  0
LINE
  5
354
100
AcDbEntity
  8
0
100
AcDbLine
 62
7
  6
CONTINUOUS
 10
6.0895676928
 20
3.3500303482
 11
6.0895676928
 21
3.3800303482
  0
LINE
  5
355
100
AcDbEntity
  8
0
100
AcDbLine
 62
7
  6
CONTINUOUS
 10
6.0910310403
 20
3.3500303482
 11
6.0910310403
 21
3.3800303482
  0
LINE
  5
356
100
AcDbEntity
  8
0
100
AcDbLine
 62
7
  6
CONTINUOUS
 10
6.0945250974
 20
3.3500303482
 11
6.0945250974
 21
3.3800303482
  0
LINE
  5
357
100
AcDbEntity
  8
0
100
AcDbLine
 62
7
  6
CONTINUOUS
 10
6.0957278905
 20
3.3500303482
 11
6.0957278905
 21
3.3800303482
  0
LINE
  5
358
100
AcDbEntity
  8
0
100
AcDbLine
 62
7
  6
CONTINUOUS
 10
6.0985346983
 20
3.3500303482
 11
6.0985346983
 21
3.3800303482
  0
LINE
  5
359
100
AcDbEntity
  8
0
100
AcDbLine
 62
7
  6
CONTINUOUS
 10
6.0994736402
 20
3.3500303482
 11
6.0994736402
 21
3.3800303482
  0
LINE
  5
35A
100
AcDbEntity
  8
0
100
AcDbLine
 62
7
  6
CONTINUOUS
 10
6.1015855054
 20
3.3500303482
 11
6.1015855054
 21
3.3800303482
  0
LINE
  5
35B
100
AcDbEntity
  8
0
100
AcDbLine
 62
7
  6
CONTINUOUS
 10
6.1022580225
 20
3.3500303482
 11
6.1022580225
 21
3.3800303482
  0
LINE
  5
35C
100
AcDbEntity
  8
0
100
AcDbLine
 62
7
  6
CONTINUOUS
 10
6.1036691568
 20
3.3500303482
 11
6.1036691568
 21
3.3800303482
  0
LINE
  5
35D
100
AcDbEntity
  8
0
100
AcDbLine
 62
7
  6
CONTINUOUS
 10
6.1040734058
 20
3.3500303482
 11
6.1040734058
 21
3.3800303482
  0
LINE
  5
35E
100
AcDbEntity
  8
0
100
AcDbLine
 62
7
  6
CONTINUOUS
 10
6.1047799412
 20
3.3500303482
 11
6.1047799412
 21
3.3800303482
  0
LINE
  5
35F
100
AcDbEntity
  8
0
100
AcDbLine
 62
7
  6
CONTINUOUS
 10
6.1049148141
 20
3.3500303482
 11
6.1049148141
 21
3.3800303482
  0
LINE
  5
360
100
AcDbEntity
  8
0
100
AcDbLine
 62
7
  6
CONTINUOUS
 10
6.1049787672
 20
3.2637803482
 11
6.1049787672
 21
3.2937803482
  0
LINE
  5
361
100
AcDbEntity
  8
0
100
AcDbLine
 62
7
  6
CONTINUOUS
 10
5.3924787672
 20
3.2937803482
 11
5.4112287672
 21
3.3125303482
  0
LINE
  5
362
100
AcDbEntity
  8
0
100
AcDbLine
 62
7
  6
CONTINUOUS
 10
8.7524381267
 20
5.2191423302
 11
8.7524787672
 21
5.2191649989
  0
LINE
  5
363
100
AcDbEntity
  8
0
100
AcDbLine
 62
7
  6
CONTINUOUS
 10
9.0632888054
 20
4.9392803482
 11
8.8839653759
 21
4.9392803482
  0
LINE
  5
364
100
AcDbEntity
  8
0
100
AcDbLine
 62
7
  6
CONTINUOUS
 10
8.7984903622
 20
4.9392803482
 11
8.7242121656
 21
4.9392803482
  0
LINE
  5
365
100
AcDbEntity
  8
0
100
AcDbLine
 62
7
  6
CONTINUOUS
 10
9.184168729
 20
4.9392803482
 11
9.3634921585
 21
4.9392803482
  0
LINE
  5
366
100
AcDbEntity
  8
0
100
AcDbLine
 62
7
  6
CONTINUOUS
 10
9.4489671722
 20
4.9392803482
 11
9.5232453688
 21
4.9392803482
  0
LINE
  5
367
100
AcDbEntity
  8
0
100
AcDbLine
 62
7
  6
CONTINUOUS
 10
9.0632888054
 20
5.1680303482
 11
8.8839653759
 21
5.1680303482
  0
LINE
  5
368
100
AcDbEntity
  8
0
100
AcDbLine
 62
7
  6
CONTINUOUS
 10
8.7984903622
 20
5.1680303482
 11
8.7242121656
 21
5.1680303482
  0
LINE
  5
369
100
AcDbEntity
  8
0
100
AcDbLine
 62
7
  6
CONTINUOUS
 10
9.184168729
 20
5.1680303482
 11
9.3634921585
 21
5.1680303482
  0
LINE
  5
36A
100
AcDbEntity
  8
0
100
AcDbLine
 62
7
  6
CONTINUOUS
 10
9.4489671722
 20
5.1680303482
 11
9.5232453688
 21
5.1680303482
  0
LINE
  5
36B
100
AcDbEntity
  8
0
100
AcDbLine
 62
7
  6
CONTINUOUS
 10
8.7759162672
 20
5.2242803482
 11
9.4715412672
 21
5.2242803482
  0
LINE
  5
36C
100
AcDbEntity
  8
0
100
AcDbLine
 62
7
  6
CONTINUOUS
 10
8.7828026048
 20
5.2467803482
 11
9.4646549296
 21
5.2467803482
  0
LINE
  5
36D
100
AcDbEntity
  8
0
100
AcDbLine
 62
7
  6
CONTINUOUS
 10
9.4949787672
 20
4.9056927498
 11
9.4194045592
 21
4.8283333243
  0
LINE
  5
36E
100
AcDbEntity
  8
0
100
AcDbLine
 62
7
  6
CONTINUOUS
 10
9.4949787672
 20
4.9056927352
 11
9.4950054744
 21
4.9057258854
  0
LINE
  5
36F
100
AcDbEntity
  8
0
100
AcDbLine
 62
7
  6
CONTINUOUS
 10
9.4949787672
 20
5.2191649989
 11
9.4949832576
 21
5.2191624997
  0
LINE
  5
370
100
AcDbEntity
  8
0
100
AcDbLine
 62
7
  6
CONTINUOUS
 10
8.7524787672
 20
4.9056927498
 11
8.8280529752
 21
4.8283333243
  0
LINE
  5
371
100
AcDbEntity
  8
0
100
AcDbLine
 62
7
  6
CONTINUOUS
 10
8.7242121656
 20
5.1680303482
 11
8.7242121656
 21
4.9392803482
  0
LINE
  5
372
100
AcDbEntity
  8
0
100
AcDbLine
 62
7
  6
CONTINUOUS
 10
8.7440412672
 20
3.3571431485
 11
8.7440412672
 21
3.2637803482
  0
LINE
  5
373
100
AcDbEntity
  8
0
100
AcDbLine
 62
7
  6
CONTINUOUS
 10
8.7984903622
 20
5.1680303482
 11
8.7984903622
 21
4.9392803482
  0
LINE
  5
374
100
AcDbEntity
  8
0
100
AcDbLine
 62
7
  6
CONTINUOUS
 10
8.8387287672
 20
4.8021281365
 11
8.8387287672
 21
4.5923427786
  0
LINE
  5
375
100
AcDbEntity
  8
0
100
AcDbLine
 62
7
  6
CONTINUOUS
 10
8.8839653759
 20
5.1680303482
 11
8.8839653759
 21
4.9392803482
  0
LINE
  5
376
100
AcDbEntity
  8
0
100
AcDbLine
 62
7
  6
CONTINUOUS
 10
9.0632888054
 20
5.1680303482
 11
9.0632888054
 21
4.9392803482
  0
LINE
  5
377
100
AcDbEntity
  8
0
100
AcDbLine
 62
7
  6
CONTINUOUS
 10
8.9078829174
 20
4.5642803482
 11
8.8774022909
 21
3.752533138
  0
LINE
  5
378
100
AcDbEntity
  8
0
100
AcDbLine
 62
7
  6
CONTINUOUS
 10
9.339574617
 20
4.5642803482
 11
9.3700552435
 21
3.752533138
  0
LINE
  5
379
100
AcDbEntity
  8
0
100
AcDbLine
 62
7
  6
CONTINUOUS
 10
9.184168729
 20
5.1680303482
 11
9.184168729
 21
4.9392803482
  0
LINE
  5
37A
100
AcDbEntity
  8
0
100
AcDbLine
 62
7
  6
CONTINUOUS
 10
9.3634921585
 20
5.1680303482
 11
9.3634921585
 21
4.9392803482
  0
LINE
  5
37B
100
AcDbEntity
  8
0
100
AcDbLine
 62
7
  6
CONTINUOUS
 10
9.4087287672
 20
4.8021281365
 11
9.4087287672
 21
4.5923427786
  0
LINE
  5
37C
100
AcDbEntity
  8
0
100
AcDbLine
 62
7
  6
CONTINUOUS
 10
9.4489671722
 20
5.1680303482
 11
9.4489671722
 21
4.9392803482
  0
LINE
  5
37D
100
AcDbEntity
  8
0
100
AcDbLine
 62
7
  6
CONTINUOUS
 10
9.5034162672
 20
3.3571431485
 11
9.5034162672
 21
3.2637803482
  0
LINE
  5
37E
100
AcDbEntity
  8
0
100
AcDbLine
 62
7
  6
CONTINUOUS
 10
9.5232453688
 20
5.1680303482
 11
9.5232453688
 21
4.9392803482
  0
ARC
  5
37F
100
AcDbEntity
  8
0
100
AcDbCircle
 62
7
  6
CONTINUOUS
 10
1.2145211148
 20
3.1951947083
 40
0.3375
100
AcDbArc
 50
11.7251268757
 51
49.3560828237
  0
ARC
  5
380
100
AcDbEntity
  8
0
100
AcDbCircle
 62
7
  6
CONTINUOUS
 10
1.2829364196
 20
3.1951947083
 40
0.3375
100
AcDbArc
 50
130.6439171763
 51
168.2748731243
  0
ARC
  5
381
100
AcDbEntity
  8
0
100
AcDbCircle
 62
7
  6
CONTINUOUS
 10
1.2252912672
 20
3.4812803482
 40
0.15
100
AcDbArc
 50
155.779056891
 51
180.0
  0
ARC
  5
382
100
AcDbEntity
  8
0
100
AcDbCircle
 62
7
  6
CONTINUOUS
 10
1.2721662672
 20
3.4812803482
 40
0.15
100
AcDbArc
 50
0.0
 51
24.220943109
  0
ARC
  5
383
100
AcDbEntity
  8
0
100
AcDbCircle
 62
7
  6
CONTINUOUS
 10
2.6391060626
 20
3.2874053482
 40
0.070125
100
AcDbArc
 50
90.0
 51
160.6370700781
  0
ARC
  5
384
100
AcDbEntity
  8
0
100
AcDbCircle
 62
7
  6
CONTINUOUS
 10
2.5688873126
 20
3.2405303482
 40
0.070125
100
AcDbArc
 50
90.0
 51
160.6370700781
  0
ARC
  5
385
100
AcDbEntity
  8
0
100
AcDbCircle
 62
7
  6
CONTINUOUS
 10
2.8583514718
 20
3.2874053482
 40
0.070125
100
AcDbArc
 50
19.3629299219
 51
90.0
  0
ARC
  5
386
100
AcDbEntity
  8
0
100
AcDbCircle
 62
7
  6
CONTINUOUS
 10
2.9285702218
 20
3.2405303482
 40
0.070125
100
AcDbArc
 50
19.3629299219
 51
90.0
  0
ARC
  5
387
100
AcDbEntity
  8
0
100
AcDbCircle
 62
7
  6
CONTINUOUS
 10
2.5574787672
 20
3.5787803482
 40
0.015
100
AcDbArc
 50
90.0
 51
180.0
  0
ARC
  5
388
100
AcDbEntity
  8
0
100
AcDbCircle
 62
7
  6
CONTINUOUS
 10
2.9399787672
 20
3.5787803482
 40
0.015
100
AcDbArc
 50
0.0
 51
90.0
  0
ARC
  5
389
100
AcDbEntity
  8
0
100
AcDbCircle
 62
7
  6
CONTINUOUS
 10
2.5574787672
 20
3.5187803482
 40
0.015
100
AcDbArc
 50
180.0
 51
270.0
  0
ARC
  5
38A
100
AcDbEntity
  8
0
100
AcDbCircle
 62
7
  6
CONTINUOUS
 10
2.9399787672
 20
3.5187803482
 40
0.015
100
AcDbArc
 50
270.0
 51
360.0
  0
ARC
  5
38B
100
AcDbEntity
  8
0
100
AcDbCircle
 62
7
  6
CONTINUOUS
 10
1.0919156229
 20
3.5412803482
 40
0.00375
100
AcDbArc
 50
90.0
 51
155.779056891
  0
ARC
  5
38C
100
AcDbEntity
  8
0
100
AcDbCircle
 62
7
  6
CONTINUOUS
 10
1.4055419115
 20
3.5412803482
 40
0.00375
100
AcDbArc
 50
24.220943109
 51
90.0
  0
ARC
  5
38D
100
AcDbEntity
  8
0
100
AcDbCircle
 62
7
  6
CONTINUOUS
 10
9.1237287672
 20
2.8747494235
 40
2.3964059247
100
AcDbArc
 50
81.821031102
 51
98.178968898
  0
ARC
  5
38E
100
AcDbEntity
  8
0
100
AcDbCircle
 62
7
  6
CONTINUOUS
 10
9.0022212642
 20
3.4027058471
 40
0.4875
100
AcDbArc
 50
357.7751307226
 51
37.4382101818
  0
ARC
  5
38F
100
AcDbEntity
  8
0
100
AcDbCircle
 62
7
  6
CONTINUOUS
 10
9.2452362702
 20
3.4027058471
 40
0.4875
100
AcDbArc
 50
142.5617898182
 51
182.2248692774
  0
ARC
  5
390
100
AcDbEntity
  8
0
100
AcDbCircle
 62
7
  6
CONTINUOUS
 10
6.0080436488
 20
3.9987803482
 40
0.09375
100
AcDbArc
 50
213.6123745985
 51
268.6574374904
  0
ARC
  5
391
100
AcDbEntity
  8
0
100
AcDbCircle
 62
7
  6
CONTINUOUS
 10
5.4894138856
 20
3.9987803482
 40
0.09375
100
AcDbArc
 50
271.9997331149
 51
326.3876254015
  0
ARC
  5
392
100
AcDbEntity
  8
0
100
AcDbCircle
 62
7
  6
CONTINUOUS
 10
8.7837183129
 20
3.7560509158
 40
0.09375
100
AcDbArc
 50
322.5617898182
 51
357.849587733
  0
ARC
  5
393
100
AcDbEntity
  8
0
100
AcDbCircle
 62
7
  6
CONTINUOUS
 10
9.4637392215
 20
3.7560509158
 40
0.09375
100
AcDbArc
 50
182.150412267
 51
217.4382101818
  0
ARC
  5
394
100
AcDbEntity
  8
0
100
AcDbCircle
 62
7
  6
CONTINUOUS
 10
9.4711569139
 20
3.3571431485
 40
0.0322593533
100
AcDbArc
 50
0.0
 51
55.661576622
  0
ARC
  5
395
100
AcDbEntity
  8
0
100
AcDbCircle
 62
7
  6
CONTINUOUS
 10
8.7763006205
 20
3.3571431485
 40
0.0322593533
100
AcDbArc
 50
124.338423378
 51
180.0
  0
ARC
  5
396
100
AcDbEntity
  8
0
100
AcDbCircle
 62
7
  6
CONTINUOUS
 10
5.4365412672
 20
3.4062803482
 40
0.02625
100
AcDbArc
 50
271.8600614584
 51
342.5423968763
  0
ARC
  5
397
100
AcDbEntity
  8
0
100
AcDbCircle
 62
7
  6
CONTINUOUS
 10
6.0609162672
 20
3.4062803482
 40
0.02625
100
AcDbArc
 50
197.4576031237
 51
268.1399385416
  0
ARC
  5
398
100
AcDbEntity
  8
0
100
AcDbCircle
 62
7
  6
CONTINUOUS
 10
5.9205994702
 20
3.9406553482
 40
0.01125
100
AcDbArc
 50
33.6123745985
 51
90.0
  0
ARC
  5
399
100
AcDbEntity
  8
0
100
AcDbCircle
 62
7
  6
CONTINUOUS
 10
5.5768580642
 20
3.9406553482
 40
0.01125
100
AcDbArc
 50
90.0
 51
146.3876254015
  0
ARC
  5
39A
100
AcDbEntity
  8
0
100
AcDbCircle
 62
7
  6
CONTINUOUS
 10
5.9099787672
 20
3.9631553482
 40
0.01125
100
AcDbArc
 50
180.0
 51
270.0
  0
ARC
  5
39B
100
AcDbEntity
  8
0
100
AcDbCircle
 62
7
  6
CONTINUOUS
 10
5.5874787672
 20
3.9631553482
 40
0.01125
100
AcDbArc
 50
270.0
 51
360.0
  0
ARC
  5
39C
100
AcDbEntity
  8
0
100
AcDbCircle
 62
7
  6
CONTINUOUS
 10
5.8874787672
 20
3.9969053482
 40
0.01125
100
AcDbArc
 50
0.0
 51
90.0
  0
ARC
  5
39D
100
AcDbEntity
  8
0
100
AcDbCircle
 62
7
  6
CONTINUOUS
 10
5.6099787672
 20
3.9969053482
 40
0.01125
100
AcDbArc
 50
90.0
 51
180.0
  0
ARC
  5
39E
100
AcDbEntity
  8
0
100
AcDbCircle
 62
7
  6
CONTINUOUS
 10
6.0251435471
 20
3.3950303482
 40
0.01125
100
AcDbArc
 50
17.4576031237
 51
90.0
  0
ARC
  5
39F
100
AcDbEntity
  8
0
100
AcDbCircle
 62
7
  6
CONTINUOUS
 10
5.4723139873
 20
3.3950303482
 40
0.01125
100
AcDbArc
 50
90.0
 51
162.5423968763
  0
CIRCLE
  5
3A0
100
AcDbEntity
  8
0
100
AcDbCircle
 62
7
  6
CONTINUOUS
 10
5.7487287672
 20
4.2879053482
 40
0.1434375
  0
CIRCLE
  5
3A1
100
AcDbEntity
  8
0
100
AcDbCircle
 62
7
  6
CONTINUOUS
 10
5.7487287672
 20
4.2879053482
 40
0.1209375
  0
ARC
  5
3A2
100
AcDbEntity
  8
0
100
AcDbCircle
 62
7
  6
CONTINUOUS
 10
9.3524787672
 20
4.5923427786
 40
0.05625
100
AcDbArc
 50
330.0735651334
 51
360.0
  0
ARC
  5
3A3
100
AcDbEntity
  8
0
100
AcDbCircle
 62
7
  6
CONTINUOUS
 10
9.4715412672
 20
5.1680303482
 40
0.05625
100
AcDbArc
 50
65.3756816478
 51
90.0
  0
ARC
  5
3A4
100
AcDbEntity
  8
0
100
AcDbCircle
 62
7
  6
CONTINUOUS
 10
8.8949787672
 20
4.5923427786
 40
0.05625
100
AcDbArc
 50
180.0
 51
209.9264348666
  0
ARC
  5
3A5
100
AcDbEntity
  8
0
100
AcDbCircle
 62
7
  6
CONTINUOUS
 10
8.7759162672
 20
5.1680303482
 40
0.05625
100
AcDbArc
 50
90.0
 51
114.6243183522
  0
ARC
  5
3A6
100
AcDbEntity
  8
0
100
AcDbCircle
 62
7
  6
CONTINUOUS
 10
9.4462287672
 20
4.8021281365
 40
0.0375
100
AcDbArc
 50
135.668791953
 51
180.0
  0
ARC
  5
3A7
100
AcDbEntity
  8
0
100
AcDbCircle
 62
7
  6
CONTINUOUS
 10
8.8012287672
 20
4.8021281365
 40
0.0375
100
AcDbArc
 50
0.0
 51
44.331208047
  0
ARC
  5
3A8
100
AcDbEntity
  8
0
100
AcDbCircle
 62
7
  6
CONTINUOUS
 10
5.6334162672
 20
4.1172803482
 40
0.0225
100
AcDbArc
 50
90.0
 51
262.8192442185
  0
ARC
  5
3A9
100
AcDbEntity
  8
0
100
AcDbCircle
 62
7
  6
CONTINUOUS
 10
5.8640412672
 20
4.1172803482
 40
0.0225
100
AcDbArc
 50
277.1807557815
 51
90.0
  0
ARC
  5
3AA
100
AcDbEntity
  8
0
100
AcDbCircle
 62
7
  6
CONTINUOUS
 10
9.4630462601
 20
5.2355878552
 40
0.0113075071
100
AcDbArc
 50
270.0
 51
81.821031102
  0
ARC
  5
3AB
100
AcDbEntity
  8
0
100
AcDbCircle
 62
7
  6
CONTINUOUS
 10
8.7844112743
 20
5.2355878552
 40
0.0113075071
100
AcDbArc
 50
98.178968898
 51
270.0
  0
ARC
  5
3AC
100
AcDbEntity
  8
0
100
AcDbCircle
 62
7
  6
CONTINUOUS
 10
5.6681037672
 20
4.1472803482
 40
0.0075
100
AcDbArc
 50
270.0
 51
360.0
  0
ARC
  5
3AD
100
AcDbEntity
  8
0
100
AcDbCircle
 62
7
  6
CONTINUOUS
 10
5.8293537672
 20
4.1472803482
 40
0.0075
100
AcDbArc
 50
180.0
 51
270.0
  0
ARC
  5
3AE
100
AcDbEntity
  8
0
100
AcDbCircle
 62
7
  6
CONTINUOUS
 10
5.6296662672
 20
4.0875156459
 40
0.0075
100
AcDbArc
 50
0.0
 51
82.8192442185
  0
ARC
  5
3AF
100
AcDbEntity
  8
0
100
AcDbCircle
 62
7
  6
CONTINUOUS
 10
5.8677912672
 20
4.0875156459
 40
0.0075
100
AcDbArc
 50
97.1807557815
 51
180.0
  0
SPLINE
  5
3B0
100
AcDbEntity
  8
0
100
AcDbSpline
 62
7
  6
CONTINUOUS
 70
0
 71
3
 72
33
 73
29
 74
0
 42
0.0000001
 43
0.0000001
 44
0.0000000001
 40
0.0
 40
0.0
 40
0.0
 40
0.0
 40
0.1909264335
 40
0.2826204257
 40
0.3713737499
 40
0.4568000985
 40
0.5384531867
 40
0.6158191436
 40
0.6883056617
 40
0.7552372069
 40
0.815855182
 40
0.8693276449
 40
0.893109788
 40
0.9147736622
 40
0.9342083365
 40
0.9513076353
 40
0.965970217
 40
0.9781054007
 40
0.9831992093
 40
0.9876325636
 40
0.9913974943
 40
0.9944867153
 40
0.9968954499
 40
0.998619497
 40
0.9992234533
 40
0.9996548683
 40
0.9999137171
 40
1.0
 40
1.0
 40
1.0
 40
1.0
 10
9.5232453688
 20
4.9392803482
 30
0.0
 10
9.5214028771
 20
4.9371799137
 30
0.0
 10
9.5186872407
 20
4.9340604095
 30
0.0
 10
9.5151422603
 20
4.9299410355
 30
0.0
 10
9.5126152007
 20
4.9269825797
 30
0.0
 10
9.5101937854
 20
4.9241271659
 30
0.0
 10
9.5078896211
 20
4.9213908461
 30
0.0
 10
9.5057160655
 20
4.9187921272
 30
0.0
 10
9.503688432
 20
4.9163522395
 30
0.0
 10
9.5018241278
 20
4.9140953139
 30
0.0
 10
9.5001426157
 20
4.9120483173
 30
0.0
 10
9.4988657556
 20
4.9104861101
 30
0.0
 10
9.4979515333
 20
4.9093637537
 30
0.0
 10
9.4973526225
 20
4.9086270067
 30
0.0
 10
9.4968159911
 20
4.9079656674
 30
0.0
 10
9.4963443824
 20
4.9073835091
 30
0.0
 10
9.4959403616
 20
4.9068840789
 30
0.0
 10
9.4956470457
 20
4.9065210552
 30
0.0
 10
9.4954479145
 20
4.9062744147
 30
0.0
 10
9.4953257333
 20
4.9061230137
 30
0.0
 10
9.4952220805
 20
4.9059945323
 30
0.0
 10
9.4951368151
 20
4.9058887891
 30
0.0
 10
9.4950709132
 20
4.9058071012
 30
0.0
 10
9.4950265065
 20
4.9057519139
 30
0.0
 10
9.4950023811
 20
4.9057221159
 30
0.0
 10
9.4949884958
 20
4.9057046702
 30
0.0
 10
9.4949848953
 20
4.9057005901
 30
0.0
 10
9.4949780689
 20
4.9056917204
 30
0.0
 10
9.4949787783
 20
4.905692765
 30
0.0
  0
SPLINE
  5
3B1
100
AcDbEntity
  8
0
100
AcDbSpline
 62
7
  6
CONTINUOUS
 70
0
 71
3
 72
47
 73
43
 74
0
 42
0.0000001
 43
0.0000001
 44
0.0000000001
 40
0.0
 40
0.0
 40
0.0
 40
0.0
 40
0.0984901731
 40
0.1963215377
 40
0.2927679557
 40
0.3869626603
 40
0.4778723943
 40
0.5643133366
 40
0.6450354868
 40
0.7188573486
 40
0.7848127607
 40
0.814624953
 40
0.8422467331
 40
0.8676424502
 40
0.8907939258
 40
0.9116941882
 40
0.9303452728
 40
0.9467565992
 40
0.9609402932
 40
0.967201339
 40
0.9729107944
 40
0.9780705074
 40
0.9826821688
 40
0.9867473062
 40
0.9902673242
 40
0.9932435485
 40
0.994528122
 40
0.9956771521
 40
0.9966907302
 40
0.9975689463
 40
0.998311889
 40
0.9989196461
 40
0.999172857
 40
0.9993923032
 40
0.9995779884
 40
0.9997299126
 40
0.9998480759
 40
0.9999324782
 40
0.999962019
 40
0.9999831196
 40
0.9999957799
 40
1.0
 40
1.0
 40
1.0
 40
1.0
 10
9.5232453688
 20
5.1680303482
 30
0.0
 10
9.5232453688
 20
5.1700381741
 30
0.0
 10
9.5230526809
 20
5.1740430748
 30
0.0
 10
9.5221947082
 20
5.1799582394
 30
0.0
 10
9.5207989041
 20
5.1856802076
 30
0.0
 10
9.518918334
 20
5.1911118973
 30
0.0
 10
9.5166299828
 20
5.196160976
 30
0.0
 10
9.5140339569
 20
5.200744841
 30
0.0
 10
9.5112496193
 20
5.2047995212
 30
0.0
 10
9.5084064646
 20
5.2082873061
 30
0.0
 10
9.506020454
 20
5.2107939387
 30
0.0
 10
9.5041890635
 20
5.2125188739
 30
0.0
 10
9.5029216991
 20
5.2136351656
 30
0.0
 10
9.501724671
 20
5.214624606
 30
0.0
 10
9.5006073827
 20
5.2154944193
 30
0.0
 10
9.4995777593
 20
5.216252176
 30
0.0
 10
9.4986424688
 20
5.2169056497
 30
0.0
 10
9.4978068714
 20
5.2174622511
 30
0.0
 10
9.4971734515
 20
5.2178664463
 30
0.0
 10
9.4967202141
 20
5.2181472711
 30
0.0
 10
9.4964219401
 20
5.2183288969
 30
0.0
 10
9.4961511996
 20
5.2184910699
 30
0.0
 10
9.4959082894
 20
5.2186344579
 30
0.0
 10
9.4956934638
 20
5.2187596572
 30
0.0
 10
9.4955068839
 20
5.2188671025
 30
0.0
 10
9.4953690728
 20
5.2189456427
 30
0.0
 10
9.4952731152
 20
5.219000002
 30
0.0
 10
9.4952119164
 20
5.2190345448
 30
0.0
 10
9.495157886
 20
5.2190649345
 30
0.0
 10
9.4951110342
 20
5.2190912001
 30
0.0
 10
9.495071371
 20
5.2191133699
 30
0.0
 10
9.495042813
 20
5.2191292943
 30
0.0
 10
9.4950235714
 20
5.2191400111
 30
0.0
 10
9.4950118454
 20
5.2191465428
 30
0.0
 10
9.495001926
 20
5.2191520631
 30
0.0
 10
9.4949938031
 20
5.2191565979
 30
0.0
 10
9.4949875036
 20
5.2191600781
 30
0.0
 10
9.4949833406
 20
5.2191624548
 30
0.0
 10
9.4949809745
 20
5.2191636942
 30
0.0
 10
9.4949797828
 20
5.2191644866
 30
0.0
 10
9.4949792199
 20
5.2191645727
 30
0.0
 10
9.4949788016
 20
5.2191650411
 30
0.0
 10
9.4949787748
 20
5.2191649594
 30
0.0
  0
LINE
  5
3B2
100
AcDbEntity
  8
0
100
AcDbLine
 62
7
  6
CONTINUOUS
 10
8.8839653759
 20
4.9392803482
 11
8.8842807227
 21
4.933307802
  0
LINE
  5
3B3
100
AcDbEntity
  8
0
100
AcDbLine
 62
7
  6
CONTINUOUS
 10
9.3634921585
 20
5.1680303482
 11
9.3631768186
 21
5.1929775193
  0
LINE
  5
3B4
100
AcDbEntity
  8
0
100
AcDbLine
 62
7
  6
CONTINUOUS
 10
9.3631768117
 20
4.933307802
 11
9.3634921585
 21
4.9392803482
  0
LINE
  5
3B5
100
AcDbEntity
  8
0
100
AcDbLine
 62
7
  6
CONTINUOUS
 10
8.8842807158
 20
5.1929775193
 11
8.8839653759
 21
5.1680303482
  0
SPLINE
  5
3B6
100
AcDbEntity
  8
0
100
AcDbSpline
 62
7
  6
CONTINUOUS
 70
0
 71
3
 72
50
 73
46
 74
0
 42
0.0000001
 43
0.0000001
 44
0.0000000001
 40
0.0
 40
0.0
 40
0.0
 40
0.0
 40
0.00000422
 40
0.0000168799
 40
0.0000379797
 40
0.0000675194
 40
0.0001519185
 40
0.0002700772
 40
0.0004219956
 40
0.0006076735
 40
0.0008271111
 40
0.0010803122
 40
0.0016880457
 40
0.0024309599
 40
0.0033091422
 40
0.0043226814
 40
0.0054716673
 40
0.0067561912
 40
0.0097323006
 40
0.0132521831
 40
0.017317164
 40
0.0219286475
 40
0.0270881614
 40
0.0327973967
 40
0.0390582013
 40
0.0458723428
 40
0.053241498
 40
0.0696521921
 40
0.0883025579
 40
0.1092020145
 40
0.1323526018
 40
0.1577473425
 40
0.1853680607
 40
0.2151791086
 40
0.2471280376
 40
0.281143217
 40
0.3549622384
 40
0.4356812844
 40
0.5221188996
 40
0.6130251353
 40
0.7072162116
 40
0.7552271967
 40
0.8036860252
 40
0.9015136214
 40
1.0
 40
1.0
 40
1.0
 40
1.0
 10
8.7524787596
 20
5.2191649594
 30
0.0
 10
8.7524787865
 20
5.2191648776
 30
0.0
 10
8.7524782374
 20
5.2191648073
 30
0.0
 10
8.7524778008
 20
5.2191643368
 30
0.0
 10
8.7524765376
 20
5.219163762
 30
0.0
 10
8.7524742151
 20
5.2191623902
 30
0.0
 10
8.7524700197
 20
5.219160112
 30
0.0
 10
8.7524637358
 20
5.2191565843
 30
0.0
 10
8.7524556068
 20
5.219152068
 30
0.0
 10
8.7524456896
 20
5.219146541
 30
0.0
 10
8.7524339628
 20
5.2191400117
 30
0.0
 10
8.7524147215
 20
5.219129294
 30
0.0
 10
8.7523861633
 20
5.2191133702
 30
0.0
 10
8.7523465002
 20
5.2190912001
 30
0.0
 10
8.7522996484
 20
5.2190649346
 30
0.0
 10
8.7522456181
 20
5.2190345448
 30
0.0
 10
8.7521844193
 20
5.219000002
 30
0.0
 10
8.7520884616
 20
5.2189456427
 30
0.0
 10
8.7519506504
 20
5.2188671026
 30
0.0
 10
8.7517640706
 20
5.2187596572
 30
0.0
 10
8.7515492451
 20
5.2186344578
 30
0.0
 10
8.7513063348
 20
5.2184910701
 30
0.0
 10
8.7510355945
 20
5.2183288967
 30
0.0
 10
8.75073732
 20
5.2181472721
 30
0.0
 10
8.7504117905
 20
5.2179455683
 30
0.0
 10
8.7500593534
 20
5.2177230659
 30
0.0
 10
8.7495350511
 20
5.2173852248
 30
0.0
 10
8.7488150615
 20
5.2169056534
 30
0.0
 10
8.7478797767
 20
5.2162521751
 30
0.0
 10
8.7468501515
 20
5.2154944197
 30
0.0
 10
8.7457328641
 20
5.2146246066
 30
0.0
 10
8.7445358336
 20
5.2136351637
 30
0.0
 10
8.7432684785
 20
5.2125188824
 30
0.0
 10
8.7419417671
 20
5.2112692834
 30
0.0
 10
8.7405680948
 20
5.2098810376
 30
0.0
 10
8.7386394657
 20
5.2077823339
 30
0.0
 10
8.7362078296
 20
5.204799432
 30
0.0
 10
8.7334236049
 20
5.2007448757
 30
0.0
 10
8.730827534
 20
5.1961609296
 30
0.0
 10
8.728539242
 20
5.1911120514
 30
0.0
 10
8.726982012
 20
5.1866141213
 30
0.0
 10
8.725970616
 20
5.1828597594
 30
0.0
 10
8.7251223056
 20
5.1789891811
 30
0.0
 10
8.7244048152
 20
5.1740429061
 30
0.0
 10
8.7242121656
 20
5.170038174
 30
0.0
 10
8.7242121656
 20
5.1680303482
 30
0.0
  0
SPLINE
  5
3B7
100
AcDbEntity
  8
0
100
AcDbSpline
 62
7
  6
CONTINUOUS
 70
0
 71
3
 72
32
 73
28
 74
0
 42
0.0000001
 43
0.0000001
 44
0.0000000001
 40
0.0
 40
0.0
 40
0.0
 40
0.0
 40
0.0000862832
 40
0.0003451324
 40
0.0007765476
 40
0.0013805049
 40
0.0031045591
 40
0.0055133009
 40
0.0086025196
 40
0.0123674429
 40
0.0168007952
 40
0.021894604
 40
0.0340297884
 40
0.0486923748
 40
0.0657916828
 40
0.0852263559
 40
0.1068902152
 40
0.1306723527
 40
0.1841448344
 40
0.2447628116
 40
0.3116943602
 40
0.3841809191
 40
0.4615468968
 40
0.5432000073
 40
0.6286263904
 40
0.8090734801
 40
1.0
 40
1.0
 40
1.0
 40
1.0
 10
8.7524787561
 20
4.905692765
 30
0.0
 10
8.7524780468
 20
4.9056938096
 30
0.0
 10
8.7524746749
 20
4.9056975921
 30
0.0
 10
8.7524677387
 20
4.9057065845
 30
0.0
 10
8.7524557424
 20
4.9057212485
 30
0.0
 10
8.752430468
 20
4.9057527384
 30
0.0
 10
8.752386915
 20
4.9058066686
 30
0.0
 10
8.752320602
 20
4.9058889617
 30
0.0
 10
8.7522354964
 20
4.9059944697
 30
0.0
 10
8.7521317862
 20
4.9061230356
 30
0.0
 10
8.7520096247
 20
4.9062744077
 30
0.0
 10
8.7518104852
 20
4.9065210604
 30
0.0
 10
8.7515171744
 20
4.9068840765
 30
0.0
 10
8.7511131515
 20
4.9073835098
 30
0.0
 10
8.7506415436
 20
4.907965667
 30
0.0
 10
8.7501049122
 20
4.9086270064
 30
0.0
 10
8.7495060018
 20
4.9093637527
 30
0.0
 10
8.7485917799
 20
4.9104861088
 30
0.0
 10
8.74731492
 20
4.9120483157
 30
0.0
 10
8.7456334081
 20
4.914095312
 30
0.0
 10
8.7437691042
 20
4.9163522374
 30
0.0
 10
8.7417414706
 20
4.9187921252
 30
0.0
 10
8.739567915
 20
4.9213908441
 30
0.0
 10
8.7372637503
 20
4.924127164
 30
0.0
 10
8.7339744707
 20
4.9280059942
 30
0.0
 10
8.7296230984
 20
4.9330807798
 30
0.0
 10
8.7260546576
 20
4.9371799134
 30
0.0
 10
8.7242121656
 20
4.9392803482
 30
0.0
  0
SPLINE
  5
3B8
100
AcDbEntity
  8
0
100
AcDbSpline
 62
7
  6
CONTINUOUS
 70
0
 71
3
 72
27
 73
23
 74
0
 42
0.0000001
 43
0.0000001
 44
0.0000000001
 40
0.0
 40
0.0
 40
0.0
 40
0.0
 40
0.0661654278
 40
0.1319439646
 40
0.1969674652
 40
0.2609037455
 40
0.3234984495
 40
0.3846307872
 40
0.4443855661
 40
0.4738607457
 40
0.5031457728
 40
0.5323244892
 40
0.5614905733
 40
0.5907413282
 40
0.6201710988
 40
0.6498645542
 40
0.6798909909
 40
0.7410935975
 40
0.8039669773
 40
0.8683573704
 40
0.93387813
 40
1.0
 40
1.0
 40
1.0
 40
1.0
 10
9.1237287672
 20
5.2191649362
 30
0.0
 10
9.1257372178
 20
5.2191649362
 30
0.0
 10
9.1297429228
 20
5.2190804649
 30
0.0
 10
9.1357112172
 20
5.2186911291
 30
0.0
 10
9.1415864016
 20
5.2180132879
 30
0.0
 10
9.1473171006
 20
5.2170050337
 30
0.0
 10
9.1528468777
 20
5.2156109768
 30
0.0
 10
9.1581117382
 20
5.2137674338
 30
0.0
 10
9.1622397401
 20
5.2117919187
 30
0.0
 10
9.1653215802
 20
5.2099314494
 30
0.0
 10
9.1675095281
 20
5.2083983613
 30
0.0
 10
9.1695756119
 20
5.2067193102
 30
0.0
 10
9.171512594
 20
5.2048941963
 30
0.0
 10
9.1733145362
 20
5.2029252804
 30
0.0
 10
9.1749770693
 20
5.2008169907
 30
0.0
 10
9.17649747
 20
5.1985755572
 30
0.0
 10
9.1783449666
 20
5.1954009554
 30
0.0
 10
9.1802920107
 20
5.1911330283
 30
0.0
 10
9.1820528153
 20
5.1856787061
 30
0.0
 10
9.1832831259
 20
5.1799484308
 30
0.0
 10
9.1840090855
 20
5.174035423
 30
0.0
 10
9.184168729
 20
5.1700374766
 30
0.0
 10
9.184168729
 20
5.1680303482
 30
0.0
  0
SPLINE
  5
3B9
100
AcDbEntity
  8
0
100
AcDbSpline
 62
7
  6
CONTINUOUS
 70
0
 71
3
 72
50
 73
46
 74
0
 42
0.0000001
 43
0.0000001
 44
0.0000000001
 40
0.0
 40
0.0
 40
0.0
 40
0.0
 40
0.0394387918
 40
0.0591639798
 40
0.0788881367
 40
0.1183203653
 40
0.1577527454
 40
0.1774780967
 40
0.1972044475
 40
0.2366396973
 40
0.2760479418
 40
0.3153694427
 40
0.3545022455
 40
0.393303147
 40
0.4315974146
 40
0.4691937215
 40
0.5058983438
 40
0.5415250031
 40
0.5759001806
 40
0.6088644943
 40
0.640273005
 40
0.6699960347
 40
0.6979227272
 40
0.7239694983
 40
0.7480963233
 40
0.7703360471
 40
0.780794476
 40
0.7908526925
 40
0.8005597429
 40
0.8099808765
 40
0.8191986873
 40
0.8283125495
 40
0.8374362978
 40
0.8466927256
 40
0.8562068449
 40
0.8660982053
 40
0.8874086514
 40
0.8990034313
 40
0.9112914001
 40
0.9243016293
 40
0.9380437981
 40
0.9525110308
 40
0.9676827805
 40
0.983526241
 40
1.0
 40
1.0
 40
1.0
 40
1.0
 10
8.7984903622
 20
5.1680303482
 30
0.0
 10
8.7984903622
 20
5.1697667247
 30
0.0
 10
8.7986311785
 20
5.1723744264
 30
0.0
 10
8.799099456
 20
5.1758171627
 30
0.0
 10
8.7997540628
 20
5.1792294307
 30
0.0
 10
8.8009205927
 20
5.1834199205
 30
0.0
 10
8.8025431934
 20
5.1874561808
 30
0.0
 10
8.8041047439
 20
5.1905601579
 30
0.0
 10
8.8058375946
 20
5.1935719692
 30
0.0
 10
8.8083160292
 20
5.1971463915
 30
0.0
 10
8.8117431598
 20
5.2010741353
 30
0.0
 10
8.8155638713
 20
5.2045998888
 30
0.0
 10
8.8197044103
 20
5.207697435
 30
0.0
 10
8.8240829534
 20
5.2103597456
 30
0.0
 10
8.8286158311
 20
5.2125979851
 30
0.0
 10
8.833223779
 20
5.2144381496
 30
0.0
 10
8.8378361125
 20
5.2159158707
 30
0.0
 10
8.8423926138
 20
5.2170709154
 30
0.0
 10
8.8468434436
 20
5.2179423906
 30
0.0
 10
8.8511478778
 20
5.2185650938
 30
0.0
 10
8.8552725575
 20
5.218967017
 30
0.0
 10
8.8591898242
 20
5.2191677668
 30
0.0
 10
8.8628763034
 20
5.219177652
 30
0.0
 10
8.8663122371
 20
5.2189971572
 30
0.0
 10
8.8694803254
 20
5.2186166928
 30
0.0
 10
8.8719342932
 20
5.2181061929
 30
0.0
 10
8.873738494
 20
5.217565339
 30
0.0
 10
8.8749866758
 20
5.2171010682
 30
0.0
 10
8.8761560558
 20
5.2165652473
 30
0.0
 10
8.8772451398
 20
5.2159526144
 30
0.0
 10
8.8782525569
 20
5.2152579224
 30
0.0
 10
8.8791769649
 20
5.2144758734
 30
0.0
 10
8.8800174678
 20
5.2136017402
 30
0.0
 10
8.8807735084
 20
5.2126311914
 30
0.0
 10
8.8814456644
 20
5.2115607543
 30
0.0
 10
8.8822515263
 20
5.2099569447
 30
0.0
 10
8.8828702654
 20
5.2081678202
 30
0.0
 10
8.8833367908
 20
5.206233115
 30
0.0
 10
8.8836287042
 20
5.204634368
 30
0.0
 10
8.8838579534
 20
5.2029304225
 30
0.0
 10
8.8840306104
 20
5.2011234954
 30
0.0
 10
8.8841529554
 20
5.1992172297
 30
0.0
 10
8.8842315776
 20
5.1972161516
 30
0.0
 10
8.8842732477
 20
5.1951256686
 30
0.0
 10
8.8842807173
 20
5.1937028115
 30
0.0
 10
8.8842807158
 20
5.1929775193
 30
0.0
  0
SPLINE
  5
3BA
100
AcDbEntity
  8
0
100
AcDbSpline
 62
7
  6
CONTINUOUS
 70
0
 71
3
 72
35
 73
31
 74
0
 42
0.0000001
 43
0.0000001
 44
0.0000000001
 40
0.0
 40
0.0
 40
0.0
 40
0.0
 40
0.0254776567
 40
0.0503684723
 40
0.0746834029
 40
0.0984462892
 40
0.1444615381
 40
0.1669323018
 40
0.1892060835
 40
0.2114749051
 40
0.2339806692
 40
0.2570074399
 40
0.2808624027
 40
0.3058464308
 40
0.3322198543
 40
0.3601723257
 40
0.3898041108
 40
0.4211231807
 40
0.454056753
 40
0.4884720649
 40
0.524200396
 40
0.561058316
 40
0.5988638161
 40
0.6374466832
 40
0.6766536896
 40
0.7163504235
 40
0.7564207228
 40
0.8372923728
 40
0.9186411941
 40
1.0
 40
1.0
 40
1.0
 40
1.0
 10
8.8842807227
 20
4.933307802
 30
0.0
 10
8.8842807334
 20
4.932346627
 30
0.0
 10
8.8842287764
 20
4.9304458629
 30
0.0
 10
8.8839808687
 20
4.9276375299
 30
0.0
 10
8.8835549158
 20
4.9249151495
 30
0.0
 10
8.8827466277
 20
4.921456718
 30
0.0
 10
8.8815364399
 20
4.9181681865
 30
0.0
 10
8.8798689198
 20
4.9151709265
 30
0.0
 10
8.8783946244
 20
4.9131097047
 30
0.0
 10
8.8766766876
 20
4.9112438161
 30
0.0
 10
8.8747066353
 20
4.909600294
 30
0.0
 10
8.8724803155
 20
4.9082077759
 30
0.0
 10
8.8699993149
 20
4.9070939941
 30
0.0
 10
8.867271848
 20
4.9062832557
 30
0.0
 10
8.8643127795
 20
4.9057940064
 30
0.0
 10
8.8611430459
 20
4.9056371214
 30
0.0
 10
8.8577885929
 20
4.9058150255
 30
0.0
 10
8.8542788594
 20
4.9063216939
 30
0.0
 10
8.8506448903
 20
4.9071434939
 30
0.0
 10
8.8469173595
 20
4.9082607646
 30
0.0
 10
8.8431248758
 20
4.9096498031
 30
0.0
 10
8.8392928164
 20
4.9112848741
 30
0.0
 10
8.835442766
 20
4.9131399307
 30
0.0
 10
8.8315924603
 20
4.915189881
 30
0.0
 10
8.8277560944
 20
4.9174113961
 30
0.0
 10
8.8239447496
 20
4.9197833027
 30
0.0
 10
8.8188925389
 20
4.9231314792
 30
0.0
 10
8.8126965834
 20
4.9275925599
 30
0.0
 10
8.805475427
 20
4.9332792905
 30
0.0
 10
8.8007963363
 20
4.9372546526
 30
0.0
 10
8.7984903622
 20
4.9392803482
 30
0.0
  0
SPLINE
  5
3BB
100
AcDbEntity
  8
0
100
AcDbSpline
 62
7
  6
CONTINUOUS
 70
0
 71
3
 72
35
 73
31
 74
0
 42
0.0000001
 43
0.0000001
 44
0.0000000001
 40
0.0
 40
0.0
 40
0.0
 40
0.0
 40
0.081358805
 40
0.1627076255
 40
0.2435792747
 40
0.2836495744
 40
0.323346308
 40
0.3625533142
 40
0.4011361821
 40
0.4389416825
 40
0.4757996022
 40
0.5115279341
 40
0.5459432458
 40
0.578876818
 40
0.6101958882
 40
0.6398276728
 40
0.6677801445
 40
0.694153568
 40
0.7191375963
 40
0.7429925593
 40
0.7660193301
 40
0.7885250945
 40
0.8107939162
 40
0.833067698
 40
0.8555384618
 40
0.9015537108
 40
0.9253165971
 40
0.9496315277
 40
0.9745223433
 40
1.0
 40
1.0
 40
1.0
 40
1.0
 10
9.4489671722
 20
4.9392803482
 30
0.0
 10
9.4466611981
 20
4.9372546526
 30
0.0
 10
9.4419821075
 20
4.9332792906
 30
0.0
 10
9.4347609511
 20
4.92759256
 30
0.0
 10
9.4285649957
 20
4.9231314793
 30
0.0
 10
9.423512785
 20
4.9197833028
 30
0.0
 10
9.4197014402
 20
4.9174113962
 30
0.0
 10
9.4158650744
 20
4.9151898811
 30
0.0
 10
9.4120147686
 20
4.9131399308
 30
0.0
 10
9.4081647181
 20
4.9112848742
 30
0.0
 10
9.4043326587
 20
4.9096498032
 30
0.0
 10
9.4005401751
 20
4.9082607647
 30
0.0
 10
9.3968126442
 20
4.9071434939
 30
0.0
 10
9.3931786751
 20
4.9063216939
 30
0.0
 10
9.3896689416
 20
4.9058150255
 30
0.0
 10
9.3863144887
 20
4.9056371214
 30
0.0
 10
9.383144755
 20
4.9057940064
 30
0.0
 10
9.3801856865
 20
4.9062832556
 30
0.0
 10
9.3774582196
 20
4.907093994
 30
0.0
 10
9.374977219
 20
4.9082077759
 30
0.0
 10
9.3727508992
 20
4.909600294
 30
0.0
 10
9.3707808468
 20
4.9112438161
 30
0.0
 10
9.36906291
 20
4.9131097047
 30
0.0
 10
9.3675886146
 20
4.9151709265
 30
0.0
 10
9.3659210945
 20
4.9181681865
 30
0.0
 10
9.3647109067
 20
4.921456718
 30
0.0
 10
9.3639026186
 20
4.9249151495
 30
0.0
 10
9.3634766657
 20
4.9276375299
 30
0.0
 10
9.363228758
 20
4.9304458629
 30
0.0
 10
9.363176801
 20
4.932346627
 30
0.0
 10
9.3631768117
 20
4.933307802
 30
0.0
  0
SPLINE
  5
3BC
100
AcDbEntity
  8
0
100
AcDbSpline
 62
7
  6
CONTINUOUS
 70
0
 71
3
 72
50
 73
46
 74
0
 42
0.0000001
 43
0.0000001
 44
0.0000000001
 40
0.0
 40
0.0
 40
0.0
 40
0.0
 40
0.016473759
 40
0.0323172195
 40
0.0474889692
 40
0.061956202
 40
0.0756983708
 40
0.0887086001
 40
0.1009965689
 40
0.112591349
 40
0.1339017953
 40
0.1437931557
 40
0.1533072752
 40
0.1625637031
 40
0.1716874515
 40
0.1808013137
 40
0.1900191242
 40
0.1994402576
 40
0.2091473081
 40
0.2192055245
 40
0.2296639534
 40
0.251903677
 40
0.2760305024
 40
0.3020772734
 40
0.3300039659
 40
0.3597269957
 40
0.3911355062
 40
0.4240998201
 40
0.4584749979
 40
0.4941016574
 40
0.53080628
 40
0.5684025863
 40
0.6066968534
 40
0.6454977545
 40
0.6846305569
 40
0.7239520575
 40
0.7633603021
 40
0.802795552
 40
0.8225219029
 40
0.8422472542
 40
0.8816796345
 40
0.921111863
 40
0.94083602
 40
0.9605612081
 40
1.0
 40
1.0
 40
1.0
 40
1.0
 10
9.3631768186
 20
5.1929775193
 30
0.0
 10
9.3631768171
 20
5.1937028115
 30
0.0
 10
9.3631842867
 20
5.1951256686
 30
0.0
 10
9.3632259568
 20
5.1972161516
 30
0.0
 10
9.363304579
 20
5.1992172297
 30
0.0
 10
9.363426924
 20
5.2011234954
 30
0.0
 10
9.363599581
 20
5.2029304225
 30
0.0
 10
9.3638288302
 20
5.204634368
 30
0.0
 10
9.3641207436
 20
5.206233115
 30
0.0
 10
9.364587269
 20
5.2081678202
 30
0.0
 10
9.3652060081
 20
5.2099569448
 30
0.0
 10
9.3660118701
 20
5.2115607544
 30
0.0
 10
9.3666840261
 20
5.2126311915
 30
0.0
 10
9.3674400667
 20
5.2136017403
 30
0.0
 10
9.3682805696
 20
5.2144758735
 30
0.0
 10
9.3692049776
 20
5.2152579225
 30
0.0
 10
9.3702123946
 20
5.2159526144
 30
0.0
 10
9.3713014787
 20
5.2165652473
 30
0.0
 10
9.3724708586
 20
5.2171010682
 30
0.0
 10
9.3737190404
 20
5.217565339
 30
0.0
 10
9.3755232412
 20
5.2181061929
 30
0.0
 10
9.377977209
 20
5.2186166928
 30
0.0
 10
9.3811452974
 20
5.2189971572
 30
0.0
 10
9.3845812311
 20
5.219177652
 30
0.0
 10
9.3882677103
 20
5.2191677668
 30
0.0
 10
9.392184977
 20
5.218967017
 30
0.0
 10
9.3963096566
 20
5.2185650938
 30
0.0
 10
9.4006140909
 20
5.2179423906
 30
0.0
 10
9.4050649207
 20
5.2170709154
 30
0.0
 10
9.409621422
 20
5.2159158706
 30
0.0
 10
9.4142337555
 20
5.2144381495
 30
0.0
 10
9.4188417035
 20
5.212597985
 30
0.0
 10
9.4233745811
 20
5.2103597455
 30
0.0
 10
9.4277531241
 20
5.207697435
 30
0.0
 10
9.4318936631
 20
5.2045998888
 30
0.0
 10
9.4357143746
 20
5.2010741353
 30
0.0
 10
9.4391415052
 20
5.1971463915
 30
0.0
 10
9.4416199397
 20
5.1935719693
 30
0.0
 10
9.4433527904
 20
5.190560158
 30
0.0
 10
9.444914341
 20
5.1874561809
 30
0.0
 10
9.4465369417
 20
5.1834199205
 30
0.0
 10
9.4477034716
 20
5.1792294307
 30
0.0
 10
9.4483580784
 20
5.1758171627
 30
0.0
 10
9.4488263559
 20
5.1723744264
 30
0.0
 10
9.4489671722
 20
5.1697667247
 30
0.0
 10
9.4489671722
 20
5.1680303482
 30
0.0
  0
SPLINE
  5
3BD
100
AcDbEntity
  8
0
100
AcDbSpline
 62
7
  6
CONTINUOUS
 70
0
 71
3
 72
17
 73
13
 74
0
 42
0.0000001
 43
0.0000001
 44
0.0000000001
 40
0.0
 40
0.0
 40
0.0
 40
0.0
 40
0.2287345383
 40
0.348209931
 40
0.4714041683
 40
0.5985101205
 40
0.6635589041
 40
0.7295279286
 40
0.7963232601
 40
0.86380236
 40
0.9317717404
 40
1.0
 40
1.0
 40
1.0
 40
1.0
 10
9.0632888054
 20
4.9392803482
 30
0.0
 10
9.0665203472
 20
4.9348698365
 30
0.0
 10
9.0720297396
 20
4.9285545562
 30
0.0
 10
9.0805588172
 20
4.9211690603
 30
0.0
 10
9.0878172757
 20
4.9160936961
 30
0.0
 10
9.0944665895
 20
4.9125001444
 30
0.0
 10
9.100151695
 20
4.9100922856
 30
0.0
 10
9.1046231169
 20
4.9085425404
 30
0.0
 10
9.109248499
 20
4.9072949803
 30
0.0
 10
9.1139999458
 20
4.906378892
 30
0.0
 10
9.1188407734
 20
4.9058184599
 30
0.0
 10
9.1220978374
 20
4.9056927498
 30
0.0
 10
9.1237287672
 20
4.9056927498
 30
0.0
  0
SPLINE
  5
3BE
100
AcDbEntity
  8
0
100
AcDbSpline
 62
7
  6
CONTINUOUS
 70
0
 71
3
 72
27
 73
23
 74
0
 42
0.0000001
 43
0.0000001
 44
0.0000000001
 40
0.0
 40
0.0
 40
0.0
 40
0.0
 40
0.0661219414
 40
0.1316427588
 40
0.1960332169
 40
0.2589066549
 40
0.3201093222
 40
0.3501357845
 40
0.3798292624
 40
0.4092590626
 40
0.4385098502
 40
0.4676759619
 40
0.4968547083
 40
0.5261397721
 40
0.555614983
 40
0.6153698035
 40
0.6765021349
 40
0.7390967948
 40
0.8030329814
 40
0.8680563481
 40
0.9338347356
 40
1.0
 40
1.0
 40
1.0
 40
1.0
 10
9.0632888054
 20
5.1680303482
 30
0.0
 10
9.0632888054
 20
5.1700374788
 30
0.0
 10
9.0634484492
 20
5.1740354291
 30
0.0
 10
9.0641744102
 20
5.1799484426
 30
0.0
 10
9.0654047234
 20
5.1856787231
 30
0.0
 10
9.0671655322
 20
5.1911330498
 30
0.0
 10
9.0691125796
 20
5.1954009802
 30
0.0
 10
9.0709600804
 20
5.1985755835
 30
0.0
 10
9.0724804858
 20
5.2008170166
 30
0.0
 10
9.0741430215
 20
5.2029253075
 30
0.0
 10
9.0759449658
 20
5.2048942253
 30
0.0
 10
9.0778819544
 20
5.2067193364
 30
0.0
 10
9.0799480426
 20
5.2083983865
 30
0.0
 10
9.0821359927
 20
5.2099314767
 30
0.0
 10
9.0852178391
 20
5.2117919422
 30
0.0
 10
9.0893458443
 20
5.2137674545
 30
0.0
 10
9.0946107067
 20
5.2156109915
 30
0.0
 10
9.1001404807
 20
5.2170050428
 30
0.0
 10
9.105871172
 20
5.2180132923
 30
0.0
 10
9.1117463451
 20
5.2186911316
 30
0.0
 10
9.117714626
 20
5.2190804656
 30
0.0
 10
9.1217203215
 20
5.2191649362
 30
0.0
 10
9.1237287672
 20
5.2191649362
 30
0.0
  0
SPLINE
  5
3BF
100
AcDbEntity
  8
0
100
AcDbSpline
 62
7
  6
CONTINUOUS
 70
0
 71
3
 72
17
 73
13
 74
0
 42
0.0000001
 43
0.0000001
 44
0.0000000001
 40
0.0
 40
0.0
 40
0.0
 40
0.0
 40
0.0682283242
 40
0.1361977375
 40
0.2036769061
 40
0.2704722642
 40
0.3364412772
 40
0.4014901208
 40
0.5285960266
 40
0.6517902657
 40
0.7712656055
 40
1.0
 40
1.0
 40
1.0
 40
1.0
 10
9.1237287672
 20
4.9056927498
 30
0.0
 10
9.1253596986
 20
4.9056927498
 30
0.0
 10
9.1286167648
 20
4.90581846
 30
0.0
 10
9.1334575964
 20
4.906378893
 30
0.0
 10
9.138209046
 20
4.9072949831
 30
0.0
 10
9.1428344298
 20
4.9085425442
 30
0.0
 10
9.1473058531
 20
4.910092291
 30
0.0
 10
9.1529909581
 20
4.912500151
 30
0.0
 10
9.1596402715
 20
4.9160937042
 30
0.0
 10
9.1668987275
 20
4.921169068
 30
0.0
 10
9.1754278
 20
4.9285545627
 30
0.0
 10
9.1809371892
 20
4.9348698393
 30
0.0
 10
9.184168729
 20
4.9392803482
 30
0.0
  0
ENDSEC
  0
SECTION
  2
OBJECTS
  0
DICTIONARY
  5
C
100
AcDbDictionary
280
0
281
1
  3
ACAD_GROUP
350
D
  3
ACAD_MLINESTYLE
350
17
  3
ACAD_LAYOUT
350
1A
  3
ACAD_PLOTSETTINGS
350
19
  3
ACAD_PLOTSTYLENAME
350
E
  0
DICTIONARY
  5
D
102
{ACAD_REACTORS
330
C
102
}
100
AcDbDictionary
280
0
281
1
  0
ACDBDICTIONARYWDFLT
  5
E
102
{ACAD_REACTORS
330
C
102
}
100
AcDbDictionary
281
1
  3
Normal
350
F
100
AcDbDictionaryWithDefault
340
F
  0
DICTIONARY
  5
17
102
{ACAD_REACTORS
330
C
102
}
100
AcDbDictionary
280
0
281
1
  3
Standard
350
18
  0
DICTIONARY
  5
19
102
{ACAD_REACTORS
330
C
102
}
100
AcDbDictionary
281
1
  0
DICTIONARY
  5
1A
102
{ACAD_REACTORS
330
C
102
}
100
AcDbDictionary
281
1
  3
Model
350
3C0
  3
Layout1
350
3C1
  0
ACDBPLACEHOLDER
  5
F
102
{ACAD_REACTORS
330
E
102
}
  0
MLINESTYLE
  5
18
102
{ACAD_REACTORS
330
17
102
}
100
AcDbMlineStyle
  2
STANDARD
 70
0
  3

 62
256
 51
90.0
 52
90.0
 71
2
 49
0.5
 62
256
  6
BYLAYER
 49
-0.5
 62
256
  6
BYLAYER
  0
LAYOUT
  5
3C0
102
{ACAD_REACTORS
330
1A
102
}
100
AcDbPlotSettings
  1

  2
none_device
  4
ANSI_A_(11.00_x_8.50_Inches)
  6

 40
0.0
 41
0.0
 42
0.0
 43
0.0
 44
279.4
 45
215.9
 46
0.0
 47
0.0
 48
0.0
 49
0.0
140
0.0
141
0.0
142
1.0
143
1.0
 70
1024
 72
0
 73
0
 74
0
  7

 75
0
147
1.0
148
0.0
149
0.0
100
AcDbLayout
  1
Model
 70
0
 71
0
 10
0.0
 20
0.0
 11
11.0
 21
8.5
 12
0.0
 22
0.0
 32
0.0
 14
0.0
 24
0.0
 34
0.0
 15
0.0
 25
0.0
 35
0.0
146
0.0
 13
0.0
 23
0.0
 33
0.0
 16
1.0
 26
0.0
 36
0.0
 17
0.0
 27
1.0
 37
0.0
 76
0
330
202
345
0
346
0
  0
LAYOUT
  5
3C1
102
{ACAD_REACTORS
330
1A
102
}
100
AcDbPlotSettings
  1

  2
none_device
  4
ANSI_A_(11.00_x_8.50_Inches)
  6

 40
0.0
 41
0.0
 42
0.0
 43
0.0
 44
279.4
 45
215.9
 46
0.0
 47
0.0
 48
0.0
 49
0.0
140
0.0
141
0.0
142
1.0
143
1.0
 70
0
 72
0
 73
0
 74
0
  7

 75
0
147
1.0
148
0.0
149
0.0
100
AcDbLayout
  1
Layout1
 70
0
 71
1
 10
0.0
 20
0.0
 11
11.0
 21
8.5
 12
0.0
 22
0.0
 32
0.0
 14
0.0
 24
0.0
 34
0.0
 15
0.0
 25
0.0
 35
0.0
146
0.0
 13
0.0
 23
0.0
 33
0.0
 16
1.0
 26
0.0
 36
0.0
 17
0.0
 27
1.0
 37
0.0
 76
0
330
203
345
0
346
0
  0
ENDSEC
  0
EOF
