  0
SECTION
  2
HEADER
  9
$ACADVER
  1
AC1015
  9
$DWGCODEPAGE
  3
ANSI_1252
  9
$EXTMAX
 10
46.811023622
 20
33.1102362205
 30
0.0
  9
$EXTMIN
 10
0.0
 20
0.0
 30
0.0
  9
$LIMMIN
 10
0.0
 20
0.0
  9
$LIMMAX
 10
46.811023622
 20
33.1102362205
  9
$VIEWCTR
 10
23.405511811
 20
16.5551181102
  9
$VIEWSIZE
 40
33.1102362205
  9
$CLAYER
  8
0
  9
$LTSCALE
 40
2.5746062992
  9
$CELTYPE
  6
BYLAYER
  9
$DIMSCALE
 40
1.0
  9
$DIMASZ
 40
0.1875
  9
$DIMEXO
 40
0.2925688976
  9
$DIMDLI
 40
1.7788188976
  9
$DIMEXE
 40
0.8425984252
  9
$DIMCEN
 40
0.4212992126
  9
$DIMLFAC
 40
1.0
  9
$DIMBLK
  1
_CLOSED
  9
$DIMTXT
 40
0.15625
  9
$DIMTOL
 70
0
  9
$DIMLIM
 70
0
  9
$DIMTFAC
 40
1.0
  9
$PDMODE
 70
3
  9
$PDSIZE
 40
0.3125
  9
$HANDSEED
  5
3A0
  9
$TILEMODE
 70
1
  9
$MEASUREMENT
 70
0
  9
$INSUNITS
 70
1
  0
ENDSEC
  0
SECTION
  2
CLASSES
  0
CLASS
  1
ACDBDICTIONARYWDFLT
  2
AcDbDictionaryWithDefault
  3
AutoCAD 2000
 90
0
280
0
281
0
  0
CLASS
  1
ACDBPLACEHOLDER
  2
AcDbPlaceHolder
  3
AutoCAD 2000
 90
0
280
0
281
0
  0
CLASS
  1
LAYOUT
  2
AcDbLayout
  3
AutoCAD 2000
 90
0
280
0
281
0
  0
ENDSEC
  0
SECTION
  2
TABLES
  0
TABLE
  2
VPORT
  5
8
100
AcDbSymbolTable
 70
2
  0
VPORT
  5
1F4
100
AcDbSymbolTableRecord
100
AcDbViewportTableRecord
  2
*ACTIVE
 70
0
 10
0.0
 20
0.0
 11
1.0
 21
1.0
 12
23.405511811
 22
16.5551181102
 13
0.0
 23
0.0
 14
1.0
 24
1.0
 15
0.0
 25
0.0
 16
0.0
 26
0.0
 36
1.0
 17
0.0
 27
0.0
 37
0.0
 40
33.1102362205
 41
1.4137931034
 42
50.0
 43
0.0
 44
0.0
 50
0.0
 51
0.0
 71
0
 72
100
 73
1
 74
1
 75
0
 76
0
 77
0
 78
0
  0
ENDTAB
  0
TABLE
  2
LTYPE
  5
5
100
AcDbSymbolTable
 70
6
  0
LTYPE
  5
14
100
AcDbSymbolTableRecord
100
AcDbLinetypeTableRecord
  2
BYBLOCK
 70
0
  3

 72
65
 73
0
 40
0.0
  0
LTYPE
  5
15
100
AcDbSymbolTableRecord
100
AcDbLinetypeTableRecord
  2
BYLAYER
 70
0
  3

 72
65
 73
0
 40
0.0
  0
LTYPE
  5
16
100
AcDbSymbolTableRecord
100
AcDbLinetypeTableRecord
  2
CONTINUOUS
 70
64
  3
Solid line
 72
65
 73
0
 40
0.0
  0
LTYPE
  5
1F5
100
AcDbSymbolTableRecord
100
AcDbLinetypeTableRecord
  2
CENTER
 70
64
  3
____ _ ____ _ ____ _ ____ _ ____ _ ____ _ ____
 72
65
 73
4
 40
0.6
 49
0.375
 74
0
 49
-0.075
 74
0
 49
0.075
 74
0
 49
-0.075
 74
0
  0
LTYPE
  5
1F6
100
AcDbSymbolTableRecord
100
AcDbLinetypeTableRecord
  2
HIDDEN
 70
64
  3
- - - - - - - - - - - - - - - - - - - -
 72
65
 73
2
 40
0.2
 49
0.1
 74
0
 49
-0.1
 74
0
  0
LTYPE
  5
1F7
100
AcDbSymbolTableRecord
100
AcDbLinetypeTableRecord
  2
PHANTOM
 70
64
  3
_____ _ _ _____ _ _ _____ _ _ _____
 72
65
 73
6
 40
0.8
 49
0.45
 74
0
 49
-0.05
 74
0
 49
0.1
 74
0
 49
-0.05
 74
0
 49
0.1
 74
0
 49
-0.05
 74
0
  0
LTYPE
  5
1F8
100
AcDbSymbolTableRecord
100
AcDbLinetypeTableRecord
  2
DOT
 70
64
  3
. . . . . . . . . . . . . . . . . . . .
 72
65
 73
2
 40
0.2
 49
0.1
 74
0
 49
-0.1
 74
0
  0
LTYPE
  5
1F9
100
AcDbSymbolTableRecord
100
AcDbLinetypeTableRecord
  2
DASHED
 70
64
  3
- - - - - - - - - - - - - - - - - - - -
 72
65
 73
2
 40
0.2
 49
0.1
 74
0
 49
-0.1
 74
0
  0
ENDTAB
  0
TABLE
  2
LAYER
  5
2
100
AcDbSymbolTable
 70
36
  0
LAYER
  5
10
100
AcDbSymbolTableRecord
100
AcDbLayerTableRecord
  2
0
 70
0
 62
7
  6
CONTINUOUS
370
-3
390
F
  0
LAYER
  5
1FA
100
AcDbSymbolTableRecord
100
AcDbLayerTableRecord
  2
DEFAULT_1
 70
0
 62
7
  6
CENTER
370
-3
390
F
  0
LAYER
  5
1FB
100
AcDbSymbolTableRecord
100
AcDbLayerTableRecord
  2
DEFAULT_2
 70
0
 62
8
  6
HIDDEN
370
-3
390
F
  0
LAYER
  5
1FC
100
AcDbSymbolTableRecord
100
AcDbLayerTableRecord
  2
DEFAULT_3
 70
0
 62
7
  6
PHANTOM
370
-3
390
F
  0
LAYER
  5
1FD
100
AcDbSymbolTableRecord
100
AcDbLayerTableRecord
  2
_  SHELL
 70
0
 62
7
  6
CONTINUOUS
370
-3
390
F
  0
LAYER
  5
1FE
100
AcDbSymbolTableRecord
100
AcDbLayerTableRecord
  2
06___PRT_ALL_SURFS
 70
0
 62
7
  6
CONTINUOUS
370
-3
390
F
  0
LAYER
  5
1FF
100
AcDbSymbolTableRecord
100
AcDbLayerTableRecord
  2
06___PRT_ALL_SURFS_6
 70
0
 62
7
  6
CONTINUOUS
370
-3
390
F
  0
LAYER
  5
200
100
AcDbSymbolTableRecord
100
AcDbLayerTableRecord
  2
10136
 70
0
 62
7
  6
CONTINUOUS
370
-3
390
F
  0
LAYER
  5
201
100
AcDbSymbolTableRecord
100
AcDbLayerTableRecord
  2
10136_1
 70
0
 62
7
  6
CONTINUOUS
370
-3
390
F
  0
LAYER
  5
202
100
AcDbSymbolTableRecord
100
AcDbLayerTableRecord
  2
10136_2
 70
0
 62
7
  6
CONTINUOUS
370
-3
390
F
  0
LAYER
  5
203
100
AcDbSymbolTableRecord
100
AcDbLayerTableRecord
  2
10136_3
 70
0
 62
7
  6
CONTINUOUS
370
-3
390
F
  0
LAYER
  5
204
100
AcDbSymbolTableRecord
100
AcDbLayerTableRecord
  2
11353
 70
0
 62
7
  6
CONTINUOUS
370
-3
390
F
  0
LAYER
  5
205
100
AcDbSymbolTableRecord
100
AcDbLayerTableRecord
  2
11376
 70
0
 62
7
  6
CONTINUOUS
370
-3
390
F
  0
LAYER
  5
206
100
AcDbSymbolTableRecord
100
AcDbLayerTableRecord
  2
11376_1
 70
0
 62
7
  6
CONTINUOUS
370
-3
390
F
  0
LAYER
  5
207
100
AcDbSymbolTableRecord
100
AcDbLayerTableRecord
  2
11385
 70
0
 62
7
  6
CONTINUOUS
370
-3
390
F
  0
LAYER
  5
208
100
AcDbSymbolTableRecord
100
AcDbLayerTableRecord
  2
11385_1
 70
0
 62
7
  6
CONTINUOUS
370
-3
390
F
  0
LAYER
  5
209
100
AcDbSymbolTableRecord
100
AcDbLayerTableRecord
  2
11639
 70
0
 62
7
  6
CONTINUOUS
370
-3
390
F
  0
LAYER
  5
20A
100
AcDbSymbolTableRecord
100
AcDbLayerTableRecord
  2
11640
 70
0
 62
7
  6
CONTINUOUS
370
-3
390
F
  0
LAYER
  5
20B
100
AcDbSymbolTableRecord
100
AcDbLayerTableRecord
  2
11641
 70
0
 62
7
  6
CONTINUOUS
370
-3
390
F
  0
LAYER
  5
20C
100
AcDbSymbolTableRecord
100
AcDbLayerTableRecord
  2
11641_1
 70
0
 62
7
  6
CONTINUOUS
370
-3
390
F
  0
LAYER
  5
20D
100
AcDbSymbolTableRecord
100
AcDbLayerTableRecord
  2
11642
 70
0
 62
7
  6
CONTINUOUS
370
-3
390
F
  0
LAYER
  5
20E
100
AcDbSymbolTableRecord
100
AcDbLayerTableRecord
  2
11643
 70
0
 62
7
  6
CONTINUOUS
370
-3
390
F
  0
LAYER
  5
20F
100
AcDbSymbolTableRecord
100
AcDbLayerTableRecord
  2
11644
 70
0
 62
7
  6
CONTINUOUS
370
-3
390
F
  0
LAYER
  5
210
100
AcDbSymbolTableRecord
100
AcDbLayerTableRecord
  2
11656
 70
0
 62
7
  6
CONTINUOUS
370
-3
390
F
  0
LAYER
  5
211
100
AcDbSymbolTableRecord
100
AcDbLayerTableRecord
  2
2-679
 70
0
 62
7
  6
CONTINUOUS
370
-3
390
F
  0
LAYER
  5
212
100
AcDbSymbolTableRecord
100
AcDbLayerTableRecord
  2
3-375
 70
0
 62
7
  6
CONTINUOUS
370
-3
390
F
  0
LAYER
  5
213
100
AcDbSymbolTableRecord
100
AcDbLayerTableRecord
  2
3_ALL_SYMBOLS
 70
0
 62
7
  6
CONTINUOUS
370
-3
390
F
  0
LAYER
  5
214
100
AcDbSymbolTableRecord
100
AcDbLayerTableRecord
  2
80186
 70
0
 62
7
  6
CONTINUOUS
370
-3
390
F
  0
LAYER
  5
215
100
AcDbSymbolTableRecord
100
AcDbLayerTableRecord
  2
80186_1
 70
0
 62
7
  6
CONTINUOUS
370
-3
390
F
  0
LAYER
  5
216
100
AcDbSymbolTableRecord
100
AcDbLayerTableRecord
  2
80190
 70
0
 62
7
  6
CONTINUOUS
370
-3
390
F
  0
LAYER
  5
217
100
AcDbSymbolTableRecord
100
AcDbLayerTableRecord
  2
80192
 70
0
 62
7
  6
CONTINUOUS
370
-3
390
F
  0
LAYER
  5
218
100
AcDbSymbolTableRecord
100
AcDbLayerTableRecord
  2
80192_1
 70
0
 62
7
  6
CONTINUOUS
370
-3
390
F
  0
LAYER
  5
219
100
AcDbSymbolTableRecord
100
AcDbLayerTableRecord
  2
91255
 70
0
 62
7
  6
CONTINUOUS
370
-3
390
F
  0
LAYER
  5
21A
100
AcDbSymbolTableRecord
100
AcDbLayerTableRecord
  2
91366
 70
0
 62
7
  6
CONTINUOUS
370
-3
390
F
  0
LAYER
  5
21B
100
AcDbSymbolTableRecord
100
AcDbLayerTableRecord
  2
91366_1
 70
0
 62
7
  6
CONTINUOUS
370
-3
390
F
  0
LAYER
  5
21C
100
AcDbSymbolTableRecord
100
AcDbLayerTableRecord
  2
91409
 70
0
 62
7
  6
CONTINUOUS
370
-3
390
F
  0
LAYER
  5
21D
100
AcDbSymbolTableRecord
100
AcDbLayerTableRecord
  2
92081
 70
0
 62
7
  6
CONTINUOUS
370
-3
390
F
  0
LAYER
  5
21E
100
AcDbSymbolTableRecord
100
AcDbLayerTableRecord
  2
92233
 70
0
 62
7
  6
CONTINUOUS
370
-3
390
F
  0
LAYER
  5
21F
100
AcDbSymbolTableRecord
100
AcDbLayerTableRecord
  2
92233_1
 70
0
 62
7
  6
CONTINUOUS
370
-3
390
F
  0
LAYER
  5
220
100
AcDbSymbolTableRecord
100
AcDbLayerTableRecord
  2
92234
 70
0
 62
7
  6
CONTINUOUS
370
-3
390
F
  0
LAYER
  5
221
100
AcDbSymbolTableRecord
100
AcDbLayerTableRecord
  2
92255
 70
0
 62
7
  6
CONTINUOUS
370
-3
390
F
  0
LAYER
  5
222
100
AcDbSymbolTableRecord
100
AcDbLayerTableRecord
  2
92255_1
 70
0
 62
7
  6
CONTINUOUS
370
-3
390
F
  0
LAYER
  5
223
100
AcDbSymbolTableRecord
100
AcDbLayerTableRecord
  2
92259
 70
0
 62
7
  6
CONTINUOUS
370
-3
390
F
  0
LAYER
  5
224
100
AcDbSymbolTableRecord
100
AcDbLayerTableRecord
  2
92259_1
 70
0
 62
7
  6
CONTINUOUS
370
-3
390
F
  0
LAYER
  5
225
100
AcDbSymbolTableRecord
100
AcDbLayerTableRecord
  2
92259_2
 70
0
 62
7
  6
CONTINUOUS
370
-3
390
F
  0
LAYER
  5
226
100
AcDbSymbolTableRecord
100
AcDbLayerTableRecord
  2
92259_3
 70
0
 62
7
  6
CONTINUOUS
370
-3
390
F
  0
LAYER
  5
227
100
AcDbSymbolTableRecord
100
AcDbLayerTableRecord
  2
92259_4
 70
0
 62
7
  6
CONTINUOUS
370
-3
390
F
  0
LAYER
  5
228
100
AcDbSymbolTableRecord
100
AcDbLayerTableRecord
  2
92259_5
 70
0
 62
7
  6
CONTINUOUS
370
-3
390
F
  0
LAYER
  5
229
100
AcDbSymbolTableRecord
100
AcDbLayerTableRecord
  2
COLOR4
 70
0
 62
7
  6
CONTINUOUS
370
-3
390
F
  0
LAYER
  5
22A
100
AcDbSymbolTableRecord
100
AcDbLayerTableRecord
  2
DEFAULT_COORDINATE_SYSTEM
 70
0
 62
7
  6
CONTINUOUS
370
-3
390
F
  0
LAYER
  5
22B
100
AcDbSymbolTableRecord
100
AcDbLayerTableRecord
  2
DEFAULT_DATUM_AXES
 70
0
 62
7
  6
CONTINUOUS
370
-3
390
F
  0
LAYER
  5
22C
100
AcDbSymbolTableRecord
100
AcDbLayerTableRecord
  2
DEFAULT_DATUM_CURVES
 70
0
 62
7
  6
CONTINUOUS
370
-3
390
F
  0
LAYER
  5
22D
100
AcDbSymbolTableRecord
100
AcDbLayerTableRecord
  2
DEFAULT_DATUM_PLANES
 70
0
 62
7
  6
CONTINUOUS
370
-3
390
F
  0
LAYER
  5
22E
100
AcDbSymbolTableRecord
100
AcDbLayerTableRecord
  2
DEFAULT_SURFACES
 70
0
 62
7
  6
CONTINUOUS
370
-3
390
F
  0
LAYER
  5
22F
100
AcDbSymbolTableRecord
100
AcDbLayerTableRecord
  2
DEFAULT_SURFACES_2
 70
0
 62
7
  6
CONTINUOUS
370
-3
390
F
  0
LAYER
  5
230
100
AcDbSymbolTableRecord
100
AcDbLayerTableRecord
  2
DEFAULT_SURFACES_3
 70
0
 62
7
  6
CONTINUOUS
370
-3
390
F
  0
LAYER
  5
231
100
AcDbSymbolTableRecord
100
AcDbLayerTableRecord
  2
DEFAULT_SURFACES_4
 70
0
 62
7
  6
CONTINUOUS
370
-3
390
F
  0
LAYER
  5
232
100
AcDbSymbolTableRecord
100
AcDbLayerTableRecord
  2
DEFAULT_SURFACES_6
 70
0
 62
7
  6
CONTINUOUS
370
-3
390
F
  0
LAYER
  5
233
100
AcDbSymbolTableRecord
100
AcDbLayerTableRecord
  2
INTF_10136
 70
0
 62
7
  6
CONTINUOUS
370
-3
390
F
  0
LAYER
  5
234
100
AcDbSymbolTableRecord
100
AcDbLayerTableRecord
  2
INTF_11353
 70
0
 62
7
  6
CONTINUOUS
370
-3
390
F
  0
LAYER
  5
235
100
AcDbSymbolTableRecord
100
AcDbLayerTableRecord
  2
INTF_11376
 70
0
 62
7
  6
CONTINUOUS
370
-3
390
F
  0
LAYER
  5
236
100
AcDbSymbolTableRecord
100
AcDbLayerTableRecord
  2
INTF_11385
 70
0
 62
7
  6
CONTINUOUS
370
-3
390
F
  0
LAYER
  5
237
100
AcDbSymbolTableRecord
100
AcDbLayerTableRecord
  2
INTF_11639
 70
0
 62
7
  6
CONTINUOUS
370
-3
390
F
  0
LAYER
  5
238
100
AcDbSymbolTableRecord
100
AcDbLayerTableRecord
  2
INTF_11640
 70
0
 62
7
  6
CONTINUOUS
370
-3
390
F
  0
LAYER
  5
239
100
AcDbSymbolTableRecord
100
AcDbLayerTableRecord
  2
INTF_11642
 70
0
 62
7
  6
CONTINUOUS
370
-3
390
F
  0
LAYER
  5
23A
100
AcDbSymbolTableRecord
100
AcDbLayerTableRecord
  2
INTF_11643
 70
0
 62
7
  6
CONTINUOUS
370
-3
390
F
  0
LAYER
  5
23B
100
AcDbSymbolTableRecord
100
AcDbLayerTableRecord
  2
INTF_11644
 70
0
 62
7
  6
CONTINUOUS
370
-3
390
F
  0
LAYER
  5
23C
100
AcDbSymbolTableRecord
100
AcDbLayerTableRecord
  2
INTF_11656
 70
0
 62
7
  6
CONTINUOUS
370
-3
390
F
  0
LAYER
  5
23D
100
AcDbSymbolTableRecord
100
AcDbLayerTableRecord
  2
INTF_80186
 70
0
 62
7
  6
CONTINUOUS
370
-3
390
F
  0
LAYER
  5
23E
100
AcDbSymbolTableRecord
100
AcDbLayerTableRecord
  2
INTF_80190
 70
0
 62
7
  6
CONTINUOUS
370
-3
390
F
  0
LAYER
  5
23F
100
AcDbSymbolTableRecord
100
AcDbLayerTableRecord
  2
INTF_80192
 70
0
 62
7
  6
CONTINUOUS
370
-3
390
F
  0
LAYER
  5
240
100
AcDbSymbolTableRecord
100
AcDbLayerTableRecord
  2
INTF_91255
 70
0
 62
7
  6
CONTINUOUS
370
-3
390
F
  0
LAYER
  5
241
100
AcDbSymbolTableRecord
100
AcDbLayerTableRecord
  2
INTF_91366
 70
0
 62
7
  6
CONTINUOUS
370
-3
390
F
  0
LAYER
  5
242
100
AcDbSymbolTableRecord
100
AcDbLayerTableRecord
  2
INTF_91409
 70
0
 62
7
  6
CONTINUOUS
370
-3
390
F
  0
LAYER
  5
243
100
AcDbSymbolTableRecord
100
AcDbLayerTableRecord
  2
INTF_92081
 70
0
 62
7
  6
CONTINUOUS
370
-3
390
F
  0
LAYER
  5
244
100
AcDbSymbolTableRecord
100
AcDbLayerTableRecord
  2
INTF_92233
 70
0
 62
7
  6
CONTINUOUS
370
-3
390
F
  0
LAYER
  5
245
100
AcDbSymbolTableRecord
100
AcDbLayerTableRecord
  2
INTF_92234
 70
0
 62
7
  6
CONTINUOUS
370
-3
390
F
  0
LAYER
  5
246
100
AcDbSymbolTableRecord
100
AcDbLayerTableRecord
  2
INTF_92255
 70
0
 62
7
  6
CONTINUOUS
370
-3
390
F
  0
LAYER
  5
247
100
AcDbSymbolTableRecord
100
AcDbLayerTableRecord
  2
INTF_92259
 70
0
 62
7
  6
CONTINUOUS
370
-3
390
F
  0
LAYER
  5
248
100
AcDbSymbolTableRecord
100
AcDbLayerTableRecord
  2
INTF_BLANK
 70
0
 62
7
  6
CONTINUOUS
370
-3
390
F
  0
LAYER
  5
249
100
AcDbSymbolTableRecord
100
AcDbLayerTableRecord
  2
INTF_YELLOW
 70
0
 62
7
  6
CONTINUOUS
370
-3
390
F
  0
LAYER
  5
24A
100
AcDbSymbolTableRecord
100
AcDbLayerTableRecord
  2
PLATED_SURFACES
 70
0
 62
7
  6
CONTINUOUS
370
-3
390
F
  0
LAYER
  5
24B
100
AcDbSymbolTableRecord
100
AcDbLayerTableRecord
  2
PLATED_SURFACES_1
 70
0
 62
7
  6
CONTINUOUS
370
-3
390
F
  0
LAYER
  5
24C
100
AcDbSymbolTableRecord
100
AcDbLayerTableRecord
  2
PLATED_SURFACE_AREA_1
 70
0
 62
7
  6
CONTINUOUS
370
-3
390
F
  0
LAYER
  5
24D
100
AcDbSymbolTableRecord
100
AcDbLayerTableRecord
  2
PLATED_SURFACE_AREA_2
 70
0
 62
7
  6
CONTINUOUS
370
-3
390
F
  0
LAYER
  5
24E
100
AcDbSymbolTableRecord
100
AcDbLayerTableRecord
  2
QUILT
 70
0
 62
7
  6
CONTINUOUS
370
-3
390
F
  0
LAYER
  5
24F
100
AcDbSymbolTableRecord
100
AcDbLayerTableRecord
  2
_BLACK_HOLE
 70
0
 62
7
  6
CONTINUOUS
370
-3
390
F
  0
LAYER
  5
250
100
AcDbSymbolTableRecord
100
AcDbLayerTableRecord
  2
___SHELL
 70
0
 62
7
  6
CONTINUOUS
370
-3
390
F
  0
ENDTAB
  0
TABLE
  2
STYLE
  5
3
100
AcDbSymbolTable
 70
1
  0
STYLE
  5
11
100
AcDbSymbolTableRecord
100
AcDbTextStyleTableRecord
  2
STANDARD
 70
0
 40
0.0
 41
0.8
 50
0.0
 71
0
 42
0.2
  3
txt
  4

  0
STYLE
  5
251
100
AcDbSymbolTableRecord
100
AcDbTextStyleTableRecord
  2
TEXTSTYLE_1
 70
0
 40
0.0
 41
0.8
 50
0.0
 71
0
 42
0.2
  3
gdt
  4

  0
ENDTAB
  0
TABLE
  2
VIEW
  5
6
100
AcDbSymbolTable
 70
0
  0
ENDTAB
  0
TABLE
  2
UCS
  5
7
100
AcDbSymbolTable
 70
0
  0
ENDTAB
  0
TABLE
  2
APPID
  5
9
100
AcDbSymbolTable
 70
1
  0
APPID
  5
252
100
AcDbSymbolTableRecord
100
AcDbRegAppTableRecord
  2
ACAD
 70
0
  0
ENDTAB
  0
TABLE
  2
BLOCK_RECORD
  5
1
100
AcDbSymbolTable
 70
0
  0
BLOCK_RECORD
  5
253
100
AcDbSymbolTableRecord
100
AcDbBlockTableRecord
  2
*Model_Space
  0
BLOCK_RECORD
  5
254
100
AcDbSymbolTableRecord
100
AcDbBlockTableRecord
  2
*Paper_Space
  0
ENDTAB
  0
TABLE
  2
DIMSTYLE
  5
A
100
AcDbSymbolTable
 70
1
100
AcDbDimStyleTable
 71
0
  0
DIMSTYLE
105
255
100
AcDbSymbolTableRecord
100
AcDbDimStyleTableRecord
  2
STANDARD
 70
0
  3

  4

 40
1.0
 41
0.1875
 42
0.0625
 43
0.38
 44
0.18
 45
0.0
 46
0.0
 47
0.01
 48
0.01
140
0.15625
141
0.09
142
0.0
143
25.4
144
1.0
145
0.0
146
1.0
147
0.09
 71
0.0
 72
0.0
 73
1
 74
1
 75
0
 76
0
 77
0
 78
4
170
0
171
2
172
0
173
0
174
0
175
0
176
0
177
0
178
0
270
2
271
2
272
2
273
2
274
2
275
0
280
0
281
0
282
0
283
1
284
4
285
0
286
0
287
3
288
0
340
11
  0
ENDTAB
  0
ENDSEC
  0
SECTION
  2
BLOCKS
  0
BLOCK
  5
20
100
AcDbEntity
  8
0
100
AcDbBlockBegin
  2
*Model_Space
 70
0
 10
0.0
 20
0.0
 30
0.0
  3
*Model_Space
  1

  0
ENDBLK
  5
21
100
AcDbEntity
  8
0
100
AcDbBlockEnd
  0
BLOCK
  5
1C
100
AcDbEntity
  8
0
100
AcDbBlockBegin
  2
*Paper_Space
 70
0
 10
0.0
 20
0.0
 30
0.0
  3
*Paper_Space
  1

  0
ENDBLK
  5
1D
100
AcDbEntity
  8
0
100
AcDbBlockEnd
  0
ENDSEC
  0
SECTION
  2
ENTITIES
  0
LINE
  5
256
100
AcDbEntity
  8
0
100
AcDbLine
 62
7
  6
CONTINUOUS
 10
21.3152608553
 20
-1.7602286777
 11
21.2189932975
 21
-1.7602286777
  0
LINE
  5
257
100
AcDbEntity
  8
0
100
AcDbLine
 62
7
  6
CONTINUOUS
 10
21.9598836301
 20
-1.7602286777
 11
22.0561511878
 21
-1.7602286777
  0
LINE
  5
258
100
AcDbEntity
  8
0
100
AcDbLine
 62
7
  6
CONTINUOUS
 10
21.1275722486
 20
-0.4188683934
 11
22.1475722338
 21
-0.4188683934
  0
LINE
  5
259
100
AcDbEntity
  8
0
100
AcDbLine
 62
7
  6
CONTINUOUS
 10
20.8004143523
 20
34.4647713223
 11
20.8485481312
 21
34.5481414729
  0
LINE
  5
25A
100
AcDbEntity
  8
0
100
AcDbLine
 62
7
  6
CONTINUOUS
 10
21.1708595186
 20
35.1064011718
 11
21.2189932975
 21
35.1897713223
  0
LINE
  5
25B
100
AcDbEntity
  8
0
100
AcDbLine
 62
7
  6
CONTINUOUS
 10
21.2189932975
 20
-1.7602286777
 11
21.1708595186
 21
-1.6768585271
  0
LINE
  5
25C
100
AcDbEntity
  8
0
100
AcDbLine
 62
7
  6
CONTINUOUS
 10
20.8485481312
 20
-1.1185988282
 11
20.8004143523
 21
-1.0352286777
  0
LINE
  5
25D
100
AcDbEntity
  8
0
100
AcDbLine
 62
7
  6
CONTINUOUS
 10
22.474730133
 20
34.4647713223
 11
22.4265963541
 21
34.3814011718
  0
LINE
  5
25E
100
AcDbEntity
  8
0
100
AcDbLine
 62
7
  6
CONTINUOUS
 10
22.4265963541
 20
-0.9518585271
 11
22.474730133
 21
-1.0352286777
  0
LINE
  5
25F
100
AcDbEntity
  8
0
100
AcDbLine
 62
9
  6
CONTINUOUS
 10
19.4185722427
 20
17.085642779
 11
19.4185722427
 21
16.3438998657
  0
LINE
  5
260
100
AcDbEntity
  8
0
100
AcDbLine
 62
9
  6
CONTINUOUS
 10
19.4318048784
 20
17.1014016561
 11
19.4318048759
 21
16.328140989
  0
LINE
  5
261
100
AcDbEntity
  8
0
100
AcDbLine
 62
9
  6
CONTINUOUS
 10
19.4897839427
 20
17.1432213223
 11
19.4897839427
 21
16.2863213223
  0
LINE
  5
262
100
AcDbEntity
  8
0
100
AcDbLine
 62
9
  6
CONTINUOUS
 10
19.5325722427
 20
17.157341571
 11
19.5325722427
 21
16.7998405496
  0
LINE
  5
263
100
AcDbEntity
  8
0
100
AcDbLine
 62
9
  6
CONTINUOUS
 10
19.5325722427
 20
16.629702095
 11
19.5325722427
 21
16.2722010737
  0
LINE
  5
264
100
AcDbEntity
  8
0
100
AcDbLine
 62
6
  6
CONTINUOUS
 10
19.5495722412
 20
17.149371323
 11
19.5495722412
 21
16.8357648023
  0
LINE
  5
265
100
AcDbEntity
  8
0
100
AcDbLine
 62
6
  6
CONTINUOUS
 10
19.5495722412
 20
16.5937778423
 11
19.5495722412
 21
16.2801713216
  0
LINE
  5
266
100
AcDbEntity
  8
0
100
AcDbLine
 62
9
  6
CONTINUOUS
 10
19.5893637319
 20
17.1876552908
 11
19.5893637319
 21
16.8982387968
  0
LINE
  5
267
100
AcDbEntity
  8
0
100
AcDbLine
 62
9
  6
CONTINUOUS
 10
19.5893637319
 20
16.5313038479
 11
19.5893637319
 21
16.2418873539
  0
LINE
  5
268
100
AcDbEntity
  8
0
100
AcDbLine
 62
9
  6
CONTINUOUS
 10
19.9975105929
 20
16.2405421041
 11
19.9975105929
 21
16.5310771562
  0
LINE
  5
269
100
AcDbEntity
  8
0
100
AcDbLine
 62
9
  6
CONTINUOUS
 10
19.9975105929
 20
16.8984654884
 11
19.9975105929
 21
17.1890005405
  0
LINE
  5
26A
100
AcDbEntity
  8
0
100
AcDbLine
 62
6
  6
CONTINUOUS
 10
20.0415722427
 20
16.300812368
 11
20.0415722427
 21
16.6007060429
  0
LINE
  5
26B
100
AcDbEntity
  8
0
100
AcDbLine
 62
6
  6
CONTINUOUS
 10
20.0415722427
 20
16.8288366017
 11
20.0415722427
 21
17.1287302766
  0
LINE
  5
26C
100
AcDbEntity
  8
0
100
AcDbLine
 62
9
  6
CONTINUOUS
 10
20.1383322427
 20
16.8972713223
 11
20.1383322427
 21
16.5322713223
  0
LINE
  5
26D
100
AcDbEntity
  8
0
100
AcDbLine
 62
6
  6
CONTINUOUS
 10
20.5525722427
 20
16.5322713223
 11
20.5525722427
 21
16.8972713223
  0
LINE
  5
26E
100
AcDbEntity
  8
0
100
AcDbLine
 62
7
  6
CONTINUOUS
 10
20.5755722427
 20
17.0347713223
 11
20.5755722427
 21
16.3947713223
  0
LINE
  5
26F
100
AcDbEntity
  8
0
100
AcDbLine
 62
7
  6
CONTINUOUS
 10
19.9632805204
 20
17.6229485453
 11
20.0196582069
 21
17.7034642259
  0
LINE
  5
270
100
AcDbEntity
  8
0
100
AcDbLine
 62
7
  6
CONTINUOUS
 10
19.6238639649
 20
15.8065940994
 11
19.5674862785
 21
15.7260784188
  0
LINE
  5
271
100
AcDbEntity
  8
0
100
AcDbLine
 62
7
  6
CONTINUOUS
 10
19.9632805204
 20
15.8065940994
 11
20.0196582069
 21
15.7260784188
  0
LINE
  5
272
100
AcDbEntity
  8
0
100
AcDbLine
 62
7
  6
CONTINUOUS
 10
19.6238639649
 20
17.6229485453
 11
19.5674862785
 21
17.7034642259
  0
LINE
  5
273
100
AcDbEntity
  8
0
100
AcDbLine
 62
7
  6
CONTINUOUS
 10
20.9485958647
 20
17.702359231
 11
20.9485958647
 21
17.6576847082
  0
LINE
  5
274
100
AcDbEntity
  8
0
100
AcDbLine
 62
7
  6
CONTINUOUS
 10
20.9485958647
 20
17.5277713223
 11
20.9485958647
 21
17.4824878573
  0
LINE
  5
275
100
AcDbEntity
  8
0
100
AcDbLine
 62
7
  6
CONTINUOUS
 10
20.9485958647
 20
15.9470547873
 11
20.9485958647
 21
15.9017713223
  0
LINE
  5
276
100
AcDbEntity
  8
0
100
AcDbLine
 62
7
  6
CONTINUOUS
 10
20.9485958647
 20
15.7718579365
 11
20.9485958647
 21
15.7271834137
  0
LINE
  5
277
100
AcDbEntity
  8
0
100
AcDbLine
 62
7
  6
CONTINUOUS
 10
20.9875722427
 20
17.4647713223
 11
20.9875722427
 21
17.0947713223
  0
LINE
  5
278
100
AcDbEntity
  8
0
100
AcDbLine
 62
7
  6
CONTINUOUS
 10
20.9875722427
 20
16.3347713223
 11
20.9875722427
 21
15.9647713223
  0
LINE
  5
279
100
AcDbEntity
  8
0
100
AcDbLine
 62
7
  6
CONTINUOUS
 10
21.1375722427
 20
33.8484110381
 11
21.1375722427
 21
17.8093763437
  0
LINE
  5
27A
100
AcDbEntity
  8
0
100
AcDbLine
 62
7
  6
CONTINUOUS
 10
21.1375722427
 20
15.6201663009
 11
21.1375722427
 21
-0.4188683934
  0
LINE
  5
27B
100
AcDbEntity
  8
0
100
AcDbLine
 62
9
  6
CONTINUOUS
 10
21.6375722427
 20
17.4647713223
 11
21.6375722427
 21
15.9647713223
  0
LINE
  5
27C
100
AcDbEntity
  8
0
100
AcDbLine
 62
6
  6
CONTINUOUS
 10
19.5495722412
 20
16.2801713216
 11
19.5325722427
 21
16.2722010737
  0
LINE
  5
27D
100
AcDbEntity
  8
0
100
AcDbLine
 62
6
  6
CONTINUOUS
 10
24.0555612659
 20
16.3397712603
 11
24.0766438938
 21
16.3434917088
  0
LINE
  5
27E
100
AcDbEntity
  8
0
100
AcDbLine
 62
9
  6
CONTINUOUS
 10
22.9632291942
 20
16.3652981779
 11
22.960544991
 21
16.3648980935
  0
LINE
  5
27F
100
AcDbEntity
  8
0
100
AcDbLine
 62
9
  6
CONTINUOUS
 10
22.9600634513
 20
16.3648259167
 11
22.9605556601
 21
16.3648762686
  0
LINE
  5
280
100
AcDbEntity
  8
0
100
AcDbLine
 62
7
  6
CONTINUOUS
 10
21.0564902161
 20
15.6201663009
 11
22.2186542693
 21
15.6201663009
  0
LINE
  5
281
100
AcDbEntity
  8
0
100
AcDbLine
 62
9
  6
CONTINUOUS
 10
21.0466794922
 20
15.6282298932
 11
22.2284576543
 21
15.6282298932
  0
LINE
  5
282
100
AcDbEntity
  8
0
100
AcDbLine
 62
9
  6
CONTINUOUS
 10
20.9652585969
 20
15.7074638132
 11
22.3098858885
 21
15.7074638132
  0
LINE
  5
283
100
AcDbEntity
  8
0
100
AcDbLine
 62
9
  6
CONTINUOUS
 10
20.0196582069
 20
15.7260784188
 11
19.5674862785
 21
15.7260784188
  0
LINE
  5
284
100
AcDbEntity
  8
0
100
AcDbLine
 62
9
  6
CONTINUOUS
 10
20.9485958647
 20
15.7271834137
 11
22.3265486206
 21
15.7271834137
  0
LINE
  5
285
100
AcDbEntity
  8
0
100
AcDbLine
 62
7
  6
CONTINUOUS
 10
20.9485958647
 20
15.7718579365
 11
22.3265486206
 21
15.7718579365
  0
LINE
  5
286
100
AcDbEntity
  8
0
100
AcDbLine
 62
9
  6
CONTINUOUS
 10
19.9632805204
 20
15.8065940994
 11
19.6238639649
 21
15.8065940994
  0
LINE
  5
287
100
AcDbEntity
  8
0
100
AcDbLine
 62
7
  6
CONTINUOUS
 10
19.604486549
 20
15.8317713223
 11
19.9826579364
 21
15.8317713223
  0
LINE
  5
288
100
AcDbEntity
  8
0
100
AcDbLine
 62
9
  6
CONTINUOUS
 10
19.9844895359
 20
15.8566344809
 11
19.6026549494
 21
15.8566344809
  0
LINE
  5
289
100
AcDbEntity
  8
0
100
AcDbLine
 62
7
  6
CONTINUOUS
 10
20.9485958647
 20
15.9017713223
 11
22.3265486206
 21
15.9017713223
  0
LINE
  5
28A
100
AcDbEntity
  8
0
100
AcDbLine
 62
9
  6
CONTINUOUS
 10
20.9485958647
 20
15.9470547873
 11
22.3265486206
 21
15.9470547873
  0
LINE
  5
28B
100
AcDbEntity
  8
0
100
AcDbLine
 62
7
  6
CONTINUOUS
 10
22.3088320777
 20
15.9647713223
 11
20.9663124077
 21
15.9647713223
  0
LINE
  5
28C
100
AcDbEntity
  8
0
100
AcDbLine
 62
6
  6
CONTINUOUS
 10
22.7046466747
 20
16.0647713223
 11
22.6765722427
 21
16.0647713223
  0
LINE
  5
28D
100
AcDbEntity
  8
0
100
AcDbLine
 62
6
  6
CONTINUOUS
 10
22.5615722427
 20
16.0647713223
 11
22.5165722427
 21
16.0647713223
  0
LINE
  5
28E
100
AcDbEntity
  8
0
100
AcDbLine
 62
7
  6
CONTINUOUS
 10
22.3675722427
 20
16.1297713223
 11
22.5015722427
 21
16.1297713223
  0
LINE
  5
28F
100
AcDbEntity
  8
0
100
AcDbLine
 62
9
  6
CONTINUOUS
 10
19.9802501727
 20
16.2181053067
 11
19.6068943127
 21
16.2181053067
  0
LINE
  5
290
100
AcDbEntity
  8
0
100
AcDbLine
 62
9
  6
CONTINUOUS
 10
19.6549793136
 20
16.2402653437
 11
19.9317904331
 21
16.2402653437
  0
LINE
  5
291
100
AcDbEntity
  8
0
100
AcDbLine
 62
9
  6
CONTINUOUS
 10
23.0035026453
 20
16.3397713223
 11
24.055561456
 21
16.3397713223
  0
LINE
  5
292
100
AcDbEntity
  8
0
100
AcDbLine
 62
7
  6
CONTINUOUS
 10
20.5755722427
 20
16.3947713223
 11
20.9275722427
 21
16.3947713223
  0
LINE
  5
293
100
AcDbEntity
  8
0
100
AcDbLine
 62
6
  6
CONTINUOUS
 10
22.9115722427
 20
16.4672713223
 11
22.9215722427
 21
16.4672713223
  0
LINE
  5
294
100
AcDbEntity
  8
0
100
AcDbLine
 62
6
  6
CONTINUOUS
 10
20.5525722427
 20
16.5322713223
 11
20.1383322427
 21
16.5322713223
  0
LINE
  5
295
100
AcDbEntity
  8
0
100
AcDbLine
 62
6
  6
CONTINUOUS
 10
20.5755722427
 20
16.5597713223
 11
20.5525722427
 21
16.5597713223
  0
LINE
  5
296
100
AcDbEntity
  8
0
100
AcDbLine
 62
6
  6
CONTINUOUS
 10
20.5755722427
 20
16.8697713223
 11
20.5525722427
 21
16.8697713223
  0
LINE
  5
297
100
AcDbEntity
  8
0
100
AcDbLine
 62
9
  6
CONTINUOUS
 10
24.0998803312
 20
16.36533526
 11
22.9632291942
 21
16.3652981779
  0
LINE
  5
298
100
AcDbEntity
  8
0
100
AcDbLine
 62
6
  6
CONTINUOUS
 10
19.5495722412
 20
17.149371323
 11
19.5325722427
 21
17.157341571
  0
LINE
  5
299
100
AcDbEntity
  8
0
100
AcDbLine
 62
7
  6
CONTINUOUS
 10
22.1375722427
 20
33.8484110381
 11
22.1375722427
 21
17.8093763437
  0
LINE
  5
29A
100
AcDbEntity
  8
0
100
AcDbLine
 62
7
  6
CONTINUOUS
 10
22.1375722427
 20
15.6201663009
 11
22.1375722427
 21
-0.4188683934
  0
LINE
  5
29B
100
AcDbEntity
  8
0
100
AcDbLine
 62
7
  6
CONTINUOUS
 10
22.2875722427
 20
17.4647713223
 11
22.2875722427
 21
17.3797713223
  0
LINE
  5
29C
100
AcDbEntity
  8
0
100
AcDbLine
 62
7
  6
CONTINUOUS
 10
22.2875722427
 20
16.0497713223
 11
22.2875722427
 21
15.9647713223
  0
LINE
  5
29D
100
AcDbEntity
  8
0
100
AcDbLine
 62
7
  6
CONTINUOUS
 10
22.3265486206
 20
17.702359231
 11
22.3265486206
 21
17.6576847082
  0
LINE
  5
29E
100
AcDbEntity
  8
0
100
AcDbLine
 62
7
  6
CONTINUOUS
 10
22.3265486206
 20
17.5277713223
 11
22.3265486206
 21
17.4824878573
  0
LINE
  5
29F
100
AcDbEntity
  8
0
100
AcDbLine
 62
7
  6
CONTINUOUS
 10
22.3265486206
 20
15.7271834137
 11
22.3265486206
 21
15.7718579365
  0
LINE
  5
2A0
100
AcDbEntity
  8
0
100
AcDbLine
 62
7
  6
CONTINUOUS
 10
22.3265486206
 20
15.9017713223
 11
22.3265486206
 21
15.9470547873
  0
LINE
  5
2A1
100
AcDbEntity
  8
0
100
AcDbLine
 62
9
  6
CONTINUOUS
 10
22.5015722427
 20
17.3497535427
 11
22.5015722427
 21
16.079789102
  0
LINE
  5
2A2
100
AcDbEntity
  8
0
100
AcDbLine
 62
9
  6
CONTINUOUS
 10
22.5165722427
 20
16.0647713223
 11
22.5165722427
 21
17.3647713136
  0
LINE
  5
2A3
100
AcDbEntity
  8
0
100
AcDbLine
 62
6
  6
CONTINUOUS
 10
22.5615722427
 20
16.0647713223
 11
22.5615722427
 21
17.3647713223
  0
LINE
  5
2A4
100
AcDbEntity
  8
0
100
AcDbLine
 62
6
  6
CONTINUOUS
 10
22.6765722427
 20
16.0647713223
 11
22.6765722427
 21
17.3647713223
  0
LINE
  5
2A5
100
AcDbEntity
  8
0
100
AcDbLine
 62
9
  6
CONTINUOUS
 10
22.7046466747
 20
16.0647713223
 11
22.7046466747
 21
17.3645037773
  0
LINE
  5
2A6
100
AcDbEntity
  8
0
100
AcDbLine
 62
9
  6
CONTINUOUS
 10
22.7331641211
 20
16.0854582111
 11
22.7331641214
 21
17.344084433
  0
LINE
  5
2A7
100
AcDbEntity
  8
0
100
AcDbLine
 62
9
  6
CONTINUOUS
 10
22.8955359604
 20
16.3514860847
 11
22.8955359609
 21
17.0780565605
  0
LINE
  5
2A8
100
AcDbEntity
  8
0
100
AcDbLine
 62
6
  6
CONTINUOUS
 10
22.9115722722
 20
16.3780643055
 11
22.9115722427
 21
17.0515028573
  0
LINE
  5
2A9
100
AcDbEntity
  8
0
100
AcDbLine
 62
6
  6
CONTINUOUS
 10
22.9215722427
 20
16.9848191287
 11
22.9215722427
 21
16.4447235159
  0
LINE
  5
2AA
100
AcDbEntity
  8
0
100
AcDbLine
 62
9
  6
CONTINUOUS
 10
24.0853760934
 20
17.066679685
 11
24.0825959079
 21
17.0642073895
  0
LINE
  5
2AB
100
AcDbEntity
  8
0
100
AcDbLine
 62
6
  6
CONTINUOUS
 10
20.5525722427
 20
16.8972713223
 11
20.1383322427
 21
16.8972713223
  0
LINE
  5
2AC
100
AcDbEntity
  8
0
100
AcDbLine
 62
6
  6
CONTINUOUS
 10
22.9115722427
 20
16.9622713223
 11
22.9215722427
 21
16.9622713223
  0
LINE
  5
2AD
100
AcDbEntity
  8
0
100
AcDbLine
 62
7
  6
CONTINUOUS
 10
20.9275722427
 20
17.0347713223
 11
20.5755722427
 21
17.0347713223
  0
LINE
  5
2AE
100
AcDbEntity
  8
0
100
AcDbLine
 62
9
  6
CONTINUOUS
 10
24.037236192
 20
17.0897713223
 11
23.0034966805
 21
17.0897713223
  0
LINE
  5
2AF
100
AcDbEntity
  8
0
100
AcDbLine
 62
9
  6
CONTINUOUS
 10
19.6124918543
 20
17.1892773009
 11
19.9751548361
 21
17.1892773009
  0
LINE
  5
2B0
100
AcDbEntity
  8
0
100
AcDbLine
 62
9
  6
CONTINUOUS
 10
19.6068943127
 20
17.211437338
 11
19.9802501727
 21
17.211437338
  0
LINE
  5
2B1
100
AcDbEntity
  8
0
100
AcDbLine
 62
7
  6
CONTINUOUS
 10
22.5015722427
 20
17.2997713223
 11
22.3675722427
 21
17.2997713223
  0
LINE
  5
2B2
100
AcDbEntity
  8
0
100
AcDbLine
 62
6
  6
CONTINUOUS
 10
22.7046466747
 20
17.3647713223
 11
22.6765722427
 21
17.3647713223
  0
LINE
  5
2B3
100
AcDbEntity
  8
0
100
AcDbLine
 62
6
  6
CONTINUOUS
 10
22.5615722427
 20
17.3647713223
 11
22.5165722427
 21
17.3647713223
  0
LINE
  5
2B4
100
AcDbEntity
  8
0
100
AcDbLine
 62
7
  6
CONTINUOUS
 10
20.9663124077
 20
17.4647713223
 11
22.3088320777
 21
17.4647713223
  0
LINE
  5
2B5
100
AcDbEntity
  8
0
100
AcDbLine
 62
9
  6
CONTINUOUS
 10
20.9485958647
 20
17.4824878573
 11
22.3265486206
 21
17.4824878573
  0
LINE
  5
2B6
100
AcDbEntity
  8
0
100
AcDbLine
 62
7
  6
CONTINUOUS
 10
22.3265486206
 20
17.5277713223
 11
20.9485958647
 21
17.5277713223
  0
LINE
  5
2B7
100
AcDbEntity
  8
0
100
AcDbLine
 62
9
  6
CONTINUOUS
 10
19.6026549494
 20
17.5729081637
 11
19.9844895359
 21
17.5729081637
  0
LINE
  5
2B8
100
AcDbEntity
  8
0
100
AcDbLine
 62
7
  6
CONTINUOUS
 10
19.9826579364
 20
17.5977713223
 11
19.604486549
 21
17.5977713223
  0
LINE
  5
2B9
100
AcDbEntity
  8
0
100
AcDbLine
 62
9
  6
CONTINUOUS
 10
19.6238639649
 20
17.6229485453
 11
19.9632805204
 21
17.6229485453
  0
LINE
  5
2BA
100
AcDbEntity
  8
0
100
AcDbLine
 62
7
  6
CONTINUOUS
 10
22.3265486206
 20
17.6576847082
 11
20.9485958647
 21
17.6576847082
  0
LINE
  5
2BB
100
AcDbEntity
  8
0
100
AcDbLine
 62
9
  6
CONTINUOUS
 10
20.9485958647
 20
17.702359231
 11
22.3265486206
 21
17.702359231
  0
LINE
  5
2BC
100
AcDbEntity
  8
0
100
AcDbLine
 62
9
  6
CONTINUOUS
 10
19.5674862785
 20
17.7034642259
 11
20.0196582069
 21
17.7034642259
  0
LINE
  5
2BD
100
AcDbEntity
  8
0
100
AcDbLine
 62
9
  6
CONTINUOUS
 10
22.3098858885
 20
17.7220788315
 11
20.9652585969
 21
17.7220788315
  0
LINE
  5
2BE
100
AcDbEntity
  8
0
100
AcDbLine
 62
9
  6
CONTINUOUS
 10
22.2284649931
 20
17.8013127515
 11
21.046686831
 21
17.8013127515
  0
LINE
  5
2BF
100
AcDbEntity
  8
0
100
AcDbLine
 62
7
  6
CONTINUOUS
 10
22.2186542693
 20
17.8093763437
 11
21.0564902161
 21
17.8093763437
  0
LINE
  5
2C0
100
AcDbEntity
  8
0
100
AcDbLine
 62
9
  6
CONTINUOUS
 10
22.9598388238
 20
17.0643162008
 11
24.0825959178
 21
17.0642074126
  0
LINE
  5
2C1
100
AcDbEntity
  8
0
100
AcDbLine
 62
6
  6
CONTINUOUS
 10
24.0619515499
 20
17.0848778335
 11
24.0372356313
 21
17.0897714571
  0
LINE
  5
2C2
100
AcDbEntity
  8
0
100
AcDbLine
 62
9
  6
CONTINUOUS
 10
24.0998803312
 20
16.36533526
 11
24.1027571396
 21
16.3638801532
  0
LINE
  5
2C3
100
AcDbEntity
  8
0
100
AcDbLine
 62
9
  6
CONTINUOUS
 10
24.1027605909
 20
16.3638896231
 11
24.1027571396
 21
16.3638801532
  0
LINE
  5
2C4
100
AcDbEntity
  8
0
100
AcDbLine
 62
6
  6
CONTINUOUS
 10
24.098388579
 20
16.3581626071
 11
24.1027563152
 21
16.3638807618
  0
LINE
  5
2C5
100
AcDbEntity
  8
0
100
AcDbLine
 62
6
  6
CONTINUOUS
 10
24.0866725524
 20
16.3502579337
 11
24.0977403045
 21
16.3596323536
  0
LINE
  5
2C6
100
AcDbEntity
  8
0
100
AcDbLine
 62
6
  6
CONTINUOUS
 10
24.0766438938
 20
16.3434917088
 11
24.098388579
 21
16.3581626071
  0
LINE
  5
2C7
100
AcDbEntity
  8
0
100
AcDbLine
 62
6
  6
CONTINUOUS
 10
24.0811587307
 20
17.0717538749
 11
24.0600858606
 21
17.0852472303
  0
LINE
  5
2C8
100
AcDbEntity
  8
0
100
AcDbLine
 62
6
  6
CONTINUOUS
 10
24.0853756801
 20
17.0666791791
 11
24.0619515499
 21
17.0848778335
  0
LINE
  5
2C9
100
AcDbEntity
  8
0
100
AcDbLine
 62
6
  6
CONTINUOUS
 10
24.0853754043
 20
17.0666795707
 11
24.0811587307
 21
17.0717538749
  0
LINE
  5
2CA
100
AcDbEntity
  8
0
100
AcDbLine
 62
7
  6
CONTINUOUS
 10
20.8004143523
 20
-1.0352286777
 11
20.8485481312
 21
-0.9518585271
  0
LINE
  5
2CB
100
AcDbEntity
  8
0
100
AcDbLine
 62
7
  6
CONTINUOUS
 10
20.8485481312
 20
34.3814011718
 11
20.8004143523
 21
34.4647713223
  0
LINE
  5
2CC
100
AcDbEntity
  8
0
100
AcDbLine
 62
7
  6
CONTINUOUS
 10
22.474730133
 20
-1.0352286777
 11
22.4265963541
 21
-1.1185988282
  0
LINE
  5
2CD
100
AcDbEntity
  8
0
100
AcDbLine
 62
7
  6
CONTINUOUS
 10
22.1042849667
 20
-1.6768585271
 11
22.0561511878
 21
-1.7602286777
  0
LINE
  5
2CE
100
AcDbEntity
  8
0
100
AcDbLine
 62
7
  6
CONTINUOUS
 10
22.0561511878
 20
35.1897713223
 11
22.1042849667
 21
35.1064011718
  0
LINE
  5
2CF
100
AcDbEntity
  8
0
100
AcDbLine
 62
7
  6
CONTINUOUS
 10
22.4265963541
 20
34.5481414729
 11
22.474730133
 21
34.4647713223
  0
LINE
  5
2D0
100
AcDbEntity
  8
0
100
AcDbLine
 62
7
  6
CONTINUOUS
 10
22.1475722367
 20
33.8484110381
 11
21.1275722516
 21
33.8484110381
  0
LINE
  5
2D1
100
AcDbEntity
  8
0
100
AcDbLine
 62
7
  6
CONTINUOUS
 10
21.3152608553
 20
35.1897713223
 11
21.2189932975
 21
35.1897713223
  0
LINE
  5
2D2
100
AcDbEntity
  8
0
100
AcDbLine
 62
7
  6
CONTINUOUS
 10
21.9598836301
 20
35.1897713223
 11
22.0561511878
 21
35.1897713223
  0
ARC
  5
2D3
100
AcDbEntity
  8
0
100
AcDbCircle
 62
6
  6
CONTINUOUS
 10
19.7848781517
 20
13.8413087657
 40
2.4087990253
100
AcDbArc
 50
88.0987226936
 51
89.7932015933
  0
ARC
  5
2D4
100
AcDbEntity
  8
0
100
AcDbCircle
 62
6
  6
CONTINUOUS
 10
19.7856012421
 20
13.8455900624
 40
2.4045152508
100
AcDbArc
 50
89.810063369
 51
91.5285264196
  0
ARC
  5
2D5
100
AcDbEntity
  8
0
100
AcDbCircle
 62
6
  6
CONTINUOUS
 10
19.7859039053
 20
13.8901686991
 40
2.3599329736
100
AcDbArc
 50
86.5534991752
 51
87.6213368771
  0
ARC
  5
2D6
100
AcDbEntity
  8
0
100
AcDbCircle
 62
6
  6
CONTINUOUS
 10
19.7840457579
 20
13.9212991711
 40
2.3287916361
100
AcDbArc
 50
91.5399566728
 51
93.0882745456
  0
ARC
  5
2D7
100
AcDbEntity
  8
0
100
AcDbCircle
 62
6
  6
CONTINUOUS
 10
19.7877514091
 20
13.936400452
 40
2.3136643792
100
AcDbArc
 50
87.6195322868
 51
88.091708886
  0
ARC
  5
2D8
100
AcDbEntity
  8
0
100
AcDbCircle
 62
6
  6
CONTINUOUS
 10
19.7905580215
 20
13.9725847582
 40
2.2773862066
100
AcDbArc
 50
85.1019949607
 51
86.5457285028
  0
ARC
  5
2D9
100
AcDbEntity
  8
0
100
AcDbCircle
 62
6
  6
CONTINUOUS
 10
19.7799870957
 20
14.001223943
 40
2.2487642937
100
AcDbArc
 50
93.094724151
 51
94.2622087762
  0
ARC
  5
2DA
100
AcDbEntity
  8
0
100
AcDbCircle
 62
6
  6
CONTINUOUS
 10
19.7621065443
 20
14.2323941253
 40
2.016904647
100
AcDbArc
 50
94.2437350672
 51
94.7601479329
  0
ARC
  5
2DB
100
AcDbEntity
  8
0
100
AcDbCircle
 62
6
  6
CONTINUOUS
 10
19.8144406445
 20
14.2535008674
 40
1.9954567847
100
AcDbArc
 50
84.9425779526
 51
85.0965442278
  0
ARC
  5
2DC
100
AcDbEntity
  8
0
100
AcDbCircle
 62
7
  6
CONTINUOUS
 10
19.4320722427
 20
16.0393953634
 40
0.25
100
AcDbArc
 50
313.0260516848
 51
45.6300695443
  0
ARC
  5
2DD
100
AcDbEntity
  8
0
100
AcDbCircle
 62
7
  6
CONTINUOUS
 10
19.6107575322
 20
15.8157713223
 40
0.016
100
AcDbArc
 50
324.9999999994
 51
90.0000000011
  0
ARC
  5
2DE
100
AcDbEntity
  8
0
100
AcDbCircle
 62
7
  6
CONTINUOUS
 10
19.6135722427
 20
15.8449377844
 40
0.016
100
AcDbArc
 50
133.0260516848
 51
235.3765489001
  0
ARC
  5
2DF
100
AcDbEntity
  8
0
100
AcDbCircle
 62
6
  6
CONTINUOUS
 10
19.4176221365
 20
16.2473768268
 40
0.082
100
AcDbArc
 50
28.3549794471
 51
80.0400217383
  0
ARC
  5
2E0
100
AcDbEntity
  8
0
100
AcDbCircle
 62
6
  6
CONTINUOUS
 10
19.6105201895
 20
16.3021211734
 40
0.06478
100
AcDbArc
 50
199.8060249893
 51
248.7792158607
  0
ARC
  5
2E1
100
AcDbEntity
  8
0
100
AcDbCircle
 62
6
  6
CONTINUOUS
 10
19.5186486651
 20
16.3018991205
 40
0.0328
100
AcDbArc
 50
212.5604235931
 51
295.1189758354
  0
ARC
  5
2E2
100
AcDbEntity
  8
0
100
AcDbCircle
 62
7
  6
CONTINUOUS
 10
19.6285722427
 20
16.2402653462
 40
0.031
100
AcDbArc
 50
180.0
 51
225.6300867766
  0
ARC
  5
2E3
100
AcDbEntity
  8
0
100
AcDbCircle
 62
6
  6
CONTINUOUS
 10
19.4345692924
 20
16.3438858106
 40
0.0159856625
100
AcDbArc
 50
179.9999417833
 51
260.0417320795
  0
ARC
  5
2E4
100
AcDbEntity
  8
0
100
AcDbCircle
 62
7
  6
CONTINUOUS
 10
19.7935722427
 20
15.5677713223
 40
0.276
100
AcDbArc
 50
145.0
 51
35.0
  0
ARC
  5
2E5
100
AcDbEntity
  8
0
100
AcDbCircle
 62
7
  6
CONTINUOUS
 10
20.1550722427
 20
16.0393953634
 40
0.25
100
AcDbArc
 50
134.3699304557
 51
226.9739483152
  0
ARC
  5
2E6
100
AcDbEntity
  8
0
100
AcDbCircle
 62
7
  6
CONTINUOUS
 10
19.9763869531
 20
15.8157713223
 40
0.016
100
AcDbArc
 50
89.9999999989
 51
215.0000000006
  0
ARC
  5
2E7
100
AcDbEntity
  8
0
100
AcDbCircle
 62
7
  6
CONTINUOUS
 10
19.9735722427
 20
15.8449377844
 40
0.016
100
AcDbArc
 50
304.6234510998
 51
46.9739483152
  0
ARC
  5
2E8
100
AcDbEntity
  8
0
100
AcDbCircle
 62
9
  6
CONTINUOUS
 10
20.1613014446
 20
16.5386230483
 40
0.9126778171
100
AcDbArc
 50
28.756681401
 51
29.0971249183
  0
ARC
  5
2E9
100
AcDbEntity
  8
0
100
AcDbCircle
 62
6
  6
CONTINUOUS
 10
20.1383322427
 20
16.4355113223
 40
0.09676
100
AcDbArc
 50
90.0
 51
179.9999847727
  0
ARC
  5
2EA
100
AcDbEntity
  8
0
100
AcDbCircle
 62
6
  6
CONTINUOUS
 10
19.9767922427
 20
16.3008123688
 40
0.06478
100
AcDbArc
 50
291.0615214189
 51
359.9999993237
  0
ARC
  5
2EB
100
AcDbEntity
  8
0
100
AcDbCircle
 62
6
  6
CONTINUOUS
 10
20.0032781801
 20
16.3033691169
 40
0.0630911927
100
AcDbArc
 50
264.7548872669
 51
266.1008199642
  0
ARC
  5
2EC
100
AcDbEntity
  8
0
100
AcDbCircle
 62
7
  6
CONTINUOUS
 10
19.9585722427
 20
16.2402653462
 40
0.031
100
AcDbArc
 50
314.3699132234
 51
360.0
  0
ARC
  5
2ED
100
AcDbEntity
  8
0
100
AcDbCircle
 62
9
  6
CONTINUOUS
 10
20.3766503236
 20
16.7090694016
 40
0.7121521537
100
AcDbArc
 50
9.8098925145
 51
10.5116750316
  0
ARC
  5
2EE
100
AcDbEntity
  8
0
100
AcDbCircle
 62
9
  6
CONTINUOUS
 10
20.4872320226
 20
16.6875143006
 40
0.5538347005
100
AcDbArc
 50
17.0172093078
 51
18.5380549401
  0
ARC
  5
2EF
100
AcDbEntity
  8
0
100
AcDbCircle
 62
9
  6
CONTINUOUS
 10
20.513505183
 20
16.6955586785
 40
0.5263576017
100
AcDbArc
 50
14.4023124364
 51
17.0168723858
  0
ARC
  5
2F0
100
AcDbEntity
  8
0
100
AcDbCircle
 62
7
  6
CONTINUOUS
 10
20.9485722427
 20
15.6088658133
 40
0.1
100
AcDbArc
 50
11.1653336426
 51
80.3944914397
  0
ARC
  5
2F1
100
AcDbEntity
  8
0
100
AcDbCircle
 62
7
  6
CONTINUOUS
 10
20.9765722427
 20
15.8368146294
 40
0.07072517
100
AcDbArc
 50
113.3011952091
 51
246.6988047909
  0
ARC
  5
2F2
100
AcDbEntity
  8
0
100
AcDbCircle
 62
7
  6
CONTINUOUS
 10
20.9275563154
 20
16.3347522269
 40
0.0600141151
100
AcDbArc
 50
0.0182299835
 51
89.9847953915
  0
ARC
  5
2F3
100
AcDbEntity
  8
0
100
AcDbCircle
 62
9
  6
CONTINUOUS
 10
21.6375722427
 20
-1.0352286777
 40
1.4225
100
AcDbArc
 50
110.5907981149
 51
69.4208611522
  0
ARC
  5
2F4
100
AcDbEntity
  8
0
100
AcDbCircle
 62
6
  6
CONTINUOUS
 10
21.6375722427
 20
-1.0352286777
 40
1.2225
100
AcDbArc
 50
114.295747786
 51
65.697593677
  0
ARC
  5
2F5
100
AcDbEntity
  8
0
100
AcDbCircle
 62
9
  6
CONTINUOUS
 10
21.6375722427
 20
-1.0352286777
 40
1.0224999992
100
AcDbArc
 50
119.3289863243
 51
60.7017535752
  0
ARC
  5
2F6
100
AcDbEntity
  8
0
100
AcDbCircle
 62
6
  6
CONTINUOUS
 10
21.6375722427
 20
-1.0352286777
 40
0.895
100
AcDbArc
 50
124.2403887854
 51
55.7712512303
  0
ARC
  5
2F7
100
AcDbEntity
  8
0
100
AcDbCircle
 62
7
  6
CONTINUOUS
 10
21.6375722427
 20
-1.0352286777
 40
0.88
100
AcDbArc
 50
124.9381641049
 51
55.0618358951
  0
ARC
  5
2F8
100
AcDbEntity
  8
0
100
AcDbCircle
 62
9
  6
CONTINUOUS
 10
21.6375722427
 20
-1.0352286777
 40
0.8449999946
100
AcDbArc
 50
126.6309212218
 51
53.3695146588
  0
ARC
  5
2F9
100
AcDbEntity
  8
0
100
AcDbCircle
 62
7
  6
CONTINUOUS
 10
21.6375722427
 20
-1.0352286777
 40
0.8
100
AcDbArc
 50
129.6054181599
 51
50.3945818401
  0
ARC
  5
2FA
100
AcDbEntity
  8
0
100
AcDbCircle
 62
7
  6
CONTINUOUS
 10
22.3265722427
 20
15.6088658133
 40
0.1
100
AcDbArc
 50
99.6055085603
 51
168.8346663574
  0
ARC
  5
2FB
100
AcDbEntity
  8
0
100
AcDbCircle
 62
7
  6
CONTINUOUS
 10
22.3675725138
 20
16.0497710098
 40
0.0800006389
100
AcDbArc
 50
90.0001941579
 51
179.9997762467
  0
ARC
  5
2FC
100
AcDbEntity
  8
0
100
AcDbCircle
 62
7
  6
CONTINUOUS
 10
22.2985722427
 20
15.8368146294
 40
0.07072517
100
AcDbArc
 50
293.3011952091
 51
66.6988047909
  0
ARC
  5
2FD
100
AcDbEntity
  8
0
100
AcDbCircle
 62
6
  6
CONTINUOUS
 10
22.6190722427
 20
16.0819104588
 40
0.06
100
AcDbArc
 50
196.5978421357
 51
343.4021578643
  0
ARC
  5
2FE
100
AcDbEntity
  8
0
100
AcDbCircle
 62
6
  6
CONTINUOUS
 10
23.0033998545
 20
16.3897713223
 40
0.05
100
AcDbArc
 50
209.2566040674
 51
270.0000000004
  0
ARC
  5
2FF
100
AcDbEntity
  8
0
100
AcDbCircle
 62
6
  6
CONTINUOUS
 10
22.8815722375
 20
16.3780382318
 40
0.0300000345
100
AcDbArc
 50
297.7397953848
 51
359.998270999
  0
ARC
  5
300
100
AcDbEntity
  8
0
100
AcDbCircle
 62
6
  6
CONTINUOUS
 10
22.7046465064
 20
16.0947718807
 40
0.0299999798
100
AcDbArc
 50
270.0000061233
 51
341.9132905844
  0
ARC
  5
301
100
AcDbEntity
  8
0
100
AcDbCircle
 62
7
  6
CONTINUOUS
 10
22.3065486206
 20
15.7271834137
 40
0.02
100
AcDbArc
 50
279.6054998362
 51
359.999999886
  0
ARC
  5
302
100
AcDbEntity
  8
0
100
AcDbCircle
 62
6
  6
CONTINUOUS
 10
22.5165722427
 20
16.0797713223
 40
0.015
100
AcDbArc
 50
179.9999724383
 51
270.0
  0
ARC
  5
303
100
AcDbEntity
  8
0
100
AcDbCircle
 62
7
  6
CONTINUOUS
 10
22.2186609414
 20
15.6301581817
 40
0.009991883
100
AcDbArc
 50
269.9617401419
 51
348.8729337463
  0
ARC
  5
304
100
AcDbEntity
  8
0
100
AcDbCircle
 62
6
  6
CONTINUOUS
 10
19.4176221365
 20
17.1821658179
 40
0.082
100
AcDbArc
 50
279.9599782617
 51
331.6450205529
  0
ARC
  5
305
100
AcDbEntity
  8
0
100
AcDbCircle
 62
6
  6
CONTINUOUS
 10
19.6105201895
 20
17.1274214713
 40
0.06478
100
AcDbArc
 50
111.2207841393
 51
160.1939748743
  0
ARC
  5
306
100
AcDbEntity
  8
0
100
AcDbCircle
 62
6
  6
CONTINUOUS
 10
19.5186486651
 20
17.1276435241
 40
0.0328
100
AcDbArc
 50
64.8810241639
 51
147.4395764069
  0
ARC
  5
307
100
AcDbEntity
  8
0
100
AcDbCircle
 62
7
  6
CONTINUOUS
 10
19.6285722427
 20
17.1892772985
 40
0.031
100
AcDbArc
 50
134.3699132234
 51
180.0
  0
ARC
  5
308
100
AcDbEntity
  8
0
100
AcDbCircle
 62
6
  6
CONTINUOUS
 10
19.4345722427
 20
17.0856427952
 40
0.016
100
AcDbArc
 50
99.9599892296
 51
179.9999922612
  0
ARC
  5
309
100
AcDbEntity
  8
0
100
AcDbCircle
 62
7
  6
CONTINUOUS
 10
19.4320722427
 20
17.3901472813
 40
0.25
100
AcDbArc
 50
314.3699304557
 51
46.9739483152
  0
ARC
  5
30A
100
AcDbEntity
  8
0
100
AcDbCircle
 62
7
  6
CONTINUOUS
 10
19.6107575322
 20
17.6137713223
 40
0.016
100
AcDbArc
 50
269.9999999989
 51
35.0000000006
  0
ARC
  5
30B
100
AcDbEntity
  8
0
100
AcDbCircle
 62
7
  6
CONTINUOUS
 10
19.6135722427
 20
17.5846048602
 40
0.016
100
AcDbArc
 50
124.6234510999
 51
226.9739483152
  0
ARC
  5
30C
100
AcDbEntity
  8
0
100
AcDbCircle
 62
9
  6
CONTINUOUS
 10
20.135110192
 20
16.9042470444
 40
0.9420497927
100
AcDbArc
 50
330.114999561
 51
331.1584731214
  0
CIRCLE
  5
30D
100
AcDbEntity
  8
0
100
AcDbCircle
 62
7
  6
CONTINUOUS
 10
19.7935722427
 20
16.7147713223
 40
0.276
  0
ARC
  5
30E
100
AcDbEntity
  8
0
100
AcDbCircle
 62
6
  6
CONTINUOUS
 10
20.1383322427
 20
16.9940313223
 40
0.09676
100
AcDbArc
 50
180.0000152273
 51
270.0
  0
ARC
  5
30F
100
AcDbEntity
  8
0
100
AcDbCircle
 62
6
  6
CONTINUOUS
 10
19.9767922427
 20
17.1287302759
 40
0.06478
100
AcDbArc
 50
0.0000006763
 51
68.9384785811
  0
ARC
  5
310
100
AcDbEntity
  8
0
100
AcDbCircle
 62
7
  6
CONTINUOUS
 10
19.9585722427
 20
17.1892772985
 40
0.031
100
AcDbArc
 50
0.0
 51
45.6300867766
  0
ARC
  5
311
100
AcDbEntity
  8
0
100
AcDbCircle
 62
7
  6
CONTINUOUS
 10
19.7935722427
 20
17.8617713223
 40
0.276
100
AcDbArc
 50
325.0
 51
215.0
  0
ARC
  5
312
100
AcDbEntity
  8
0
100
AcDbCircle
 62
7
  6
CONTINUOUS
 10
20.1550722427
 20
17.3901472813
 40
0.25
100
AcDbArc
 50
133.0260516848
 51
225.6300695443
  0
ARC
  5
313
100
AcDbEntity
  8
0
100
AcDbCircle
 62
7
  6
CONTINUOUS
 10
19.9763869531
 20
17.6137713223
 40
0.016
100
AcDbArc
 50
144.9999999994
 51
270.0000000011
  0
ARC
  5
314
100
AcDbEntity
  8
0
100
AcDbCircle
 62
7
  6
CONTINUOUS
 10
19.9735722427
 20
17.5846048602
 40
0.016
100
AcDbArc
 50
313.0260516848
 51
55.3765489002
  0
ARC
  5
315
100
AcDbEntity
  8
0
100
AcDbCircle
 62
6
  6
CONTINUOUS
 10
19.7848042051
 20
19.5920746238
 40
2.4126400128
100
AcDbArc
 50
270.2082252843
 51
271.9130197162
  0
ARC
  5
316
100
AcDbEntity
  8
0
100
AcDbCircle
 62
6
  6
CONTINUOUS
 10
19.7848600951
 20
19.5881952812
 40
2.4087604931
100
AcDbArc
 50
270.2072312208
 51
271.9227760777
  0
ARC
  5
317
100
AcDbEntity
  8
0
100
AcDbCircle
 62
6
  6
CONTINUOUS
 10
19.7855774272
 20
19.5822351211
 40
2.4027978782
100
AcDbArc
 50
268.4844665456
 51
270.1906402685
  0
ARC
  5
318
100
AcDbEntity
  8
0
100
AcDbCircle
 62
6
  6
CONTINUOUS
 10
19.7857397841
 20
19.5432570735
 40
2.363819706
100
AcDbArc
 50
272.4115620889
 51
273.1412080375
  0
ARC
  5
319
100
AcDbEntity
  8
0
100
AcDbCircle
 62
6
  6
CONTINUOUS
 10
19.7859029203
 20
19.5390623954
 40
2.3596213636
100
AcDbArc
 50
272.3781358837
 51
273.4693793838
  0
ARC
  5
31A
100
AcDbEntity
  8
0
100
AcDbCircle
 62
6
  6
CONTINUOUS
 10
19.7845206767
 20
19.5193653235
 40
2.3399229749
100
AcDbArc
 50
266.9202981375
 51
268.0069503544
  0
ARC
  5
31B
100
AcDbEntity
  8
0
100
AcDbCircle
 62
6
  6
CONTINUOUS
 10
19.7873015506
 20
19.505654426
 40
2.3261846462
100
AcDbArc
 50
271.9225998756
 51
272.4120998645
  0
ARC
  5
31C
100
AcDbEntity
  8
0
100
AcDbCircle
 62
6
  6
CONTINUOUS
 10
19.7884279084
 20
19.494187805
 40
2.3146768621
100
AcDbArc
 50
273.1413258979
 51
273.3499110211
  0
ARC
  5
31D
100
AcDbEntity
  8
0
100
AcDbCircle
 62
6
  6
CONTINUOUS
 10
19.7878766496
 20
19.4900745278
 40
2.3105937896
100
AcDbArc
 50
271.9296532259
 51
272.3796408623
  0
ARC
  5
31E
100
AcDbEntity
  8
0
100
AcDbCircle
 62
6
  6
CONTINUOUS
 10
19.7887476633
 20
19.4803757891
 40
2.3008735292
100
AcDbArc
 50
274.1716730663
 51
274.6113031098
  0
ARC
  5
31F
100
AcDbEntity
  8
0
100
AcDbCircle
 62
6
  6
CONTINUOUS
 10
19.7831371626
 20
19.47743873
 40
2.2979736298
100
AcDbArc
 50
268.0050689713
 51
268.4761827399
  0
ARC
  5
320
100
AcDbEntity
  8
0
100
AcDbCircle
 62
6
  6
CONTINUOUS
 10
19.7899033687
 20
19.4653443456
 40
2.2857976259
100
AcDbArc
 50
274.1707034969
 51
274.6219813799
  0
ARC
  5
321
100
AcDbEntity
  8
0
100
AcDbCircle
 62
6
  6
CONTINUOUS
 10
19.7909084958
 20
19.4514591636
 40
2.271876327
100
AcDbArc
 50
273.4597083082
 51
274.1703726404
  0
ARC
  5
322
100
AcDbEntity
  8
0
100
AcDbCircle
 62
6
  6
CONTINUOUS
 10
19.7911319239
 20
19.4485148227
 40
2.2689233203
100
AcDbArc
 50
273.4759468997
 51
274.1706701604
  0
ARC
  5
323
100
AcDbEntity
  8
0
100
AcDbCircle
 62
6
  6
CONTINUOUS
 10
19.779772776
 20
19.4251878458
 40
2.2456264529
100
AcDbArc
 50
265.465090026
 51
266.9121680575
  0
ARC
  5
324
100
AcDbEntity
  8
0
100
AcDbCircle
 62
6
  6
CONTINUOUS
 10
19.7937337965
 20
19.4196991533
 40
2.2399922135
100
AcDbArc
 50
274.6184049583
 51
274.8957804418
  0
ARC
  5
325
100
AcDbEntity
  8
0
100
AcDbCircle
 62
6
  6
CONTINUOUS
 10
19.8089207642
 20
19.2376910712
 40
2.0573526314
100
AcDbArc
 50
274.5946763537
 51
275.1137830953
  0
ARC
  5
326
100
AcDbEntity
  8
0
100
AcDbCircle
 62
6
  6
CONTINUOUS
 10
19.8138822732
 20
19.1827678446
 40
2.0022057916
100
AcDbArc
 50
274.8999467365
 51
275.0546211319
  0
ARC
  5
327
100
AcDbEntity
  8
0
100
AcDbCircle
 62
6
  6
CONTINUOUS
 10
19.7572219834
 20
19.13859786
 40
1.9581506778
100
AcDbArc
 50
265.2912411811
 51
265.4598386355
  0
ARC
  5
328
100
AcDbEntity
  8
0
100
AcDbCircle
 62
9
  6
CONTINUOUS
 10
20.2885676681
 20
16.7386541064
 40
0.8020889639
100
AcDbArc
 50
345.0478908614
 51
347.6616062398
  0
ARC
  5
329
100
AcDbEntity
  8
0
100
AcDbCircle
 62
9
  6
CONTINUOUS
 10
20.4835179099
 20
16.7433813091
 40
0.5577947664
100
AcDbArc
 50
339.7443768975
 51
343.0901365675
  0
ARC
  5
32A
100
AcDbEntity
  8
0
100
AcDbCircle
 62
9
  6
CONTINUOUS
 10
20.5394971835
 20
16.726692945
 40
0.4993818462
100
AcDbArc
 50
343.053915236
 51
347.0198361099
  0
ARC
  5
32B
100
AcDbEntity
  8
0
100
AcDbCircle
 62
7
  6
CONTINUOUS
 10
20.9485722427
 20
17.8206768314
 40
0.1
100
AcDbArc
 50
279.6055085603
 51
348.8346663574
  0
ARC
  5
32C
100
AcDbEntity
  8
0
100
AcDbCircle
 62
7
  6
CONTINUOUS
 10
20.9765722427
 20
17.5927280152
 40
0.07072517
100
AcDbArc
 50
113.3011952091
 51
246.6988047909
  0
ARC
  5
32D
100
AcDbEntity
  8
0
100
AcDbCircle
 62
7
  6
CONTINUOUS
 10
20.9275531233
 20
17.0947872445
 40
0.0600141061
100
AcDbArc
 50
270.0182528326
 51
359.9848009493
  0
ARC
  5
32E
100
AcDbEntity
  8
0
100
AcDbCircle
 62
7
  6
CONTINUOUS
 10
22.3675725559
 20
17.379771683
 40
0.0800005534
100
AcDbArc
 50
180.0002587728
 51
269.9997756394
  0
ARC
  5
32F
100
AcDbEntity
  8
0
100
AcDbCircle
 62
6
  6
CONTINUOUS
 10
22.5165722427
 20
17.3497713223
 40
0.015
100
AcDbArc
 50
90.0
 51
180.0000275618
  0
ARC
  5
330
100
AcDbEntity
  8
0
100
AcDbCircle
 62
7
  6
CONTINUOUS
 10
22.3265722427
 20
17.8206768314
 40
0.1
100
AcDbArc
 50
191.1653336426
 51
260.3944914397
  0
ARC
  5
331
100
AcDbEntity
  8
0
100
AcDbCircle
 62
7
  6
CONTINUOUS
 10
22.2985722427
 20
17.5927280152
 40
0.07072517
100
AcDbArc
 50
293.3011952091
 51
66.6988047909
  0
ARC
  5
332
100
AcDbEntity
  8
0
100
AcDbCircle
 62
7
  6
CONTINUOUS
 10
22.3065486206
 20
17.702359231
 40
0.02
100
AcDbArc
 50
0.000000114
 51
80.3945001638
  0
ARC
  5
333
100
AcDbEntity
  8
0
100
AcDbCircle
 62
7
  6
CONTINUOUS
 10
22.2186609414
 20
17.7993844629
 40
0.009991883
100
AcDbArc
 50
11.1270662537
 51
90.0382598581
  0
ARC
  5
334
100
AcDbEntity
  8
0
100
AcDbCircle
 62
6
  6
CONTINUOUS
 10
22.6190722427
 20
17.3476321858
 40
0.06
100
AcDbArc
 50
16.5978421357
 51
163.4021578643
  0
ARC
  5
335
100
AcDbEntity
  8
0
100
AcDbCircle
 62
6
  6
CONTINUOUS
 10
23.0033998545
 20
17.0397713223
 40
0.05
100
AcDbArc
 50
90.0000000006
 51
150.743395933
  0
ARC
  5
336
100
AcDbEntity
  8
0
100
AcDbCircle
 62
6
  6
CONTINUOUS
 10
22.8815722361
 20
17.0515044144
 40
0.0300000346
100
AcDbArc
 50
0.001769172
 51
62.2602004304
  0
ARC
  5
337
100
AcDbEntity
  8
0
100
AcDbCircle
 62
6
  6
CONTINUOUS
 10
22.7046465066
 20
17.334770764
 40
0.0299999798
100
AcDbArc
 50
18.0867083757
 51
89.9999941223
  0
ARC
  5
338
100
AcDbEntity
  8
0
100
AcDbCircle
 62
9
  6
CONTINUOUS
 10
21.6375722427
 20
34.4647713223
 40
1.4225
100
AcDbArc
 50
290.5907981149
 51
249.4208611522
  0
ARC
  5
339
100
AcDbEntity
  8
0
100
AcDbCircle
 62
6
  6
CONTINUOUS
 10
21.6375722427
 20
34.4647713223
 40
1.2225
100
AcDbArc
 50
294.2974575204
 51
245.7025424796
  0
ARC
  5
33A
100
AcDbEntity
  8
0
100
AcDbCircle
 62
9
  6
CONTINUOUS
 10
21.6375722427
 20
34.4647713223
 40
1.0224999992
100
AcDbArc
 50
299.3289863243
 51
240.7017535752
  0
ARC
  5
33B
100
AcDbEntity
  8
0
100
AcDbCircle
 62
6
  6
CONTINUOUS
 10
21.6375722427
 20
34.4647713223
 40
0.895
100
AcDbArc
 50
304.2403887854
 51
235.7712512303
  0
ARC
  5
33C
100
AcDbEntity
  8
0
100
AcDbCircle
 62
7
  6
CONTINUOUS
 10
21.6375722427
 20
34.4647713223
 40
0.88
100
AcDbArc
 50
304.9381641049
 51
235.0618358951
  0
ARC
  5
33D
100
AcDbEntity
  8
0
100
AcDbCircle
 62
9
  6
CONTINUOUS
 10
21.6375722427
 20
34.4647713223
 40
0.8449999946
100
AcDbArc
 50
306.6309212218
 51
233.3695146588
  0
ARC
  5
33E
100
AcDbEntity
  8
0
100
AcDbCircle
 62
7
  6
CONTINUOUS
 10
21.6375722427
 20
34.4647713223
 40
0.8
100
AcDbArc
 50
309.6054181599
 51
230.3945818401
  0
ARC
  5
33F
100
AcDbEntity
  8
0
100
AcDbCircle
 62
9
  6
CONTINUOUS
 10
24.7781639239
 20
14.6565948792
 40
3.5746248041
100
AcDbArc
 50
136.1499635832
 51
136.7538582753
  0
ARC
  5
340
100
AcDbEntity
  8
0
100
AcDbCircle
 62
9
  6
CONTINUOUS
 10
24.5171069697
 20
14.9020654849
 40
3.216285919
100
AcDbArc
 50
136.8648045382
 51
137.1109766306
  0
ARC
  5
341
100
AcDbEntity
  8
0
100
AcDbCircle
 62
9
  6
CONTINUOUS
 10
24.427704502
 20
14.9851462075
 40
3.0942399971
100
AcDbArc
 50
137.1114478723
 51
137.2946823475
  0
ARC
  5
342
100
AcDbEntity
  8
0
100
AcDbCircle
 62
9
  6
CONTINUOUS
 10
24.3548764471
 20
15.0523544206
 40
2.9951396972
100
AcDbArc
 50
137.294568518
 51
137.5061874968
  0
ARC
  5
343
100
AcDbEntity
  8
0
100
AcDbCircle
 62
6
  6
CONTINUOUS
 10
24.0240142505
 20
15.6643805775
 40
1.3577919045
100
AcDbArc
 50
160.7123042997
 51
161.9335863455
  0
ARC
  5
344
100
AcDbEntity
  8
0
100
AcDbCircle
 62
9
  6
CONTINUOUS
 10
23.5481709026
 20
16.7039512839
 40
0.6520145834
100
AcDbArc
 50
359.0430536096
 51
359.8488182228
  0
ARC
  5
345
100
AcDbEntity
  8
0
100
AcDbCircle
 62
9
  6
CONTINUOUS
 10
23.5563962836
 20
16.7001735158
 40
0.6438247525
100
AcDbArc
 50
1.2992111565
 51
2.6711151696
  0
ARC
  5
346
100
AcDbEntity
  8
0
100
AcDbCircle
 62
9
  6
CONTINUOUS
 10
23.563430704
 20
16.6932923898
 40
0.6385537489
100
AcDbArc
 50
26.7311859182
 51
27.5974700443
  0
ARC
  5
347
100
AcDbEntity
  8
0
100
AcDbCircle
 62
9
  6
CONTINUOUS
 10
23.5692964826
 20
16.7076888156
 40
0.631809716
100
AcDbArc
 50
333.5700696572
 51
336.4331151542
  0
ARC
  5
348
100
AcDbEntity
  8
0
100
AcDbCircle
 62
9
  6
CONTINUOUS
 10
23.570560794
 20
16.6966246891
 40
0.630686832
100
AcDbArc
 50
18.2790678197
 51
26.7521702221
  0
ARC
  5
349
100
AcDbEntity
  8
0
100
AcDbCircle
 62
6
  6
CONTINUOUS
 10
23.5841627611
 20
16.7026917967
 40
0.6194622339
100
AcDbArc
 50
326.8423352873
 51
35.9901429139
  0
ARC
  5
34A
100
AcDbEntity
  8
0
100
AcDbCircle
 62
9
  6
CONTINUOUS
 10
23.584127197
 20
16.7022296648
 40
0.6160560192
100
AcDbArc
 50
0.0001118449
 51
1.1665070514
  0
ARC
  5
34B
100
AcDbEntity
  8
0
100
AcDbCircle
 62
9
  6
CONTINUOUS
 10
23.5905149512
 20
16.7039027333
 40
0.6094571817
100
AcDbArc
 50
17.2179560937
 51
18.2177479141
  0
ARC
  5
34C
100
AcDbEntity
  8
0
100
AcDbCircle
 62
9
  6
CONTINUOUS
 10
26.1905010106
 20
13.2847469269
 40
5.5435696954
100
AcDbArc
 50
134.5272899003
 51
135.6534857396
  0
ARC
  5
34D
100
AcDbEntity
  8
0
100
AcDbCircle
 62
9
  6
CONTINUOUS
 10
25.5204633444
 20
13.9413355923
 40
4.6054559251
100
AcDbArc
 50
135.6682854125
 51
135.8450134895
  0
ARC
  5
34E
100
AcDbEntity
  8
0
100
AcDbCircle
 62
9
  6
CONTINUOUS
 10
25.1727952483
 20
14.2784822423
 40
4.1211617276
100
AcDbArc
 50
135.840876336
 51
136.1598624668
  0
ARC
  5
34F
100
AcDbEntity
  8
0
100
AcDbCircle
 62
9
  6
CONTINUOUS
 10
24.5798484851
 20
18.5863759508
 40
3.3023340026
100
AcDbArc
 50
222.9006087221
 51
223.141943059
  0
ARC
  5
350
100
AcDbEntity
  8
0
100
AcDbCircle
 62
9
  6
CONTINUOUS
 10
24.4967330552
 20
18.5091078989
 40
3.188850409
100
AcDbArc
 50
222.7200757597
 51
222.9002035665
  0
ARC
  5
351
100
AcDbEntity
  8
0
100
AcDbCircle
 62
9
  6
CONTINUOUS
 10
24.4416977489
 20
18.4582699212
 40
3.113927884
100
AcDbArc
 50
222.5943436391
 51
222.7198440184
  0
ARC
  5
352
100
AcDbEntity
  8
0
100
AcDbCircle
 62
6
  6
CONTINUOUS
 10
24.0240147371
 20
17.7651622304
 40
1.3577924174
100
AcDbArc
 50
198.0664137129
 51
199.2876897405
  0
ARC
  5
353
100
AcDbEntity
  8
0
100
AcDbCircle
 62
6
  6
CONTINUOUS
 10
23.5835722427
 20
16.7147713223
 40
0.715
100
AcDbArc
 50
202.1994630268
 51
209.903962849
  0
ARC
  5
354
100
AcDbEntity
  8
0
100
AcDbCircle
 62
6
  6
CONTINUOUS
 10
23.5835722427
 20
16.7147713223
 40
0.715
100
AcDbArc
 50
150.6926582828
 51
157.8005369732
  0
ARC
  5
355
100
AcDbEntity
  8
0
100
AcDbCircle
 62
9
  6
CONTINUOUS
 10
24.0371837051
 20
17.0361731758
 40
0.0535981722
100
AcDbArc
 50
70.0390672682
 51
89.9438920773
  0
ARC
  5
356
100
AcDbEntity
  8
0
100
AcDbCircle
 62
9
  6
CONTINUOUS
 10
24.8506420484
 20
18.8412641733
 40
3.674216468
100
AcDbArc
 50
223.1545958975
 51
223.8493253303
  0
ARC
  5
357
100
AcDbEntity
  8
0
100
AcDbCircle
 62
9
  6
CONTINUOUS
 10
26.7568719957
 20
20.7105368666
 40
6.3440713681
100
AcDbArc
 50
224.5818105704
 51
225.5136444171
  0
ARC
  5
358
100
AcDbEntity
  8
0
100
AcDbCircle
 62
9
  6
CONTINUOUS
 10
25.6599797215
 20
19.6243478939
 40
4.8003871172
100
AcDbArc
 50
224.174604193
 51
224.5376647762
  0
ARC
  5
359
100
AcDbEntity
  8
0
100
AcDbCircle
 62
9
  6
CONTINUOUS
 10
25.2061387977
 20
19.182717319
 40
4.1671345024
100
AcDbArc
 50
223.8488895293
 51
224.167890715
  0
SPLINE
  5
35A
100
AcDbEntity
  8
0
100
AcDbSpline
 62
7
  6
CONTINUOUS
 70
0
 71
3
 72
11
 73
7
 74
5
 42
0.0000001
 43
0.0000001
 44
0.0000000001
 12
0.0000617429
 22
-0.0251668487
 32
0.0
 13
-0.0249123784
 23
-0.0035703622
 33
0.0
 40
0.0
 40
0.0
 40
0.0
 40
0.0
 40
0.2361988432
 40
0.4881699454
 40
0.7448884285
 40
1.0
 40
1.0
 40
1.0
 40
1.0
 10
22.326541722
 20
17.4824878573
 30
0.0
 10
22.3265465832
 20
17.4805063971
 30
0.0
 10
22.3258400249
 20
17.4763790416
 30
0.0
 10
22.3226857977
 20
17.4708329614
 30
0.0
 10
22.3176416035
 20
17.4666561333
 30
0.0
 10
22.3134639603
 20
17.4652541264
 30
0.0
 10
22.3113454816
 20
17.4649505128
 30
0.0
 11
22.326541722
 21
17.4824878573
 31
0.0
 11
22.3255443288
 21
17.4766277311
 31
0.0
 11
22.3224101548
 21
17.4711150623
 31
0.0
 11
22.3174303668
 21
17.4669987731
 31
0.0
 11
22.3113454816
 21
17.4649505128
 31
0.0
  0
SPLINE
  5
35B
100
AcDbEntity
  8
0
100
AcDbSpline
 62
7
  6
CONTINUOUS
 70
0
 71
3
 72
9
 73
5
 74
3
 42
0.0000001
 43
0.0000001
 44
0.0000000001
 12
-0.0108771083
 22
-0.0000000049
 32
0.0
 13
-0.0088906192
 23
0.0062664484
 33
0.0
 40
0.0
 40
0.0
 40
0.0
 40
0.0
 40
0.7479899908
 40
1.0
 40
1.0
 40
1.0
 40
1.0
 10
20.9663124077
 20
17.4647713223
 30
0.0
 10
20.9636004183
 20
17.4647713211
 30
0.0
 10
20.9599105275
 20
17.4656759845
 30
0.0
 10
20.9567869938
 20
17.4675268941
 30
0.0
 10
20.9560401521
 20
17.4680532967
 30
0.0
 11
20.9663124077
 21
17.4647713223
 31
0.0
 11
20.9583972861
 21
17.4666540938
 31
0.0
 11
20.9560401521
 21
17.4680532967
 31
0.0
  0
SPLINE
  5
35C
100
AcDbEntity
  8
0
100
AcDbSpline
 62
7
  6
CONTINUOUS
 70
0
 71
3
 72
8
 73
4
 74
2
 42
0.0000001
 43
0.0000001
 44
0.0000000001
 12
-0.0068301524
 22
0.0048141526
 32
0.0
 13
-0.0038103933
 23
0.0074369315
 33
0.0
 40
0.0
 40
0.0
 40
0.0
 40
0.0
 40
1.0
 40
1.0
 40
1.0
 40
1.0
 10
20.9560401521
 20
17.4680532967
 30
0.0
 10
20.9537634346
 20
17.4696580142
 30
0.0
 10
20.9518366703
 20
17.4718883205
 30
0.0
 10
20.9505665392
 20
17.4743672977
 30
0.0
 11
20.9560401521
 21
17.4680532967
 31
0.0
 11
20.9505665392
 21
17.4743672977
 31
0.0
  0
SPLINE
  5
35D
100
AcDbEntity
  8
0
100
AcDbSpline
 62
7
  6
CONTINUOUS
 70
0
 71
3
 72
8
 73
4
 74
2
 42
0.0000001
 43
0.0000001
 44
0.0000000001
 12
-0.0038103933
 22
0.0074369315
 32
0.0
 13
0.0
 23
0.0083562579
 33
0.0
 40
0.0
 40
0.0
 40
0.0
 40
0.0
 40
1.0
 40
1.0
 40
1.0
 40
1.0
 10
20.9505665392
 20
17.4743672977
 30
0.0
 10
20.9492964081
 20
17.4768462748
 30
0.0
 10
20.9485958647
 20
17.479702438
 30
0.0
 10
20.9485958647
 20
17.4824878573
 30
0.0
 11
20.9505665392
 21
17.4743672977
 31
0.0
 11
20.9485958647
 21
17.4824878573
 31
0.0
  0
SPLINE
  5
35E
100
AcDbEntity
  8
0
100
AcDbSpline
 62
7
  6
CONTINUOUS
 70
0
 71
3
 72
11
 73
7
 74
5
 42
0.0000001
 43
0.0000001
 44
0.0000000001
 12
-0.0000565173
 22
0.0279131993
 32
0.0
 13
0.0275219127
 23
0.0046577041
 33
0.0
 40
0.0
 40
0.0
 40
0.0
 40
0.0
 40
0.2408151667
 40
0.491272493
 40
0.7460956037
 40
1.0
 40
1.0
 40
1.0
 40
1.0
 10
20.9486041639
 20
17.702359231
 30
0.0
 10
20.9485996272
 20
17.7045998715
 30
0.0
 10
20.9493956957
 20
17.7092049451
 30
0.0
 10
20.9528600945
 20
17.7153800089
 30
0.0
 10
20.9583644087
 20
17.7200424054
 30
0.0
 10
20.9629292828
 20
17.7216846272
 30
0.0
 10
20.9652585944
 20
17.722078831
 30
0.0
 11
20.9486041639
 21
17.702359231
 31
0.0
 11
20.9497369135
 21
17.7089850362
 31
0.0
 11
20.9531634634
 21
17.7150787994
 31
0.0
 11
20.9585909741
 21
17.719676199
 31
0.0
 11
20.9652585944
 21
17.722078831
 31
0.0
  0
SPLINE
  5
35F
100
AcDbEntity
  8
0
100
AcDbSpline
 62
7
  6
CONTINUOUS
 70
0
 71
3
 72
11
 73
7
 74
5
 42
0.0000001
 43
0.0000001
 44
0.0000000001
 12
0.0000617429
 22
0.0251668487
 32
0.0
 13
-0.0249123784
 23
0.0035703622
 33
0.0
 40
0.0
 40
0.0
 40
0.0
 40
0.0
 40
0.2361988432
 40
0.4881699454
 40
0.7448884285
 40
1.0
 40
1.0
 40
1.0
 40
1.0
 10
22.326541722
 20
15.9470547873
 30
0.0
 10
22.3265465832
 20
15.9490362475
 30
0.0
 10
22.3258400249
 20
15.9531636031
 30
0.0
 10
22.3226857977
 20
15.9587096833
 30
0.0
 10
22.3176416035
 20
15.9628865113
 30
0.0
 10
22.3134639603
 20
15.9642885183
 30
0.0
 10
22.3113454816
 20
15.9645921319
 30
0.0
 11
22.326541722
 21
15.9470547873
 31
0.0
 11
22.3255443288
 21
15.9529149136
 31
0.0
 11
22.3224101548
 21
15.9584275823
 31
0.0
 11
22.3174303668
 21
15.9625438716
 31
0.0
 11
22.3113454816
 21
15.9645921319
 31
0.0
  0
SPLINE
  5
360
100
AcDbEntity
  8
0
100
AcDbSpline
 62
7
  6
CONTINUOUS
 70
0
 71
3
 72
9
 73
5
 74
3
 42
0.0000001
 43
0.0000001
 44
0.0000000001
 12
-0.0191486496
 22
0.0000000086
 32
0.0
 13
-0.0087316461
 23
-0.0170419817
 33
0.0
 40
0.0
 40
0.0
 40
0.0
 40
0.0
 40
0.5013737795
 40
1.0
 40
1.0
 40
1.0
 40
1.0
 10
20.9663124077
 20
15.9647713223
 30
0.0
 10
20.9631121974
 20
15.9647713238
 30
0.0
 10
20.956610976
 20
15.9629559327
 30
0.0
 10
20.9520178151
 20
15.9580078733
 30
0.0
 10
20.9505665392
 20
15.955175347
 30
0.0
 11
20.9663124077
 21
15.9647713223
 31
0.0
 11
20.9570727535
 21
15.9621634682
 31
0.0
 11
20.9505665392
 21
15.955175347
 31
0.0
  0
SPLINE
  5
361
100
AcDbEntity
  8
0
100
AcDbSpline
 62
7
  6
CONTINUOUS
 70
0
 71
3
 72
8
 73
4
 74
2
 42
0.0000001
 43
0.0000001
 44
0.0000000001
 12
-0.0038103933
 22
-0.0074369315
 32
0.0
 13
0.0
 23
-0.0083562579
 33
0.0
 40
0.0
 40
0.0
 40
0.0
 40
0.0
 40
1.0
 40
1.0
 40
1.0
 40
1.0
 10
20.9505665392
 20
15.955175347
 30
0.0
 10
20.9492964081
 20
15.9526963698
 30
0.0
 10
20.9485958647
 20
15.9498402066
 30
0.0
 10
20.9485958647
 20
15.9470547873
 30
0.0
 11
20.9505665392
 21
15.955175347
 31
0.0
 11
20.9485958647
 21
15.9470547873
 31
0.0
  0
SPLINE
  5
362
100
AcDbEntity
  8
0
100
AcDbSpline
 62
7
  6
CONTINUOUS
 70
0
 71
3
 72
11
 73
7
 74
5
 42
0.0000001
 43
0.0000001
 44
0.0000000001
 12
-0.0000565173
 22
-0.0279131993
 32
0.0
 13
0.0275219127
 23
-0.0046577041
 33
0.0
 40
0.0
 40
0.0
 40
0.0
 40
0.0
 40
0.2408151667
 40
0.491272493
 40
0.7460956037
 40
1.0
 40
1.0
 40
1.0
 40
1.0
 10
20.9486041639
 20
15.7271834137
 30
0.0
 10
20.9485996272
 20
15.7249427731
 30
0.0
 10
20.9493956957
 20
15.7203376995
 30
0.0
 10
20.9528600945
 20
15.7141626357
 30
0.0
 10
20.9583644087
 20
15.7095002393
 30
0.0
 10
20.9629292828
 20
15.7078580175
 30
0.0
 10
20.9652585944
 20
15.7074638136
 30
0.0
 11
20.9486041639
 21
15.7271834137
 31
0.0
 11
20.9497369135
 21
15.7205576084
 31
0.0
 11
20.9531634634
 21
15.7144638453
 31
0.0
 11
20.9585909741
 21
15.7098664456
 31
0.0
 11
20.9652585944
 21
15.7074638136
 31
0.0
  0
SPLINE
  5
363
100
AcDbEntity
  8
0
100
AcDbSpline
 62
9
  6
CONTINUOUS
 70
0
 71
3
 72
21
 73
17
 74
15
 42
0.0000001
 43
0.0000001
 44
0.0000000001
 12
0.0
 22
-0.1405067087
 32
0.0
 13
0.0468014347
 23
0.1324830589
 33
0.0
 40
0.0
 40
0.0
 40
0.0
 40
0.0
 40
0.0006640283
 40
0.0037993193
 40
0.0094009245
 40
0.0174141631
 40
0.0404443968
 40
0.0724234674
 40
0.1128822469
 40
0.1613642381
 40
0.2174604636
 40
0.2807740464
 40
0.4274763284
 40
0.5983395763
 40
0.7902150431
 40
1.0
 40
1.0
 40
1.0
 40
1.0
 10
20.9875722427
 20
16.3347713223
 30
0.0
 10
20.9875722427
 20
16.3347402222
 30
0.0
 10
20.9877989849
 20
16.335010551
 30
0.0
 10
20.9878524689
 20
16.3352516975
 30
0.0
 10
20.9883048299
 20
16.3360427122
 30
0.0
 10
20.9889990487
 20
16.337526087
 30
0.0
 10
20.9903174126
 20
16.3402325416
 30
0.0
 10
20.9922078475
 20
16.3442536745
 30
0.0
 10
20.9946314225
 20
16.3493840607
 30
0.0
 10
20.9975245817
 20
16.3555258858
 30
0.0
 10
21.00085308
 20
16.3626513858
 30
0.0
 10
21.0060664144
 20
16.3739716753
 30
0.0
 10
21.0133521707
 20
16.390255898
 30
0.0
 10
21.0226979731
 20
16.412211027
 30
0.0
 10
21.0326507758
 20
16.4371126155
 30
0.0
 10
21.0391756984
 20
16.4547599823
 30
0.0
 10
21.042448444
 20
16.4640242999
 30
0.0
 11
20.9875722427
 21
16.3347713223
 31
0.0
 11
20.9876452348
 21
16.3348294353
 31
0.0
 11
20.9878624218
 21
16.3352127054
 31
0.0
 11
20.9882211199
 21
16.3359132795
 31
0.0
 11
20.988718645
 21
16.3369233045
 31
0.0
 11
20.9901194409
 21
16.3398402953
 31
0.0
 11
20.9920433379
 21
16.3439008532
 31
0.0
 11
20.9944688646
 21
16.3490421541
 31
0.0
 11
20.9973699422
 21
16.3552055709
 31
0.0
 11
21.000703814
 21
16.3623476703
 31
0.0
 11
21.0044239501
 21
16.3704284563
 31
0.0
 11
21.0128368972
 21
16.3892461039
 31
0.0
 11
21.0222351457
 21
16.4113374991
 31
0.0
 11
21.032235015
 21
16.4363741305
 31
0.0
 11
21.042448444
 21
16.4640242999
 31
0.0
  0
SPLINE
  5
364
100
AcDbEntity
  8
0
100
AcDbSpline
 62
9
  6
CONTINUOUS
 70
0
 71
3
 72
24
 73
20
 74
18
 42
0.0000001
 43
0.0000001
 44
0.0000000001
 12
-0.051496288
 22
0.1608173167
 32
0.0
 13
-0.0
 23
-0.1688611176
 33
0.0
 40
0.0
 40
0.0
 40
0.0
 40
0.0
 40
0.2060753049
 40
0.3954619734
 40
0.564694373
 40
0.7106167077
 40
0.7741314047
 40
0.8309892159
 40
0.8809168482
 40
0.9031961973
 40
0.9235892447
 40
0.941916919
 40
0.9579896641
 40
0.971617897
 40
0.9826129782
 40
0.9907898499
 40
0.9959776588
 40
0.9981135561
 40
1.0
 40
1.0
 40
1.0
 40
1.0
 10
21.0513223325
 20
16.9391970238
 30
0.0
 10
21.0477849614
 20
16.9502438497
 30
0.0
 10
21.0406039795
 20
16.9713191918
 30
0.0
 10
21.0293540102
 20
17.0010517341
 30
0.0
 10
21.0185326925
 20
17.0273123903
 30
0.0
 10
21.0099174017
 20
17.0468095092
 30
0.0
 10
21.0036942856
 20
17.0604455525
 30
0.0
 10
20.9996796214
 20
17.0691500769
 30
0.0
 10
20.9966403237
 20
17.0757483331
 30
0.0
 10
20.9944891368
 20
17.0804961261
 30
0.0
 10
20.99309071
 20
17.083631422
 30
0.0
 10
20.9918426076
 20
17.0864535043
 30
0.0
 10
20.9907541221
 20
17.0889227409
 30
0.0
 10
20.9898137123
 20
17.0910270627
 30
0.0
 10
20.9890697207
 20
17.0926746976
 30
0.0
 10
20.9884164489
 20
17.093984717
 30
0.0
 10
20.9881035878
 20
17.0946068135
 30
0.0
 10
20.9876345752
 20
17.0952399736
 30
0.0
 10
20.9875722427
 20
17.0948775047
 30
0.0
 10
20.9875722427
 20
17.0947713223
 30
0.0
 11
21.0513223325
 21
16.9391970238
 31
0.0
 11
21.0401115363
 21
16.9721397962
 31
0.0
 11
21.0287999091
 21
17.0020525082
 31
0.0
 11
21.017914273
 21
17.0284747494
 31
0.0
 11
21.0079796957
 21
17.0510238904
 31
0.0
 11
21.0035318561
 21
17.0607832879
 31
0.0
 11
20.9995170189
 21
17.0695046235
 31
0.0
 11
20.9960002115
 21
17.0771669376
 31
0.0
 11
20.9944488751
 21
17.0805943084
 31
0.0
 11
20.9930449369
 21
17.0837387144
 31
0.0
 11
20.9917923676
 21
17.0865687413
 31
0.0
 11
20.9906948521
 21
17.0890509965
 31
0.0
 11
20.9897560752
 21
17.091152087
 31
0.0
 11
20.9889797219
 21
17.0928386201
 31
0.0
 11
20.9883694771
 21
17.094077203
 31
0.0
 11
20.9879290257
 21
17.0948344429
 31
0.0
 11
20.9876620526
 21
17.0950769469
 31
0.0
 11
20.9875722427
 21
17.0947713223
 31
0.0
  0
SPLINE
  5
365
100
AcDbEntity
  8
0
100
AcDbSpline
 62
6
  6
CONTINUOUS
 70
0
 71
3
 72
9
 73
5
 74
3
 42
0.0000001
 43
0.0000001
 44
0.0000000001
 12
0.0000000024
 22
-0.0121726991
 32
0.0
 13
0.0084325596
 23
-0.0087787552
 33
0.0
 40
0.0
 40
0.0
 40
0.0
 40
0.0
 40
0.4897873263
 40
1.0
 40
1.0
 40
1.0
 40
1.0
 10
19.4185722427
 20
16.3439109944
 30
0.0
 10
19.4185722431
 20
16.3419236498
 30
0.0
 10
19.4193479868
 20
16.337833094
 30
0.0
 10
19.421597329
 20
16.3343144699
 30
0.0
 10
19.4230314619
 20
16.3328214591
 30
0.0
 11
19.4185722427
 21
16.3439109944
 31
0.0
 11
19.4196856459
 21
16.3380538467
 31
0.0
 11
19.4230314619
 21
16.3328214591
 31
0.0
  0
SPLINE
  5
366
100
AcDbEntity
  8
0
100
AcDbSpline
 62
6
  6
CONTINUOUS
 70
0
 71
3
 72
9
 73
5
 74
3
 42
0.0000001
 43
0.0000001
 44
0.0000000001
 12
-0.039119532
 22
0.0205735839
 32
0.0
 13
-0.0321987891
 23
0.0302795
 33
0.0
 40
0.0
 40
0.0
 40
0.0
 40
0.0
 40
0.2366449084
 40
1.0
 40
1.0
 40
1.0
 40
1.0
 10
22.8955363566
 20
17.0780571012
 30
0.0
 10
22.8924505439
 20
17.0796799792
 30
0.0
 10
22.8796812151
 20
17.0870519092
 30
0.0
 10
22.8680683782
 20
17.0963323401
 30
0.0
 10
22.8598753416
 20
17.1040370103
 30
0.0
 11
22.8955363566
 21
17.0780571012
 31
0.0
 11
22.8864717151
 21
17.0832759162
 31
0.0
 11
22.8598753416
 21
17.1040370103
 31
0.0
  0
SPLINE
  5
367
100
AcDbEntity
  8
0
100
AcDbSpline
 62
6
  6
CONTINUOUS
 70
0
 71
3
 72
11
 73
7
 74
5
 42
0.0000001
 43
0.0000001
 44
0.0000000001
 12
-0.1371328463
 22
0.1289587009
 32
0.0
 13
-0.0712043107
 23
0.1742575973
 33
0.0
 40
0.0
 40
0.0
 40
0.0
 40
0.0
 40
0.203544613
 40
0.436115378
 40
0.7008840844
 40
1.0
 40
1.0
 40
1.0
 40
1.0
 10
22.8598753416
 20
17.1040370103
 30
0.0
 10
22.8505711242
 20
17.1127866266
 30
0.0
 10
22.8323341808
 20
17.1333588497
 30
0.0
 10
22.8076514834
 20
17.1698574996
 30
0.0
 10
22.783891457
 20
17.2138986165
 30
0.0
 10
22.7695514298
 20
17.246279484
 30
0.0
 10
22.7624519823
 20
17.2636538909
 30
0.0
 11
22.8598753416
 21
17.1040370103
 31
0.0
 11
22.8341749783
 21
17.1324554821
 31
0.0
 11
22.8093709639
 21
17.1685311195
 31
0.0
 11
22.7854632986
 21
17.2122639224
 31
0.0
 11
22.7624519823
 21
17.2636538909
 31
0.0
  0
SPLINE
  5
368
100
AcDbEntity
  8
0
100
AcDbSpline
 62
6
  6
CONTINUOUS
 70
0
 71
3
 72
9
 73
5
 74
3
 42
0.0000001
 43
0.0000001
 44
0.0000000001
 12
-0.0214362383
 22
0.0524606914
 32
0.0
 13
-0.0187256054
 23
0.0534882058
 33
0.0
 40
0.0
 40
0.0
 40
0.0
 40
0.0
 40
0.2407864884
 40
1.0
 40
1.0
 40
1.0
 40
1.0
 10
22.7624519823
 20
17.2636538909
 30
0.0
 10
22.7607314634
 20
17.2678644994
 30
0.0
 10
22.7537111476
 20
17.2854024251
 30
0.0
 10
22.7471714817
 20
17.3031313147
 30
0.0
 10
22.7424325708
 20
17.3166676375
 30
0.0
 11
22.7624519823
 21
17.2636538909
 31
0.0
 11
22.7573785362
 21
17.2763213622
 31
0.0
 11
22.7424325708
 21
17.3166676375
 31
0.0
  0
SPLINE
  5
369
100
AcDbEntity
  8
0
100
AcDbSpline
 62
6
  6
CONTINUOUS
 70
0
 71
3
 72
9
 73
5
 74
3
 42
0.0000001
 43
0.0000001
 44
0.0000000001
 12
-0.0391195328
 22
-0.020573584
 32
0.0
 13
-0.0321987897
 23
-0.0302795005
 33
0.0
 40
0.0
 40
0.0
 40
0.0
 40
0.0
 40
0.2366449083
 40
1.0
 40
1.0
 40
1.0
 40
1.0
 10
22.895536357
 20
16.3514855439
 30
0.0
 10
22.8924505443
 20
16.3498626659
 30
0.0
 10
22.8796812152
 20
16.3424907358
 30
0.0
 10
22.868068378
 20
16.3332103048
 30
0.0
 10
22.8598753414
 20
16.3255056345
 30
0.0
 11
22.895536357
 21
16.3514855439
 31
0.0
 11
22.8864717153
 21
16.3462667289
 31
0.0
 11
22.8598753414
 21
16.3255056345
 31
0.0
  0
SPLINE
  5
36A
100
AcDbEntity
  8
0
100
AcDbSpline
 62
6
  6
CONTINUOUS
 70
0
 71
3
 72
11
 73
7
 74
5
 42
0.0000001
 43
0.0000001
 44
0.0000000001
 12
-0.1371328464
 22
-0.128958701
 32
0.0
 13
-0.0712043108
 23
-0.1742575973
 33
0.0
 40
0.0
 40
0.0
 40
0.0
 40
0.0
 40
0.203544613
 40
0.436115378
 40
0.7008840844
 40
1.0
 40
1.0
 40
1.0
 40
1.0
 10
22.8598753414
 20
16.3255056345
 30
0.0
 10
22.850571124
 20
16.3167560182
 30
0.0
 10
22.8323341806
 20
16.296183795
 30
0.0
 10
22.8076514831
 20
16.2596851452
 30
0.0
 10
22.7838914566
 20
16.2156440283
 30
0.0
 10
22.7695514295
 20
16.1832631608
 30
0.0
 10
22.7624519819
 20
16.1658887539
 30
0.0
 11
22.8598753414
 21
16.3255056345
 31
0.0
 11
22.834174978
 21
16.2970871627
 31
0.0
 11
22.8093709636
 21
16.2610115253
 31
0.0
 11
22.7854632983
 21
16.2172787224
 31
0.0
 11
22.7624519819
 21
16.1658887539
 31
0.0
  0
SPLINE
  5
36B
100
AcDbEntity
  8
0
100
AcDbSpline
 62
6
  6
CONTINUOUS
 70
0
 71
3
 72
9
 73
5
 74
3
 42
0.0000001
 43
0.0000001
 44
0.0000000001
 12
-0.0214361874
 22
-0.0524605668
 32
0.0
 13
-0.0187255665
 23
-0.0534880768
 33
0.0
 40
0.0
 40
0.0
 40
0.0
 40
0.0
 40
0.2407865084
 40
1.0
 40
1.0
 40
1.0
 40
1.0
 10
22.7624519819
 20
16.1658887539
 30
0.0
 10
22.760731467
 20
16.161678155
 30
0.0
 10
22.7537111676
 20
16.144140271
 30
0.0
 10
22.7471715158
 20
16.1264114241
 30
0.0
 10
22.7424326149
 20
16.1128751342
 30
0.0
 11
22.7624519819
 21
16.1658887539
 31
0.0
 11
22.7573785473
 21
16.1532213116
 31
0.0
 11
22.7424326149
 21
16.1128751342
 31
0.0
  0
SPLINE
  5
36C
100
AcDbEntity
  8
0
100
AcDbSpline
 62
6
  6
CONTINUOUS
 70
0
 71
3
 72
9
 73
5
 74
3
 42
0.0000001
 43
0.0000001
 44
0.0000000001
 12
0.0242031519
 22
-0.0092816606
 32
0.0
 13
0.0186541355
 23
-0.0179990281
 33
0.0
 40
0.0
 40
0.0
 40
0.0
 40
0.0
 40
0.2482016542
 40
1.0
 40
1.0
 40
1.0
 40
1.0
 10
20.0000502441
 20
17.1891815599
 30
0.0
 10
20.0020526649
 20
17.1884136521
 30
0.0
 10
20.0099557431
 20
17.1849058698
 30
0.0
 10
20.0171508414
 20
17.1798074302
 30
0.0
 10
20.0218255574
 20
17.1752968837
 30
0.0
 11
20.0000502441
 21
17.1891815599
 31
0.0
 11
20.0059321646
 21
17.1865743864
 31
0.0
 11
20.0218255574
 21
17.1752968837
 31
0.0
  0
SPLINE
  5
36D
100
AcDbEntity
  8
0
100
AcDbSpline
 62
6
  6
CONTINUOUS
 70
0
 71
3
 72
9
 73
5
 74
3
 42
0.0000001
 43
0.0000001
 44
0.0000000001
 12
0.0100918606
 22
-0.0238570045
 32
0.0
 13
0.0
 23
-0.0259037124
 33
0.0
 40
0.0
 40
0.0
 40
0.0
 40
0.0
 40
0.2511450597
 40
1.0
 40
1.0
 40
1.0
 40
1.0
 10
20.0364316027
 20
17.1540204941
 30
0.0
 10
20.037276443
 20
17.1520233044
 30
0.0
 10
20.0402354207
 20
17.1439057498
 30
0.0
 10
20.0415722427
 20
17.1351963169
 30
0.0
 10
20.0415722427
 20
17.1287302759
 30
0.0
 11
20.0364316027
 21
17.1540204941
 31
0.0
 11
20.0386603927
 21
17.1479086049
 31
0.0
 11
20.0415722427
 21
17.1287302759
 31
0.0
  0
LINE
  5
36E
100
AcDbEntity
  8
0
100
AcDbLine
 62
6
  6
CONTINUOUS
 10
19.9975105929
 20
17.1890005405
 11
19.9989892039
 21
17.1891186493
  0
LINE
  5
36F
100
AcDbEntity
  8
0
100
AcDbLine
 62
6
  6
CONTINUOUS
 10
19.9902874032
 20
17.1883483145
 11
19.9923230985
 21
17.1885295092
  0
LINE
  5
370
100
AcDbEntity
  8
0
100
AcDbLine
 62
6
  6
CONTINUOUS
 10
19.9923230985
 20
17.1885295092
 11
19.9975105929
 21
17.1890005405
  0
SPLINE
  5
371
100
AcDbEntity
  8
0
100
AcDbSpline
 62
6
  6
CONTINUOUS
 70
0
 71
3
 72
9
 73
5
 74
3
 42
0.0000001
 43
0.0000001
 44
0.0000000001
 12
0.0081846256
 22
0.0151656186
 32
0.0
 13
0.0146805314
 23
0.0090258561
 33
0.0
 40
0.0
 40
0.0
 40
0.0
 40
0.0
 40
0.7481536674
 40
1.0
 40
1.0
 40
1.0
 40
1.0
 10
19.4897839427
 20
17.1432213223
 30
0.0
 10
19.4918250619
 20
17.1470033934
 30
0.0
 10
19.4956513132
 20
17.1515552153
 30
0.0
 10
19.5003384785
 20
17.1548859513
 30
0.0
 10
19.5015708911
 20
17.1556436609
 30
0.0
 11
19.4897839427
 21
17.1432213223
 31
0.0
 11
19.4980321925
 21
17.1531308347
 31
0.0
 11
19.5015708911
 21
17.1556436609
 31
0.0
  0
SPLINE
  5
372
100
AcDbEntity
  8
0
100
AcDbSpline
 62
6
  6
CONTINUOUS
 70
0
 71
3
 72
8
 73
4
 74
2
 42
0.0000001
 43
0.0000001
 44
0.0000000001
 12
0.0091607323
 22
0.0056321838
 32
0.0
 13
0.0104995157
 23
0.0023239365
 33
0.0
 40
0.0
 40
0.0
 40
0.0
 40
0.0
 40
1.0
 40
1.0
 40
1.0
 40
1.0
 10
19.5015708911
 20
17.1556436609
 30
0.0
 10
19.5046244686
 20
17.1575210555
 30
0.0
 10
19.5080419326
 20
17.1588966776
 30
0.0
 10
19.5115417712
 20
17.1596713231
 30
0.0
 11
19.5015708911
 21
17.1556436609
 31
0.0
 11
19.5115417712
 21
17.1596713231
 31
0.0
  0
SPLINE
  5
373
100
AcDbEntity
  8
0
100
AcDbSpline
 62
6
  6
CONTINUOUS
 70
0
 71
3
 72
9
 73
5
 74
3
 42
0.0000001
 43
0.0000001
 44
0.0000000001
 12
0.0161096097
 22
0.0008667575
 32
0.0
 13
0.0146071928
 23
-0.0068484094
 33
0.0
 40
0.0
 40
0.0
 40
0.0
 40
0.0
 40
0.2515182757
 40
1.0
 40
1.0
 40
1.0
 40
1.0
 10
19.5168225026
 20
17.1603935815
 30
0.0
 10
19.518173123
 20
17.16046625
 30
0.0
 10
19.5235556452
 20
17.160418667
 30
0.0
 10
19.528927837
 20
17.1590502074
 30
0.0
 10
19.5325722427
 20
17.157341571
 30
0.0
 11
19.5168225026
 21
17.1603935815
 31
0.0
 11
19.5208800749
 21
17.1603587534
 31
0.0
 11
19.5325722427
 21
17.157341571
 31
0.0
  0
LINE
  5
374
100
AcDbEntity
  8
0
100
AcDbLine
 62
6
  6
CONTINUOUS
 10
19.5893637319
 20
16.2418873539
 11
19.5947342915
 21
16.2423421056
  0
LINE
  5
375
100
AcDbEntity
  8
0
100
AcDbLine
 62
6
  6
CONTINUOUS
 10
19.5964757027
 20
17.1870562361
 11
19.5945882477
 21
17.1872127215
  0
LINE
  5
376
100
AcDbEntity
  8
0
100
AcDbLine
 62
6
  6
CONTINUOUS
 10
19.5945882477
 20
17.1872127215
 11
19.5893637319
 21
17.1876552908
  0
LINE
  5
377
100
AcDbEntity
  8
0
100
AcDbLine
 62
6
  6
CONTINUOUS
 10
19.9975105929
 20
17.1890005405
 11
19.9923006326
 21
17.1885274189
  0
LINE
  5
378
100
AcDbEntity
  8
0
100
AcDbLine
 62
6
  6
CONTINUOUS
 10
19.9280085383
 20
17.1837233713
 11
19.9236829774
 21
17.1834660471
  0
SPLINE
  5
379
100
AcDbEntity
  8
0
100
AcDbSpline
 62
6
  6
CONTINUOUS
 70
0
 71
3
 72
9
 73
5
 74
3
 42
0.0000001
 43
0.0000001
 44
0.0000000001
 12
0.0242031519
 22
0.0092816606
 32
0.0
 13
0.0186541355
 23
0.0179990281
 33
0.0
 40
0.0
 40
0.0
 40
0.0
 40
0.0
 40
0.2482016542
 40
1.0
 40
1.0
 40
1.0
 40
1.0
 10
20.0000502441
 20
16.2403610848
 30
0.0
 10
20.0020526649
 20
16.2411289926
 30
0.0
 10
20.0099557431
 20
16.2446367748
 30
0.0
 10
20.0171508414
 20
16.2497352145
 30
0.0
 10
20.0218255574
 20
16.254245761
 30
0.0
 11
20.0000502441
 21
16.2403610848
 31
0.0
 11
20.0059321646
 21
16.2429682583
 31
0.0
 11
20.0218255574
 21
16.254245761
 31
0.0
  0
SPLINE
  5
37A
100
AcDbEntity
  8
0
100
AcDbSpline
 62
6
  6
CONTINUOUS
 70
0
 71
3
 72
9
 73
5
 74
3
 42
0.0000001
 43
0.0000001
 44
0.0000000001
 12
0.0100918606
 22
0.0238570045
 32
0.0
 13
0.0
 23
0.0259037124
 33
0.0
 40
0.0
 40
0.0
 40
0.0
 40
0.0
 40
0.2511450597
 40
1.0
 40
1.0
 40
1.0
 40
1.0
 10
20.0364316027
 20
16.2755221506
 30
0.0
 10
20.037276443
 20
16.2775193402
 30
0.0
 10
20.0402354207
 20
16.2856368948
 30
0.0
 10
20.0415722427
 20
16.2943463278
 30
0.0
 10
20.0415722427
 20
16.3008123688
 30
0.0
 11
20.0364316027
 21
16.2755221506
 31
0.0
 11
20.0386603927
 21
16.2816340397
 31
0.0
 11
20.0415722427
 21
16.3008123688
 31
0.0
  0
LINE
  5
37B
100
AcDbEntity
  8
0
100
AcDbLine
 62
6
  6
CONTINUOUS
 10
19.9903483193
 20
16.2411890395
 11
19.9923640776
 21
16.2410095314
  0
LINE
  5
37C
100
AcDbEntity
  8
0
100
AcDbLine
 62
6
  6
CONTINUOUS
 10
19.9923640776
 20
16.2410095314
 11
19.9975105929
 21
16.2405421041
  0
SPLINE
  5
37D
100
AcDbEntity
  8
0
100
AcDbSpline
 62
9
  6
CONTINUOUS
 70
0
 71
3
 72
21
 73
17
 74
15
 42
0.0000001
 43
0.0000001
 44
0.0000000001
 12
0.0609406905
 22
0.0
 32
0.0
 13
0.0296340281
 23
-0.0532502783
 33
0.0
 40
0.0
 40
0.0
 40
0.0
 40
0.0
 40
0.001279736
 40
0.0046452162
 40
0.010100066
 40
0.0176330872
 40
0.0388804513
 40
0.0682774847
 40
0.1057118976
 40
0.1510708186
 40
0.2042411506
 40
0.2651089818
 40
0.4091545704
 40
0.5811190775
 40
0.7787951382
 40
1.0
 40
1.0
 40
1.0
 40
1.0
 10
20.9275722427
 20
17.0347713223
 30
0.0
 10
20.9275982387
 20
17.0347713223
 30
0.0
 10
20.9276499056
 20
17.0346649453
 30
0.0
 10
20.9277761941
 20
17.0345274063
 30
0.0
 10
20.9279580149
 20
17.0342358899
 30
0.0
 10
20.9283412649
 20
17.0336635864
 30
0.0
 10
20.9289745371
 20
17.032659838
 30
0.0
 10
20.9299268504
 20
17.0311479603
 30
0.0
 10
20.9311302888
 20
17.029211531
 30
0.0
 10
20.9325829343
 20
17.0268628871
 30
0.0
 10
20.9342803088
 20
17.0241053877
 30
0.0
 10
20.937022872
 20
17.0196374239
 30
0.0
 10
20.9410095004
 20
17.0131015105
 30
0.0
 10
20.946368843
 20
17.0041479734
 30
0.0
 10
20.9524194623
 20
16.9937822164
 30
0.0
 10
20.9566111781
 20
16.9863769511
 30
0.0
 10
20.9587962418
 20
16.9824505443
 30
0.0
 11
20.9275722427
 21
17.0347713223
 31
0.0
 11
20.9276271936
 21
17.0347159823
 31
0.0
 11
20.92774829
 21
17.0345504544
 31
0.0
 11
20.9279350842
 21
17.034275477
 31
0.0
 11
20.9281871282
 21
17.0338917886
 31
0.0
 11
20.9288851745
 21
17.0328012321
 31
0.0
 11
20.9298388467
 21
17.031284692
 31
0.0
 11
20.9310445621
 21
17.0293480753
 31
0.0
 11
20.9324987384
 21
17.0269972893
 31
0.0
 11
20.934197793
 21
17.024238241
 31
0.0
 11
20.9361380931
 21
17.0210768572
 31
0.0
 11
20.9407046571
 21
17.0135799279
 31
0.0
 11
20.9460851918
 21
17.0045870078
 31
0.0
 11
20.9521567144
 21
16.9941824341
 31
0.0
 11
20.9587962418
 21
16.9824505443
 31
0.0
  0
SPLINE
  5
37E
100
AcDbEntity
  8
0
100
AcDbSpline
 62
9
  6
CONTINUOUS
 70
0
 71
3
 72
9
 73
5
 74
3
 42
0.0000001
 43
0.0000001
 44
0.0000000001
 12
0.0601464244
 22
-0.1096066074
 32
0.0
 13
0.0397446873
 23
-0.1185392786
 33
0.0
 40
0.0
 40
0.0
 40
0.0
 40
0.0
 40
0.2153544972
 40
1.0
 40
1.0
 40
1.0
 40
1.0
 10
20.9614193093
 20
16.9777041347
 30
0.0
 10
20.9657369103
 20
16.9698360427
 30
0.0
 10
20.9852223859
 20
16.9330057734
 30
0.0
 10
21.0019345711
 20
16.8946012009
 30
0.0
 10
21.0123297345
 20
16.8635974302
 30
0.0
 11
20.9614193093
 21
16.9777041347
 31
0.0
 11
20.9740008614
 21
16.9538999021
 31
0.0
 11
21.0123297345
 21
16.8635974302
 31
0.0
  0
SPLINE
  5
37F
100
AcDbEntity
  8
0
100
AcDbSpline
 62
9
  6
CONTINUOUS
 70
0
 71
3
 72
9
 73
5
 74
3
 42
0.0000001
 43
0.0000001
 44
0.0000000001
 12
0.0110059519
 22
-0.0429284096
 32
0.0
 13
0.0069423728
 23
-0.043769656
 33
0.0
 40
0.0
 40
0.0
 40
0.0
 40
0.0
 40
0.246337649
 40
1.0
 40
1.0
 40
1.0
 40
1.0
 10
21.0233210092
 20
16.8264790672
 30
0.0
 10
21.024224736
 20
16.822954106
 30
0.0
 10
21.0277388247
 20
16.8086057239
 30
0.0
 10
21.030604088
 20
16.7940962487
 30
0.0
 10
21.0323481563
 20
16.7831004014
 30
0.0
 11
21.0233210092
 21
16.8264790672
 31
0.0
 11
21.0259166685
 21
16.8158752371
 31
0.0
 11
21.0323481563
 21
16.7831004014
 31
0.0
  0
SPLINE
  5
380
100
AcDbEntity
  8
0
100
AcDbSpline
 62
9
  6
CONTINUOUS
 70
0
 71
3
 72
9
 73
5
 74
3
 42
0.0000001
 43
0.0000001
 44
0.0000000001
 12
0.0127393251
 22
-0.0803177665
 32
0.0
 13
-0.0024349674
 23
-0.0812853305
 33
0.0
 40
0.0
 40
0.0
 40
0.0
 40
0.0
 40
0.247607649
 40
1.0
 40
1.0
 40
1.0
 40
1.0
 10
21.0323481563
 20
16.7831004014
 30
0.0
 10
21.0333996078
 20
16.7764713036
 30
0.0
 10
21.0370363384
 20
16.7496070646
 30
0.0
 10
21.0382406157
 20
16.7224014031
 30
0.0
 10
21.0376299321
 20
16.7020152495
 30
0.0
 11
21.0323481563
 21
16.7831004014
 31
0.0
 11
21.0350514398
 21
16.7631467891
 31
0.0
 11
21.0376299321
 21
16.7020152495
 31
0.0
  0
SPLINE
  5
381
100
AcDbEntity
  8
0
100
AcDbSpline
 62
9
  6
CONTINUOUS
 70
0
 71
3
 72
9
 73
5
 74
3
 42
0.0000001
 43
0.0000001
 44
0.0000000001
 12
-0.0026447013
 22
-0.0882867761
 32
0.0
 13
-0.0198127291
 23
-0.0860755775
 33
0.0
 40
0.0
 40
0.0
 40
0.0
 40
0.0
 40
0.253905726
 40
1.0
 40
1.0
 40
1.0
 40
1.0
 10
21.0376299321
 20
16.7020152495
 30
0.0
 10
21.0374060971
 20
16.6945430768
 30
0.0
 10
21.035712586
 20
16.6651414698
 30
0.0
 10
21.0310461556
 20
16.6359317683
 30
0.0
 10
21.0261187677
 20
16.6145249365
 30
0.0
 11
21.0376299321
 21
16.7020152495
 31
0.0
 11
21.0363544543
 21
16.6796249759
 31
0.0
 11
21.0261187677
 21
16.6145249365
 31
0.0
  0
SPLINE
  5
382
100
AcDbEntity
  8
0
100
AcDbSpline
 62
9
  6
CONTINUOUS
 70
0
 71
3
 72
9
 73
5
 74
3
 42
0.0000001
 43
0.0000001
 44
0.0000000001
 12
-0.0382618837
 22
-0.1039496369
 32
0.0
 13
-0.0534332444
 23
-0.0970277649
 33
0.0
 40
0.0
 40
0.0
 40
0.0
 40
0.0
 40
0.2808553213
 40
1.0
 40
1.0
 40
1.0
 40
1.0
 10
21.006817177
 20
16.5502676677
 30
0.0
 10
21.0032351591
 20
16.5405360648
 30
0.0
 10
20.9895875201
 20
16.5062137845
 30
0.0
 10
20.9731143144
 20
16.4730718908
 30
0.0
 10
20.9603055699
 20
16.4498128906
 30
0.0
 11
21.006817177
 21
16.5502676677
 31
0.0
 11
20.9953462552
 21
16.5213499832
 31
0.0
 11
20.9603055699
 21
16.4498128906
 31
0.0
  0
SPLINE
  5
383
100
AcDbEntity
  8
0
100
AcDbSpline
 62
9
  6
CONTINUOUS
 70
0
 71
3
 72
21
 73
17
 74
15
 42
0.0000001
 43
0.0000001
 44
0.0000000001
 12
-0.0233672035
 22
-0.0406602871
 32
0.0
 13
0.0468965366
 23
-0.0000000002
 33
0.0
 40
0.0
 40
0.0
 40
0.0
 40
0.0
 40
0.2238879612
 40
0.4227609146
 40
0.5948016464
 40
0.7382209424
 40
0.7987478505
 40
0.8516230987
 40
0.8966994329
 40
0.9338292646
 40
0.9628648557
 40
0.9836588458
 40
0.9909198413
 40
0.9960670162
 40
0.9990865435
 40
1.0
 40
1.0
 40
1.0
 40
1.0
 10
20.9518930041
 20
16.4348605834
 30
0.0
 10
20.9501491256
 20
16.4318261338
 30
0.0
 10
20.9468241225
 20
16.426114645
 30
0.0
 10
20.9420606638
 20
16.4181292775
 30
0.0
 10
20.9378765155
 20
16.4112635681
 30
0.0
 10
20.934778551
 20
16.4062686603
 30
0.0
 10
20.9326454695
 20
16.402867691
 30
0.0
 10
20.9313232239
 20
16.4007723258
 30
0.0
 10
20.9301932159
 20
16.3989895966
 30
0.0
 10
20.9292590526
 20
16.3975198223
 30
0.0
 10
20.9285348709
 20
16.3963772673
 30
0.0
 10
20.9280514741
 20
16.3956106988
 30
0.0
 10
20.9277911751
 20
16.3951831527
 30
0.0
 10
20.9276506181
 20
16.3949512729
 30
0.0
 10
20.9276124446
 20
16.3948686393
 30
0.0
 10
20.9275579634
 20
16.3947713223
 30
0.0
 10
20.9275722427
 20
16.3947713223
 30
0.0
 11
20.9518930041
 21
16.4348605834
 31
0.0
 11
20.9466103645
 21
16.4257867371
 31
0.0
 11
20.9418322776
 21
16.4177772048
 31
0.0
 11
20.9376338767
 21
16.4108875096
 31
0.0
 11
20.9340888837
 21
16.4051717131
 31
0.0
 11
20.9325807
 21
16.4027670349
 31
0.0
 11
20.9312575264
 21
16.4006699046
 31
0.0
 11
20.9301259442
 21
16.3988843525
 31
0.0
 11
20.9291925344
 21
16.3974144089
 31
0.0
 11
20.9284638783
 21
16.3962641038
 31
0.0
 11
20.9279465568
 21
16.3954374676
 31
0.0
 11
20.9277692032
 21
16.3951467847
 31
0.0
 11
20.9276471512
 21
16.3949385303
 31
0.0
 11
20.9275812235
 21
16.3948132083
 31
0.0
 11
20.9275722427
 21
16.3947713223
 31
0.0
  0
SPLINE
  5
384
100
AcDbEntity
  8
0
100
AcDbSpline
 62
9
  6
CONTINUOUS
 70
0
 71
3
 72
21
 73
17
 74
15
 42
0.0000001
 43
0.0000001
 44
0.0000000001
 12
0.0
 22
-0.1405067087
 32
0.0
 13
0.0468014347
 23
0.1324830589
 33
0.0
 40
0.0
 40
0.0
 40
0.0
 40
0.0
 40
0.0006640283
 40
0.0037993193
 40
0.0094009245
 40
0.0174141631
 40
0.0404443968
 40
0.0724234674
 40
0.1128822469
 40
0.1613642381
 40
0.2174604636
 40
0.2807740464
 40
0.4274763284
 40
0.5983395763
 40
0.7902150431
 40
1.0
 40
1.0
 40
1.0
 40
1.0
 10
20.9875722427
 20
16.3347713223
 30
0.0
 10
20.9875722427
 20
16.3347402222
 30
0.0
 10
20.9877989849
 20
16.335010551
 30
0.0
 10
20.9878524689
 20
16.3352516975
 30
0.0
 10
20.9883048299
 20
16.3360427122
 30
0.0
 10
20.9889990487
 20
16.337526087
 30
0.0
 10
20.9903174126
 20
16.3402325416
 30
0.0
 10
20.9922078475
 20
16.3442536745
 30
0.0
 10
20.9946314225
 20
16.3493840607
 30
0.0
 10
20.9975245817
 20
16.3555258858
 30
0.0
 10
21.00085308
 20
16.3626513858
 30
0.0
 10
21.0060664144
 20
16.3739716753
 30
0.0
 10
21.0133521707
 20
16.390255898
 30
0.0
 10
21.0226979731
 20
16.412211027
 30
0.0
 10
21.0326507758
 20
16.4371126155
 30
0.0
 10
21.0391756984
 20
16.4547599823
 30
0.0
 10
21.042448444
 20
16.4640242999
 30
0.0
 11
20.9875722427
 21
16.3347713223
 31
0.0
 11
20.9876452348
 21
16.3348294353
 31
0.0
 11
20.9878624218
 21
16.3352127054
 31
0.0
 11
20.9882211199
 21
16.3359132795
 31
0.0
 11
20.988718645
 21
16.3369233045
 31
0.0
 11
20.9901194409
 21
16.3398402953
 31
0.0
 11
20.9920433379
 21
16.3439008532
 31
0.0
 11
20.9944688646
 21
16.3490421541
 31
0.0
 11
20.9973699422
 21
16.3552055709
 31
0.0
 11
21.000703814
 21
16.3623476703
 31
0.0
 11
21.0044239501
 21
16.3704284563
 31
0.0
 11
21.0128368972
 21
16.3892461039
 31
0.0
 11
21.0222351457
 21
16.4113374991
 31
0.0
 11
21.032235015
 21
16.4363741305
 31
0.0
 11
21.042448444
 21
16.4640242999
 31
0.0
  0
SPLINE
  5
385
100
AcDbEntity
  8
0
100
AcDbSpline
 62
9
  6
CONTINUOUS
 70
0
 71
3
 72
9
 73
5
 74
3
 42
0.0000001
 43
0.0000001
 44
0.0000000001
 12
0.0236125633
 22
0.0668412119
 32
0.0
 13
0.0182834897
 23
0.0684909831
 33
0.0
 40
0.0
 40
0.0
 40
0.0
 40
0.0
 40
0.2384230948
 40
1.0
 40
1.0
 40
1.0
 40
1.0
 10
21.042448444
 20
16.4640242999
 30
0.0
 10
21.0443250375
 20
16.4693364628
 30
0.0
 10
21.0520084255
 20
16.4916821377
 30
0.0
 10
21.0588579344
 20
16.5143188132
 30
0.0
 10
21.0634993623
 20
16.5317058635
 30
0.0
 11
21.042448444
 21
16.4640242999
 31
0.0
 11
21.0479414295
 21
16.4800084548
 31
0.0
 11
21.0634993623
 21
16.5317058635
 31
0.0
  0
SPLINE
  5
386
100
AcDbEntity
  8
0
100
AcDbSpline
 62
9
  6
CONTINUOUS
 70
0
 71
3
 72
9
 73
5
 74
3
 42
0.0000001
 43
0.0000001
 44
0.0000000001
 12
0.0130426856
 22
0.0597234229
 32
0.0
 13
0.0079836687
 23
0.0606074246
 33
0.0
 40
0.0
 40
0.0
 40
0.0
 40
0.0
 40
0.2457795702
 40
1.0
 40
1.0
 40
1.0
 40
1.0
 10
21.0721304655
 20
16.5672596827
 30
0.0
 10
21.0731990073
 20
16.5721526151
 30
0.0
 10
21.0773532664
 20
16.5921018452
 30
0.0
 10
21.0806987734
 20
16.6122219355
 30
0.0
 10
21.0827059221
 20
16.6274590548
 30
0.0
 11
21.0721304655
 21
16.5672596827
 31
0.0
 11
21.0751922166
 21
16.5819691627
 31
0.0
 11
21.0827059221
 21
16.6274590548
 31
0.0
  0
SPLINE
  5
387
100
AcDbEntity
  8
0
100
AcDbSpline
 62
9
  6
CONTINUOUS
 70
0
 71
3
 72
9
 73
5
 74
3
 42
0.0000001
 43
0.0000001
 44
0.0000000001
 12
0.0125471108
 22
0.0952504539
 32
0.0
 13
-0.0012621989
 23
0.0960650083
 33
0.0
 40
0.0
 40
0.0
 40
0.0
 40
0.0
 40
0.2476094308
 40
1.0
 40
1.0
 40
1.0
 40
1.0
 10
21.0827059221
 20
16.6274590548
 30
0.0
 10
21.0837415164
 20
16.6353206917
 30
0.0
 10
21.0873679745
 20
16.6671406686
 30
0.0
 10
21.0887663394
 20
16.6992220841
 30
0.0
 10
21.0884497839
 20
16.7233148862
 30
0.0
 11
21.0827059221
 21
16.6274590548
 31
0.0
 11
21.0854008015
 21
16.6510945733
 31
0.0
 11
21.0884497839
 21
16.7233148862
 31
0.0
  0
SPLINE
  5
388
100
AcDbEntity
  8
0
100
AcDbSpline
 62
9
  6
CONTINUOUS
 70
0
 71
3
 72
9
 73
5
 74
3
 42
0.0000001
 43
0.0000001
 44
0.0000000001
 12
-0.0014139818
 22
0.1076170899
 32
0.0
 13
-0.0183349891
 23
0.1060531261
 33
0.0
 40
0.0
 40
0.0
 40
0.0
 40
0.0
 40
0.2531385436
 40
1.0
 40
1.0
 40
1.0
 40
1.0
 10
21.0884497839
 20
16.7233148862
 30
0.0
 10
21.0883304728
 20
16.732395564
 30
0.0
 10
21.0870833284
 20
16.7682548839
 30
0.0
 10
21.0829543073
 20
16.8040032942
 30
0.0
 10
21.0783897417
 20
16.830405625
 30
0.0
 11
21.0884497839
 21
16.7233148862
 31
0.0
 11
21.087514404
 21
16.750543209
 31
0.0
 11
21.0783897417
 21
16.830405625
 31
0.0
  0
SPLINE
  5
389
100
AcDbEntity
  8
0
100
AcDbSpline
 62
9
  6
CONTINUOUS
 70
0
 71
3
 72
9
 73
5
 74
3
 42
0.0000001
 43
0.0000001
 44
0.0000000001
 12
-0.0188703391
 22
0.101712102
 32
0.0
 13
-0.0315476784
 23
0.0985199745
 33
0.0
 40
0.0
 40
0.0
 40
0.0
 40
0.0
 40
0.2608826972
 40
1.0
 40
1.0
 40
1.0
 40
1.0
 10
21.0768509643
 20
16.8389915045
 30
0.0
 10
21.0752099827
 20
16.8478364804
 30
0.0
 10
21.0682846869
 20
16.8816220619
 30
0.0
 10
21.0590948108
 20
16.9149244179
 30
0.0
 10
21.0513223325
 20
16.9391970238
 30
0.0
 11
21.0768509643
 21
16.8389915045
 31
0.0
 11
21.0714424761
 21
16.8654317394
 31
0.0
 11
21.0513223325
 21
16.9391970238
 31
0.0
  0
SPLINE
  5
38A
100
AcDbEntity
  8
0
100
AcDbSpline
 62
9
  6
CONTINUOUS
 70
0
 71
3
 72
24
 73
20
 74
18
 42
0.0000001
 43
0.0000001
 44
0.0000000001
 12
-0.051496288
 22
0.1608173167
 32
0.0
 13
-0.0
 23
-0.1688611176
 33
0.0
 40
0.0
 40
0.0
 40
0.0
 40
0.0
 40
0.2060753049
 40
0.3954619734
 40
0.564694373
 40
0.7106167077
 40
0.7741314047
 40
0.8309892159
 40
0.8809168482
 40
0.9031961973
 40
0.9235892447
 40
0.941916919
 40
0.9579896641
 40
0.971617897
 40
0.9826129782
 40
0.9907898499
 40
0.9959776588
 40
0.9981135561
 40
1.0
 40
1.0
 40
1.0
 40
1.0
 10
21.0513223325
 20
16.9391970238
 30
0.0
 10
21.0477849614
 20
16.9502438497
 30
0.0
 10
21.0406039795
 20
16.9713191918
 30
0.0
 10
21.0293540102
 20
17.0010517341
 30
0.0
 10
21.0185326925
 20
17.0273123903
 30
0.0
 10
21.0099174017
 20
17.0468095092
 30
0.0
 10
21.0036942856
 20
17.0604455525
 30
0.0
 10
20.9996796214
 20
17.0691500769
 30
0.0
 10
20.9966403237
 20
17.0757483331
 30
0.0
 10
20.9944891368
 20
17.0804961261
 30
0.0
 10
20.99309071
 20
17.083631422
 30
0.0
 10
20.9918426076
 20
17.0864535043
 30
0.0
 10
20.9907541221
 20
17.0889227409
 30
0.0
 10
20.9898137123
 20
17.0910270627
 30
0.0
 10
20.9890697207
 20
17.0926746976
 30
0.0
 10
20.9884164489
 20
17.093984717
 30
0.0
 10
20.9881035878
 20
17.0946068135
 30
0.0
 10
20.9876345752
 20
17.0952399736
 30
0.0
 10
20.9875722427
 20
17.0948775047
 30
0.0
 10
20.9875722427
 20
17.0947713223
 30
0.0
 11
21.0513223325
 21
16.9391970238
 31
0.0
 11
21.0401115363
 21
16.9721397962
 31
0.0
 11
21.0287999091
 21
17.0020525082
 31
0.0
 11
21.017914273
 21
17.0284747494
 31
0.0
 11
21.0079796957
 21
17.0510238904
 31
0.0
 11
21.0035318561
 21
17.0607832879
 31
0.0
 11
20.9995170189
 21
17.0695046235
 31
0.0
 11
20.9960002115
 21
17.0771669376
 31
0.0
 11
20.9944488751
 21
17.0805943084
 31
0.0
 11
20.9930449369
 21
17.0837387144
 31
0.0
 11
20.9917923676
 21
17.0865687413
 31
0.0
 11
20.9906948521
 21
17.0890509965
 31
0.0
 11
20.9897560752
 21
17.091152087
 31
0.0
 11
20.9889797219
 21
17.0928386201
 31
0.0
 11
20.9883694771
 21
17.094077203
 31
0.0
 11
20.9879290257
 21
17.0948344429
 31
0.0
 11
20.9876620526
 21
17.0950769469
 31
0.0
 11
20.9875722427
 21
17.0947713223
 31
0.0
  0
SPLINE
  5
38B
100
AcDbEntity
  8
0
100
AcDbSpline
 62
9
  6
CONTINUOUS
 70
0
 71
3
 72
23
 73
19
 74
17
 42
0.0000001
 43
0.0000001
 44
0.0000000001
 12
-0.0000000001
 22
0.1883968686
 32
0.0
 13
-0.1149175858
 23
0.1492894121
 33
0.0
 40
0.0
 40
0.0
 40
0.0
 40
0.0
 40
0.0017165555
 40
0.0056013913
 40
0.0116733786
 40
0.0199272152
 40
0.030353795
 40
0.0429429479
 40
0.0745667991
 40
0.1147140621
 40
0.1632416201
 40
0.2197017611
 40
0.283548464
 40
0.3542354439
 40
0.4312162956
 40
0.6020198991
 40
0.7926172617
 40
1.0
 40
1.0
 40
1.0
 40
1.0
 10
22.2875722427
 20
16.0497713223
 30
0.0
 10
22.2875722427
 20
16.0498791202
 30
0.0
 10
22.2873317999
 20
16.0501796389
 30
0.0
 10
22.2869433677
 20
16.0507708809
 30
0.0
 10
22.2862146483
 20
16.051671272
 30
0.0
 10
22.2852481181
 20
16.05288073
 30
0.0
 10
22.2839999515
 20
16.0543998009
 30
0.0
 10
22.2818184851
 20
16.057046959
 30
0.0
 10
22.2784413218
 20
16.0611296567
 30
0.0
 10
22.2736460374
 20
16.0669669029
 30
0.0
 10
22.2678968854
 20
16.0740394409
 30
0.0
 10
22.2612395382
 20
16.0822914047
 30
0.0
 10
22.2537342828
 20
16.0916473047
 30
0.0
 10
22.2454454634
 20
16.1020266515
 30
0.0
 10
22.2329939608
 20
16.1176774441
 30
0.0
 10
22.2159042324
 20
16.1392608009
 30
0.0
 10
22.1938553194
 20
16.1673624768
 30
0.0
 10
22.1785422903
 20
16.1871149098
 30
0.0
 10
22.1705983158
 20
16.1974349255
 30
0.0
 11
22.2875722427
 21
16.0497713223
 31
0.0
 11
22.2874299511
 21
16.0500617299
 31
0.0
 11
22.2870059276
 21
16.050658277
 31
0.0
 11
22.286304449
 21
16.0515618999
 31
0.0
 11
22.2853297923
 21
16.052773535
 31
0.0
 11
22.2840862342
 21
16.0542941189
 31
0.0
 11
22.2825780518
 21
16.0561245879
 31
0.0
 11
22.278784921
 21
16.060718927
 31
0.0
 11
22.2739846151
 21
16.0665640437
 31
0.0
 11
22.2682151795
 21
16.0736561395
 31
0.0
 11
22.2615343877
 21
16.0819332739
 31
0.0
 11
22.2540063451
 21
16.0913148432
 31
0.0
 11
22.2456951606
 21
16.101720235
 31
0.0
 11
22.2366649427
 21
16.1130688368
 31
0.0
 11
22.2166935151
 21
16.1383001938
 31
0.0
 11
22.1945323071
 21
16.166553715
 31
0.0
 11
22.1705983158
 21
16.1974349255
 31
0.0
  0
SPLINE
  5
38C
100
AcDbEntity
  8
0
100
AcDbSpline
 62
9
  6
CONTINUOUS
 70
0
 71
3
 72
25
 73
21
 74
19
 42
0.0000001
 43
0.0000001
 44
0.0000000001
 12
-0.7220210611
 22
0.9379774125
 32
0.0
 13
0.721919198
 23
0.9380558142
 33
0.0
 40
0.0
 40
0.0
 40
0.0
 40
0.0
 40
0.1109478393
 40
0.171388209
 40
0.2341699193
 40
0.2662987027
 40
0.2988575084
 40
0.3649642093
 40
0.4323801455
 40
0.4664527373
 40
0.5004824547
 40
0.534444352
 40
0.5684053728
 40
0.6022673462
 40
0.6357987408
 40
0.7017873325
 40
0.7663251557
 40
0.8290139749
 40
0.8893132474
 40
1.0
 40
1.0
 40
1.0
 40
1.0
 10
22.1705983158
 20
16.1974349255
 30
0.0
 10
22.1438960902
 20
16.2321237812
 30
0.0
 10
22.1032709653
 20
16.2862044266
 30
0.0
 10
22.0501605164
 20
16.3618196951
 30
0.0
 10
22.0166297747
 20
16.4131556608
 30
0.0
 10
21.9907449261
 20
16.4562860204
 30
0.0
 10
21.9654398542
 20
16.5012654314
 30
0.0
 10
21.9367151021
 20
16.5602970079
 30
0.0
 10
21.9163684885
 20
16.6235866739
 30
0.0
 10
21.907366519
 20
16.6763758984
 30
0.0
 10
21.9048771247
 20
16.7166674166
 30
0.0
 10
21.9075286104
 20
16.7569132378
 30
0.0
 10
21.9147990707
 20
16.7964851478
 30
0.0
 10
21.9257447807
 20
16.8350003063
 30
0.0
 10
21.9441282313
 20
16.884362832
 30
0.0
 10
21.9726918708
 20
16.9425981519
 30
0.0
 10
22.0112687061
 20
17.0083900847
 30
0.0
 10
22.0519221639
 20
17.0702397045
 30
0.0
 10
22.1049570374
 20
17.1456681145
 30
0.0
 10
22.1455245559
 20
17.1995934316
 30
0.0
 10
22.1721601864
 20
17.2342035489
 30
0.0
 11
22.1705983158
 21
16.1974349255
 31
0.0
 11
22.092033821
 21
16.3026706145
 31
0.0
 11
22.0510165855
 21
16.3612873093
 31
0.0
 11
22.0105440712
 21
16.4236133466
 31
0.0
 11
21.9909853631
 21
16.4562288519
 31
0.0
 11
21.9721508744
 21
16.4898525234
 31
0.0
 11
21.9386288174
 21
16.5605581324
 31
0.0
 11
21.9147825051
 21
16.6367112514
 31
0.0
 11
21.9080802559
 21
16.6764817634
 31
0.0
 11
21.9057338324
 21
16.7166939137
 31
0.0
 11
21.9082999624
 21
16.7568121997
 31
0.0
 11
21.9154279409
 21
16.7963744345
 31
0.0
 11
21.9262880302
 21
16.8349571339
 31
0.0
 11
21.9400646989
 21
16.8721801699
 31
0.0
 11
21.9737968392
 21
16.9426308223
 31
0.0
 11
22.0121987112
 21
17.008669656
 31
0.0
 11
22.0527652091
 21
17.0708032897
 31
0.0
 11
22.0937400362
 21
17.1292457796
 31
0.0
 11
22.1721601864
 21
17.2342035489
 31
0.0
  0
SPLINE
  5
38D
100
AcDbEntity
  8
0
100
AcDbSpline
 62
9
  6
CONTINUOUS
 70
0
 71
3
 72
24
 73
20
 74
18
 42
0.0000001
 43
0.0000001
 44
0.0000000001
 12
0.1133268189
 22
0.1472559279
 32
0.0
 13
0.0
 23
-0.1858151668
 33
0.0
 40
0.0
 40
0.0
 40
0.0
 40
0.0
 40
0.2075670426
 40
0.3980581476
 40
0.5686447383
 40
0.6454397954
 40
0.7159734283
 40
0.7797982329
 40
0.8364667863
 40
0.885531068
 40
0.9265199143
 40
0.95893624
 40
0.9822819058
 40
0.9903989481
 40
0.9935422594
 40
0.9960660767
 40
0.9979645119
 40
0.9992347231
 40
1.0
 40
1.0
 40
1.0
 40
1.0
 10
22.1721601864
 20
17.2342035489
 30
0.0
 10
22.1800011573
 20
17.2443920414
 30
0.0
 10
22.1951104247
 20
17.2638752505
 30
0.0
 10
22.2168787485
 20
17.2915640554
 30
0.0
 10
22.2337648144
 20
17.3127872268
 30
0.0
 10
22.2460695549
 20
17.328160421
 30
0.0
 10
22.2542533838
 20
17.3383620177
 30
0.0
 10
22.2616587912
 20
17.3475898662
 30
0.0
 10
22.2682246752
 20
17.3557865636
 30
0.0
 10
22.2738841916
 20
17.3628965413
 30
0.0
 10
22.2785867253
 20
17.3688495769
 30
0.0
 10
22.282296358
 20
17.3735533755
 30
0.0
 10
22.2847643274
 20
17.3766512909
 30
0.0
 10
22.2861179917
 20
17.3783065853
 30
0.0
 10
22.2866790965
 20
17.3789575685
 30
0.0
 10
22.2869754112
 20
17.3793056215
 30
0.0
 10
22.2872524352
 20
17.3795693136
 30
0.0
 10
22.2873545361
 20
17.3797224492
 30
0.0
 10
22.2875722427
 20
17.3798187223
 30
0.0
 10
22.2875722427
 20
17.3797713223
 30
0.0
 11
22.1721601864
 21
17.2342035489
 31
0.0
 11
22.1957936111
 21
17.2646836583
 31
0.0
 11
22.2176691352
 21
17.292510766
 31
0.0
 11
22.2373983172
 21
17.3173199515
 31
0.0
 11
22.2463140319
 21
17.3284614945
 31
0.0
 11
22.2545137198
 21
17.3386858815
 31
0.0
 11
22.2619347696
 21
17.3479367478
 31
0.0
 11
22.26851457
 21
17.3561577289
 31
0.0
 11
22.274190994
 21
17.3632918618
 31
0.0
 11
22.2789146197
 21
17.3692664862
 31
0.0
 11
22.2826496664
 21
17.3739920884
 31
0.0
 11
22.285361025
 21
17.3773783244
 31
0.0
 11
22.2863218498
 21
17.3785409476
 31
0.0
 11
22.2867016286
 21
17.3789846948
 31
0.0
 11
22.2870135868
 21
17.3793348503
 31
0.0
 11
22.2872571759
 21
17.3795900024
 31
0.0
 11
22.2874318473
 21
17.3797487396
 31
0.0
 11
22.2875722427
 21
17.3797713223
 31
0.0
  0
LINE
  5
38E
100
AcDbEntity
  8
0
100
AcDbLine
 62
9
  6
CONTINUOUS
 10
22.3675722427
 20
16.1297713223
 11
22.311331289
 21
16.1845663244
  0
SPLINE
  5
38F
100
AcDbEntity
  8
0
100
AcDbSpline
 62
9
  6
CONTINUOUS
 70
0
 71
3
 72
25
 73
21
 74
19
 42
0.0000001
 43
0.0000001
 44
0.0000000001
 12
-0.5783891347
 22
0.6291224809
 32
0.0
 13
0.5772800441
 23
0.6301403318
 33
0.0
 40
0.0
 40
0.0
 40
0.0
 40
0.0
 40
0.1172518821
 40
0.1782651486
 40
0.24054476
 40
0.3039617
 40
0.368418885
 40
0.4009292454
 40
0.4337012787
 40
0.4667398623
 40
0.4998332206
 40
0.5328159279
 40
0.5656451272
 40
0.5984184133
 40
0.6311003637
 40
0.6955804027
 40
0.7589943724
 40
0.8213521749
 40
0.8824838866
 40
1.0
 40
1.0
 40
1.0
 40
1.0
 10
22.1493364343
 20
16.3507532617
 30
0.0
 10
22.1267306961
 20
16.37534186
 30
0.0
 10
22.0929831824
 20
16.4133209432
 30
0.0
 10
22.0497768104
 20
16.4665185423
 30
0.0
 10
22.0179856533
 20
16.50919445
 30
0.0
 10
21.9885114958
 20
16.5546836797
 30
0.0
 10
21.9669634597
 20
16.5951056046
 30
0.0
 10
21.9533451934
 20
16.6295111033
 30
0.0
 10
21.9455054346
 20
16.6564485097
 30
0.0
 10
21.9404651734
 20
16.684221462
 30
0.0
 10
21.938397635
 20
16.7124350283
 30
0.0
 10
21.9395473908
 20
16.7406570416
 30
0.0
 10
21.9442223916
 20
16.7684180316
 30
0.0
 10
21.9518660977
 20
16.7953995356
 30
0.0
 10
21.9651134071
 20
16.8300014799
 30
0.0
 10
21.9860008824
 20
16.8708397963
 30
0.0
 10
22.0153594236
 20
16.9164505426
 30
0.0
 10
22.0468937826
 20
16.9593805158
 30
0.0
 10
22.0900696161
 20
17.0127772845
 30
0.0
 10
22.1237960842
 20
17.0509191042
 30
0.0
 10
22.1464093199
 20
17.0756029851
 30
0.0
 11
22.1493364343
 21
16.3507532617
 31
0.0
 11
22.0830840588
 21
16.4259276579
 31
0.0
 11
22.0502865299
 21
16.4664623198
 31
0.0
 11
22.0186504684
 21
16.5092632958
 31
0.0
 11
21.9893221686
 21
16.5548376457
 31
0.0
 11
21.9639304267
 21
16.6037209625
 31
0.0
 11
21.953781131
 21
16.6295839437
 31
0.0
 11
21.9459962899
 21
16.6564869954
 31
0.0
 11
21.9409648016
 21
16.6842696048
 31
0.0
 11
21.9389337439
 21
16.7124779293
 31
0.0
 11
21.9401408785
 21
16.7406388577
 31
0.0
 11
21.9447236566
 21
16.7683176391
 31
0.0
 11
21.9522700135
 21
16.7952896692
 31
0.0
 11
21.9621806763
 21
16.821401936
 31
0.0
 11
21.986927426
 21
16.8706367782
 31
0.0
 11
22.0159830083
 21
16.9163824724
 31
0.0
 11
22.0474290304
 21
16.95940606
 31
0.0
 11
22.080170058
 21
17.0001163516
 31
0.0
 11
22.1464093199
 21
17.0756029851
 31
0.0
  0
LINE
  5
390
100
AcDbEntity
  8
0
100
AcDbLine
 62
9
  6
CONTINUOUS
 10
22.1700467006
 20
17.1011114612
 11
22.1743460612
 21
17.1056916573
  0
SPLINE
  5
391
100
AcDbEntity
  8
0
100
AcDbSpline
 62
9
  6
CONTINUOUS
 70
0
 71
3
 72
22
 73
18
 74
16
 42
0.0000001
 43
0.0000001
 44
0.0000000001
 12
0.0641809284
 22
0.0632445449
 32
0.0
 13
0.090105849
 23
0.0
 33
0.0
 40
0.0
 40
0.0
 40
0.0
 40
0.0
 40
0.2192327509
 40
0.4160566061
 40
0.5879608323
 40
0.732433857
 40
0.7936125561
 40
0.8471317812
 40
0.8928586836
 40
0.9306607895
 40
0.9604057174
 40
0.972215458
 40
0.9819614534
 40
0.9896274143
 40
0.9951974086
 40
0.9986567521
 40
1.0
 40
1.0
 40
1.0
 40
1.0
 10
22.303078832
 20
17.2368493767
 30
0.0
 10
22.3077690192
 20
17.2414711352
 30
0.0
 10
22.3166817776
 20
17.25023028
 30
0.0
 10
22.3293050186
 20
17.2625799568
 30
0.0
 10
22.3403401958
 20
17.2733419631
 30
0.0
 10
22.348464566
 20
17.2812533508
 30
0.0
 10
22.3540375443
 20
17.2866881463
 30
0.0
 10
22.3574856781
 20
17.2900537273
 30
0.0
 10
22.3604314318
 20
17.2929289647
 30
0.0
 10
22.3628679723
 20
17.2953031551
 30
0.0
 10
22.3645776971
 20
17.2969646218
 30
0.0
 10
22.3656871281
 20
17.298032716
 30
0.0
 10
22.3663205493
 20
17.2986427478
 30
0.0
 10
22.3668233684
 20
17.299109161
 30
0.0
 10
22.3671875941
 20
17.299468901
 30
0.0
 10
22.3674265604
 20
17.2996416556
 30
0.0
 10
22.3675318978
 20
17.2997713223
 30
0.0
 10
22.3675722427
 20
17.2997713223
 30
0.0
 11
22.303078832
 21
17.2368493767
 31
0.0
 11
22.3171673127
 21
17.2506964442
 31
0.0
 11
22.3298435099
 21
17.2630998131
 31
0.0
 11
22.3409315039
 21
17.2739156978
 31
0.0
 11
22.350255375
 21
17.2830003126
 31
0.0
 11
22.3542019422
 21
17.2868490669
 31
0.0
 11
22.3576531794
 21
17.2902172203
 31
0.0
 11
22.360602167
 21
17.2930947237
 31
0.0
 11
22.363042016
 21
17.2954715436
 31
0.0
 11
22.3649658372
 21
17.2973376468
 31
0.0
 11
22.3657320845
 21
17.2980760442
 31
0.0
 11
22.3663667415
 21
17.2986829999
 31
0.0
 11
22.3668689469
 21
17.2991572597
 31
0.0
 11
22.3672378397
 21
17.2994975695
 31
0.0
 11
22.3674725586
 21
17.2997026751
 31
0.0
 11
22.3675722427
 21
17.2997713223
 31
0.0
  0
SPLINE
  5
392
100
AcDbEntity
  8
0
100
AcDbSpline
 62
9
  6
CONTINUOUS
 70
0
 71
3
 72
8
 73
4
 74
2
 42
0.0000001
 43
0.0000001
 44
0.0000000001
 12
0.0125264874
 22
0.0000000458
 32
0.0
 13
0.0115282773
 23
-0.0049001744
 33
0.0
 40
0.0
 40
0.0
 40
0.0
 40
0.0
 40
1.0
 40
1.0
 40
1.0
 40
1.0
 10
22.7046464206
 20
17.3329573405
 30
0.0
 10
22.7088219164
 20
17.3329573557
 30
0.0
 10
22.713078622
 20
17.3320930871
 30
0.0
 10
22.7169213811
 20
17.3304596956
 30
0.0
 11
22.7046464206
 21
17.3329573405
 31
0.0
 11
22.7169213811
 21
17.3304596956
 31
0.0
  0
SPLINE
  5
393
100
AcDbEntity
  8
0
100
AcDbSpline
 62
9
  6
CONTINUOUS
 70
0
 71
3
 72
9
 73
5
 74
3
 42
0.0000001
 43
0.0000001
 44
0.0000000001
 12
0.0222407396
 22
-0.009453581
 32
0.0
 13
0.0078492519
 23
-0.0228562887
 33
0.0
 40
0.0
 40
0.0
 40
0.0
 40
0.0
 40
0.5049963933
 40
1.0
 40
1.0
 40
1.0
 40
1.0
 10
22.7169213811
 20
17.3304596956
 30
0.0
 10
22.7206652122
 20
17.3288683542
 30
0.0
 10
22.7275226123
 20
17.3241689425
 30
0.0
 10
22.7318687601
 20
17.3170551453
 30
0.0
 10
22.7331638961
 20
17.3132838301
 30
0.0
 11
22.7169213811
 21
17.3304596956
 31
0.0
 11
22.7269507139
 21
17.3235062624
 31
0.0
 11
22.7331638961
 21
17.3132838301
 31
0.0
  0
SPLINE
  5
394
100
AcDbEntity
  8
0
100
AcDbSpline
 62
9
  6
CONTINUOUS
 70
0
 71
3
 72
9
 73
5
 74
3
 42
0.0000001
 43
0.0000001
 44
0.0000000001
 12
-0.0000007375
 22
0.0205875728
 32
0.0
 13
-0.0139677921
 23
0.0151244484
 33
0.0
 40
0.0
 40
0.0
 40
0.0
 40
0.0
 40
0.4969704262
 40
1.0
 40
1.0
 40
1.0
 40
1.0
 10
22.911572368
 20
17.0350246665
 30
0.0
 10
22.9115722458
 20
17.0384351382
 30
0.0
 10
22.9102471911
 20
17.045358382
 30
0.0
 10
22.9064701346
 20
17.0512991899
 30
0.0
 10
22.9041280638
 20
17.0538352049
 30
0.0
 11
22.911572368
 21
17.0350246665
 31
0.0
 11
22.9096496254
 21
17.0450737914
 31
0.0
 11
22.9041280638
 21
17.0538352049
 31
0.0
  0
SPLINE
  5
395
100
AcDbEntity
  8
0
100
AcDbSpline
 62
9
  6
CONTINUOUS
 70
0
 71
3
 72
8
 73
4
 74
2
 42
0.0000001
 43
0.0000001
 44
0.0000000001
 12
-0.0072855002
 22
0.0078888039
 32
0.0
 13
-0.0096039595
 23
0.0048037177
 33
0.0
 40
0.0
 40
0.0
 40
0.0
 40
0.0
 40
1.0
 40
1.0
 40
1.0
 40
1.0
 10
22.9041280638
 20
17.0538352049
 30
0.0
 10
22.9016995637
 20
17.0564648062
 30
0.0
 10
22.8987372604
 20
17.0586750183
 30
0.0
 10
22.8955359406
 20
17.0602762575
 30
0.0
 11
22.9041280638
 21
17.0538352049
 31
0.0
 11
22.8955359406
 21
17.0602762575
 31
0.0
  0
SPLINE
  5
396
100
AcDbEntity
  8
0
100
AcDbSpline
 62
9
  6
CONTINUOUS
 70
0
 71
3
 72
13
 73
9
 74
7
 42
0.0000001
 43
0.0000001
 44
0.0000000001
 12
-0.274418389
 22
0.1372582964
 32
0.0
 13
-0.0996520743
 23
0.2901977881
 33
0.0
 40
0.0
 40
0.0
 40
0.0
 40
0.0
 40
0.1799297241
 40
0.284458049
 40
0.400664453
 40
0.529634327
 40
0.6721617663
 40
1.0
 40
1.0
 40
1.0
 40
1.0
 10
22.8955363445
 20
17.0602770552
 30
0.0
 10
22.8790776695
 20
17.0685093377
 30
0.0
 10
22.8556977204
 20
17.0868909471
 30
0.0
 10
22.8287806836
 20
17.1177894985
 30
0.0
 10
22.8082077019
 20
17.1471397715
 30
0.0
 10
22.7883021309
 20
17.1814729914
 30
0.0
 10
22.7613224026
 20
17.236557801
 30
0.0
 10
22.7440549131
 20
17.2815719785
 30
0.0
 10
22.733164993
 20
17.3132846219
 30
0.0
 11
22.8955363445
 21
17.0602770552
 31
0.0
 11
22.8512087286
 21
17.0931858471
 31
0.0
 11
22.8299786152
 21
17.117226018
 31
0.0
 11
22.8093709647
 21
17.1463233722
 31
0.0
 11
22.7893857773
 21
17.1804779097
 31
0.0
 11
22.7700230529
 21
17.2196896305
 31
0.0
 11
22.733164993
 21
17.3132846219
 31
0.0
  0
LINE
  5
397
100
AcDbEntity
  8
0
100
AcDbLine
 62
9
  6
CONTINUOUS
 10
24.0999940326
 20
16.3661298796
 11
24.1027605909
 21
16.3638896231
  0
SPLINE
  5
398
100
AcDbEntity
  8
0
100
AcDbSpline
 62
9
  6
CONTINUOUS
 70
0
 71
3
 72
9
 73
5
 74
3
 42
0.0000001
 43
0.0000001
 44
0.0000000001
 12
0.0526313113
 22
-0.0711538983
 32
0.0
 13
0.0410021186
 23
-0.0784331463
 33
0.0
 40
0.0
 40
0.0
 40
0.0
 40
0.0
 40
0.7496896518
 40
1.0
 40
1.0
 40
1.0
 40
1.0
 10
24.0825959178
 20
17.0642074126
 30
0.0
 10
24.0957483009
 20
17.0464262988
 30
0.0
 10
24.1117881257
 20
17.0215523981
 30
0.0
 10
24.1259112995
 20
16.9956510316
 30
0.0
 10
24.1293323844
 20
16.9891068222
 30
0.0
 11
24.0825959178
 21
17.0642074126
 31
0.0
 11
24.1187208581
 21
17.0085534156
 31
0.0
 11
24.1293323844
 21
16.9891068222
 31
0.0
  0
SPLINE
  5
399
100
AcDbEntity
  8
0
100
AcDbSpline
 62
9
  6
CONTINUOUS
 70
0
 71
3
 72
9
 73
5
 74
3
 42
0.0000001
 43
0.0000001
 44
0.0000000001
 12
0.0464054189
 22
-0.1497450524
 32
0.0
 13
0.0073084514
 23
-0.156600224
 33
0.0
 40
0.0
 40
0.0
 40
0.0
 40
0.0
 40
0.4999947502
 40
1.0
 40
1.0
 40
1.0
 40
1.0
 10
24.1726597008
 20
16.884306577
 30
0.0
 10
24.1803938561
 20
16.8593493303
 30
0.0
 10
24.1926713527
 20
16.8083858296
 30
0.0
 10
24.19830343
 20
16.7562779077
 30
0.0
 10
24.199521518
 20
16.7301775964
 30
0.0
 11
24.1726597008
 21
16.884306577
 31
0.0
 11
24.1910099038
 21
16.8081002654
 31
0.0
 11
24.199521518
 21
16.7301775964
 31
0.0
  0
SPLINE
  5
39A
100
AcDbEntity
  8
0
100
AcDbSpline
 62
9
  6
CONTINUOUS
 70
0
 71
3
 72
10
 73
6
 74
4
 42
0.0000001
 43
0.0000001
 44
0.0000000001
 12
-0.0040919838
 22
-0.2448621098
 32
0.0
 13
-0.0979608742
 23
-0.2244501376
 33
0.0
 40
0.0
 40
0.0
 40
0.0
 40
0.0
 40
0.250140738
 40
0.5003136
 40
1.0
 40
1.0
 40
1.0
 40
1.0
 10
24.2000945476
 20
16.6930619305
 30
0.0
 10
24.199753357
 20
16.6726452676
 30
0.0
 10
24.1971464697
 20
16.6318046216
 30
0.0
 10
24.1838617412
 20
16.5511670365
 30
0.0
 10
24.1647260278
 20
16.4924639677
 30
0.0
 10
24.1484094556
 20
16.4550790739
 30
0.0
 11
24.2000945476
 21
16.6930619305
 31
0.0
 11
24.196136856
 21
16.6319313693
 31
0.0
 11
24.1861553301
 21
16.571483525
 31
0.0
 11
24.1484094556
 21
16.4550790739
 31
0.0
  0
SPLINE
  5
39B
100
AcDbEntity
  8
0
100
AcDbSpline
 62
9
  6
CONTINUOUS
 70
0
 71
3
 72
8
 73
4
 74
2
 42
0.0000001
 43
0.0000001
 44
0.0000000001
 12
-0.0314099581
 22
-0.0631579072
 32
0.0
 13
-0.0390299178
 23
-0.0587551889
 33
0.0
 40
0.0
 40
0.0
 40
0.0
 40
0.0
 40
1.0
 40
1.0
 40
1.0
 40
1.0
 10
24.1350690478
 20
16.426468401
 30
0.0
 10
24.1245990618
 20
16.4054157653
 30
0.0
 10
24.1128903038
 20
16.384920323
 30
0.0
 10
24.0998803312
 20
16.36533526
 30
0.0
 11
24.1350690478
 21
16.426468401
 31
0.0
 11
24.0998803312
 21
16.36533526
 31
0.0
  0
SPLINE
  5
39C
100
AcDbEntity
  8
0
100
AcDbSpline
 62
9
  6
CONTINUOUS
 70
0
 71
3
 72
9
 73
5
 74
3
 42
0.0000001
 43
0.0000001
 44
0.0000000001
 12
-0.0183206746
 22
0.0305920349
 32
0.0
 13
-0.0335151209
 23
0.012176058
 33
0.0
 40
0.0
 40
0.0
 40
0.0
 40
0.0
 40
0.5035216281
 40
1.0
 40
1.0
 40
1.0
 40
1.0
 10
24.0825959172
 20
17.0642074097
 30
0.0
 10
24.0795209652
 20
17.0693419935
 30
0.0
 10
24.0716068473
 20
17.0785718121
 30
0.0
 10
24.0610275242
 20
17.0845364207
 30
0.0
 10
24.0554810133
 20
17.0865514705
 30
0.0
 11
24.0825959172
 21
17.0642074097
 31
0.0
 11
24.0708753859
 21
17.0778089782
 31
0.0
 11
24.0554810133
 21
17.0865514705
 31
0.0
  0
SPLINE
  5
39D
100
AcDbEntity
  8
0
100
AcDbSpline
 62
9
  6
CONTINUOUS
 70
0
 71
3
 72
11
 73
7
 74
5
 42
0.0000001
 43
0.0000001
 44
0.0000000001
 12
0.0534719478
 22
0.0000002898
 32
0.0
 13
0.0263674415
 23
0.046518891
 33
0.0
 40
0.0
 40
0.0
 40
0.0
 40
0.0
 40
0.2474657961
 40
0.4962197764
 40
0.7469466039
 40
1.0
 40
1.0
 40
1.0
 40
1.0
 10
24.0555615372
 20
16.3397713223
 30
0.0
 10
24.0599723632
 20
16.3397713462
 30
0.0
 10
24.0688564952
 20
16.3409115029
 30
0.0
 10
24.0813382439
 20
16.3459490467
 30
0.0
 10
24.0921459615
 20
16.3541576998
 30
0.0
 10
24.0976562086
 20
16.361411311
 30
0.0
 10
24.0998803322
 20
16.3653352321
 30
0.0
 11
24.0555615372
 21
16.3397713223
 31
0.0
 11
24.0686861698
 21
16.3414572928
 31
0.0
 11
24.0810143189
 21
16.3464515807
 31
0.0
 11
24.0916852905
 21
16.3545678631
 31
0.0
 11
24.0998803322
 21
16.3653352321
 31
0.0
  0
ENDSEC
  0
SECTION
  2
OBJECTS
  0
DICTIONARY
  5
C
100
AcDbDictionary
280
0
281
1
  3
ACAD_GROUP
350
D
  3
ACAD_MLINESTYLE
350
17
  3
ACAD_LAYOUT
350
1A
  3
ACAD_PLOTSETTINGS
350
19
  3
ACAD_PLOTSTYLENAME
350
E
  0
DICTIONARY
  5
D
102
{ACAD_REACTORS
330
C
102
}
100
AcDbDictionary
280
0
281
1
  0
ACDBDICTIONARYWDFLT
  5
E
102
{ACAD_REACTORS
330
C
102
}
100
AcDbDictionary
281
1
  3
Normal
350
F
100
AcDbDictionaryWithDefault
340
F
  0
DICTIONARY
  5
17
102
{ACAD_REACTORS
330
C
102
}
100
AcDbDictionary
280
0
281
1
  3
Standard
350
18
  0
DICTIONARY
  5
19
102
{ACAD_REACTORS
330
C
102
}
100
AcDbDictionary
281
1
  0
DICTIONARY
  5
1A
102
{ACAD_REACTORS
330
C
102
}
100
AcDbDictionary
281
1
  3
Model
350
39E
  3
Layout1
350
39F
  0
ACDBPLACEHOLDER
  5
F
102
{ACAD_REACTORS
330
E
102
}
  0
MLINESTYLE
  5
18
102
{ACAD_REACTORS
330
17
102
}
100
AcDbMlineStyle
  2
STANDARD
 70
0
  3

 62
256
 51
90.0
 52
90.0
 71
2
 49
0.5
 62
256
  6
BYLAYER
 49
-0.5
 62
256
  6
BYLAYER
  0
LAYOUT
  5
39E
102
{ACAD_REACTORS
330
1A
102
}
100
AcDbPlotSettings
  1

  2
none_device
  4
ISO_A0_(1189.00_x_841.00_MM)
  6

 40
0.0
 41
0.0
 42
0.0
 43
0.0
 44
1189.0
 45
841.0
 46
0.0
 47
0.0
 48
0.0
 49
0.0
140
0.0
141
0.0
142
1.0
143
1.0
 70
1024
 72
0
 73
0
 74
0
  7

 75
0
147
1.0
148
0.0
149
0.0
100
AcDbLayout
  1
Model
 70
0
 71
0
 10
0.0
 20
0.0
 11
46.811023622
 21
33.1102362205
 12
0.0
 22
0.0
 32
0.0
 14
0.0
 24
0.0
 34
0.0
 15
0.0
 25
0.0
 35
0.0
146
0.0
 13
0.0
 23
0.0
 33
0.0
 16
1.0
 26
0.0
 36
0.0
 17
0.0
 27
1.0
 37
0.0
 76
0
330
253
345
0
346
0
  0
LAYOUT
  5
39F
102
{ACAD_REACTORS
330
1A
102
}
100
AcDbPlotSettings
  1

  2
none_device
  4
ISO_A0_(1189.00_x_841.00_MM)
  6

 40
0.0
 41
0.0
 42
0.0
 43
0.0
 44
1189.0
 45
841.0
 46
0.0
 47
0.0
 48
0.0
 49
0.0
140
0.0
141
0.0
142
1.0
143
1.0
 70
0
 72
0
 73
0
 74
0
  7

 75
0
147
1.0
148
0.0
149
0.0
100
AcDbLayout
  1
Layout1
 70
0
 71
1
 10
0.0
 20
0.0
 11
46.811023622
 21
33.1102362205
 12
0.0
 22
0.0
 32
0.0
 14
0.0
 24
0.0
 34
0.0
 15
0.0
 25
0.0
 35
0.0
146
0.0
 13
0.0
 23
0.0
 33
0.0
 16
1.0
 26
0.0
 36
0.0
 17
0.0
 27
1.0
 37
0.0
 76
0
330
254
345
0
346
0
  0
ENDSEC
  0
EOF
