  0
SECTION
  2
HEADER
  9
$ACADVER
  1
AC1015
  9
$DWGCODEPAGE
  3
ANSI_1252
  9
$EXTMAX
 10
11.6929133858
 20
8.2677165354
 30
0.0
  9
$EXTMIN
 10
0.0
 20
0.0
 30
0.0
  9
$LIMMIN
 10
0.0
 20
0.0
  9
$LIMMAX
 10
11.6929133858
 20
8.2677165354
  9
$VIEWCTR
 10
5.8464566929
 20
4.1338582677
  9
$VIEWSIZE
 40
8.2677165354
  9
$CLAYER
  8
0
  9
$LTSCALE
 40
0.6431102362
  9
$CELTYPE
  6
BYLAYER
  9
$DIMSCALE
 40
1.0
  9
$DIMASZ
 40
0.1
  9
$DIMEXO
 40
0.0730807087
  9
$DIMDLI
 40
0.4443307087
  9
$DIMEXE
 40
0.2104724409
  9
$DIMCEN
 40
0.1052362205
  9
$DIMLFAC
 40
1.0
  9
$DIMBLK
  1
_FILLED
  9
$DIMTXT
 40
0.08
  9
$DIMTOL
 70
1
  9
$DIMLIM
 70
0
  9
$DIMTFAC
 40
1.0
  9
$DIMTP
 40
0.01
  9
$DIMTM
 40
0.01
  9
$PDMODE
 70
3
  9
$PDSIZE
 40
0.06
  9
$HANDSEED
  5
267
  9
$TILEMODE
 70
1
  9
$MEASUREMENT
 70
0
  9
$INSUNITS
 70
1
  0
ENDSEC
  0
SECTION
  2
CLASSES
  0
CLASS
  1
ACDBDICTIONARYWDFLT
  2
AcDbDictionaryWithDefault
  3
AutoCAD 2000
 90
0
280
0
281
0
  0
CLASS
  1
ACDBPLACEHOLDER
  2
AcDbPlaceHolder
  3
AutoCAD 2000
 90
0
280
0
281
0
  0
CLASS
  1
LAYOUT
  2
AcDbLayout
  3
AutoCAD 2000
 90
0
280
0
281
0
  0
ENDSEC
  0
SECTION
  2
TABLES
  0
TABLE
  2
VPORT
  5
8
100
AcDbSymbolTable
 70
2
  0
VPORT
  5
1F4
100
AcDbSymbolTableRecord
100
AcDbViewportTableRecord
  2
*ACTIVE
 70
0
 10
0.0
 20
0.0
 11
1.0
 21
1.0
 12
5.8464566929
 22
4.1338582677
 13
0.0
 23
0.0
 14
1.0
 24
1.0
 15
0.0
 25
0.0
 16
0.0
 26
0.0
 36
1.0
 17
0.0
 27
0.0
 37
0.0
 40
8.2677165354
 41
1.4142857143
 42
50.0
 43
0.0
 44
0.0
 50
0.0
 51
0.0
 71
0
 72
100
 73
1
 74
1
 75
0
 76
0
 77
0
 78
0
  0
ENDTAB
  0
TABLE
  2
LTYPE
  5
5
100
AcDbSymbolTable
 70
6
  0
LTYPE
  5
14
100
AcDbSymbolTableRecord
100
AcDbLinetypeTableRecord
  2
BYBLOCK
 70
0
  3

 72
65
 73
0
 40
0.0
  0
LTYPE
  5
15
100
AcDbSymbolTableRecord
100
AcDbLinetypeTableRecord
  2
BYLAYER
 70
0
  3

 72
65
 73
0
 40
0.0
  0
LTYPE
  5
16
100
AcDbSymbolTableRecord
100
AcDbLinetypeTableRecord
  2
CONTINUOUS
 70
64
  3
Solid line
 72
65
 73
0
 40
0.0
  0
LTYPE
  5
1F5
100
AcDbSymbolTableRecord
100
AcDbLinetypeTableRecord
  2
CENTER
 70
64
  3
____ _ ____ _ ____ _ ____ _ ____ _ ____ _ ____
 72
65
 73
4
 40
0.6
 49
0.375
 74
0
 49
-0.075
 74
0
 49
0.075
 74
0
 49
-0.075
 74
0
  0
LTYPE
  5
1F6
100
AcDbSymbolTableRecord
100
AcDbLinetypeTableRecord
  2
HIDDEN
 70
64
  3
- - - - - - - - - - - - - - - - - - - -
 72
65
 73
2
 40
0.2
 49
0.1
 74
0
 49
-0.1
 74
0
  0
LTYPE
  5
1F7
100
AcDbSymbolTableRecord
100
AcDbLinetypeTableRecord
  2
PHANTOM
 70
64
  3
_____ _ _ _____ _ _ _____ _ _ _____
 72
65
 73
6
 40
0.8
 49
0.45
 74
0
 49
-0.05
 74
0
 49
0.1
 74
0
 49
-0.05
 74
0
 49
0.1
 74
0
 49
-0.05
 74
0
  0
LTYPE
  5
1F8
100
AcDbSymbolTableRecord
100
AcDbLinetypeTableRecord
  2
DOT
 70
64
  3
. . . . . . . . . . . . . . . . . . . .
 72
65
 73
2
 40
0.2
 49
0.1
 74
0
 49
-0.1
 74
0
  0
LTYPE
  5
1F9
100
AcDbSymbolTableRecord
100
AcDbLinetypeTableRecord
  2
DASHED
 70
64
  3
- - - - - - - - - - - - - - - - - - - -
 72
65
 73
2
 40
0.2
 49
0.1
 74
0
 49
-0.1
 74
0
  0
ENDTAB
  0
TABLE
  2
LAYER
  5
2
100
AcDbSymbolTable
 70
36
  0
LAYER
  5
10
100
AcDbSymbolTableRecord
100
AcDbLayerTableRecord
  2
0
 70
0
 62
7
  6
CONTINUOUS
370
-3
390
F
  0
LAYER
  5
1FA
100
AcDbSymbolTableRecord
100
AcDbLayerTableRecord
  2
DEFAULT_1
 70
0
 62
7
  6
CENTER
370
-3
390
F
  0
LAYER
  5
1FB
100
AcDbSymbolTableRecord
100
AcDbLayerTableRecord
  2
DEFAULT_2
 70
0
 62
8
  6
HIDDEN
370
-3
390
F
  0
LAYER
  5
1FC
100
AcDbSymbolTableRecord
100
AcDbLayerTableRecord
  2
DEFAULT_3
 70
0
 62
7
  6
PHANTOM
370
-3
390
F
  0
LAYER
  5
1FD
100
AcDbSymbolTableRecord
100
AcDbLayerTableRecord
  2
3_ALL_SYMBOLS
 70
0
 62
7
  6
CONTINUOUS
370
-3
390
F
  0
LAYER
  5
1FE
100
AcDbSymbolTableRecord
100
AcDbLayerTableRecord
  2
DEFAULT_COORDINATE_SYSTEM
 70
0
 62
7
  6
CONTINUOUS
370
-3
390
F
  0
LAYER
  5
1FF
100
AcDbSymbolTableRecord
100
AcDbLayerTableRecord
  2
DEFAULT_DATUM_AXES
 70
0
 62
7
  6
CONTINUOUS
370
-3
390
F
  0
LAYER
  5
200
100
AcDbSymbolTableRecord
100
AcDbLayerTableRecord
  2
DEFAULT_DATUM_CURVES
 70
0
 62
7
  6
CONTINUOUS
370
-3
390
F
  0
LAYER
  5
201
100
AcDbSymbolTableRecord
100
AcDbLayerTableRecord
  2
DEFAULT_DATUM_PLANES
 70
0
 62
7
  6
CONTINUOUS
370
-3
390
F
  0
ENDTAB
  0
TABLE
  2
STYLE
  5
3
100
AcDbSymbolTable
 70
1
  0
STYLE
  5
11
100
AcDbSymbolTableRecord
100
AcDbTextStyleTableRecord
  2
STANDARD
 70
0
 40
0.0
 41
0.8
 50
0.0
 71
0
 42
0.2
  3
txt
  4

  0
STYLE
  5
202
100
AcDbSymbolTableRecord
100
AcDbTextStyleTableRecord
  2
TEXTSTYLE_1
 70
0
 40
0.0
 41
0.8
 50
0.0
 71
0
 42
0.2
  3
gdt
  4

  0
ENDTAB
  0
TABLE
  2
VIEW
  5
6
100
AcDbSymbolTable
 70
0
  0
ENDTAB
  0
TABLE
  2
UCS
  5
7
100
AcDbSymbolTable
 70
0
  0
ENDTAB
  0
TABLE
  2
APPID
  5
9
100
AcDbSymbolTable
 70
1
  0
APPID
  5
203
100
AcDbSymbolTableRecord
100
AcDbRegAppTableRecord
  2
ACAD
 70
0
  0
ENDTAB
  0
TABLE
  2
BLOCK_RECORD
  5
1
100
AcDbSymbolTable
 70
0
  0
BLOCK_RECORD
  5
204
100
AcDbSymbolTableRecord
100
AcDbBlockTableRecord
  2
*Model_Space
  0
BLOCK_RECORD
  5
205
100
AcDbSymbolTableRecord
100
AcDbBlockTableRecord
  2
*Paper_Space
  0
ENDTAB
  0
TABLE
  2
DIMSTYLE
  5
A
100
AcDbSymbolTable
 70
1
100
AcDbDimStyleTable
 71
0
  0
DIMSTYLE
105
206
100
AcDbSymbolTableRecord
100
AcDbDimStyleTableRecord
  2
STANDARD
 70
0
  3

  4

 40
1.0
 41
0.1
 42
0.0625
 43
0.38
 44
0.18
 45
0.0
 46
0.0
 47
0.01
 48
0.01
140
0.08
141
0.09
142
0.0
143
25.4
144
1.0
145
0.0
146
1.0
147
0.09
 71
1.0
 72
0.0
 73
1
 74
1
 75
0
 76
0
 77
0
 78
4
170
0
171
2
172
0
173
0
174
0
175
0
176
0
177
0
178
0
270
2
271
2
272
2
273
2
274
2
275
0
280
0
281
0
282
0
283
1
284
4
285
0
286
0
287
3
288
0
340
11
  0
ENDTAB
  0
ENDSEC
  0
SECTION
  2
BLOCKS
  0
BLOCK
  5
20
100
AcDbEntity
  8
0
100
AcDbBlockBegin
  2
*Model_Space
 70
0
 10
0.0
 20
0.0
 30
0.0
  3
*Model_Space
  1

  0
ENDBLK
  5
21
100
AcDbEntity
  8
0
100
AcDbBlockEnd
  0
BLOCK
  5
1C
100
AcDbEntity
  8
0
100
AcDbBlockBegin
  2
*Paper_Space
 70
0
 10
0.0
 20
0.0
 30
0.0
  3
*Paper_Space
  1

  0
ENDBLK
  5
1D
100
AcDbEntity
  8
0
100
AcDbBlockEnd
  0
ENDSEC
  0
SECTION
  2
ENTITIES
  0
LINE
  5
207
100
AcDbEntity
  8
0
100
AcDbLine
 62
9
  6
CONTINUOUS
 10
6.0649418924
 20
3.0545532002
 11
6.0649569011
 21
3.0545532001
  0
LINE
  5
208
100
AcDbEntity
  8
0
100
AcDbLine
 62
9
  6
CONTINUOUS
 10
5.4401785236
 20
3.0545531983
 11
5.4401635149
 21
3.0545532001
  0
LINE
  5
209
100
AcDbEntity
  8
0
100
AcDbLine
 62
9
  6
CONTINUOUS
 10
6.114208559
 20
3.0728787934
 11
6.0892235677
 21
3.0728787934
  0
LINE
  5
20A
100
AcDbEntity
  8
0
100
AcDbLine
 62
9
  6
CONTINUOUS
 10
5.3909118569
 20
3.0728787934
 11
5.4158968482
 21
3.0728787934
  0
LINE
  5
20B
100
AcDbEntity
  8
0
100
AcDbLine
 62
9
  6
CONTINUOUS
 10
6.114208559
 20
3.1214523063
 11
6.0892235677
 21
3.1214523063
  0
LINE
  5
20C
100
AcDbEntity
  8
0
100
AcDbLine
 62
9
  6
CONTINUOUS
 10
5.4158968482
 20
3.1214523063
 11
5.3909118569
 21
3.1214523063
  0
LINE
  5
20D
100
AcDbEntity
  8
0
100
AcDbLine
 62
9
  6
CONTINUOUS
 10
6.0649569011
 20
3.1304537398
 11
6.064941894
 21
3.1304537398
  0
LINE
  5
20E
100
AcDbEntity
  8
0
100
AcDbLine
 62
9
  6
CONTINUOUS
 10
5.4401785236
 20
3.1304537398
 11
5.4401635149
 21
3.1304537398
  0
LINE
  5
20F
100
AcDbEntity
  8
0
100
AcDbLine
 62
6
  6
CONTINUOUS
 10
4.752560208
 20
5.7606352935
 11
4.752560208
 21
5.4356352935
  0
LINE
  5
210
100
AcDbEntity
  8
0
100
AcDbLine
 62
9
  6
CONTINUOUS
 10
6.0951114177
 20
3.1375628304
 11
6.114208559
 21
3.1214523063
  0
LINE
  5
211
100
AcDbEntity
  8
0
100
AcDbLine
 62
9
  6
CONTINUOUS
 10
6.0711517693
 20
3.1469440786
 11
6.0711630499
 21
3.1469341787
  0
LINE
  5
212
100
AcDbEntity
  8
0
100
AcDbLine
 62
6
  6
CONTINUOUS
 10
5.102560208
 20
4.3779887343
 11
5.102560208
 21
4.5556352935
  0
LINE
  5
213
100
AcDbEntity
  8
0
100
AcDbLine
 62
6
  6
CONTINUOUS
 10
5.182560208
 20
5.0306352935
 11
5.182560208
 21
4.5706352935
  0
LINE
  5
214
100
AcDbEntity
  8
0
100
AcDbLine
 62
9
  6
CONTINUOUS
 10
5.3909118569
 20
3.0728773504
 11
5.3909118569
 21
3.1214478238
  0
LINE
  5
215
100
AcDbEntity
  8
0
100
AcDbLine
 62
9
  6
CONTINUOUS
 10
5.4158968482
 20
3.0728787934
 11
5.4158968482
 21
3.1214522416
  0
LINE
  5
216
100
AcDbEntity
  8
0
100
AcDbLine
 62
9
  6
CONTINUOUS
 10
5.4401635149
 20
3.1304538128
 11
5.4401635149
 21
3.0545532001
  0
LINE
  5
217
100
AcDbEntity
  8
0
100
AcDbLine
 62
9
  6
CONTINUOUS
 10
5.439700292
 20
3.0269620775
 11
5.4397204071
 21
3.028286826
  0
LWPOLYLINE
  5
218
100
AcDbEntity
  8
0
100
AcDbPolyline
 62
6
  6
CONTINUOUS
 90
4
 70
0
 10
5.4398871029
 20
3.0315435633
 10
5.4400606557
 20
3.0390379671
 10
5.4401567295
 20
3.0476555539
 10
5.440178516
 20
3.0545531984
  0
LINE
  5
219
100
AcDbEntity
  8
0
100
AcDbLine
 62
6
  6
CONTINUOUS
 10
5.4396983056
 20
3.0269260201
 11
5.4398871029
 21
3.0315435633
  0
LINE
  5
21A
100
AcDbEntity
  8
0
100
AcDbLine
 62
9
  6
CONTINUOUS
 10
5.4396983415
 20
3.0269260234
 11
5.439700292
 21
3.0269620775
  0
LINE
  5
21B
100
AcDbEntity
  8
0
100
AcDbLine
 62
7
  6
CONTINUOUS
 10
6.0798776774
 20
4.1696352935
 11
5.4252427386
 21
4.1696352935
  0
LINE
  5
21C
100
AcDbEntity
  8
0
100
AcDbLine
 62
9
  6
CONTINUOUS
 10
5.102560208
 20
4.3779887343
 11
6.402560208
 21
4.3779887343
  0
LINE
  5
21D
100
AcDbEntity
  8
0
100
AcDbLine
 62
9
  6
CONTINUOUS
 10
6.0654222653
 20
3.0269225676
 11
6.0654201253
 21
3.0269620533
  0
LINE
  5
21E
100
AcDbEntity
  8
0
100
AcDbLine
 62
9
  6
CONTINUOUS
 10
6.402560208
 20
4.5556352935
 11
5.102560208
 21
4.5556352935
  0
LINE
  5
21F
100
AcDbEntity
  8
0
100
AcDbLine
 62
9
  6
CONTINUOUS
 10
6.3875524066
 20
4.5706352935
 11
5.1175680093
 21
4.5706352935
  0
LINE
  5
220
100
AcDbEntity
  8
0
100
AcDbLine
 62
6
  6
CONTINUOUS
 10
6.0652370616
 20
3.031425909
 11
6.065422301
 21
3.0269225674
  0
LINE
  5
221
100
AcDbEntity
  8
0
100
AcDbLine
 62
9
  6
CONTINUOUS
 10
6.0654201253
 20
3.0269620533
 11
6.0654000088
 21
3.028286826
  0
LWPOLYLINE
  5
222
100
AcDbEntity
  8
0
100
AcDbPolyline
 62
6
  6
CONTINUOUS
 90
3
 70
0
 10
6.0649646765
 20
3.0475032677
 10
6.0650619025
 20
3.038908818
 10
6.0652370616
 20
3.031425909
  0
LINE
  5
223
100
AcDbEntity
  8
0
100
AcDbLine
 62
6
  6
CONTINUOUS
 10
6.0649646765
 20
3.0475032677
 11
6.0649569011
 21
3.0545532001
  0
LINE
  5
224
100
AcDbEntity
  8
0
100
AcDbLine
 62
9
  6
CONTINUOUS
 10
6.0649569011
 20
3.0545532001
 11
6.0649569011
 21
3.130453813
  0
LINE
  5
225
100
AcDbEntity
  8
0
100
AcDbLine
 62
9
  6
CONTINUOUS
 10
6.0892235677
 20
3.1214522416
 11
6.0892235677
 21
3.0728787934
  0
LINE
  5
226
100
AcDbEntity
  8
0
100
AcDbLine
 62
9
  6
CONTINUOUS
 10
6.114208559
 20
3.1214479612
 11
6.114208559
 21
3.072877339
  0
LINE
  5
227
100
AcDbEntity
  8
0
100
AcDbLine
 62
6
  6
CONTINUOUS
 10
6.322560208
 20
5.0306352935
 11
6.322560208
 21
4.5706352935
  0
LINE
  5
228
100
AcDbEntity
  8
0
100
AcDbLine
 62
6
  6
CONTINUOUS
 10
6.402560208
 20
4.3779887343
 11
6.402560208
 21
4.5556352935
  0
LINE
  5
229
100
AcDbEntity
  8
0
100
AcDbLine
 62
9
  6
CONTINUOUS
 10
5.3909118569
 20
3.1214523063
 11
5.4100089982
 21
3.1375628304
  0
LINE
  5
22A
100
AcDbEntity
  8
0
100
AcDbLine
 62
9
  6
CONTINUOUS
 10
6.322560208
 20
5.0306352935
 11
5.182560208
 21
5.0306352935
  0
LINE
  5
22B
100
AcDbEntity
  8
0
100
AcDbLine
 62
9
  6
CONTINUOUS
 10
5.4339573661
 20
3.1469341787
 11
5.4339703704
 21
3.1469421134
  0
LINE
  5
22C
100
AcDbEntity
  8
0
100
AcDbLine
 62
6
  6
CONTINUOUS
 10
6.752560208
 20
5.7606352935
 11
6.752560208
 21
5.4356352935
  0
LINE
  5
22D
100
AcDbEntity
  8
0
100
AcDbLine
 62
6
  6
CONTINUOUS
 10
6.727560208
 20
5.4106352935
 11
4.777560208
 21
5.4106352935
  0
LINE
  5
22E
100
AcDbEntity
  8
0
100
AcDbLine
 62
9
  6
CONTINUOUS
 10
6.752560208
 20
5.4356352935
 11
4.752560208
 21
5.4356352935
  0
LINE
  5
22F
100
AcDbEntity
  8
0
100
AcDbLine
 62
6
  6
CONTINUOUS
 10
6.752560208
 20
5.7606352935
 11
4.752560208
 21
5.7606352935
  0
ARC
  5
230
100
AcDbEntity
  8
0
100
AcDbCircle
 62
6
  6
CONTINUOUS
 10
5.4252428269
 20
4.1996352935
 40
0.03
100
AcDbArc
 50
201.8760033675
 51
269.9998313837
  0
ARC
  5
231
100
AcDbEntity
  8
0
100
AcDbCircle
 62
9
  6
CONTINUOUS
 10
5.3908830922
 20
3.1214415953
 40
0.0250136878
100
AcDbArc
 50
0.0245343427
 51
40.1275548356
  0
ARC
  5
232
100
AcDbEntity
  8
0
100
AcDbCircle
 62
9
  6
CONTINUOUS
 10
5.4151501763
 20
3.1304430649
 40
0.0250131271
100
AcDbArc
 50
0.0244521235
 51
41.2459545981
  0
ARC
  5
233
100
AcDbEntity
  8
0
100
AcDbCircle
 62
9
  6
CONTINUOUS
 10
4.4994957313
 20
5.6291200267
 40
2.6698667996
100
AcDbArc
 50
290.074305237
 51
290.6297482794
  0
ARC
  5
234
100
AcDbEntity
  8
0
100
AcDbCircle
 62
9
  6
CONTINUOUS
 10
4.574674625
 20
5.3076426464
 40
2.325301908
100
AcDbArc
 50
291.0533384041
 51
291.6870075956
  0
ARC
  5
235
100
AcDbEntity
  8
0
100
AcDbCircle
 62
6
  6
CONTINUOUS
 10
4.802560208
 20
5.0306352935
 40
0.38
100
AcDbArc
 50
0.0
 51
90.0
  0
ARC
  5
236
100
AcDbEntity
  8
0
100
AcDbCircle
 62
6
  6
CONTINUOUS
 10
5.1325603318
 20
4.3779887304
 40
0.0300000002
100
AcDbArc
 50
179.9999925821
 51
252.7600017254
  0
ARC
  5
237
100
AcDbEntity
  8
0
100
AcDbCircle
 62
6
  6
CONTINUOUS
 10
4.777560208
 20
5.4356352935
 40
0.025
100
AcDbArc
 50
180.0
 51
270.0
  0
ARC
  5
238
100
AcDbEntity
  8
0
100
AcDbCircle
 62
6
  6
CONTINUOUS
 10
5.117560208
 20
4.5556352935
 40
0.015
100
AcDbArc
 50
89.9999974771
 51
180.0
  0
ARC
  5
239
100
AcDbEntity
  8
0
100
AcDbCircle
 62
6
  6
CONTINUOUS
 10
6.0899377024
 20
3.1304552208
 40
0.0249956071
100
AcDbArc
 50
160.8969505043
 51
180.0033874481
  0
ARC
  5
23A
100
AcDbEntity
  8
0
100
AcDbCircle
 62
6
  6
CONTINUOUS
 10
5.752560208
 20
3.5265421821
 40
0.715
100
AcDbArc
 50
115.916634588
 51
239.5661327031
  0
ARC
  5
23B
100
AcDbEntity
  8
0
100
AcDbCircle
 62
6
  6
CONTINUOUS
 10
5.752560208
 20
3.5265421821
 40
0.715
100
AcDbArc
 50
300.4338672969
 51
64.083365412
  0
ARC
  5
23C
100
AcDbEntity
  8
0
100
AcDbCircle
 62
9
  6
CONTINUOUS
 10
5.752560208
 20
3.5265421821
 40
0.6237943722
100
AcDbArc
 50
306.8717075092
 51
233.1282924999
  0
ARC
  5
23D
100
AcDbEntity
  8
0
100
AcDbCircle
 62
9
  6
CONTINUOUS
 10
5.752560208
 20
3.5265421821
 40
0.5801723882
100
AcDbArc
 50
308.5608284016
 51
231.4391709006
  0
ARC
  5
23E
100
AcDbEntity
  8
0
100
AcDbCircle
 62
9
  6
CONTINUOUS
 10
5.752560208
 20
3.4265421821
 40
0.473148351
100
AcDbArc
 50
319.8483109787
 51
220.1517017469
  0
ARC
  5
23F
100
AcDbEntity
  8
0
100
AcDbCircle
 62
9
  6
CONTINUOUS
 10
5.752560208
 20
3.4265421821
 40
0.4481633597
100
AcDbArc
 50
319.8487410679
 51
220.1512589322
  0
ARC
  5
240
100
AcDbEntity
  8
0
100
AcDbCircle
 62
9
  6
CONTINUOUS
 10
5.752560208
 20
3.4265421821
 40
0.4238966931
100
AcDbArc
 50
318.7295607683
 51
221.2704391659
  0
ARC
  5
241
100
AcDbEntity
  8
0
100
AcDbCircle
 62
6
  6
CONTINUOUS
 10
6.0798775891
 20
4.1996352935
 40
0.03
100
AcDbArc
 50
270.0001686399
 51
338.1239966416
  0
ARC
  5
242
100
AcDbEntity
  8
0
100
AcDbCircle
 62
9
  6
CONTINUOUS
 10
6.0901147674
 20
3.1304250922
 40
0.0251578827
100
AcDbArc
 50
166.6114834316
 51
179.9347565441
  0
ARC
  5
243
100
AcDbEntity
  8
0
100
AcDbCircle
 62
9
  6
CONTINUOUS
 10
6.0900465961
 20
3.1303961794
 40
0.0251025549
100
AcDbArc
 50
145.2841544646
 51
152.6407418373
  0
ARC
  5
244
100
AcDbEntity
  8
0
100
AcDbCircle
 62
9
  6
CONTINUOUS
 10
6.1142369624
 20
3.1214419258
 40
0.0250132052
100
AcDbArc
 50
139.8724907324
 51
179.9762224158
  0
ARC
  5
245
100
AcDbEntity
  8
0
100
AcDbCircle
 62
9
  6
CONTINUOUS
 10
6.0899556368
 20
3.1304473082
 40
0.0249982733
100
AcDbArc
 50
152.6490105362
 51
160.8969505043
  0
ARC
  5
246
100
AcDbEntity
  8
0
100
AcDbCircle
 62
6
  6
CONTINUOUS
 10
6.0899377024
 20
3.1304552208
 40
0.0249956071
100
AcDbArc
 50
138.7258095121
 51
152.6490105362
  0
ARC
  5
247
100
AcDbEntity
  8
0
100
AcDbCircle
 62
9
  6
CONTINUOUS
 10
6.0898535291
 20
3.1304806116
 40
0.0248908894
100
AcDbArc
 50
160.8924684708
 51
166.5965673118
  0
ARC
  5
248
100
AcDbEntity
  8
0
100
AcDbCircle
 62
9
  6
CONTINUOUS
 10
6.0898464842
 20
3.1305424896
 40
0.0248547418
100
AcDbArc
 50
138.7382891738
 51
145.298677281
  0
ARC
  5
249
100
AcDbEntity
  8
0
100
AcDbCircle
 62
9
  6
CONTINUOUS
 10
6.9921904715
 20
5.5929036897
 40
2.6312395348
100
AcDbArc
 50
249.3661743579
 51
249.9297715117
  0
ARC
  5
24A
100
AcDbEntity
  8
0
100
AcDbCircle
 62
9
  6
CONTINUOUS
 10
6.9220282666
 20
5.2861308108
 40
2.302202183
100
AcDbArc
 50
248.3098143502
 51
248.9498416909
  0
ARC
  5
24B
100
AcDbEntity
  8
0
100
AcDbCircle
 62
6
  6
CONTINUOUS
 10
6.702560208
 20
5.0306352935
 40
0.38
100
AcDbArc
 50
90.0
 51
180.0
  0
ARC
  5
24C
100
AcDbEntity
  8
0
100
AcDbCircle
 62
6
  6
CONTINUOUS
 10
6.3725600842
 20
4.3779887305
 40
0.0300000002
100
AcDbArc
 50
287.2399982527
 51
0.0000074081
  0
ARC
  5
24D
100
AcDbEntity
  8
0
100
AcDbCircle
 62
6
  6
CONTINUOUS
 10
6.727560208
 20
5.4356352935
 40
0.025
100
AcDbArc
 50
270.0
 51
360.0
  0
ARC
  5
24E
100
AcDbEntity
  8
0
100
AcDbCircle
 62
6
  6
CONTINUOUS
 10
6.387560208
 20
4.5556352935
 40
0.015
100
AcDbArc
 50
0.0
 51
90.0000025229
  0
SPLINE
  5
24F
100
AcDbEntity
  8
0
100
AcDbSpline
 62
6
  6
CONTINUOUS
 70
0
 71
3
 72
49
 73
45
 74
43
 42
0.0000001
 43
0.0000001
 44
0.0000000001
 12
-0.129185966
 22
-0.0758956697
 32
0.0
 13
-0.0079395082
 23
0.1496199542
 33
0.0
 40
0.0
 40
0.0
 40
0.0
 40
0.0
 40
0.0282009259
 40
0.0426998659
 40
0.0575229121
 40
0.0726496812
 40
0.087944957
 40
0.1032706085
 40
0.118508463
 40
0.1335736383
 40
0.1483733867
 40
0.1628021543
 40
0.176767506
 40
0.1901970906
 40
0.2029951388
 40
0.2150444365
 40
0.2262876609
 40
0.2367619345
 40
0.2464943614
 40
0.2554940931
 40
0.2637714477
 40
0.2713956537
 40
0.2784484521
 40
0.2911415163
 40
0.3023803702
 40
0.3125334895
 40
0.3219290605
 40
0.3308304713
 40
0.3393941677
 40
0.3477621496
 40
0.3643390669
 40
0.3811366341
 40
0.3985360877
 40
0.4167699453
 40
0.436000284
 40
0.4778497505
 40
0.5005990301
 40
0.5246222982
 40
0.5765832128
 40
0.633858868
 40
0.6964941215
 40
0.7644783455
 40
0.8377734503
 40
1.0
 40
1.0
 40
1.0
 40
1.0
 10
6.1147388138
 20
2.9100588834
 30
0.0
 10
6.1135244258
 20
2.9093454407
 30
0.0
 10
6.1115946593
 20
2.908409077
 30
0.0
 10
6.1088708572
 20
2.9074876074
 30
0.0
 10
6.1067109697
 20
2.9069617
 30
0.0
 10
6.1044745002
 20
2.9066198808
 30
0.0
 10
6.1021919607
 20
2.9064680606
 30
0.0
 10
6.0998989637
 20
2.9065158308
 30
0.0
 10
6.0976315911
 20
2.9067742431
 30
0.0
 10
6.0954220535
 20
2.907226675
 30
0.0
 10
6.0932978965
 20
2.9078539
 30
0.0
 10
6.0912857823
 20
2.9086391313
 30
0.0
 10
6.0894092227
 20
2.9095618771
 30
0.0
 10
6.0876803857
 20
2.9105856789
 30
0.0
 10
6.0861091092
 20
2.9116773229
 30
0.0
 10
6.0847019565
 20
2.9128059872
 30
0.0
 10
6.0834588842
 20
2.9139474066
 30
0.0
 10
6.0823700286
 20
2.915080768
 30
0.0
 10
6.0814206295
 20
2.9161891158
 30
0.0
 10
6.0805951574
 20
2.9172565782
 30
0.0
 10
6.0798753074
 20
2.9182711397
 30
0.0
 10
6.0792506415
 20
2.9192328031
 30
0.0
 10
6.0785514272
 20
2.9204077751
 30
0.0
 10
6.0778316567
 20
2.9217788186
 30
0.0
 10
6.0771127415
 20
2.9233224551
 30
0.0
 10
6.0765276138
 20
2.9247449476
 30
0.0
 10
6.0760381582
 20
2.9260791423
 30
0.0
 10
6.0756119961
 20
2.9273513417
 30
0.0
 10
6.0752357106
 20
2.9285855965
 30
0.0
 10
6.0747845607
 20
2.930197282
 30
0.0
 10
6.0742785796
 20
2.9322201695
 30
0.0
 10
6.0737384242
 20
2.934698085
 30
0.0
 10
6.0732400708
 20
2.9372689998
 30
0.0
 10
6.0727703866
 20
2.9399686674
 30
0.0
 10
6.0721526747
 20
2.9438815341
 30
0.0
 10
6.0715835451
 20
2.948029833
 30
0.0
 10
6.0710433657
 20
2.9524228573
 30
0.0
 10
6.0704833298
 20
2.9573221065
 30
0.0
 10
6.0698031595
 20
2.9639429388
 30
0.0
 10
6.0690262754
 20
2.9724917376
 30
0.0
 10
6.0682668701
 20
2.9818452199
 30
0.0
 10
6.0675240598
 20
2.992002393
 30
0.0
 10
6.066521588
 20
3.0071274354
 30
0.0
 10
6.0658494583
 20
3.018871277
 30
0.0
 10
6.0654201253
 20
3.0269620533
 30
0.0
 11
6.1147388138
 21
2.9100588834
 31
0.0
 11
6.1109352248
 21
2.9082186774
 31
0.0
 11
6.1088773059
 21
2.9075228202
 31
0.0
 11
6.1067195853
 21
2.9069966707
 31
0.0
 11
6.1044793397
 21
2.9066530163
 31
0.0
 11
6.1021926574
 21
2.9065014745
 31
0.0
 11
6.0998969517
 21
2.9065514392
 31
0.0
 11
6.0976283961
 21
2.9068086883
 31
0.0
 11
6.095416899
 21
2.9072607195
 31
0.0
 11
6.0932903936
 21
2.9078892681
 31
0.0
 11
6.0912767695
 21
2.9086760303
 31
0.0
 11
6.0893983894
 21
2.9095979699
 31
0.0
 11
6.0876667209
 21
2.9106227214
 31
0.0
 11
6.0860919569
 21
2.9117168275
 31
0.0
 11
6.0846840916
 21
2.9128469649
 31
0.0
 11
6.0834433328
 21
2.9139864028
 31
0.0
 11
6.0823558297
 21
2.9151178816
 31
0.0
 11
6.0814066433
 21
2.9162248744
 31
0.0
 11
6.0805808345
 21
2.9172908547
 31
0.0
 11
6.0798637282
 21
2.9183027115
 31
0.0
 11
6.0792416926
 21
2.9192608391
 31
0.0
 11
6.0787013536
 21
2.9201689687
 31
0.0
 11
6.0778122693
 21
2.9218501592
 31
0.0
 11
6.0771021613
 21
2.9233770325
 31
0.0
 11
6.0765227153
 21
2.9247836004
 31
0.0
 11
6.0760361138
 21
2.9261045692
 31
0.0
 11
6.0756125341
 21
2.9273692204
 31
0.0
 11
6.0752376344
 21
2.9285963318
 31
0.0
 11
6.0748988511
 21
2.9298034716
 31
0.0
 11
6.0742934652
 21
2.9322122905
 31
0.0
 11
6.0737541796
 21
2.934670621
 31
0.0
 11
6.0732560222
 21
2.9372295508
 31
0.0
 11
6.0727857748
 21
2.9399207628
 31
0.0
 11
6.072334886
 21
2.9427665551
 31
0.0
 11
6.0714726821
 21
2.9489773182
 31
0.0
 11
6.0710558128
 21
2.9523602652
 31
0.0
 11
6.0706461126
 21
2.9559362896
 31
0.0
 11
6.0698447197
 21
2.9636802613
 31
0.0
 11
6.069063592
 21
2.9722262747
 31
0.0
 11
6.0683004695
 21
2.981579865
 31
0.0
 11
6.0675545217
 21
2.9917386222
 31
0.0
 11
6.0668255719
 21
3.0026962417
 31
0.0
 11
6.0654201253
 21
3.0269620533
 31
0.0
  0
SPLINE
  5
250
100
AcDbEntity
  8
0
100
AcDbSpline
 62
6
  6
CONTINUOUS
 70
0
 71
3
 72
28
 73
24
 74
22
 42
0.0000001
 43
0.0000001
 44
0.0000000001
 12
-0.1212460145
 22
0.3019733694
 32
0.0
 13
-0.3107856323
 23
0.0964406691
 33
0.0
 40
0.0
 40
0.0
 40
0.0
 40
0.0
 40
0.0624882508
 40
0.093763976
 40
0.1250340482
 40
0.1875353928
 40
0.2187982313
 40
0.2500534266
 40
0.2813094608
 40
0.3125631717
 40
0.3438144383
 40
0.3750666796
 40
0.4063173989
 40
0.4375664775
 40
0.500062772
 40
0.5625567485
 40
0.5938048326
 40
0.6250522061
 40
0.6562990921
 40
0.6875461083
 40
0.7500389223
 40
0.8750195398
 40
1.0
 40
1.0
 40
1.0
 40
1.0
 10
5.3974029792
 20
4.1884572884
 30
0.0
 10
5.3948774954
 20
4.1947472176
 30
0.0
 10
5.3900030191
 20
4.2037739329
 30
0.0
 10
5.3820720766
 20
4.2147821519
 30
0.0
 10
5.373335754
 20
4.2251731069
 30
0.0
 10
5.3636442476
 20
4.2347062291
 30
0.0
 10
5.3533234109
 20
4.24350552
 30
0.0
 10
5.3453166645
 20
4.2497834853
 30
0.0
 10
5.3370865144
 20
4.2557619723
 30
0.0
 10
5.3286707684
 20
4.2614749008
 30
0.0
 10
5.3200967161
 20
4.2669460475
 30
0.0
 10
5.3113850157
 20
4.2721941487
 30
0.0
 10
5.302556175
 20
4.2772418452
 30
0.0
 10
5.2906482705
 20
4.2837261729
 30
0.0
 10
5.2755365019
 20
4.291404924
 30
0.0
 10
5.2601923845
 20
4.2986047504
 30
0.0
 10
5.2478036942
 20
4.3041121707
 30
0.0
 10
5.2384614498
 20
4.3081268416
 30
0.0
 10
5.2290732415
 20
4.3120324078
 30
0.0
 10
5.2164995424
 20
4.3171022809
 30
0.0
 10
5.1943622995
 20
4.325637648
 30
0.0
 10
5.1624182723
 20
4.336979211
 30
0.0
 10
5.1366164533
 20
4.345318815
 30
0.0
 10
5.1236690762
 20
4.3493365481
 30
0.0
 11
5.3974029792
 21
4.1884572884
 31
0.0
 11
5.3879038177
 21
4.2064360934
 31
0.0
 11
5.3819710954
 21
4.214705306
 31
0.0
 11
5.3754379669
 21
4.222506451
 31
0.0
 11
5.3610128199
 21
4.2368438123
 31
0.0
 11
5.3532785458
 21
4.2434523475
 31
0.0
 11
5.3452793725
 21
4.2497336183
 31
0.0
 11
5.3370553169
 21
4.2557178974
 31
0.0
 11
5.3286441058
 21
4.261434788
 31
0.0
 11
5.3200738188
 21
4.2669088462
 31
0.0
 11
5.3113653155
 21
4.2721608511
 31
0.0
 11
5.3025389265
 21
4.2772112339
 31
0.0
 11
5.2936099111
 21
4.2820767591
 31
0.0
 11
5.2754897872
 21
4.2913092595
 31
0.0
 11
5.2570858969
 21
4.299960508
 31
0.0
 11
5.2477951735
 21
4.3040928837
 31
0.0
 11
5.2384537227
 21
4.3081086857
 31
0.0
 11
5.2290662229
 21
4.3120152173
 31
0.0
 11
5.2196365018
 21
4.3158188163
 31
0.0
 11
5.2006655257
 21
4.323142337
 31
0.0
 11
5.1623565548
 21
4.3367958234
 31
0.0
 11
5.1236690762
 21
4.3493365481
 31
0.0
  0
SPLINE
  5
251
100
AcDbEntity
  8
0
100
AcDbSpline
 62
6
  6
CONTINUOUS
 70
0
 71
3
 72
28
 73
24
 74
22
 42
0.0000001
 43
0.0000001
 44
0.0000000001
 12
0.1212460145
 22
0.3019733694
 32
0.0
 13
0.3107856323
 23
0.0964406691
 33
0.0
 40
0.0
 40
0.0
 40
0.0
 40
0.0
 40
0.0624882508
 40
0.093763976
 40
0.1250340482
 40
0.1875353928
 40
0.2187982313
 40
0.2500534266
 40
0.2813094608
 40
0.3125631717
 40
0.3438144383
 40
0.3750666796
 40
0.4063173989
 40
0.4375664775
 40
0.500062772
 40
0.5625567485
 40
0.5938048326
 40
0.6250522061
 40
0.6562990921
 40
0.6875461083
 40
0.7500389223
 40
0.8750195398
 40
1.0
 40
1.0
 40
1.0
 40
1.0
 10
6.1077174368
 20
4.1884572884
 30
0.0
 10
6.1102429205
 20
4.1947472176
 30
0.0
 10
6.1151173969
 20
4.2037739329
 30
0.0
 10
6.1230483393
 20
4.2147821519
 30
0.0
 10
6.131784662
 20
4.2251731069
 30
0.0
 10
6.1414761684
 20
4.2347062291
 30
0.0
 10
6.151797005
 20
4.24350552
 30
0.0
 10
6.1598037515
 20
4.2497834853
 30
0.0
 10
6.1680339015
 20
4.2557619723
 30
0.0
 10
6.1764496475
 20
4.2614749008
 30
0.0
 10
6.1850236999
 20
4.2669460474
 30
0.0
 10
6.1937354003
 20
4.2721941487
 30
0.0
 10
6.2025642409
 20
4.2772418452
 30
0.0
 10
6.2144721455
 20
4.2837261729
 30
0.0
 10
6.229583914
 20
4.291404924
 30
0.0
 10
6.2449280314
 20
4.2986047504
 30
0.0
 10
6.2573167218
 20
4.3041121707
 30
0.0
 10
6.2666589662
 20
4.3081268416
 30
0.0
 10
6.2760471744
 20
4.3120324078
 30
0.0
 10
6.2886208735
 20
4.3171022809
 30
0.0
 10
6.3107581165
 20
4.325637648
 30
0.0
 10
6.3427021436
 20
4.336979211
 30
0.0
 10
6.3685039626
 20
4.345318815
 30
0.0
 10
6.3814513398
 20
4.3493365481
 30
0.0
 11
6.1077174368
 21
4.1884572884
 31
0.0
 11
6.1172165982
 21
4.2064360934
 31
0.0
 11
6.1231493205
 21
4.214705306
 31
0.0
 11
6.1296824491
 21
4.222506451
 31
0.0
 11
6.1441075961
 21
4.2368438123
 31
0.0
 11
6.1518418702
 21
4.2434523475
 31
0.0
 11
6.1598410434
 21
4.2497336183
 31
0.0
 11
6.1680650991
 21
4.2557178974
 31
0.0
 11
6.1764763102
 21
4.261434788
 31
0.0
 11
6.1850465972
 21
4.2669088462
 31
0.0
 11
6.1937551004
 21
4.2721608511
 31
0.0
 11
6.2025814895
 21
4.2772112339
 31
0.0
 11
6.2115105049
 21
4.2820767591
 31
0.0
 11
6.2296306288
 21
4.2913092595
 31
0.0
 11
6.2480345191
 21
4.299960508
 31
0.0
 11
6.2573252425
 21
4.3040928837
 31
0.0
 11
6.2666666933
 21
4.3081086857
 31
0.0
 11
6.2760541931
 21
4.3120152173
 31
0.0
 11
6.2854839141
 21
4.3158188163
 31
0.0
 11
6.3044548902
 21
4.323142337
 31
0.0
 11
6.3427638611
 21
4.3367958234
 31
0.0
 11
6.3814513398
 21
4.3493365481
 31
0.0
  0
SPLINE
  5
252
100
AcDbEntity
  8
0
100
AcDbSpline
 62
6
  6
CONTINUOUS
 70
0
 71
3
 72
46
 73
42
 74
40
 42
0.0000001
 43
0.0000001
 44
0.0000000001
 12
-0.0079394024
 22
-0.149617984
 32
0.0
 13
-0.1291842625
 23
0.0758946741
 33
0.0
 40
0.0
 40
0.0
 40
0.0
 40
0.0
 40
0.1622338766
 40
0.2355316715
 40
0.3035188819
 40
0.3661564918
 40
0.4234343294
 40
0.4753968684
 40
0.4994203976
 40
0.5221703776
 40
0.5640205135
 40
0.6014845718
 40
0.6188838377
 40
0.635685935
 40
0.6522555321
 40
0.669197986
 40
0.6780883445
 40
0.6875015321
 40
0.6976540008
 40
0.708876537
 40
0.7150228621
 40
0.7215999526
 40
0.7286666667
 40
0.7362886098
 40
0.7534932009
 40
0.7737187441
 40
0.7849782835
 40
0.7970091003
 40
0.8097927538
 40
0.8232196664
 40
0.8371871958
 40
0.8516150457
 40
0.8664098062
 40
0.8814705537
 40
0.896711247
 40
0.9120427694
 40
0.9273363994
 40
0.9424488501
 40
0.9572505472
 40
0.9717450877
 40
1.0
 40
1.0
 40
1.0
 40
1.0
 10
5.439700292
 20
3.0269620775
 30
0.0
 10
5.4392709453
 20
3.0188710423
 30
0.0
 10
5.4385987971
 20
3.0071268558
 30
0.0
 10
5.4375962831
 20
2.9920013654
 30
0.0
 10
5.4368534466
 20
2.9818439264
 30
0.0
 10
5.4360940131
 20
2.9724901929
 30
0.0
 10
5.4353170873
 20
2.9639412037
 30
0.0
 10
5.4346368735
 20
2.9573202558
 30
0.0
 10
5.4340768273
 20
2.9524209506
 30
0.0
 10
5.4335366481
 20
2.9480278762
 30
0.0
 10
5.4328433422
 20
2.9429775026
 30
0.0
 10
5.4320623715
 20
2.9382099783
 30
0.0
 10
5.4313818221
 20
2.9346958391
 30
0.0
 10
5.4308407466
 20
2.9322182997
 30
0.0
 10
5.4302326227
 20
2.929779702
 30
0.0
 10
5.4296391178
 20
2.9277460621
 30
0.0
 10
5.4290828907
 20
2.9260757236
 30
0.0
 10
5.4285896194
 20
2.9247426145
 30
0.0
 10
5.4280071075
 20
2.9233191854
 30
0.0
 10
5.4274283078
 20
2.9220717549
 30
0.0
 10
5.4268809654
 20
2.9210082806
 30
0.0
 10
5.426404625
 20
2.9201421125
 30
0.0
 10
5.4258642203
 20
2.9192275494
 30
0.0
 10
5.4250008433
 20
2.9178884937
 30
0.0
 10
5.4236533296
 20
2.9160827016
 30
0.0
 10
5.4220158073
 20
2.9142779817
 30
0.0
 10
5.4204165801
 20
2.9128043222
 30
0.0
 10
5.4190117767
 20
2.9116739573
 30
0.0
 10
5.4174416226
 20
2.910583763
 30
0.0
 10
5.4157127144
 20
2.9095615876
 30
0.0
 10
5.4138357776
 20
2.908639912
 30
0.0
 10
5.4118241385
 20
2.9078541583
 30
0.0
 10
5.4097008319
 20
2.9072260022
 30
0.0
 10
5.407491662
 20
2.9067731598
 30
0.0
 10
5.4052237611
 20
2.9065175249
 30
0.0
 10
5.4029305278
 20
2.906470358
 30
0.0
 10
5.4006484454
 20
2.9066203762
 30
0.0
 10
5.3984135162
 20
2.9069599466
 30
0.0
 10
5.3962554992
 20
2.907485044
 30
0.0
 10
5.3935302353
 20
2.9084064743
 30
0.0
 10
5.3915982988
 20
2.9093440843
 30
0.0
 10
5.3903816021
 20
2.9100588835
 30
0.0
 11
5.439700292
 21
3.0269620775
 31
0.0
 11
5.4382947969
 21
3.0026954897
 31
0.0
 11
5.4375658223
 21
2.9917376129
 31
0.0
 11
5.4368198442
 21
2.9815785437
 31
0.0
 11
5.4360566922
 21
2.9722247256
 31
0.0
 11
5.4352755208
 21
2.9636785013
 31
0.0
 11
5.4344740859
 21
2.9559343924
 31
0.0
 11
5.4340643836
 21
2.9523583765
 31
0.0
 11
5.4336474781
 21
2.9489753734
 31
0.0
 11
5.4327852332
 21
2.9427645982
 31
0.0
 11
5.4318639906
 21
2.9372275289
 31
0.0
 11
5.4313658748
 21
2.9346686545
 31
0.0
 11
5.4308261771
 21
2.9322097535
 31
0.0
 11
5.4302214779
 21
2.9298019267
 31
0.0
 11
5.429506586
 21
2.9273662091
 31
0.0
 11
5.4290844344
 21
2.9261028449
 31
0.0
 11
5.4285952543
 21
2.9247800341
 31
0.0
 11
5.4280171738
 21
2.9233730314
 31
0.0
 11
5.4273083062
 21
2.9218483021
 31
0.0
 11
5.4268872124
 21
2.9210293229
 31
0.0
 11
5.426412154
 21
2.9201659559
 31
0.0
 11
5.42587269
 21
2.9192548985
 31
0.0
 11
5.4252536097
 21
2.9182952801
 31
0.0
 11
5.4237142556
 21
2.9162276434
 31
0.0
 11
5.4216737457
 21
2.913987238
 31
0.0
 11
5.4204329939
 21
2.9128442143
 31
0.0
 11
5.4190287469
 21
2.9117140331
 31
0.0
 11
5.4174557383
 21
2.9106212246
 31
0.0
 11
5.4157238178
 21
2.9095977379
 31
0.0
 11
5.4138447736
 21
2.9086764738
 31
0.0
 11
5.4118314558
 21
2.9078893836
 31
0.0
 11
5.4097059626
 21
2.9072601512
 31
0.0
 11
5.4074951563
 21
2.906808201
 31
0.0
 11
5.4052259961
 21
2.9065527827
 31
0.0
 11
5.4029294285
 21
2.9065033866
 31
0.0
 11
5.4006429307
 21
2.9066535196
 31
0.0
 11
5.3984045847
 21
2.9069952084
 31
0.0
 11
5.3962498516
 21
2.9075199838
 31
0.0
 11
5.3941924644
 21
2.9082152659
 31
0.0
 11
5.3903816021
 21
2.9100588835
 31
0.0
  0
SPLINE
  5
253
100
AcDbEntity
  8
0
100
AcDbSpline
 62
9
  6
CONTINUOUS
 70
0
 71
3
 72
15
 73
11
 74
9
 42
0.0000001
 43
0.0000001
 44
0.0000000001
 12
0.011111173
 22
0.0457636073
 32
0.0
 13
0.0136397762
 23
0.0450746317
 33
0.0
 40
0.0
 40
0.0
 40
0.0
 40
0.0
 40
0.0859020366
 40
0.1875796902
 40
0.3026910548
 40
0.4289637091
 40
0.5640685085
 40
0.7057445118
 40
0.8518523147
 40
1.0
 40
1.0
 40
1.0
 40
1.0
 10
5.3782678182
 20
3.0275185095
 30
0.0
 10
5.3785859757
 20
3.0288289052
 30
0.0
 10
5.3793003561
 20
3.0316855785
 30
0.0
 10
5.3804938984
 20
3.0362848349
 30
0.0
 10
5.3818845826
 20
3.0414875046
 30
0.0
 10
5.3834467187
 20
3.047187369
 30
0.0
 10
5.3851569354
 20
3.0532789103
 30
0.0
 10
5.3869900809
 20
3.0596592111
 30
0.0
 10
5.388914357
 20
3.0662262496
 30
0.0
 10
5.3902379336
 20
3.0706517342
 30
0.0
 10
5.3909115007
 20
3.072877635
 30
0.0
 11
5.3782678182
 21
3.0275185095
 31
0.0
 11
5.3792455748
 21
3.0314439701
 31
0.0
 11
5.3804462041
 21
3.0360793255
 31
0.0
 11
5.3818445788
 21
3.0413168187
 31
0.0
 11
5.383415802
 21
3.0470520654
 31
0.0
 11
5.3851350981
 21
3.0531778782
 31
0.0
 11
5.3869764044
 21
3.0595907394
 31
0.0
 11
5.388911438
 21
3.0661937221
 31
0.0
 11
5.3909115007
 21
3.072877635
 31
0.0
  0
SPLINE
  5
254
100
AcDbEntity
  8
0
100
AcDbSpline
 62
9
  6
CONTINUOUS
 70
0
 71
3
 72
15
 73
11
 74
9
 42
0.0000001
 43
0.0000001
 44
0.0000000001
 12
0.0136397808
 22
-0.0450746204
 32
0.0
 13
0.0111113795
 23
-0.0457635474
 33
0.0
 40
0.0
 40
0.0
 40
0.0
 40
0.0
 40
0.1481476875
 40
0.294255494
 40
0.4359315032
 40
0.5710362912
 40
0.6973089281
 40
0.8124203056
 40
0.9140980167
 40
1.0
 40
1.0
 40
1.0
 40
1.0
 10
6.1142089181
 20
3.0728776259
 30
0.0
 10
6.1148824854
 20
3.0706517256
 30
0.0
 10
6.1162060658
 20
3.066226243
 30
0.0
 10
6.1181303409
 20
3.0596592055
 30
0.0
 10
6.1199634741
 20
3.0532789026
 30
0.0
 10
6.1216736964
 20
3.0471873646
 30
0.0
 10
6.1232358439
 20
3.0414875048
 30
0.0
 10
6.1246265192
 20
3.0362848329
 30
0.0
 10
6.125820052
 20
3.0316855748
 30
0.0
 10
6.1265344346
 20
3.0288289026
 30
0.0
 10
6.1268525977
 20
3.0275185095
 30
0.0
 11
6.1142089181
 21
3.0728776259
 31
0.0
 11
6.1162089837
 21
3.0661937152
 31
0.0
 11
6.1181440154
 21
3.0595907332
 31
0.0
 11
6.1199853144
 21
3.0531778711
 31
0.0
 11
6.1217046143
 21
3.0470520613
 31
0.0
 11
6.1232758441
 21
3.0413168185
 31
0.0
 11
6.1246742126
 21
3.0360793241
 31
0.0
 11
6.1258748356
 21
3.0314439653
 31
0.0
 11
6.1268525977
 21
3.0275185095
 31
0.0
  0
SPLINE
  5
255
100
AcDbEntity
  8
0
100
AcDbSpline
 62
9
  6
CONTINUOUS
 70
0
 71
3
 72
13
 73
9
 74
7
 42
0.0000001
 43
0.0000001
 44
0.0000000001
 12
-0.0000000766
 22
-0.0262722605
 32
0.0
 13
-0.0013913406
 23
-0.026235393
 33
0.0
 40
0.0
 40
0.0
 40
0.0
 40
0.0
 40
0.2873814981
 40
0.561792133
 40
0.6891908129
 40
0.8067453661
 40
0.9114844999
 40
1.0
 40
1.0
 40
1.0
 40
1.0
 10
5.4401635149
 20
3.0545532001
 30
0.0
 10
5.4401635076
 20
3.0520364796
 30
0.0
 10
5.440146683
 20
3.0471166156
 30
0.0
 10
5.4400809442
 20
3.0410813567
 30
0.0
 10
5.4399973519
 20
3.036533818
 30
0.0
 10
5.4399225521
 20
3.0334723006
 30
0.0
 10
5.4398345348
 20
3.0307518127
 30
0.0
 10
5.4397614589
 20
3.0290609056
 30
0.0
 10
5.4397204071
 20
3.028286826
 30
0.0
 11
5.4401635149
 21
3.0545532001
 31
0.0
 11
5.4401366747
 21
3.0470030863
 31
0.0
 11
5.440054634
 21
3.0397941654
 31
0.0
 11
5.439992259
 21
3.0364476953
 31
0.0
 11
5.4399155036
 21
3.0333602254
 31
0.0
 11
5.4398245508
 21
3.0306099951
 31
0.0
 11
5.4397204071
 21
3.028286826
 31
0.0
  0
SPLINE
  5
256
100
AcDbEntity
  8
0
100
AcDbSpline
 62
9
  6
CONTINUOUS
 70
0
 71
3
 72
13
 73
9
 74
7
 42
0.0000001
 43
0.0000001
 44
0.0000000001
 12
-0.0013304489
 22
0.0278856141
 32
0.0
 13
-0.0000000673
 23
0.0279173345
 33
0.0
 40
0.0
 40
0.0
 40
0.0
 40
0.0
 40
0.0923818267
 40
0.1994974585
 40
0.3180150759
 40
0.4452026362
 40
0.7168360523
 40
1.0
 40
1.0
 40
1.0
 40
1.0
 10
5.416339956
 20
3.0449668896
 30
0.0
 10
5.4162989862
 20
3.0458255976
 30
0.0
 10
5.4162258687
 20
3.047680696
 30
0.0
 10
5.4161375871
 20
3.0506387793
 30
0.0
 10
5.416062875
 20
3.0539212253
 30
0.0
 10
5.4159797658
 20
3.0587347633
 30
0.0
 10
5.4159139287
 20
3.0650808975
 30
0.0
 10
5.4158968546
 20
3.0702437325
 30
0.0
 10
5.4158968482
 20
3.0728787934
 30
0.0
 11
5.416339956
 21
3.0449668896
 31
0.0
 11
5.4162350722
 21
3.0475438104
 31
0.0
 11
5.4161441006
 21
3.0505328093
 31
0.0
 11
5.4160676327
 21
3.0538406215
 31
0.0
 11
5.416005571
 21
3.0573908168
 31
0.0
 11
5.4159237878
 21
3.0649736567
 31
0.0
 11
5.4158968482
 21
3.0728787934
 31
0.0
  0
SPLINE
  5
257
100
AcDbEntity
  8
0
100
AcDbSpline
 62
9
  6
CONTINUOUS
 70
0
 71
3
 72
13
 73
9
 74
7
 42
0.0000001
 43
0.0000001
 44
0.0000000001
 12
-0.000000067
 22
-0.0279173345
 32
0.0
 13
-0.0013304525
 23
-0.0278856139
 33
0.0
 40
0.0
 40
0.0
 40
0.0
 40
0.0
 40
0.2831639434
 40
0.5547973731
 40
0.681984929
 40
0.8005025
 40
0.9076181659
 40
1.0
 40
1.0
 40
1.0
 40
1.0
 10
6.0892235677
 20
3.0728787934
 30
0.0
 10
6.0892235614
 20
3.0702437326
 30
0.0
 10
6.0892064872
 20
3.0650808975
 30
0.0
 10
6.0891406502
 20
3.0587347632
 30
0.0
 10
6.089057541
 20
3.0539212255
 30
0.0
 10
6.0889828288
 20
3.0506387797
 30
0.0
 10
6.0888945472
 20
3.0476806965
 30
0.0
 10
6.0888214298
 20
3.0458255977
 30
0.0
 10
6.0887804599
 20
3.0449668896
 30
0.0
 11
6.0892235677
 21
3.0728787934
 31
0.0
 11
6.0891966281
 21
3.0649736568
 31
0.0
 11
6.0891148449
 21
3.0573908165
 31
0.0
 11
6.0890527833
 21
3.0538406214
 31
0.0
 11
6.0889763153
 21
3.0505328104
 31
0.0
 11
6.0888853438
 21
3.0475438106
 31
0.0
 11
6.0887804599
 21
3.0449668896
 31
0.0
  0
SPLINE
  5
258
100
AcDbEntity
  8
0
100
AcDbSpline
 62
9
  6
CONTINUOUS
 70
0
 71
3
 72
13
 73
9
 74
7
 42
0.0000001
 43
0.0000001
 44
0.0000000001
 12
-0.0013913374
 22
0.0262353932
 32
0.0
 13
-0.000000077
 23
0.0262722605
 33
0.0
 40
0.0
 40
0.0
 40
0.0
 40
0.0
 40
0.0885154942
 40
0.1932545976
 40
0.310809191
 40
0.4382078764
 40
0.7126184977
 40
1.0
 40
1.0
 40
1.0
 40
1.0
 10
6.0654000088
 20
3.028286826
 30
0.0
 10
6.0653589572
 20
3.0290609056
 30
0.0
 10
6.0652858811
 20
3.0307518123
 30
0.0
 10
6.0651978638
 20
3.0334723003
 30
0.0
 10
6.0651230641
 20
3.0365338178
 30
0.0
 10
6.0650394717
 20
3.0410813568
 30
0.0
 10
6.0649737329
 20
3.0471166156
 30
0.0
 10
6.0649569084
 20
3.0520364796
 30
0.0
 10
6.0649569011
 20
3.0545532001
 30
0.0
 11
6.0654000088
 21
3.028286826
 31
0.0
 11
6.0652958651
 21
3.030609995
 31
0.0
 11
6.0652049123
 21
3.0333602245
 31
0.0
 11
6.065128157
 21
3.0364476954
 31
0.0
 11
6.0650657819
 21
3.0397941656
 31
0.0
 11
6.0649837412
 21
3.0470030862
 31
0.0
 11
6.0649569011
 21
3.0545532001
 31
0.0
  0
SPLINE
  5
259
100
AcDbEntity
  8
0
100
AcDbSpline
 62
9
  6
CONTINUOUS
 70
0
 71
3
 72
56
 73
52
 74
50
 42
0.0000001
 43
0.0000001
 44
0.0000000001
 12
0.0100873452
 22
-0.2113224778
 32
0.0
 13
0.0113240538
 23
0.2112598163
 33
0.0
 40
0.0
 40
0.0
 40
0.0
 40
0.0
 40
0.1176633578
 40
0.1715251311
 40
0.221949512
 40
0.268850319
 40
0.3121684843
 40
0.3518523642
 40
0.3878511016
 40
0.4201174374
 40
0.4486163849
 40
0.4733186721
 40
0.4842385162
 40
0.4942008049
 40
0.5032044677
 40
0.5112515521
 40
0.5183465534
 40
0.5244969241
 40
0.5297151924
 40
0.5340232736
 40
0.5358486032
 40
0.5374646377
 40
0.5388835085
 40
0.5401232849
 40
0.5412111675
 40
0.5421873673
 40
0.5431068706
 40
0.5440347084
 40
0.545034203
 40
0.5461565392
 40
0.5474382038
 40
0.5489037752
 40
0.5505696618
 40
0.5524469829
 40
0.556863384
 40
0.5621939286
 40
0.56845994
 40
0.5756737926
 40
0.5838412551
 40
0.5929645494
 40
0.6030441393
 40
0.6260681738
 40
0.6529006666
 40
0.6835193857
 40
0.7178876526
 40
0.7559630172
 40
0.7977016317
 40
0.8430541162
 40
0.891944769
 40
0.9442885323
 40
1.0
 40
1.0
 40
1.0
 40
1.0
 10
5.416339956
 20
3.0449668896
 30
0.0
 10
5.416735593
 20
3.0366785855
 30
0.0
 10
5.4173546467
 20
3.0245981135
 30
0.0
 10
5.4182676092
 20
3.0089725997
 30
0.0
 10
5.4189459997
 20
2.9983322841
 30
0.0
 10
5.4196374217
 20
2.9884380285
 30
0.0
 10
5.4203406891
 20
2.9793040906
 30
0.0
 10
5.4210546441
 20
2.9709423409
 30
0.0
 10
5.4217781427
 20
2.9633639777
 30
0.0
 10
5.4225100021
 20
2.9565792128
 30
0.0
 10
5.4232488309
 20
2.9505971429
 30
0.0
 10
5.4238922562
 20
2.9461207761
 30
0.0
 10
5.4244173465
 20
2.9429491726
 30
0.0
 10
5.4247959231
 20
2.9408757578
 30
0.0
 10
5.4251754336
 20
2.9390088023
 30
0.0
 10
5.425555635
 20
2.9373487831
 30
0.0
 10
5.4259362345
 20
2.9358959579
 30
0.0
 10
5.4263168459
 20
2.9346502104
 30
0.0
 10
5.4266972259
 20
2.9336115638
 30
0.0
 10
5.4270294832
 20
2.932881611
 30
0.0
 10
5.4273010794
 20
2.9324069187
 30
0.0
 10
5.4274935703
 20
2.9321228292
 30
0.0
 10
5.4276864214
 20
2.9318903465
 30
0.0
 10
5.4278801547
 20
2.9317093513
 30
0.0
 10
5.4280756522
 20
2.9315800535
 30
0.0
 10
5.4282738802
 20
2.9315036549
 30
0.0
 10
5.4284744107
 20
2.9314825067
 30
0.0
 10
5.428674538
 20
2.931517723
 30
0.0
 10
5.428872014
 20
2.9316075111
 30
0.0
 10
5.4290669653
 20
2.9317496569
 30
0.0
 10
5.4292604249
 20
2.9319432819
 30
0.0
 10
5.4294531586
 20
2.9321883347
 30
0.0
 10
5.4296456041
 20
2.9324849792
 30
0.0
 10
5.4299168647
 20
2.9329768212
 30
0.0
 10
5.4302489359
 20
2.9337278067
 30
0.0
 10
5.4306293972
 20
2.9347916138
 30
0.0
 10
5.4310100324
 20
2.9360628735
 30
0.0
 10
5.431390558
 20
2.9375415622
 30
0.0
 10
5.4317706417
 20
2.9392275497
 30
0.0
 10
5.4321500629
 20
2.9411202248
 30
0.0
 10
5.4326784021
 20
2.9440510184
 30
0.0
 10
5.4333249355
 20
2.9482286477
 30
0.0
 10
5.4340662647
 20
2.953855527
 30
0.0
 10
5.4348011611
 20
2.9602891584
 30
0.0
 10
5.4355285084
 20
2.9675209056
 30
0.0
 10
5.4362469074
 20
2.9755411771
 30
0.0
 10
5.4369551374
 20
2.9843396862
 30
0.0
 10
5.4376518666
 20
2.9939039943
 30
0.0
 10
5.4383360853
 20
3.004218848
 30
0.0
 10
5.4390066173
 20
3.0152665527
 30
0.0
 10
5.4394307184
 20
3.0228749404
 30
0.0
 10
5.4396410116
 20
3.0267981386
 30
0.0
 11
5.416339956
 21
3.0449668896
 31
0.0
 11
5.4176256157
 21
3.0201068876
 31
0.0
 11
5.4182921448
 21
3.0087312341
 31
0.0
 11
5.418973019
 21
2.9980850463
 31
0.0
 11
5.4196671682
 21
2.9881868764
 31
0.0
 11
5.4203736075
 21
2.9790496194
 31
0.0
 11
5.4210913741
 21
2.970684713
 31
0.0
 11
5.4218195051
 21
2.9631035951
 31
0.0
 11
5.422557021
 21
2.9563171865
 31
0.0
 11
5.4233028714
 21
2.950334171
 31
0.0
 11
5.4240559866
 21
2.9451626278
 31
0.0
 11
5.4244349342
 21
2.942883683
 31
0.0
 11
5.4248152969
 21
2.940810636
 31
0.0
 11
5.4251969406
 21
2.9389444168
 31
0.0
 11
5.4255797303
 21
2.9372855428
 31
0.0
 11
5.4259635302
 21
2.9358343984
 31
0.0
 11
5.4263482047
 21
2.934591368
 31
0.0
 11
5.4267336183
 21
2.9335568357
 31
0.0
 11
5.4271196353
 21
2.9327311861
 31
0.0
 11
5.4273128276
 21
2.9323968123
 31
0.0
 11
5.42750612
 21
2.9321148033
 31
0.0
 11
5.4276994954
 21
2.9318852071
 31
0.0
 11
5.4278929368
 21
2.9317080717
 31
0.0
 11
5.4280864274
 21
2.93158344
 31
0.0
 11
5.4282799502
 21
2.9315113101
 31
0.0
 11
5.428473488
 21
2.9314916587
 31
0.0
 11
5.4286670239
 21
2.931524462
 31
0.0
 11
5.428860541
 21
2.9316096962
 31
0.0
 11
5.4290540221
 21
2.9317473376
 31
0.0
 11
5.4292474502
 21
2.9319373625
 31
0.0
 11
5.4294408084
 21
2.9321797471
 31
0.0
 11
5.4296340796
 21
2.9324744678
 31
0.0
 11
5.4298272469
 21
2.9328215008
 31
0.0
 11
5.4302132013
 21
2.9336724088
 31
0.0
 11
5.4305985356
 21
2.9347322813
 31
0.0
 11
5.4309831136
 21
2.9360009285
 31
0.0
 11
5.4313667993
 21
2.9374780967
 31
0.0
 11
5.4317494573
 21
2.9391631272
 31
0.0
 11
5.4321309522
 21
2.9410552027
 31
0.0
 11
5.4325111487
 21
2.9431535058
 31
0.0
 11
5.4332671055
 21
2.9479655242
 31
0.0
 11
5.4340162454
 21
2.9535926419
 31
0.0
 11
5.4347574986
 21
2.9600278824
 31
0.0
 11
5.4354898621
 21
2.9672619625
 31
0.0
 11
5.4362123547
 21
2.9752848385
 31
0.0
 11
5.4369239951
 21
2.9840864667
 31
0.0
 11
5.4376237853
 21
2.9936558257
 31
0.0
 11
5.438310634
 21
3.0039764537
 31
0.0
 11
5.4389834174
 21
3.0150300065
 31
0.0
 11
5.4396410116
 21
3.0267981386
 31
0.0
  0
LINE
  5
25A
100
AcDbEntity
  8
0
100
AcDbLine
 62
9
  6
CONTINUOUS
 10
5.4396410116
 20
3.0267981386
 11
5.4397204071
 21
3.028286826
  0
SPLINE
  5
25B
100
AcDbEntity
  8
0
100
AcDbSpline
 62
9
  6
CONTINUOUS
 70
0
 71
3
 72
23
 73
19
 74
17
 42
0.0000001
 43
0.0000001
 44
0.0000000001
 12
0.0440237352
 22
-0.021181191
 32
0.0
 13
0.0012280237
 23
0.0488387558
 33
0.0
 40
0.0
 40
0.0
 40
0.0
 40
0.0
 40
0.0640496561
 40
0.1295667442
 40
0.1960395148
 40
0.2630247303
 40
0.3301683642
 40
0.3971117136
 40
0.4634855983
 40
0.5289134633
 40
0.5930785182
 40
0.6557546731
 40
0.7167743096
 40
0.7761064632
 40
0.8338670559
 40
0.8902748465
 40
0.9455760109
 40
1.0
 40
1.0
 40
1.0
 40
1.0
 10
5.3782678182
 20
3.0275185095
 30
0.0
 10
5.3792077199
 20
3.0270662935
 30
0.0
 10
5.3811664986
 20
3.0262669169
 30
0.0
 10
5.3842448074
 20
3.0253981553
 30
0.0
 10
5.3874472644
 20
3.0248631994
 30
0.0
 10
5.3907148937
 20
3.0246768591
 30
0.0
 10
5.3939915539
 20
3.0248359987
 30
0.0
 10
5.3972229278
 20
3.0253417357
 30
0.0
 10
5.4003546427
 20
3.026183063
 30
0.0
 10
5.4033342684
 20
3.0273444689
 30
0.0
 10
5.4061080355
 20
3.028812211
 30
0.0
 10
5.408630764
 20
3.0305559104
 30
0.0
 10
5.4108589832
 20
3.032547966
 30
0.0
 10
5.4127518857
 20
3.0347574077
 30
0.0
 10
5.4142802752
 20
3.0371453327
 30
0.0
 10
5.4154102933
 20
3.0396750389
 30
0.0
 10
5.4161242765
 20
3.0422953039
 30
0.0
 10
5.416317678
 20
3.0440808897
 30
0.0
 10
5.416339956
 20
3.0449668896
 30
0.0
 11
5.3782678182
 21
3.0275185095
 31
0.0
 11
5.3811628231
 21
3.0263310007
 31
0.0
 11
5.3842425581
 21
3.0254590754
 31
0.0
 11
5.3874454525
 21
3.024922837
 31
0.0
 11
5.3907125404
 21
3.0247345576
 31
0.0
 11
5.393988893
 21
3.0248943708
 31
0.0
 11
5.3972199295
 21
3.0254006644
 31
0.0
 11
5.4003510756
 21
3.026243668
 31
0.0
 11
5.403327761
 21
3.027408348
 31
0.0
 11
5.4060971281
 21
3.028877072
 31
0.0
 11
5.4086131686
 21
3.0306221625
 31
0.0
 11
5.410831678
 21
3.0326133846
 31
0.0
 11
5.4127139176
 21
3.0348177434
 31
0.0
 11
5.4142296221
 21
3.0371979663
 31
0.0
 11
5.415350158
 21
3.0397156231
 31
0.0
 11
5.41605739
 21
3.042323107
 31
0.0
 11
5.416339956
 21
3.0449668896
 31
0.0
  0
LINE
  5
25C
100
AcDbEntity
  8
0
100
AcDbLine
 62
9
  6
CONTINUOUS
 10
6.0654000088
 20
3.028286826
 11
6.0654794059
 21
3.0267981102
  0
SPLINE
  5
25D
100
AcDbEntity
  8
0
100
AcDbSpline
 62
9
  6
CONTINUOUS
 70
0
 71
3
 72
56
 73
52
 74
50
 42
0.0000001
 43
0.0000001
 44
0.0000000001
 12
0.0113240545
 22
-0.2112597877
 32
0.0
 13
0.0100873439
 23
0.2113224494
 33
0.0
 40
0.0
 40
0.0
 40
0.0
 40
0.0
 40
0.0557114636
 40
0.1080552229
 40
0.1569458717
 40
0.2022983523
 40
0.2440369623
 40
0.2821123218
 40
0.3164805834
 40
0.3470992971
 40
0.3739317848
 40
0.3969558141
 40
0.4070354015
 40
0.4161586933
 40
0.4243261534
 40
0.4315400036
 40
0.4378060127
 40
0.4431365549
 40
0.4475529538
 40
0.4494302738
 40
0.4510961594
 40
0.4525617299
 40
0.4538433936
 40
0.4549657291
 40
0.4559652232
 40
0.4568930609
 40
0.4578125643
 40
0.4587887647
 40
0.4598766479
 40
0.4611164252
 40
0.462535297
 40
0.4641513325
 40
0.4659766632
 40
0.4702847466
 40
0.4755030171
 40
0.4816533902
 40
0.4887483938
 40
0.4967954805
 40
0.5057991455
 40
0.5157614365
 40
0.5266812828
 40
0.5513835744
 40
0.5798825263
 40
0.6121488662
 40
0.6481476076
 40
0.6878314914
 40
0.7311496606
 40
0.7780504718
 40
0.8284748569
 40
0.8823366343
 40
1.0
 40
1.0
 40
1.0
 40
1.0
 10
6.0654794059
 20
3.0267981102
 30
0.0
 10
6.0656896991
 20
3.0228749128
 30
0.0
 10
6.0661138002
 20
3.0152665267
 30
0.0
 10
6.0667843321
 20
3.0042188243
 30
0.0
 10
6.0674685508
 20
2.9939039728
 30
0.0
 10
6.0681652801
 20
2.984339667
 30
0.0
 10
6.06887351
 20
2.97554116
 30
0.0
 10
6.0695919089
 20
2.9675208906
 30
0.0
 10
6.0703192562
 20
2.9602891455
 30
0.0
 10
6.0710541526
 20
2.9538555161
 30
0.0
 10
6.0717954818
 20
2.9482286388
 30
0.0
 10
6.0724420151
 20
2.9440510109
 30
0.0
 10
6.0729703543
 20
2.9411202184
 30
0.0
 10
6.0733497755
 20
2.9392275441
 30
0.0
 10
6.0737298591
 20
2.9375415574
 30
0.0
 10
6.0741103847
 20
2.9360628693
 30
0.0
 10
6.0744910198
 20
2.9347916104
 30
0.0
 10
6.0748714811
 20
2.933727804
 30
0.0
 10
6.0752035523
 20
2.932976819
 30
0.0
 10
6.0754748129
 20
2.9324849774
 30
0.0
 10
6.0756672584
 20
2.9321883332
 30
0.0
 10
6.0758599921
 20
2.9319432807
 30
0.0
 10
6.0760534516
 20
2.931749656
 30
0.0
 10
6.0762484029
 20
2.9316075105
 30
0.0
 10
6.0764458789
 20
2.9315177227
 30
0.0
 10
6.0766460062
 20
2.9314825066
 30
0.0
 10
6.0768465367
 20
2.9315036551
 30
0.0
 10
6.0770447647
 20
2.931580054
 30
0.0
 10
6.0772402622
 20
2.9317093521
 30
0.0
 10
6.0774339954
 20
2.9318903475
 30
0.0
 10
6.0776268465
 20
2.9321228303
 30
0.0
 10
6.0778193374
 20
2.9324069201
 30
0.0
 10
6.0780909336
 20
2.9328816127
 30
0.0
 10
6.0784231909
 20
2.9336115658
 30
0.0
 10
6.0788035708
 20
2.9346502128
 30
0.0
 10
6.0791841822
 20
2.9358959606
 30
0.0
 10
6.0795647817
 20
2.9373487861
 30
0.0
 10
6.0799449831
 20
2.9390088055
 30
0.0
 10
6.0803244935
 20
2.9408757613
 30
0.0
 10
6.0807030701
 20
2.9429491763
 30
0.0
 10
6.0812281604
 20
2.94612078
 30
0.0
 10
6.0818715856
 20
2.950597147
 30
0.0
 10
6.0826104143
 20
2.956579217
 30
0.0
 10
6.0833422737
 20
2.9633639819
 30
0.0
 10
6.0840657722
 20
2.9709423449
 30
0.0
 10
6.0847797271
 20
2.9793040943
 30
0.0
 10
6.0854829945
 20
2.9884380319
 30
0.0
 10
6.0861744165
 20
2.998332287
 30
0.0
 10
6.0868528069
 20
3.008972602
 30
0.0
 10
6.0877657694
 20
3.0245981148
 30
0.0
 10
6.088384823
 20
3.0366785861
 30
0.0
 10
6.0887804599
 20
3.0449668896
 30
0.0
 11
6.0654794059
 21
3.0267981102
 31
0.0
 11
6.0661370001
 21
3.0150299806
 31
0.0
 11
6.0668097835
 21
3.00397643
 31
0.0
 11
6.0674966321
 21
2.9936558044
 31
0.0
 11
6.0681964224
 21
2.9840864475
 31
0.0
 11
6.0689080627
 21
2.9752848214
 31
0.0
 11
6.0696305552
 21
2.9672619475
 31
0.0
 11
6.0703629187
 21
2.9600278696
 31
0.0
 11
6.0711041719
 21
2.9535926311
 31
0.0
 11
6.0718533118
 21
2.9479655153
 31
0.0
 11
6.0726092685
 21
2.9431534986
 31
0.0
 11
6.072989465
 21
2.9410551964
 31
0.0
 11
6.0733709599
 21
2.9391631216
 31
0.0
 11
6.0737536178
 21
2.9374780919
 31
0.0
 11
6.0741373035
 21
2.9360009244
 31
0.0
 11
6.0745218815
 21
2.9347322779
 31
0.0
 11
6.0749072158
 21
2.9336724061
 31
0.0
 11
6.0752931702
 21
2.9328214988
 31
0.0
 11
6.0754863374
 21
2.9324744661
 31
0.0
 11
6.0756796086
 21
2.9321797457
 31
0.0
 11
6.0758729668
 21
2.9319373613
 31
0.0
 11
6.0760663949
 21
2.9317473367
 31
0.0
 11
6.076259876
 21
2.9316096956
 31
0.0
 11
6.076453393
 21
2.9315244617
 31
0.0
 11
6.0766469289
 21
2.9314916587
 31
0.0
 11
6.0768404667
 21
2.9315113104
 31
0.0
 11
6.0770339895
 21
2.9315834404
 31
0.0
 11
6.07722748
 21
2.9317080725
 31
0.0
 11
6.0774209215
 21
2.931885208
 31
0.0
 11
6.0776142969
 21
2.9321148045
 31
0.0
 11
6.0778075892
 21
2.9323968137
 31
0.0
 11
6.0780007816
 21
2.9327311877
 31
0.0
 11
6.0783867985
 21
2.9335568377
 31
0.0
 11
6.078772212
 21
2.9345913703
 31
0.0
 11
6.0791568865
 21
2.9358344011
 31
0.0
 11
6.0795406864
 21
2.9372855458
 31
0.0
 11
6.079923476
 21
2.9389444201
 31
0.0
 11
6.0803051198
 21
2.9408106395
 31
0.0
 11
6.0806854824
 21
2.9428836867
 31
0.0
 11
6.08106443
 21
2.9451626317
 31
0.0
 11
6.0818175451
 21
2.9503341751
 31
0.0
 11
6.0825633955
 21
2.9563171907
 31
0.0
 11
6.0833009113
 21
2.9631035994
 31
0.0
 11
6.0840290422
 21
2.9706847171
 31
0.0
 11
6.0847468087
 21
2.9790496231
 31
0.0
 11
6.085453248
 21
2.9881868797
 31
0.0
 11
6.0861473972
 21
2.9980850491
 31
0.0
 11
6.0868282713
 21
3.0087312364
 31
0.0
 11
6.0874948004
 21
3.0201068893
 31
0.0
 11
6.0887804599
 21
3.0449668896
 31
0.0
  0
SPLINE
  5
25E
100
AcDbEntity
  8
0
100
AcDbSpline
 62
9
  6
CONTINUOUS
 70
0
 71
3
 72
23
 73
19
 74
17
 42
0.0000001
 43
0.0000001
 44
0.0000000001
 12
-0.0440238606
 22
-0.0211803014
 32
0.0
 13
-0.0012280994
 23
0.0488384811
 33
0.0
 40
0.0
 40
0.0
 40
0.0
 40
0.0
 40
0.0640495089
 40
0.1295666262
 40
0.1960395729
 40
0.2630250815
 40
0.3301690925
 40
0.3971128659
 40
0.4634871811
 40
0.5289154418
 40
0.5930808155
 40
0.6557571732
 40
0.7167768607
 40
0.7761088843
 40
0.8338691533
 40
0.8902764261
 40
0.9455768865
 40
1.0
 40
1.0
 40
1.0
 40
1.0
 10
6.1268525978
 20
3.0275185095
 30
0.0
 10
6.1259126955
 20
3.0270663135
 30
0.0
 10
6.1239539161
 20
3.0262669754
 30
0.0
 10
6.1208756104
 20
3.025398266
 30
0.0
 10
6.1176731561
 20
3.0248633557
 30
0.0
 10
6.1144055293
 20
3.0246770542
 30
0.0
 10
6.1111288713
 20
3.0248362249
 30
0.0
 10
6.1078974993
 20
3.0253419842
 30
0.0
 10
6.104765786
 20
3.0261833249
 30
0.0
 10
6.1017861614
 20
3.027344735
 30
0.0
 10
6.0990123948
 20
3.0288124719
 30
0.0
 10
6.0964896663
 20
3.0305561572
 30
0.0
 10
6.0942614464
 20
3.0325481895
 30
0.0
 10
6.0923685422
 20
3.0347575997
 30
0.0
 10
6.0908401505
 20
3.0371454856
 30
0.0
 10
6.0897101295
 20
3.039675146
 30
0.0
 10
6.0889961431
 20
3.0422953592
 30
0.0
 10
6.0888027389
 20
3.0440809089
 30
0.0
 10
6.0887804599
 20
3.0449668896
 30
0.0
 11
6.1268525978
 21
3.0275185095
 31
0.0
 11
6.1239575956
 21
3.0263310589
 31
0.0
 11
6.1208778631
 21
3.0254591855
 31
0.0
 11
6.1176749707
 21
3.0249229923
 31
0.0
 11
6.1144078846
 21
3.0247347514
 31
0.0
 11
6.1111315333
 21
3.0248945955
 31
0.0
 11
6.1079004978
 21
3.0254009114
 31
0.0
 11
6.1047693524
 21
3.0262439287
 31
0.0
 11
6.1017926671
 21
3.0274086133
 31
0.0
 11
6.0990232998
 21
3.0288773327
 31
0.0
 11
6.0965072587
 21
3.0306224098
 31
0.0
 11
6.0942887483
 21
3.0326136095
 31
0.0
 11
6.0924065074
 21
3.0348179375
 31
0.0
 11
6.0908908012
 21
3.0371981219
 31
0.0
 11
6.0897702631
 21
3.0397157333
 31
0.0
 11
6.0890630287
 21
3.0423231652
 31
0.0
 11
6.0887804599
 21
3.0449668896
 31
0.0
  0
LINE
  5
25F
100
AcDbEntity
  8
0
100
AcDbLine
 62
9
  6
CONTINUOUS
 10
5.7525607226
 20
4.1884572874
 11
6.1077174369
 21
4.1884572882
  0
LINE
  5
260
100
AcDbEntity
  8
0
100
AcDbLine
 62
9
  6
CONTINUOUS
 10
5.7525604276
 20
4.3493365544
 11
6.3814513399
 21
4.3493365482
  0
LINE
  5
261
100
AcDbEntity
  8
0
100
AcDbLine
 62
9
  6
CONTINUOUS
 10
5.3974029792
 20
4.1884572884
 11
5.7525607226
 21
4.1884572874
  0
LINE
  5
262
100
AcDbEntity
  8
0
100
AcDbLine
 62
9
  6
CONTINUOUS
 10
5.1236690762
 20
4.3493365481
 11
5.7525604276
 21
4.3493365544
  0
SPLINE
  5
263
100
AcDbEntity
  8
0
100
AcDbSpline
 62
9
  6
CONTINUOUS
 70
0
 71
3
 72
30
 73
26
 74
24
 42
0.0000001
 43
0.0000001
 44
0.0000000001
 12
-0.1022437297
 22
0.060067378
 32
0.0
 13
-0.0056540362
 23
0.1184478874
 33
0.0
 40
0.0
 40
0.0
 40
0.0
 40
0.0
 40
0.0021105103
 40
0.0045256109
 40
0.007291133
 40
0.0104375057
 40
0.0139852596
 40
0.0179485924
 40
0.027157901
 40
0.0381200148
 40
0.0508625886
 40
0.0654008909
 40
0.0817435059
 40
0.0998948454
 40
0.1198550989
 40
0.1651896141
 40
0.217713319
 40
0.2773687049
 40
0.3440845992
 40
0.4177730661
 40
0.4983307005
 40
0.5856496305
 40
0.6796155569
 40
0.7801083436
 40
1.0
 40
1.0
 40
1.0
 40
1.0
 10
5.3903816021
 20
2.9100588835
 30
0.0
 10
5.3903096733
 20
2.9101011411
 30
0.0
 10
5.3901651079
 20
2.9102084721
 30
0.0
 10
5.3899626242
 20
2.9104146195
 30
0.0
 10
5.3897607263
 20
2.910675332
 30
0.0
 10
5.3895591802
 20
2.9109907295
 30
0.0
 10
5.3893577237
 20
2.9113610154
 30
0.0
 10
5.3890749006
 20
2.9119586597
 30
0.0
 10
5.3887279032
 20
2.912848432
 30
0.0
 10
5.3883292286
 20
2.9140873378
 30
0.0
 10
5.38793058
 20
2.9155458962
 30
0.0
 10
5.3875321986
 20
2.9172238212
 30
0.0
 10
5.3871344547
 20
2.919120882
 30
0.0
 10
5.3867375814
 20
2.921236554
 30
0.0
 10
5.3861862605
 20
2.924488711
 30
0.0
 10
5.3855111263
 20
2.929097154
 30
0.0
 10
5.3847366492
 20
2.935275222
 30
0.0
 10
5.383969335
 20
2.9423050038
 30
0.0
 10
5.3832105281
 20
2.950176556
 30
0.0
 10
5.382461726
 20
2.9588786201
 30
0.0
 10
5.3817242698
 20
2.9683986789
 30
0.0
 10
5.3809994853
 20
2.978723348
 30
0.0
 10
5.3802883037
 20
2.9898386732
 30
0.0
 10
5.3793307664
 20
3.0061889862
 30
0.0
 10
5.3786822429
 20
3.0188366017
 30
0.0
 10
5.3782678178
 20
3.0275185024
 30
0.0
 11
5.3903816021
 21
2.9100588835
 31
0.0
 11
5.3901789445
 21
2.9102057338
 31
0.0
 11
5.3899763246
 21
2.9104081295
 31
0.0
 11
5.3897737643
 21
2.9106660366
 31
0.0
 11
5.3895712857
 21
2.9109794216
 31
0.0
 11
5.3893689107
 21
2.9113482507
 31
0.0
 11
5.3891666612
 21
2.9117724902
 31
0.0
 11
5.3887626269
 21
2.9127870653
 31
0.0
 11
5.3883593544
 21
2.9140228473
 31
0.0
 11
5.3879569877
 21
2.9154793403
 31
0.0
 11
5.38755566
 21
2.9171559691
 31
0.0
 11
5.3871555045
 21
2.9190521587
 31
0.0
 11
5.3867566548
 21
2.921167318
 31
0.0
 11
5.3863592549
 21
2.9235006605
 31
0.0
 11
5.3855694055
 21
2.9288182117
 31
0.0
 11
5.3847871515
 21
2.9349972987
 31
0.0
 11
5.3840135949
 21
2.9420289772
 31
0.0
 11
5.3832497841
 21
2.9499033741
 31
0.0
 11
5.3824968328
 21
2.958609055
 31
0.0
 11
5.3817559206
 21
2.9681330254
 31
0.0
 11
5.3810281511
 21
2.9784619374
 31
0.0
 11
5.3803144472
 21
2.9895817958
 31
0.0
 11
5.3796157276
 21
3.0014780056
 31
0.0
 11
5.3782678178
 21
3.0275185024
 31
0.0
  0
SPLINE
  5
264
100
AcDbEntity
  8
0
100
AcDbSpline
 62
9
  6
CONTINUOUS
 70
0
 71
3
 72
30
 73
26
 74
24
 42
0.0000001
 43
0.0000001
 44
0.0000000001
 12
-0.0056540362
 22
-0.118447888
 32
0.0
 13
-0.1022437621
 23
-0.060067324
 33
0.0
 40
0.0
 40
0.0
 40
0.0
 40
0.0
 40
0.2198916688
 40
0.3203844732
 40
0.4143504147
 40
0.5016693501
 40
0.5822269786
 40
0.6559154353
 40
0.7226313266
 40
0.7822867159
 40
0.8348104194
 40
0.8801449244
 40
0.9001051724
 40
0.918256508
 40
0.9345991215
 40
0.9491374235
 40
0.9618799973
 40
0.9728421104
 40
0.9820514167
 40
0.9860147479
 40
0.9895625
 40
0.9927088709
 40
0.9954743913
 40
0.9978894905
 40
1.0
 40
1.0
 40
1.0
 40
1.0
 10
6.1268525982
 20
3.0275185026
 30
0.0
 10
6.126438173
 20
3.0188366013
 30
0.0
 10
6.1257896518
 20
3.0061889845
 30
0.0
 10
6.124832114
 20
2.9898386697
 30
0.0
 10
6.1241209293
 20
2.9787233431
 30
0.0
 10
6.1233961418
 20
2.9683986736
 30
0.0
 10
6.1226586861
 20
2.9588786151
 30
0.0
 10
6.1219098861
 20
2.9501765516
 30
0.0
 10
6.1211510797
 20
2.9423049997
 30
0.0
 10
6.1203837641
 20
2.9352752181
 30
0.0
 10
6.1196092865
 20
2.9290971504
 30
0.0
 10
6.1189341536
 20
2.9244887079
 30
0.0
 10
6.1183828338
 20
2.9212365514
 30
0.0
 10
6.117985961
 20
2.9191208798
 30
0.0
 10
6.117588217
 20
2.9172238192
 30
0.0
 10
6.1171898354
 20
2.9155458944
 30
0.0
 10
6.1167911866
 20
2.914087336
 30
0.0
 10
6.1163925117
 20
2.9128484304
 30
0.0
 10
6.1160455144
 20
2.9119586583
 30
0.0
 10
6.1157626914
 20
2.9113610142
 30
0.0
 10
6.1155612349
 20
2.9109907284
 30
0.0
 10
6.1153596889
 20
2.9106753312
 30
0.0
 10
6.1151577911
 20
2.9104146188
 30
0.0
 10
6.1149553075
 20
2.9102084716
 30
0.0
 10
6.1148107421
 20
2.9101011407
 30
0.0
 10
6.1147388133
 20
2.9100588831
 30
0.0
 11
6.1268525982
 21
3.0275185026
 31
0.0
 11
6.1255046902
 21
3.0014780041
 31
0.0
 11
6.12480597
 21
2.9895817922
 31
0.0
 11
6.1240922634
 21
2.9784619321
 31
0.0
 11
6.1233644915
 21
2.9681330196
 31
0.0
 11
6.1226235796
 21
2.9586090498
 31
0.0
 11
6.12187063
 21
2.9499033699
 31
0.0
 11
6.1211068195
 21
2.9420289734
 31
0.0
 11
6.1203332618
 21
2.9349972945
 31
0.0
 11
6.1195510076
 21
2.9288182077
 31
0.0
 11
6.1187611596
 21
2.9235006575
 31
0.0
 11
6.1183637603
 21
2.9211673156
 31
0.0
 11
6.1179649111
 21
2.9190521566
 31
0.0
 11
6.1175647556
 21
2.9171559672
 31
0.0
 11
6.1171634277
 21
2.9154793384
 31
0.0
 11
6.1167610608
 21
2.9140228455
 31
0.0
 11
6.116357788
 21
2.9127870636
 31
0.0
 11
6.1159537538
 21
2.9117724888
 31
0.0
 11
6.1157515044
 21
2.9113482495
 31
0.0
 11
6.1155491294
 21
2.9109794206
 31
0.0
 11
6.1153466509
 21
2.9106660358
 31
0.0
 11
6.1151440907
 21
2.9104081288
 31
0.0
 11
6.1149414709
 21
2.9102057334
 31
0.0
 11
6.1147388133
 21
2.9100588831
 31
0.0
  0
ENDSEC
  0
SECTION
  2
OBJECTS
  0
DICTIONARY
  5
C
100
AcDbDictionary
280
0
281
1
  3
ACAD_GROUP
350
D
  3
ACAD_MLINESTYLE
350
17
  3
ACAD_LAYOUT
350
1A
  3
ACAD_PLOTSETTINGS
350
19
  3
ACAD_PLOTSTYLENAME
350
E
  0
DICTIONARY
  5
D
102
{ACAD_REACTORS
330
C
102
}
100
AcDbDictionary
280
0
281
1
  0
ACDBDICTIONARYWDFLT
  5
E
102
{ACAD_REACTORS
330
C
102
}
100
AcDbDictionary
281
1
  3
Normal
350
F
100
AcDbDictionaryWithDefault
340
F
  0
DICTIONARY
  5
17
102
{ACAD_REACTORS
330
C
102
}
100
AcDbDictionary
280
0
281
1
  3
Standard
350
18
  0
DICTIONARY
  5
19
102
{ACAD_REACTORS
330
C
102
}
100
AcDbDictionary
281
1
  0
DICTIONARY
  5
1A
102
{ACAD_REACTORS
330
C
102
}
100
AcDbDictionary
281
1
  3
Model
350
265
  3
Layout1
350
266
  0
ACDBPLACEHOLDER
  5
F
102
{ACAD_REACTORS
330
E
102
}
  0
MLINESTYLE
  5
18
102
{ACAD_REACTORS
330
17
102
}
100
AcDbMlineStyle
  2
STANDARD
 70
0
  3

 62
256
 51
90.0
 52
90.0
 71
2
 49
0.5
 62
256
  6
BYLAYER
 49
-0.5
 62
256
  6
BYLAYER
  0
LAYOUT
  5
265
102
{ACAD_REACTORS
330
1A
102
}
100
AcDbPlotSettings
  1

  2
none_device
  4
ISO_A4_(297.00_x_210.00_MM)
  6

 40
0.0
 41
0.0
 42
0.0
 43
0.0
 44
297.0
 45
210.0
 46
0.0
 47
0.0
 48
0.0
 49
0.0
140
0.0
141
0.0
142
1.0
143
1.0
 70
1024
 72
0
 73
0
 74
0
  7

 75
0
147
1.0
148
0.0
149
0.0
100
AcDbLayout
  1
Model
 70
0
 71
0
 10
0.0
 20
0.0
 11
11.6929133858
 21
8.2677165354
 12
0.0
 22
0.0
 32
0.0
 14
0.0
 24
0.0
 34
0.0
 15
0.0
 25
0.0
 35
0.0
146
0.0
 13
0.0
 23
0.0
 33
0.0
 16
1.0
 26
0.0
 36
0.0
 17
0.0
 27
1.0
 37
0.0
 76
0
330
204
345
0
346
0
  0
LAYOUT
  5
266
102
{ACAD_REACTORS
330
1A
102
}
100
AcDbPlotSettings
  1

  2
none_device
  4
ISO_A4_(297.00_x_210.00_MM)
  6

 40
0.0
 41
0.0
 42
0.0
 43
0.0
 44
297.0
 45
210.0
 46
0.0
 47
0.0
 48
0.0
 49
0.0
140
0.0
141
0.0
142
1.0
143
1.0
 70
0
 72
0
 73
0
 74
0
  7

 75
0
147
1.0
148
0.0
149
0.0
100
AcDbLayout
  1
Layout1
 70
0
 71
1
 10
0.0
 20
0.0
 11
11.6929133858
 21
8.2677165354
 12
0.0
 22
0.0
 32
0.0
 14
0.0
 24
0.0
 34
0.0
 15
0.0
 25
0.0
 35
0.0
146
0.0
 13
0.0
 23
0.0
 33
0.0
 16
1.0
 26
0.0
 36
0.0
 17
0.0
 27
1.0
 37
0.0
 76
0
330
205
345
0
346
0
  0
ENDSEC
  0
EOF
