  0
SECTION
  2
HEADER
  9
$ACADVER
  1
AC1015
  9
$DWGCODEPAGE
  3
ANSI_1252
  9
$EXTMAX
 10
11.6929133858
 20
8.2677165354
 30
0.0
  9
$EXTMIN
 10
0.0
 20
0.0
 30
0.0
  9
$LIMMIN
 10
0.0
 20
0.0
  9
$LIMMAX
 10
11.6929133858
 20
8.2677165354
  9
$VIEWCTR
 10
5.8464566929
 20
4.1338582677
  9
$VIEWSIZE
 40
8.2677165354
  9
$CLAYER
  8
0
  9
$LTSCALE
 40
0.6431102362
  9
$CELTYPE
  6
BYLAYER
  9
$DIMSCALE
 40
1.0
  9
$DIMASZ
 40
0.1
  9
$DIMEXO
 40
0.0730807087
  9
$DIMDLI
 40
0.4443307087
  9
$DIMEXE
 40
0.2104724409
  9
$DIMCEN
 40
0.1052362205
  9
$DIMLFAC
 40
1.0
  9
$DIMBLK
  1
_FILLED
  9
$DIMTXT
 40
0.08
  9
$DIMTOL
 70
1
  9
$DIMLIM
 70
0
  9
$DIMTFAC
 40
1.0
  9
$DIMTP
 40
0.01
  9
$DIMTM
 40
0.01
  9
$PDMODE
 70
3
  9
$PDSIZE
 40
0.06
  9
$HANDSEED
  5
23C
  9
$TILEMODE
 70
1
  9
$MEASUREMENT
 70
0
  9
$INSUNITS
 70
1
  0
ENDSEC
  0
SECTION
  2
CLASSES
  0
CLASS
  1
ACDBDICTIONARYWDFLT
  2
AcDbDictionaryWithDefault
  3
AutoCAD 2000
 90
0
280
0
281
0
  0
CLASS
  1
ACDBPLACEHOLDER
  2
AcDbPlaceHolder
  3
AutoCAD 2000
 90
0
280
0
281
0
  0
CLASS
  1
LAYOUT
  2
AcDbLayout
  3
AutoCAD 2000
 90
0
280
0
281
0
  0
ENDSEC
  0
SECTION
  2
TABLES
  0
TABLE
  2
VPORT
  5
8
100
AcDbSymbolTable
 70
2
  0
VPORT
  5
1F4
100
AcDbSymbolTableRecord
100
AcDbViewportTableRecord
  2
*ACTIVE
 70
0
 10
0.0
 20
0.0
 11
1.0
 21
1.0
 12
5.8464566929
 22
4.1338582677
 13
0.0
 23
0.0
 14
1.0
 24
1.0
 15
0.0
 25
0.0
 16
0.0
 26
0.0
 36
1.0
 17
0.0
 27
0.0
 37
0.0
 40
8.2677165354
 41
1.4142857143
 42
50.0
 43
0.0
 44
0.0
 50
0.0
 51
0.0
 71
0
 72
100
 73
1
 74
1
 75
0
 76
0
 77
0
 78
0
  0
ENDTAB
  0
TABLE
  2
LTYPE
  5
5
100
AcDbSymbolTable
 70
6
  0
LTYPE
  5
14
100
AcDbSymbolTableRecord
100
AcDbLinetypeTableRecord
  2
BYBLOCK
 70
0
  3

 72
65
 73
0
 40
0.0
  0
LTYPE
  5
15
100
AcDbSymbolTableRecord
100
AcDbLinetypeTableRecord
  2
BYLAYER
 70
0
  3

 72
65
 73
0
 40
0.0
  0
LTYPE
  5
16
100
AcDbSymbolTableRecord
100
AcDbLinetypeTableRecord
  2
CONTINUOUS
 70
64
  3
Solid line
 72
65
 73
0
 40
0.0
  0
LTYPE
  5
1F5
100
AcDbSymbolTableRecord
100
AcDbLinetypeTableRecord
  2
CENTER
 70
64
  3
____ _ ____ _ ____ _ ____ _ ____ _ ____ _ ____
 72
65
 73
4
 40
0.6
 49
0.375
 74
0
 49
-0.075
 74
0
 49
0.075
 74
0
 49
-0.075
 74
0
  0
LTYPE
  5
1F6
100
AcDbSymbolTableRecord
100
AcDbLinetypeTableRecord
  2
HIDDEN
 70
64
  3
- - - - - - - - - - - - - - - - - - - -
 72
65
 73
2
 40
0.2
 49
0.1
 74
0
 49
-0.1
 74
0
  0
LTYPE
  5
1F7
100
AcDbSymbolTableRecord
100
AcDbLinetypeTableRecord
  2
PHANTOM
 70
64
  3
_____ _ _ _____ _ _ _____ _ _ _____
 72
65
 73
6
 40
0.8
 49
0.45
 74
0
 49
-0.05
 74
0
 49
0.1
 74
0
 49
-0.05
 74
0
 49
0.1
 74
0
 49
-0.05
 74
0
  0
LTYPE
  5
1F8
100
AcDbSymbolTableRecord
100
AcDbLinetypeTableRecord
  2
DOT
 70
64
  3
. . . . . . . . . . . . . . . . . . . .
 72
65
 73
2
 40
0.2
 49
0.1
 74
0
 49
-0.1
 74
0
  0
LTYPE
  5
1F9
100
AcDbSymbolTableRecord
100
AcDbLinetypeTableRecord
  2
DASHED
 70
64
  3
- - - - - - - - - - - - - - - - - - - -
 72
65
 73
2
 40
0.2
 49
0.1
 74
0
 49
-0.1
 74
0
  0
ENDTAB
  0
TABLE
  2
LAYER
  5
2
100
AcDbSymbolTable
 70
36
  0
LAYER
  5
10
100
AcDbSymbolTableRecord
100
AcDbLayerTableRecord
  2
0
 70
0
 62
7
  6
CONTINUOUS
370
-3
390
F
  0
LAYER
  5
1FA
100
AcDbSymbolTableRecord
100
AcDbLayerTableRecord
  2
DEFAULT_1
 70
0
 62
7
  6
CENTER
370
-3
390
F
  0
LAYER
  5
1FB
100
AcDbSymbolTableRecord
100
AcDbLayerTableRecord
  2
DEFAULT_2
 70
0
 62
8
  6
HIDDEN
370
-3
390
F
  0
LAYER
  5
1FC
100
AcDbSymbolTableRecord
100
AcDbLayerTableRecord
  2
DEFAULT_3
 70
0
 62
7
  6
PHANTOM
370
-3
390
F
  0
LAYER
  5
1FD
100
AcDbSymbolTableRecord
100
AcDbLayerTableRecord
  2
3_ALL_SYMBOLS
 70
0
 62
7
  6
CONTINUOUS
370
-3
390
F
  0
LAYER
  5
1FE
100
AcDbSymbolTableRecord
100
AcDbLayerTableRecord
  2
DEFAULT_COORDINATE_SYSTEM
 70
0
 62
7
  6
CONTINUOUS
370
-3
390
F
  0
LAYER
  5
1FF
100
AcDbSymbolTableRecord
100
AcDbLayerTableRecord
  2
DEFAULT_DATUM_AXES
 70
0
 62
7
  6
CONTINUOUS
370
-3
390
F
  0
LAYER
  5
200
100
AcDbSymbolTableRecord
100
AcDbLayerTableRecord
  2
DEFAULT_DATUM_CURVES
 70
0
 62
7
  6
CONTINUOUS
370
-3
390
F
  0
LAYER
  5
201
100
AcDbSymbolTableRecord
100
AcDbLayerTableRecord
  2
DEFAULT_DATUM_PLANES
 70
0
 62
7
  6
CONTINUOUS
370
-3
390
F
  0
ENDTAB
  0
TABLE
  2
STYLE
  5
3
100
AcDbSymbolTable
 70
1
  0
STYLE
  5
11
100
AcDbSymbolTableRecord
100
AcDbTextStyleTableRecord
  2
STANDARD
 70
0
 40
0.0
 41
0.8
 50
0.0
 71
0
 42
0.2
  3
txt
  4

  0
STYLE
  5
202
100
AcDbSymbolTableRecord
100
AcDbTextStyleTableRecord
  2
TEXTSTYLE_1
 70
0
 40
0.0
 41
0.8
 50
0.0
 71
0
 42
0.2
  3
gdt
  4

  0
ENDTAB
  0
TABLE
  2
VIEW
  5
6
100
AcDbSymbolTable
 70
0
  0
ENDTAB
  0
TABLE
  2
UCS
  5
7
100
AcDbSymbolTable
 70
0
  0
ENDTAB
  0
TABLE
  2
APPID
  5
9
100
AcDbSymbolTable
 70
1
  0
APPID
  5
203
100
AcDbSymbolTableRecord
100
AcDbRegAppTableRecord
  2
ACAD
 70
0
  0
ENDTAB
  0
TABLE
  2
BLOCK_RECORD
  5
1
100
AcDbSymbolTable
 70
0
  0
BLOCK_RECORD
  5
204
100
AcDbSymbolTableRecord
100
AcDbBlockTableRecord
  2
*Model_Space
  0
BLOCK_RECORD
  5
205
100
AcDbSymbolTableRecord
100
AcDbBlockTableRecord
  2
*Paper_Space
  0
ENDTAB
  0
TABLE
  2
DIMSTYLE
  5
A
100
AcDbSymbolTable
 70
1
100
AcDbDimStyleTable
 71
0
  0
DIMSTYLE
105
206
100
AcDbSymbolTableRecord
100
AcDbDimStyleTableRecord
  2
STANDARD
 70
0
  3

  4

 40
1.0
 41
0.1
 42
0.0625
 43
0.38
 44
0.18
 45
0.0
 46
0.0
 47
0.01
 48
0.01
140
0.08
141
0.09
142
0.0
143
25.4
144
1.0
145
0.0
146
1.0
147
0.09
 71
1.0
 72
0.0
 73
1
 74
1
 75
0
 76
0
 77
0
 78
4
170
0
171
2
172
0
173
0
174
0
175
0
176
0
177
0
178
0
270
2
271
2
272
2
273
2
274
2
275
0
280
0
281
0
282
0
283
1
284
4
285
0
286
0
287
3
288
0
340
11
  0
ENDTAB
  0
ENDSEC
  0
SECTION
  2
BLOCKS
  0
BLOCK
  5
20
100
AcDbEntity
  8
0
100
AcDbBlockBegin
  2
*Model_Space
 70
0
 10
0.0
 20
0.0
 30
0.0
  3
*Model_Space
  1

  0
ENDBLK
  5
21
100
AcDbEntity
  8
0
100
AcDbBlockEnd
  0
BLOCK
  5
1C
100
AcDbEntity
  8
0
100
AcDbBlockBegin
  2
*Paper_Space
 70
0
 10
0.0
 20
0.0
 30
0.0
  3
*Paper_Space
  1

  0
ENDBLK
  5
1D
100
AcDbEntity
  8
0
100
AcDbBlockEnd
  0
ENDSEC
  0
SECTION
  2
ENTITIES
  0
LINE
  5
207
100
AcDbEntity
  8
0
100
AcDbLine
 62
9
  6
CONTINUOUS
 10
5.6190698921
 20
3.9781243382
 11
5.5948423248
 21
4.6769964875
  0
LINE
  5
208
100
AcDbEntity
  8
0
100
AcDbLine
 62
9
  6
CONTINUOUS
 10
5.632914463
 20
4.6656445993
 11
5.6562949141
 21
3.9912085091
  0
LINE
  5
209
100
AcDbEntity
  8
0
100
AcDbLine
 62
6
  6
CONTINUOUS
 10
5.6567380219
 20
3.9784265542
 11
5.6562949141
 21
3.9912085091
  0
LINE
  5
20A
100
AcDbEntity
  8
0
100
AcDbLine
 62
6
  6
CONTINUOUS
 10
5.632914463
 20
4.6656445993
 11
5.6324713552
 21
4.6784265542
  0
LINE
  5
20B
100
AcDbEntity
  8
0
100
AcDbLine
 62
9
  6
CONTINUOUS
 10
5.3889683566
 20
3.9525604078
 11
6.5493109706
 21
3.9525604078
  0
LINE
  5
20C
100
AcDbEntity
  8
0
100
AcDbLine
 62
9
  6
CONTINUOUS
 10
5.3453396644
 20
3.9781255305
 11
5.6190698921
 21
3.9781243382
  0
LINE
  5
20D
100
AcDbEntity
  8
0
100
AcDbLine
 62
9
  6
CONTINUOUS
 10
6.3191995379
 20
3.9781243385
 11
6.5929273023
 21
3.9781211478
  0
LINE
  5
20E
100
AcDbEntity
  8
0
100
AcDbLine
 62
9
  6
CONTINUOUS
 10
5.6567380219
 20
3.9784265542
 11
6.2815314081
 21
3.9784265542
  0
LINE
  5
20F
100
AcDbEntity
  8
0
100
AcDbLine
 62
6
  6
CONTINUOUS
 10
6.3057980747
 20
4.6784265542
 11
6.305354967
 21
4.6656445993
  0
LINE
  5
210
100
AcDbEntity
  8
0
100
AcDbLine
 62
6
  6
CONTINUOUS
 10
6.2819745158
 20
3.9912085091
 11
6.2815314081
 21
3.9784265542
  0
LINE
  5
211
100
AcDbEntity
  8
0
100
AcDbLine
 62
9
  6
CONTINUOUS
 10
6.2819745158
 20
3.9912085091
 11
6.305354967
 21
4.6656445993
  0
LINE
  5
212
100
AcDbEntity
  8
0
100
AcDbLine
 62
9
  6
CONTINUOUS
 10
6.3434271052
 20
4.6769964878
 11
6.3191995379
 21
3.9781243385
  0
LINE
  5
213
100
AcDbEntity
  8
0
100
AcDbLine
 62
9
  6
CONTINUOUS
 10
5.3453389304
 20
4.6769936706
 11
5.3457462428
 21
4.676996498
  0
LINE
  5
214
100
AcDbEntity
  8
0
100
AcDbLine
 62
9
  6
CONTINUOUS
 10
6.5929281523
 20
4.6769979064
 11
6.3434271052
 21
4.6769964878
  0
LINE
  5
215
100
AcDbEntity
  8
0
100
AcDbLine
 62
9
  6
CONTINUOUS
 10
5.5948423248
 20
4.6769964875
 11
5.3453389307
 21
4.6769936707
  0
LINE
  5
216
100
AcDbEntity
  8
0
100
AcDbLine
 62
9
  6
CONTINUOUS
 10
6.3057980747
 20
4.6784265542
 11
5.6324713552
 21
4.6784265542
  0
LINE
  5
217
100
AcDbEntity
  8
0
100
AcDbLine
 62
9
  6
CONTINUOUS
 10
6.5493145659
 20
4.7025604078
 11
5.3889651517
 21
4.7025604078
  0
ARC
  5
218
100
AcDbEntity
  8
0
100
AcDbCircle
 62
9
  6
CONTINUOUS
 10
5.9691343556
 20
4.3275584727
 40
0.6288891987
100
AcDbArc
 50
216.6965794051
 51
270.000012731
  0
ARC
  5
219
100
AcDbEntity
  8
0
100
AcDbCircle
 62
6
  6
CONTINUOUS
 10
5.3889623268
 20
4.0025604078
 40
0.05
100
AcDbArc
 50
209.2566040672
 51
270.0
  0
ARC
  5
21A
100
AcDbEntity
  8
0
100
AcDbCircle
 62
6
  6
CONTINUOUS
 10
5.6317530306
 20
3.9775604078
 40
0.025
100
AcDbArc
 50
270.0000180504
 51
1.9854585845
  0
ARC
  5
21B
100
AcDbEntity
  8
0
100
AcDbCircle
 62
9
  6
CONTINUOUS
 10
5.969134398
 20
4.3275620739
 40
0.6288894678
100
AcDbArc
 50
89.9999511187
 51
143.3092178168
  0
ARC
  5
21C
100
AcDbEntity
  8
0
100
AcDbCircle
 62
6
  6
CONTINUOUS
 10
5.3889623268
 20
4.6525604078
 40
0.05
100
AcDbArc
 50
90.0
 51
150.7433959328
  0
ARC
  5
21D
100
AcDbEntity
  8
0
100
AcDbCircle
 62
6
  6
CONTINUOUS
 10
5.6074863639
 20
4.6775604078
 40
0.025
100
AcDbArc
 50
1.9854585845
 51
90.0
  0
ARC
  5
21E
100
AcDbEntity
  8
0
100
AcDbCircle
 62
9
  6
CONTINUOUS
 10
5.969135032
 20
4.327558742
 40
0.628889468
100
AcDbArc
 50
269.999951108
 51
323.3092436893
  0
ARC
  5
21F
100
AcDbEntity
  8
0
100
AcDbCircle
 62
6
  6
CONTINUOUS
 10
6.5493071032
 20
4.0025604078
 40
0.05
100
AcDbArc
 50
270.0
 51
330.7433959328
  0
ARC
  5
220
100
AcDbEntity
  8
0
100
AcDbCircle
 62
6
  6
CONTINUOUS
 10
6.3065163994
 20
3.9775604078
 40
0.025
100
AcDbArc
 50
178.0145414155
 51
270.0
  0
CIRCLE
  5
221
100
AcDbEntity
  8
0
100
AcDbCircle
 62
6
  6
CONTINUOUS
 10
5.969134715
 20
4.3275604078
 40
1.047200858
  0
CIRCLE
  5
222
100
AcDbEntity
  8
0
100
AcDbCircle
 62
6
  6
CONTINUOUS
 10
5.969134715
 20
4.3275604078
 40
1.0
  0
CIRCLE
  5
223
100
AcDbEntity
  8
0
100
AcDbCircle
 62
9
  6
CONTINUOUS
 10
5.969134715
 20
4.3275604078
 40
0.9749999807
  0
CIRCLE
  5
224
100
AcDbEntity
  8
0
100
AcDbCircle
 62
7
  6
CONTINUOUS
 10
5.969134715
 20
4.3275604078
 40
0.9499999855
  0
ARC
  5
225
100
AcDbEntity
  8
0
100
AcDbCircle
 62
6
  6
CONTINUOUS
 10
5.969134715
 20
4.3275604078
 40
0.715
100
AcDbArc
 50
150.724322434
 51
209.2581677753
  0
ARC
  5
226
100
AcDbEntity
  8
0
100
AcDbCircle
 62
6
  6
CONTINUOUS
 10
5.969134715
 20
4.3275604078
 40
0.715
100
AcDbArc
 50
330.738764846
 51
29.2767025654
  0
ARC
  5
227
100
AcDbEntity
  8
0
100
AcDbCircle
 62
6
  6
CONTINUOUS
 10
5.969134715
 20
4.3275604078
 40
0.6926794919
100
AcDbArc
 50
212.8397107552
 51
327.1602892448
  0
ARC
  5
228
100
AcDbEntity
  8
0
100
AcDbCircle
 62
6
  6
CONTINUOUS
 10
5.969134715
 20
4.3275604078
 40
0.6926794919
100
AcDbArc
 50
32.8397107844
 51
147.1602892156
  0
ARC
  5
229
100
AcDbEntity
  8
0
100
AcDbCircle
 62
6
  6
CONTINUOUS
 10
5.969134715
 20
4.3275604078
 40
0.65
100
AcDbArc
 50
35.3447326691
 51
144.6594292088
  0
ARC
  5
22A
100
AcDbEntity
  8
0
100
AcDbCircle
 62
6
  6
CONTINUOUS
 10
5.969134715
 20
4.3275604078
 40
0.65
100
AcDbArc
 50
215.3447177419
 51
324.659448685
  0
ARC
  5
22B
100
AcDbEntity
  8
0
100
AcDbCircle
 62
9
  6
CONTINUOUS
 10
5.9691350742
 20
4.3275623431
 40
0.6288891986
100
AcDbArc
 50
36.6966018057
 51
90.0000127175
  0
ARC
  5
22C
100
AcDbEntity
  8
0
100
AcDbCircle
 62
6
  6
CONTINUOUS
 10
6.5493071032
 20
4.6525604078
 40
0.05
100
AcDbArc
 50
29.2566040672
 51
90.0
  0
ARC
  5
22D
100
AcDbEntity
  8
0
100
AcDbCircle
 62
6
  6
CONTINUOUS
 10
6.330783066
 20
4.6775604078
 40
0.025
100
AcDbArc
 50
89.9999854933
 51
178.0145414155
  0
SPLINE
  5
22E
100
AcDbEntity
  8
0
100
AcDbSpline
 62
9
  6
CONTINUOUS
 70
0
 71
3
 72
21
 73
17
 74
15
 42
0.0000001
 43
0.0000001
 44
0.0000000001
 12
0.0042986153
 22
0.0298816668
 32
0.0
 13
0.0301892713
 23
-0.0000010941
 33
0.0
 40
0.0
 40
0.0
 40
0.0
 40
0.0
 40
0.1915549805
 40
0.3650751341
 40
0.444374463
 40
0.5185131881
 40
0.5874029183
 40
0.6510308497
 40
0.7094458446
 40
0.7627624318
 40
0.8112139851
 40
0.8551716498
 40
0.8951645563
 40
0.9319376719
 40
0.9664818976
 40
1.0
 40
1.0
 40
1.0
 40
1.0
 10
5.5948423252
 20
4.676996498
 30
0.0
 10
5.5951167989
 20
4.6789044921
 30
0.0
 10
5.5957302401
 20
4.6825287303
 30
0.0
 10
5.5967401588
 20
4.686888815
 30
0.0
 10
5.5976655742
 20
4.6900470482
 30
0.0
 10
5.59838467
 20
4.6921664374
 30
0.0
 10
5.599146854
 20
4.6941023127
 30
0.0
 10
5.599949043
 20
4.6958494603
 30
0.0
 10
5.6007881669
 20
4.6974034894
 30
0.0
 10
5.6016618556
 20
4.698760364
 30
0.0
 10
5.6025673642
 20
4.6999169883
 30
0.0
 10
5.6035019939
 20
4.700871155
 30
0.0
 10
5.6044639646
 20
4.7016201888
 30
0.0
 10
5.6054517751
 20
4.7021604061
 30
0.0
 10
5.6064616862
 20
4.7024874813
 30
0.0
 10
5.607148712
 20
4.70256042
 30
0.0
 10
5.6074860077
 20
4.7025604078
 30
0.0
 11
5.5948423252
 21
4.676996498
 31
0.0
 11
5.5958200818
 21
4.6826961459
 31
0.0
 11
5.5970207111
 21
4.6877951474
 31
0.0
 11
5.5976967386
 21
4.6900917035
 31
0.0
 11
5.5984190858
 21
4.6922101291
 31
0.0
 11
5.5991846413
 21
4.6941438315
 31
0.0
 11
5.599990309
 21
4.6958875869
 31
0.0
 11
5.6008329996
 21
4.6974367243
 31
0.0
 11
5.6017096051
 21
4.6987866647
 31
0.0
 11
5.6026167606
 21
4.6999341011
 31
0.0
 11
5.6035509114
 21
4.7008766633
 31
0.0
 11
5.6045084982
 21
4.7016120121
 31
0.0
 11
5.605485945
 21
4.7021383568
 31
0.0
 11
5.6064796496
 21
4.7024547718
 31
0.0
 11
5.6074860077
 21
4.7025604078
 31
0.0
  0
SPLINE
  5
22F
100
AcDbEntity
  8
0
100
AcDbSpline
 62
9
  6
CONTINUOUS
 70
0
 71
3
 72
21
 73
17
 74
15
 42
0.0000001
 43
0.0000001
 44
0.0000000001
 12
0.0301892689
 22
0.0000011027
 32
0.0
 13
0.0042986779
 23
-0.0298816553
 33
0.0
 40
0.0
 40
0.0
 40
0.0
 40
0.0
 40
0.033518145
 40
0.0680624342
 40
0.1048355774
 40
0.1448284308
 40
0.1887859983
 40
0.2372374822
 40
0.2905540816
 40
0.3489691616
 40
0.4125971836
 40
0.4814869551
 40
0.5556256514
 40
0.634924914
 40
0.8084449446
 40
1.0
 40
1.0
 40
1.0
 40
1.0
 10
6.3307834251
 20
4.7025604078
 30
0.0
 10
6.3311207212
 20
4.7025604201
 30
0.0
 10
6.3318077479
 20
4.7024874811
 30
0.0
 10
6.3328176602
 20
4.7021604053
 30
0.0
 10
6.3338054709
 20
4.7016201877
 30
0.0
 10
6.3347674397
 20
4.7008711535
 30
0.0
 10
6.3357020656
 20
4.6999169863
 30
0.0
 10
6.3366075709
 20
4.6987603617
 30
0.0
 10
6.3374812596
 20
4.697403487
 30
0.0
 10
6.3383203875
 20
4.6958494581
 30
0.0
 10
6.3391225811
 20
4.6941023103
 30
0.0
 10
6.3398847673
 20
4.6921664349
 30
0.0
 10
6.3406038608
 20
4.6900470457
 30
0.0
 10
6.3415292701
 20
4.6868888132
 30
0.0
 10
6.3425391826
 20
4.6825287288
 30
0.0
 10
6.3431526269
 20
4.6789044921
 30
0.0
 10
6.3434271048
 20
4.676996498
 30
0.0
 11
6.3307834251
 21
4.7025604078
 31
0.0
 11
6.3317897843
 21
4.7024547716
 31
0.0
 11
6.3327834907
 21
4.7021383558
 31
0.0
 11
6.3337609379
 21
4.7016120104
 31
0.0
 11
6.3347185224
 21
4.7008766615
 31
0.0
 11
6.3356526691
 21
4.6999340995
 31
0.0
 11
6.3365598214
 21
4.6987866634
 31
0.0
 11
6.337436427
 21
4.6974367227
 31
0.0
 11
6.3382791213
 21
4.6958875847
 31
0.0
 11
6.3390847935
 21
4.6941438285
 31
0.0
 11
6.3398503511
 21
4.6922101258
 31
0.0
 11
6.3405726964
 21
4.6900917006
 31
0.0
 11
6.3412487196
 21
4.6877951455
 31
0.0
 11
6.3424493426
 21
4.6826961468
 31
0.0
 11
6.3434271048
 21
4.676996498
 31
0.0
  0
SPLINE
  5
230
100
AcDbEntity
  8
0
100
AcDbSpline
 62
9
  6
CONTINUOUS
 70
0
 71
3
 72
21
 73
17
 74
15
 42
0.0000001
 43
0.0000001
 44
0.0000000001
 12
-0.0050092467
 22
-0.0296105512
 32
0.0
 13
-0.0300312719
 23
0.0000005641
 33
0.0
 40
0.0
 40
0.0
 40
0.0
 40
0.0
 40
0.1926980001
 40
0.3677406449
 40
0.4478297291
 40
0.5227235336
 40
0.5922909127
 40
0.656476103
 40
0.715282306
 40
0.7687730815
 40
0.8171325388
 40
0.8606830577
 40
0.8999030982
 40
0.9354985324
 40
0.9684510985
 40
1.0
 40
1.0
 40
1.0
 40
1.0
 10
6.3191995358
 20
3.9781243176
 30
0.0
 10
6.3188777786
 20
3.9762223529
 30
0.0
 10
6.3181797958
 20
3.9726061414
 30
0.0
 10
6.3170881654
 20
3.9682548579
 30
0.0
 10
6.3161162826
 20
3.9650966291
 30
0.0
 10
6.3153721423
 20
3.9629748462
 30
0.0
 10
6.3145938531
 20
3.9610357843
 30
0.0
 10
6.3137845883
 20
3.9592852145
 30
0.0
 10
6.3129475699
 20
3.9577279887
 30
0.0
 10
6.3120852647
 20
3.9563684961
 30
0.0
 10
6.3112004929
 20
3.9552099887
 30
0.0
 10
6.3102960146
 20
3.9542545561
 30
0.0
 10
6.3093734606
 20
3.9535045481
 30
0.0
 10
6.3084338378
 20
3.9529632202
 30
0.0
 10
6.3074801828
 20
3.9526346084
 30
0.0
 10
6.3068323799
 20
3.9525604019
 30
0.0
 10
6.306516562
 20
3.9525604078
 30
0.0
 11
6.3191995358
 21
3.9781243176
 31
0.0
 11
6.3180918023
 21
3.9724443614
 31
0.0
 11
6.3167957861
 21
3.9673498745
 31
0.0
 11
6.3160857096
 21
3.9650519041
 31
0.0
 11
6.3153383282
 21
3.9629305543
 31
0.0
 11
6.3145566797
 21
3.9609930897
 31
0.0
 11
6.3137438907
 21
3.9592452702
 31
0.0
 11
6.3129031257
 21
3.957692222
 31
0.0
 11
6.3120375616
 21
3.9563389642
 31
0.0
 11
6.311150556
 21
3.9551890142
 31
0.0
 11
6.3102456017
 21
3.9542447678
 31
0.0
 11
6.309326195
 21
3.9535085821
 31
0.0
 11
6.3083958528
 21
3.9529821095
 31
0.0
 11
6.3074581244
 21
3.9526659001
 31
0.0
 11
6.306516562
 21
3.9525604078
 31
0.0
  0
SPLINE
  5
231
100
AcDbEntity
  8
0
100
AcDbSpline
 62
9
  6
CONTINUOUS
 70
0
 71
3
 72
21
 73
17
 74
15
 42
0.0000001
 43
0.0000001
 44
0.0000000001
 12
-0.0300312691
 22
-0.0000005759
 32
0.0
 13
-0.0050092951
 23
0.0296105401
 33
0.0
 40
0.0
 40
0.0
 40
0.0
 40
0.0
 40
0.0315489335
 40
0.0645015654
 40
0.1000970389
 40
0.1393170426
 40
0.1828674785
 40
0.2312268712
 40
0.2847176488
 40
0.3435239161
 40
0.4077091789
 40
0.477276594
 40
0.5521703807
 40
0.6322594162
 40
0.8073019588
 40
1.0
 40
1.0
 40
1.0
 40
1.0
 10
5.6317528646
 20
3.9525604078
 30
0.0
 10
5.6314370464
 20
3.9525604018
 30
0.0
 10
5.6307892425
 20
3.9526346086
 30
0.0
 10
5.6298355864
 20
3.9529632211
 30
0.0
 10
5.6288959632
 20
3.9535045496
 30
0.0
 10
5.6279734108
 20
3.9542545582
 30
0.0
 10
5.627068936
 20
3.9552099914
 30
0.0
 10
5.6261841674
 20
3.9563684992
 30
0.0
 10
5.6253218626
 20
3.9577279917
 30
0.0
 10
5.6244848412
 20
3.9592852173
 30
0.0
 10
5.6236755727
 20
3.9610357871
 30
0.0
 10
5.6228972815
 20
3.962974849
 30
0.0
 10
5.6221531428
 20
3.965096632
 30
0.0
 10
5.6211812646
 20
3.9682548601
 30
0.0
 10
5.6200896393
 20
3.9726061433
 30
0.0
 10
5.6193916546
 20
3.9762223532
 30
0.0
 10
5.6190698941
 20
3.9781243176
 30
0.0
 11
5.6317528646
 21
3.9525604078
 31
0.0
 11
5.6308113013
 21
3.9526659003
 31
0.0
 11
5.6298735712
 21
3.9529821106
 31
0.0
 11
5.6289432283
 21
3.9535085842
 31
0.0
 11
5.6280238235
 21
3.9542447703
 31
0.0
 11
5.6271188729
 21
3.9551890166
 31
0.0
 11
5.6262318705
 21
3.9563389664
 31
0.0
 11
5.6253663067
 21
3.9576922244
 31
0.0
 11
5.6245255388
 21
3.959245273
 31
0.0
 11
5.6237127463
 21
3.960993093
 31
0.0
 11
5.6229310959
 21
3.9629305578
 31
0.0
 11
5.6221837158
 21
3.9650519073
 31
0.0
 11
5.6214736425
 21
3.9673498769
 31
0.0
 11
5.6201776315
 21
3.9724443615
 31
0.0
 11
5.6190698941
 21
3.9781243176
 31
0.0
  0
SPLINE
  5
232
100
AcDbEntity
  8
0
100
AcDbSpline
 62
9
  6
CONTINUOUS
 70
0
 71
3
 72
17
 73
13
 74
11
 42
0.0000001
 43
0.0000001
 44
0.0000000001
 12
0.033180689
 22
-0.0093935494
 32
0.0
 13
0.0264212937
 23
0.0221610499
 33
0.0
 40
0.0
 40
0.0
 40
0.0
 40
0.0
 40
0.125973821
 40
0.2581220799
 40
0.3928711752
 40
0.5270453131
 40
0.5929712649
 40
0.6575972218
 40
0.7814266521
 40
0.8400623335
 40
0.89617024
 40
1.0
 40
1.0
 40
1.0
 40
1.0
 10
5.6190698941
 20
3.9781243176
 30
0.0
 10
5.6204631935
 20
3.9777298705
 30
0.0
 10
5.6233717698
 20
3.9771046275
 30
0.0
 10
5.627871212
 20
3.9766359322
 30
0.0
 10
5.6324894234
 20
3.9766353453
 30
0.0
 10
5.6363263662
 20
3.9770217026
 30
0.0
 10
5.6393217564
 20
3.9775657012
 30
0.0
 10
5.6421673518
 20
3.9782427426
 30
0.0
 10
5.6448739698
 20
3.9791306448
 30
0.0
 10
5.6473845768
 20
3.9802394041
 30
0.0
 10
5.6496073117
 20
3.9814125531
 30
0.0
 10
5.6511372134
 20
3.9824533734
 30
0.0
 10
5.6520516523
 20
3.9832203655
 30
0.0
 11
5.6190698941
 21
3.9781243176
 31
0.0
 11
5.6233135378
 21
3.9771951599
 31
0.0
 11
5.6278454799
 21
3.9767169976
 31
0.0
 11
5.6324922652
 21
3.9767133479
 31
0.0
 11
5.6370954779
 21
3.9771815218
 31
0.0
 11
5.6393321807
 21
3.9775885662
 31
0.0
 11
5.6414999312
 21
3.9781058239
 31
0.0
 11
5.6455519201
 21
3.9794534914
 31
0.0
 11
5.6474005661
 21
3.9802727208
 31
0.0
 11
5.6491101322
 21
3.9811788616
 31
0.0
 11
5.6520516523
 21
3.9832203655
 31
0.0
  0
SPLINE
  5
233
100
AcDbEntity
  8
0
100
AcDbSpline
 62
9
  6
CONTINUOUS
 70
0
 71
3
 72
12
 73
8
 74
6
 42
0.0000001
 43
0.0000001
 44
0.0000000001
 12
0.0071654985
 22
0.0060101133
 32
0.0
 13
-0.000324019
 23
0.0093467022
 33
0.0
 40
0.0
 40
0.0
 40
0.0
 40
0.0
 40
0.282576913
 40
0.5393130744
 40
0.7755262484
 40
0.8886747234
 40
1.0
 40
1.0
 40
1.0
 40
1.0
 10
5.6520516523
 20
3.9832203655
 30
0.0
 10
5.6527265871
 20
3.983786472
 30
0.0
 10
5.6539383621
 20
3.9849658385
 30
0.0
 10
5.655330339
 20
3.9869631324
 30
0.0
 10
5.6560309288
 20
3.9887416183
 30
0.0
 10
5.6562811403
 20
3.9901595708
 30
0.0
 10
5.656306938
 20
3.9908616677
 30
0.0
 10
5.6562949141
 20
3.9912085091
 30
0.0
 11
5.6520516523
 21
3.9832203655
 31
0.0
 11
5.6539295002
 21
3.9850798839
 31
0.0
 11
5.655281736
 21
3.9870639791
 31
0.0
 11
5.656075313
 21
3.9891256621
 31
0.0
 11
5.6562577085
 21
3.9901680248
 31
0.0
 11
5.6562949141
 21
3.9912085091
 31
0.0
  0
SPLINE
  5
234
100
AcDbEntity
  8
0
100
AcDbSpline
 62
9
  6
CONTINUOUS
 70
0
 71
3
 72
17
 73
13
 74
11
 42
0.0000001
 43
0.0000001
 44
0.0000000001
 12
0.0325340594
 22
0.0124942976
 32
0.0
 13
0.0272444822
 23
-0.0217327099
 33
0.0
 40
0.0
 40
0.0
 40
0.0
 40
0.0
 40
0.1260255881
 40
0.2578171902
 40
0.3919915899
 40
0.5255699697
 40
0.5912549476
 40
0.6557076166
 40
0.7794898549
 40
0.8383183777
 40
0.8947957743
 40
1.0
 40
1.0
 40
1.0
 40
1.0
 10
5.5948423252
 20
4.676996498
 30
0.0
 10
5.5962090332
 20
4.6775213651
 30
0.0
 10
5.5990804681
 20
4.678404601
 30
0.0
 10
5.6035677212
 20
4.6792317928
 30
0.0
 10
5.6082070027
 20
4.6795588257
 30
0.0
 10
5.6120862375
 20
4.6794100029
 30
0.0
 10
5.6151278886
 20
4.6790309444
 30
0.0
 10
5.6180299776
 20
4.6784965412
 30
0.0
 10
5.6208037466
 20
4.677722655
 30
0.0
 10
5.6233878572
 20
4.6766978626
 30
0.0
 10
5.6256937558
 20
4.6755796577
 30
0.0
 10
5.6272862412
 20
4.6745590308
 30
0.0
 10
5.6282416527
 20
4.6737969065
 30
0.0
 11
5.5948423252
 21
4.676996498
 31
0.0
 11
5.5990353361
 21
4.6783038024
 31
0.0
 11
5.6035511618
 21
4.6791424086
 31
0.0
 11
5.6082154449
 21
4.6794742699
 31
0.0
 11
5.6128671366
 21
4.6792909563
 31
0.0
 11
5.615138632
 21
4.6790070518
 31
0.0
 11
5.6173474286
 21
4.6785987262
 31
0.0
 11
5.6214978426
 21
4.6774223782
 31
0.0
 11
5.6234027312
 21
4.676664232
 31
0.0
 11
5.6251722273
 21
4.6758022568
 31
0.0
 11
5.6282416527
 21
4.6737969065
 31
0.0
  0
SPLINE
  5
235
100
AcDbEntity
  8
0
100
AcDbSpline
 62
9
  6
CONTINUOUS
 70
0
 71
3
 72
12
 73
8
 74
6
 42
0.0000001
 43
0.0000001
 44
0.0000000001
 12
0.0075712474
 22
-0.0060395247
 32
0.0
 13
0.0003355459
 23
-0.0096792074
 33
0.0
 40
0.0
 40
0.0
 40
0.0
 40
0.0
 40
0.2769627389
 40
0.5323951826
 40
0.771011362
 40
0.8862717035
 40
1.0
 40
1.0
 40
1.0
 40
1.0
 10
5.6282416527
 20
4.6737969065
 30
0.0
 10
5.6289406372
 20
4.6732393321
 30
0.0
 10
5.6302070798
 20
4.6720627068
 30
0.0
 10
5.6316917711
 20
4.6700445372
 30
0.0
 10
5.6324875682
 20
4.6682236643
 30
0.0
 10
5.63282768
 20
4.6667495682
 30
0.0
 10
5.6329017427
 20
4.6660115326
 30
0.0
 10
5.632914463
 20
4.6656445993
 30
0.0
 11
5.6282416527
 21
4.6737969065
 31
0.0
 11
5.6301930086
 21
4.6719564101
 31
0.0
 11
5.6316423299
 21
4.6699515424
 31
0.0
 11
5.6325555652
 21
4.667828635
 31
0.0
 11
5.6328053609
 21
4.6667406436
 31
0.0
 11
5.632914463
 21
4.6656445993
 31
0.0
  0
SPLINE
  5
236
100
AcDbEntity
  8
0
100
AcDbSpline
 62
9
  6
CONTINUOUS
 70
0
 71
3
 72
17
 73
13
 74
11
 42
0.0000001
 43
0.0000001
 44
0.0000000001
 12
-0.0331807179
 22
-0.0093926574
 32
0.0
 13
-0.0264215961
 23
0.0221603545
 33
0.0
 40
0.0
 40
0.0
 40
0.0
 40
0.0
 40
0.1259731367
 40
0.2581210974
 40
0.3928701975
 40
0.5270445563
 40
0.5929706675
 40
0.6575968017
 40
0.7814265845
 40
0.8400623922
 40
0.8961703672
 40
1.0
 40
1.0
 40
1.0
 40
1.0
 10
6.3191995358
 20
3.9781243176
 30
0.0
 10
6.3178062428
 20
3.9777299101
 30
0.0
 10
6.3148976824
 20
3.9771047389
 30
0.0
 10
6.3103982718
 20
3.9766361275
 30
0.0
 10
6.3057800908
 20
3.9766356027
 30
0.0
 10
6.3019431715
 20
3.9770219906
 30
0.0
 10
6.2989477962
 20
3.9775660002
 30
0.0
 10
6.2961022121
 20
3.9782430438
 30
0.0
 10
6.2933956019
 20
3.9791309346
 30
0.0
 10
6.2908849963
 20
3.9802396695
 30
0.0
 10
6.2886622613
 20
3.9814127862
 30
0.0
 10
6.2871323525
 20
3.9824535725
 30
0.0
 10
6.2862179043
 20
3.9832205396
 30
0.0
 11
6.3191995358
 21
3.9781243176
 31
0.0
 11
6.3149559208
 21
3.9771952664
 31
0.0
 11
6.3104240087
 21
3.9767171888
 31
0.0
 11
6.3057772521
 21
3.9767136009
 31
0.0
 11
6.3011740645
 21
3.9771818114
 31
0.0
 11
6.298937372
 21
3.9775888641
 31
0.0
 11
6.2967696299
 21
3.9781061233
 31
0.0
 11
6.2927176507
 21
3.9794537738
 31
0.0
 11
6.2908690056
 21
3.9802729852
 31
0.0
 11
6.2891594377
 21
3.9811791017
 31
0.0
 11
6.2862179043
 21
3.9832205396
 31
0.0
  0
SPLINE
  5
237
100
AcDbEntity
  8
0
100
AcDbSpline
 62
9
  6
CONTINUOUS
 70
0
 71
3
 72
12
 73
8
 74
6
 42
0.0000001
 43
0.0000001
 44
0.0000000001
 12
-0.0071655603
 22
0.0060099078
 32
0.0
 13
0.0003240161
 23
0.0093466175
 33
0.0
 40
0.0
 40
0.0
 40
0.0
 40
0.0
 40
0.2825810284
 40
0.5393184408
 40
0.7755300447
 40
0.8886768468
 40
1.0
 40
1.0
 40
1.0
 40
1.0
 10
6.2862179043
 20
3.9832205396
 30
0.0
 10
6.2855429538
 20
3.9837866349
 30
0.0
 10
6.284331151
 20
3.9849659746
 30
0.0
 10
6.2829391315
 20
3.9869632266
 30
0.0
 10
6.2822385145
 20
3.9887416779
 30
0.0
 10
6.2819882923
 20
3.9901595986
 30
0.0
 10
6.2819624923
 20
3.9908616774
 30
0.0
 10
6.2819745158
 20
3.9912085091
 30
0.0
 11
6.2862179043
 21
3.9832205396
 31
0.0
 11
6.2843400045
 21
3.9850800262
 31
0.0
 11
6.282987729
 21
3.9870640822
 31
0.0
 11
6.2821941268
 21
3.9891257184
 31
0.0
 11
6.2820117244
 21
3.9901680542
 31
0.0
 11
6.2819745158
 21
3.9912085091
 31
0.0
  0
SPLINE
  5
238
100
AcDbEntity
  8
0
100
AcDbSpline
 62
9
  6
CONTINUOUS
 70
0
 71
3
 72
17
 73
13
 74
11
 42
0.0000001
 43
0.0000001
 44
0.0000000001
 12
-0.0325338857
 22
0.0124952334
 32
0.0
 13
-0.0272442135
 23
-0.0217333248
 33
0.0
 40
0.0
 40
0.0
 40
0.0
 40
0.0
 40
0.1260262712
 40
0.2578181087
 40
0.3919924065
 40
0.5255704614
 40
0.5912552374
 40
0.655707701
 40
0.7794895924
 40
0.8383180257
 40
0.8947954192
 40
1.0
 40
1.0
 40
1.0
 40
1.0
 10
6.3434271048
 20
4.676996498
 30
0.0
 10
6.3420603967
 20
4.6775214073
 30
0.0
 10
6.339188958
 20
4.6784047206
 30
0.0
 10
6.3347016887
 20
4.6792320062
 30
0.0
 10
6.3300623905
 20
4.6795591107
 30
0.0
 10
6.3261831414
 20
4.679410326
 30
0.0
 10
6.3231414813
 20
4.6790312838
 30
0.0
 10
6.3202393849
 20
4.6784968874
 30
0.0
 10
6.3174656098
 20
4.677722994
 30
0.0
 10
6.3148814979
 20
4.6766981805
 30
0.0
 10
6.3125755964
 20
4.6755799451
 30
0.0
 10
6.3109831148
 20
4.6745592855
 30
0.0
 10
6.3100277094
 20
4.6737971371
 30
0.0
 11
6.3434271048
 21
4.676996498
 31
0.0
 11
6.3392340821
 21
4.678303918
 31
0.0
 11
6.3347182423
 21
4.6791426183
 31
0.0
 11
6.3300539445
 21
4.6794745507
 31
0.0
 11
6.3254022391
 21
4.6792912824
 31
0.0
 11
6.3231307379
 21
4.6790073901
 31
0.0
 11
6.3209219362
 21
4.6785990697
 31
0.0
 11
6.3167715155
 21
4.6774227109
 31
0.0
 11
6.3148666255
 21
4.6766645489
 31
0.0
 11
6.3130971296
 21
4.6758025514
 31
0.0
 11
6.3100277094
 21
4.6737971371
 31
0.0
  0
SPLINE
  5
239
100
AcDbEntity
  8
0
100
AcDbSpline
 62
9
  6
CONTINUOUS
 70
0
 71
3
 72
12
 73
8
 74
6
 42
0.0000001
 43
0.0000001
 44
0.0000000001
 12
-0.0075712601
 22
-0.0060397653
 32
0.0
 13
-0.0003355514
 23
-0.0096793672
 33
0.0
 40
0.0
 40
0.0
 40
0.0
 40
0.0
 40
0.2769590019
 40
0.5323903193
 40
0.7710079002
 40
0.8862697564
 40
1.0
 40
1.0
 40
1.0
 40
1.0
 10
6.3100277094
 20
4.6737971371
 30
0.0
 10
6.3093287332
 20
4.673239548
 30
0.0
 10
6.308062305
 20
4.6720628881
 30
0.0
 10
6.3065776382
 20
4.6700446633
 30
0.0
 10
6.305781857
 20
4.6682237426
 30
0.0
 10
6.30544175
 20
4.6667496039
 30
0.0
 10
6.3053676877
 20
4.6660115449
 30
0.0
 10
6.305354967
 20
4.6656445993
 30
0.0
 11
6.3100277094
 21
4.6737971371
 31
0.0
 11
6.3080763839
 21
4.6719565966
 31
0.0
 11
6.3066270849
 21
4.6699516759
 31
0.0
 11
6.3057138622
 21
4.6678287068
 31
0.0
 11
6.3054640691
 21
4.6667406808
 31
0.0
 11
6.305354967
 21
4.6656445993
 31
0.0
  0
ENDSEC
  0
SECTION
  2
OBJECTS
  0
DICTIONARY
  5
C
100
AcDbDictionary
280
0
281
1
  3
ACAD_GROUP
350
D
  3
ACAD_MLINESTYLE
350
17
  3
ACAD_LAYOUT
350
1A
  3
ACAD_PLOTSETTINGS
350
19
  3
ACAD_PLOTSTYLENAME
350
E
  0
DICTIONARY
  5
D
102
{ACAD_REACTORS
330
C
102
}
100
AcDbDictionary
280
0
281
1
  0
ACDBDICTIONARYWDFLT
  5
E
102
{ACAD_REACTORS
330
C
102
}
100
AcDbDictionary
281
1
  3
Normal
350
F
100
AcDbDictionaryWithDefault
340
F
  0
DICTIONARY
  5
17
102
{ACAD_REACTORS
330
C
102
}
100
AcDbDictionary
280
0
281
1
  3
Standard
350
18
  0
DICTIONARY
  5
19
102
{ACAD_REACTORS
330
C
102
}
100
AcDbDictionary
281
1
  0
DICTIONARY
  5
1A
102
{ACAD_REACTORS
330
C
102
}
100
AcDbDictionary
281
1
  3
Model
350
23A
  3
Layout1
350
23B
  0
ACDBPLACEHOLDER
  5
F
102
{ACAD_REACTORS
330
E
102
}
  0
MLINESTYLE
  5
18
102
{ACAD_REACTORS
330
17
102
}
100
AcDbMlineStyle
  2
STANDARD
 70
0
  3

 62
256
 51
90.0
 52
90.0
 71
2
 49
0.5
 62
256
  6
BYLAYER
 49
-0.5
 62
256
  6
BYLAYER
  0
LAYOUT
  5
23A
102
{ACAD_REACTORS
330
1A
102
}
100
AcDbPlotSettings
  1

  2
none_device
  4
ISO_A4_(297.00_x_210.00_MM)
  6

 40
0.0
 41
0.0
 42
0.0
 43
0.0
 44
297.0
 45
210.0
 46
0.0
 47
0.0
 48
0.0
 49
0.0
140
0.0
141
0.0
142
1.0
143
1.0
 70
1024
 72
0
 73
0
 74
0
  7

 75
0
147
1.0
148
0.0
149
0.0
100
AcDbLayout
  1
Model
 70
0
 71
0
 10
0.0
 20
0.0
 11
11.6929133858
 21
8.2677165354
 12
0.0
 22
0.0
 32
0.0
 14
0.0
 24
0.0
 34
0.0
 15
0.0
 25
0.0
 35
0.0
146
0.0
 13
0.0
 23
0.0
 33
0.0
 16
1.0
 26
0.0
 36
0.0
 17
0.0
 27
1.0
 37
0.0
 76
0
330
204
345
0
346
0
  0
LAYOUT
  5
23B
102
{ACAD_REACTORS
330
1A
102
}
100
AcDbPlotSettings
  1

  2
none_device
  4
ISO_A4_(297.00_x_210.00_MM)
  6

 40
0.0
 41
0.0
 42
0.0
 43
0.0
 44
297.0
 45
210.0
 46
0.0
 47
0.0
 48
0.0
 49
0.0
140
0.0
141
0.0
142
1.0
143
1.0
 70
0
 72
0
 73
0
 74
0
  7

 75
0
147
1.0
148
0.0
149
0.0
100
AcDbLayout
  1
Layout1
 70
0
 71
1
 10
0.0
 20
0.0
 11
11.6929133858
 21
8.2677165354
 12
0.0
 22
0.0
 32
0.0
 14
0.0
 24
0.0
 34
0.0
 15
0.0
 25
0.0
 35
0.0
146
0.0
 13
0.0
 23
0.0
 33
0.0
 16
1.0
 26
0.0
 36
0.0
 17
0.0
 27
1.0
 37
0.0
 76
0
330
205
345
0
346
0
  0
ENDSEC
  0
EOF
